  0
SECTION
  2
HEADER
  9
$ACADVER
  1
AC1012
  9
$DWGCODEPAGE
  3
big5
  9
$INSBASE
 10
0.0
 20
0.0
 30
0.0
  9
$EXTMIN
 10
0.1722113850668165
 20
-6.802407981721898
 30
-0.0080073374301151
  9
$EXTMAX
 10
247.0679632798628
 20
172.027405819602
 30
204.6828345853074
  9
$LIMMIN
 10
0.0
 20
0.0
  9
$LIMMAX
 10
297.0
 20
210.0
  9
$ORTHOMODE
 70
     1
  9
$REGENMODE
 70
     1
  9
$FILLMODE
 70
     1
  9
$QTEXTMODE
 70
     0
  9
$MIRRTEXT
 70
     1
  9
$DRAGMODE
 70
     2
  9
$LTSCALE
 40
10.0
  9
$OSMODE
 70
    55
  9
$ATTMODE
 70
     1
  9
$TEXTSIZE
 40
1.8
  9
$TRACEWID
 40
0.05
  9
$TEXTSTYLE
  7
CHINA
  9
$CLAYER
  8
1
  9
$CELTYPE
  6
BYLAYER
  9
$CECOLOR
 62
   256
  9
$CELTSCALE
 40
1.0
  9
$DELOBJ
 70
     1
  9
$DISPSILH
 70
     0
  9
$DIMSCALE
 40
1.0
  9
$DIMASZ
 40
2.0
  9
$DIMEXO
 40
1.0
  9
$DIMDLI
 40
0.38
  9
$DIMRND
 40
0.0
  9
$DIMDLE
 40
0.0
  9
$DIMEXE
 40
1.0
  9
$DIMTP
 40
0.1
  9
$DIMTM
 40
0.1
  9
$DIMTXT
 40
3.0
  9
$DIMCEN
 40
1.0
  9
$DIMTSZ
 40
0.0
  9
$DIMTOL
 70
     1
  9
$DIMLIM
 70
     0
  9
$DIMTIH
 70
     0
  9
$DIMTOH
 70
     1
  9
$DIMSE1
 70
     0
  9
$DIMSE2
 70
     0
  9
$DIMTAD
 70
     1
  9
$DIMZIN
 70
     8
  9
$DIMBLK
  1

  9
$DIMASO
 70
     0
  9
$DIMSHO
 70
     1
  9
$DIMPOST
  1
 
  9
$DIMAPOST
  1

  9
$DIMALT
 70
     0
  9
$DIMALTD
 70
     2
  9
$DIMALTF
 40
25.4
  9
$DIMLFAC
 40
1.0
  9
$DIMTOFL
 70
     1
  9
$DIMTVP
 40
1.0
  9
$DIMTIX
 70
     1
  9
$DIMSOXD
 70
     0
  9
$DIMSAH
 70
     0
  9
$DIMBLK1
  1

  9
$DIMBLK2
  1

  9
$DIMSTYLE
  2
STANDARD
  9
$DIMCLRD
 70
     4
  9
$DIMCLRE
 70
     4
  9
$DIMCLRT
 70
     4
  9
$DIMTFAC
 40
1.0
  9
$DIMGAP
 40
0.09
  9
$DIMJUST
 70
     0
  9
$DIMSD1
 70
     0
  9
$DIMSD2
 70
     0
  9
$DIMTOLJ
 70
     1
  9
$DIMTZIN
 70
     8
  9
$DIMALTZ
 70
     8
  9
$DIMALTTZ
 70
     8
  9
$DIMFIT
 70
     5
  9
$DIMUPT
 70
     0
  9
$DIMUNIT
 70
     2
  9
$DIMDEC
 70
     2
  9
$DIMTDEC
 70
     2
  9
$DIMALTU
 70
     2
  9
$DIMALTTD
 70
     2
  9
$DIMTXSTY
  7
CHINA
  9
$DIMAUNIT
 70
     0
  9
$LUNITS
 70
     2
  9
$LUPREC
 70
     2
  9
$SKETCHINC
 40
0.1
  9
$FILLETRAD
 40
0.0
  9
$AUNITS
 70
     0
  9
$AUPREC
 70
     0
  9
$MENU
  1
acad
  9
$ELEVATION
 40
0.0
  9
$PELEVATION
 40
0.0
  9
$THICKNESS
 40
0.0
  9
$LIMCHECK
 70
     0
  9
$BLIPMODE
 70
     0
  9
$CHAMFERA
 40
1.0
  9
$CHAMFERB
 40
1.0
  9
$CHAMFERC
 40
0.0
  9
$CHAMFERD
 40
0.0
  9
$SKPOLY
 70
     0
  9
$TDCREATE
 40
2451407.509098264
  9
$TDUPDATE
 40
2452752.443150775
  9
$TDINDWG
 40
0.0343338194
  9
$TDUSRTIMER
 40
0.0343338194
  9
$USRTIMER
 70
     1
  9
$ANGBASE
 50
0.0
  9
$ANGDIR
 70
     0
  9
$PDMODE
 70
     0
  9
$PDSIZE
 40
0.0
  9
$PLINEWID
 40
0.0
  9
$COORDS
 70
     0
  9
$SPLFRAME
 70
     0
  9
$SPLINETYPE
 70
     6
  9
$SPLINESEGS
 70
     8
  9
$ATTDIA
 70
     1
  9
$ATTREQ
 70
     1
  9
$HANDLING
 70
 22529
  9
$HANDSEED
  5
3A6
  9
$SURFTAB1
 70
     6
  9
$SURFTAB2
 70
     6
  9
$SURFTYPE
 70
     6
  9
$SURFU
 70
     6
  9
$SURFV
 70
     6
  9
$UCSNAME
  2

  9
$UCSORG
 10
0.0
 20
0.0
 30
0.0
  9
$UCSXDIR
 10
1.0
 20
0.0
 30
0.0
  9
$UCSYDIR
 10
0.0
 20
1.0
 30
0.0
  9
$PUCSNAME
  2

  9
$PUCSORG
 10
0.0
 20
0.0
 30
0.0
  9
$PUCSXDIR
 10
1.0
 20
0.0
 30
0.0
  9
$PUCSYDIR
 10
0.0
 20
1.0
 30
0.0
  9
$USERI1
 70
     0
  9
$USERI2
 70
     0
  9
$USERI3
 70
     0
  9
$USERI4
 70
     0
  9
$USERI5
 70
     0
  9
$USERR1
 40
0.0
  9
$USERR2
 40
0.0
  9
$USERR3
 40
0.0
  9
$USERR4
 40
0.0
  9
$USERR5
 40
0.0
  9
$WORLDVIEW
 70
     1
  9
$SHADEDGE
 70
     3
  9
$SHADEDIF
 70
    70
  9
$TILEMODE
 70
     1
  9
$MAXACTVP
 70
    16
  9
$PINSBASE
 10
0.0
 20
0.0
 30
0.0
  9
$PLIMCHECK
 70
     0
  9
$PEXTMIN
 10
1.000000000000000E+20
 20
1.000000000000000E+20
 30
1.000000000000000E+20
  9
$PEXTMAX
 10
-1.000000000000000E+20
 20
-1.000000000000000E+20
 30
-1.000000000000000E+20
  9
$PLIMMIN
 10
0.0
 20
0.0
  9
$PLIMMAX
 10
12.0
 20
9.0
  9
$UNITMODE
 70
     0
  9
$VISRETAIN
 70
     0
  9
$PLINEGEN
 70
     0
  9
$PSLTSCALE
 70
     1
  9
$TREEDEPTH
 70
  3020
  9
$PICKSTYLE
 70
     0
  9
$CMLSTYLE
  2
STANDARD
  9
$CMLJUST
 70
     0
  9
$CMLSCALE
 40
1.0
  9
$SAVEIMAGES
 70
     1
  0
ENDSEC
  0
SECTION
  2
CLASSES
  0
CLASS
  1
DICTIONARYVAR
  2
AcDbDictionaryVar
  3
AutoCAD 2000
 90
    32768
280
     0
281
     0
  0
CLASS
  1
LWPOLYLINE
  2
AcDbPolyline
  3
AutoCAD 2000
 90
    32768
280
     0
281
     1
  0
CLASS
  1
ACDBDICTIONARYWDFLT
  2
AcDbDictionaryWithDefault
  3
AutoCAD 2000
 90
    32768
280
     0
281
     0
  0
CLASS
  1
ACDBPLACEHOLDER
  2
AcDbPlaceHolder
  3
AutoCAD 2000
 90
    32768
280
     0
281
     0
  0
CLASS
  1
LAYOUT
  2
AcDbLayout
  3
AutoCAD 2000
 90
    32768
280
     0
281
     0
  0
CLASS
  1
LONG_TRANSACTION
  2
AcDbLongTransaction
  3
AutoCAD 2000
 90
    32768
280
     0
281
     0
  0
CLASS
  1
LWPOLYLINE
  2
AcDbPolyline
  3
AutoCAD 2000
 90
    32768
280
     0
281
     1
  0
CLASS
  1
HATCH
  2
AcDbHatch
  3
AutoCAD 2000
 90
    32768
280
     0
281
     1
  0
CLASS
  1
XRECORD
  2
AcDbXrecord
  3
AutoCAD 2000
 90
    32768
280
     0
281
     0
  0
CLASS
  1
ACME_DOCUMENT
  2
AcMeDbDoc
  3
AcMeServices
 90
    32768
280
     0
281
     0
  0
CLASS
  1
AMGSETTINGSOBJ
  2
AmgSettingsObj
  3
"AcadM|Product Description: AutoCAD Mechanical 2000|Company: Autodesk"
 90
    32768
280
     0
281
     0
  0
CLASS
  1
ACMESCOPE
  2
AcMeScope
  3
AcMeServices
 90
    32768
280
     0
281
     0
  0
CLASS
  1
ACMECOMMANDHISTORY
  2
AcMeCommandHistory
  3
AcMeServices
 90
    32768
280
     0
281
     0
  0
CLASS
  1
ACIMSYSVARMAN
  2
AcImSysVarManager
  3
AcMeServices
 90
    32768
280
     0
281
     0
  0
CLASS
  1
ACIMREALSYSVAR
  2
AcImRealSysVar
  3
AcMeServices
 90
    32768
280
     0
281
     0
  0
CLASS
  1
ACIMINTSYSVAR
  2
AcImIntSysVar
  3
AcMeServices
 90
    32768
280
     0
281
     0
  0
CLASS
  1
ACMEDRAWINGMAN
  2
AcMeDrawingMan
  3
AcMeServices
 90
    32768
280
     0
281
     0
  0
CLASS
  1
ACMEVIEW
  2
AcMeView
  3
AcMeServices
 90
    32768
280
     0
281
     0
  0
CLASS
  1
ACDBENTITYCACHE
  2
AcMeEntityCache
  3
AcMeServices
 90
    32768
280
     0
281
     0
  0
CLASS
  1
GSMANAGER
  2
AcMeGSManager
  3
AcMeServices
 90
    32768
280
     0
281
     0
  0
CLASS
  1
AMDTINTERNALREACTOR
  2
AmdtInternalReactor
  3
AcMeServices
 90
    32768
280
     0
281
     0
  0
CLASS
  1
ACMESTATEMGR
  2
AcMeStateMgr
  3
AcMeServices
 90
    32768
280
     0
281
     0
  0
CLASS
  1
ACGREFMASTER
  2
AcGrefMaster
  3
AcAttribServices
 90
    32768
280
     0
281
     0
  0
CLASS
  1
ACME_DATABASE
  2
AcMeDbDatabase
  3
AcMeServices
 90
    32768
280
     0
281
     0
  0
CLASS
  1
ACRFINSADJUSTERMGR
  2
AcRfInsAdjusterMgr
  3
AcMeServices
 90
    32768
280
     0
281
     0
  0
CLASS
  1
ACGREFACADMASTER
  2
AcGrefacadMaster
  3
AcGrefServices
 90
    32768
280
     0
281
     0
  0
CLASS
  1
AMIMASTER
  2
AmiMaster
  3
AmiServices
 90
    32768
280
     0
281
     0
  0
CLASS
  1
ACMDATADICTIONARY
  2
AcmDataDictionary
  3
"AcmSymBB|Product Description: AutoCAD Mechanical 2000|Company: Autodesk"
 90
    32768
280
     0
281
     0
  0
CLASS
  1
ACMDATAENTRYBLOCK
  2
AcmDataEntryBlock
  3
"AcmSymBB|Product Description: AutoCAD Mechanical 2000|Company: Autodesk"
 90
    32768
280
     0
281
     0
  0
CLASS
  1
ACIMSTRSYSVAR
  2
AcImStrSysVar
  3
AcMeServices
 90
    32768
280
     0
281
     0
  0
CLASS
  1
ACMSTANDARDANSI
  2
AcmStandardANSI
  3
"Amdt_StdImp|Product Description: AutoCAD Mechanical 2000|Company: Autodesk"
 90
    32768
280
     0
281
     0
  0
CLASS
  1
AMGOBJPROPCFG
  2
AmgObjPropCfg
  3
"AmgLay|Product Description: AutoCAD Mechanical 2000|Company: Autodesk"
 90
    32769
280
     0
281
     0
  0
CLASS
  1
ACMSURFSTANDARDANSI
  2
AcmSurfTextStdANSI
  3
"Amdt_StdImp|Product Description: AutoCAD Mechanical 2000|Company: Autodesk"
 90
    32768
280
     0
281
     0
  0
CLASS
  1
ACMFCFSTANDARDANSI
  2
AcmFCFStdANSI
  3
"Amdt_StdImp|Product Description: AutoCAD Mechanical 2000|Company: Autodesk"
 90
    32768
280
     0
281
     0
  0
CLASS
  1
ACMWELDSTANDARDANSI
  2
AcmWeldingStdANSI
  3
"Amdt_StdImp|Product Description: AutoCAD Mechanical 2000|Company: Autodesk"
 90
    32768
280
     0
281
     0
  0
CLASS
  1
ACMIDSTANDARDANSI
  2
AcmIdStdANSI
  3
"Amdt_StdImp|Product Description: AutoCAD Mechanical 2000|Company: Autodesk"
 90
    32768
280
     0
281
     0
  0
CLASS
  1
ACMDATUMSTANDARDANSI
  2
AcmDatumStdANSI
  3
"Amdt_StdImp|Product Description: AutoCAD Mechanical 2000|Company: Autodesk"
 90
    32768
280
     0
281
     0
  0
CLASS
  1
ACMBOMSTANDARDANSI
  2
AcmBOMStdANSI
  3
"Amdt_StdImp|Product Description: AutoCAD Mechanical 2000|Company: Autodesk"
 90
    32768
280
     0
281
     0
  0
CLASS
  1
ACMDETAILSTANDARDANSI
  2
AmdtDetailSymStdANSI
  3
"Amdt_StdImp|Product Description: AutoCAD Mechanical 2000|Company: Autodesk"
 90
    32768
280
     0
281
     0
  0
CLASS
  1
ACMSECTIONSTANDARDANSI
  2
AmdtSectionSymStdANSI
  3
"Amdt_StdImp|Product Description: AutoCAD Mechanical 2000|Company: Autodesk"
 90
    32768
280
     0
281
     0
  0
CLASS
  1
ACMCENTERLINESTANDARDANSI
  2
AmdtCenterLineStdANSI
  3
"Amdt_StdImp|Product Description: AutoCAD Mechanical 2000|Company: Autodesk"
 90
    32768
280
     0
281
     0
  0
CLASS
  1
ACMNOTESTANDARDANSI
  2
AmdtNoteStdANSI
  3
"Amdt_StdImp|Product Description: AutoCAD Mechanical 2000|Company: Autodesk"
 90
    32768
280
     0
281
     0
  0
CLASS
  1
ACAMGLAYSTD
  2
AcAmgLayStd
  3
"AcAmgLayStd|Product Description: AutoCAD Mechanical 2000|Company: Autodesk"
 90
    32768
280
     0
281
     0
  0
CLASS
  1
ACAMGDIMSTD
  2
AcAmgDimStd
  3
"AcAmgDimStd|Product Description: AutoCAD Mechanical 2000|Company: Autodesk"
 90
    32768
280
     0
281
     0
  0
CLASS
  1
ACAMGHOLECHARTSTDANSI
  2
AcAmgHoleChartStdANSI
  3
ACMSYMBB_MODULE_NAME
 90
    32768
280
     0
281
     0
  0
CLASS
  1
ACAMGTITLESTD
  2
AcAmgTitleStd
  3
"TITLEAPP"
 90
    32768
280
     0
281
     0
  0
CLASS
  1
ACAMGFILTERDAT
  2
AcAmgFilterDat
  3
"AcadM|Product Description: AutoCAD Mechanical 2000|Company: Autodesk"
 90
    32768
280
     0
281
     0
  0
CLASS
  1
LAYER_INDEX
  2
AcDbLayerIndex
  3
AutoCAD 2000
 90
    32768
280
     0
281
     0
  0
CLASS
  1
IDBUFFER
  2
AcDbIdBuffer
  3
AutoCAD 2000
 90
    32768
280
     0
281
     0
  0
CLASS
  1
LONG_TRANSACTION
  2
AcDbLongTransaction
  3
AutoCAD 2000
 90
    32768
280
     0
281
     0
  0
CLASS
  1
LWPOLYLINE
  2
AcDbPolyline
  3
AutoCAD 2000
 90
    32768
280
     0
281
     1
  0
CLASS
  1
HATCH
  2
AcDbHatch
  3
AutoCAD 2000
 90
    32768
280
     0
281
     1
  0
CLASS
  1
XRECORD
  2
AcDbXrecord
  3
AutoCAD 2000
 90
    32768
280
     0
281
     0
  0
ENDSEC
  0
SECTION
  2
TABLES
  0
TABLE
  2
VPORT
  5
8
330
0
100
AcDbSymbolTable
 70
     4
  0
VPORT
  5
3A3
330
8
100
AcDbSymbolTableRecord
100
AcDbViewportTableRecord
  2
*ACTIVE
 70
     0
 10
0.0
 20
0.0
 11
1.0
 21
1.0
 12
123.6200873324648
 22
82.60811557996033
 13
0.0
 23
0.0
 14
0.00001
 24
0.00001
 15
0.0
 25
0.0
 16
0.0
 26
0.0
 36
1.0
 17
0.0
 27
0.0
 37
0.0
 40
180.9128211078957
 41
1.765124555160142
 42
50.0
 43
0.0
 44
0.0
 50
0.0
 51
0.0
 71
     0
 72
 20000
 73
     1
 74
     1
 75
     1
 76
     0
 77
     0
 78
     0
  0
ENDTAB
  0
TABLE
  2
LTYPE
  5
5
330
0
100
AcDbSymbolTable
 70
    16
  0
LTYPE
  5
11
330
5
100
AcDbSymbolTableRecord
100
AcDbLinetypeTableRecord
  2
BYBLOCK
 70
     0
  3

 72
    65
 73
     0
 40
0.0
  0
LTYPE
  5
12
330
5
100
AcDbSymbolTableRecord
100
AcDbLinetypeTableRecord
  2
BYLAYER
 70
     0
  3

 72
    65
 73
     0
 40
0.0
  0
LTYPE
  5
13
330
5
100
AcDbSymbolTableRecord
100
AcDbLinetypeTableRecord
  2
CONTINUOUS
 70
     0
  3
Solid line
 72
    65
 73
     0
 40
0.0
  0
LTYPE
  5
23
330
5
100
AcDbSymbolTableRecord
100
AcDbLinetypeTableRecord
  2
CENTER2
 70
     0
  3
___ _ ___ _ ___ _ ___ _ ___ _ ___ _ ___ _ ___ _
 72
    65
 73
     4
 40
1.125
 49
0.75
 74
     0
 49
-0.125
 74
     0
 49
0.125
 74
     0
 49
-0.125
 74
     0
  0
LTYPE
  5
30C
330
5
100
AcDbSymbolTableRecord
100
AcDbLinetypeTableRecord
  2
AM_ISO02W050
 70
     0
  3
__ __ __ __ __ __ __ __ __ __ __ __ __ __ __
 72
    65
 73
     2
 40
7.5
 49
6.0
 74
     0
 49
-1.5
 74
     0
  0
LTYPE
  5
30D
330
5
100
AcDbSymbolTableRecord
100
AcDbLinetypeTableRecord
  2
AM_ISO08W050
 70
     0
  3
____ . ____ . ____ . ____ . ____ . ____ . ____
 72
    65
 73
     4
 40
18.0
 49
12.0
 74
     0
 49
-1.5
 74
     0
 49
3.0
 74
     0
 49
-1.5
 74
     0
  0
LTYPE
  5
30E
330
5
100
AcDbSymbolTableRecord
100
AcDbLinetypeTableRecord
  2
AM_ISO09W050
 70
     0
  3
_____ . . _____ . . _____ . . ____ .. ____
 72
    65
 73
     6
 40
22.5
 49
12.0
 74
     0
 49
-1.5
 74
     0
 49
3.0
 74
     0
 49
-1.5
 74
     0
 49
3.0
 74
     0
 49
-1.5
 74
     0
  0
LTYPE
  5
30F
330
5
100
AcDbSymbolTableRecord
100
AcDbLinetypeTableRecord
  2
AMCONSTR
 70
     0
  3
_______________________
 72
    65
 73
     2
 40
9999.0
 49
9999.0
 74
     0
 49
0.0
 74
     0
  0
LTYPE
  5
310
330
5
100
AcDbSymbolTableRecord
100
AcDbLinetypeTableRecord
  2
AM_ISO08W050X2
 70
     0
  3
__ . __ . __ . __ . __ . __
 72
    65
 73
     4
 40
9.0
 49
6.0
 74
     0
 49
-0.75
 74
     0
 49
1.5
 74
     0
 49
-0.75
 74
     0
  0
LTYPE
  5
311
330
5
100
AcDbSymbolTableRecord
100
AcDbLinetypeTableRecord
  2
AM_ISO02W050X2
 70
     0
  3
 _ _ _ _ _ _ _ _ _ _ _ _
 72
    65
 73
     2
 40
3.75
 49
3.0
 74
     0
 49
-0.75
 74
     0
  0
LTYPE
  5
314
330
5
100
AcDbSymbolTableRecord
100
AcDbLinetypeTableRecord
  2
AMZIGZAG
 70
     0
  3
/\/-/\/-/\/-/\/-/\/-/\/
 72
    65
 73
     2
 40
11.00009999999999
 49
0.0001
 74
     4
 75
   135
340
313
 46
0.04
 50
0.0
 44
0.0
 45
0.0
 49
-11.0
 74
     0
  0
LTYPE
  5
315
330
5
100
AcDbSymbolTableRecord
100
AcDbLinetypeTableRecord
  2
HIDDEN
 70
     0
  3
Hidden __ __ __ __ __ __ __ __ __ __ __ __ __ _
 72
    65
 73
     2
 40
0.375
 49
0.25
 74
     0
 49
-0.125
 74
     0
  0
LTYPE
  5
316
330
5
100
AcDbSymbolTableRecord
100
AcDbLinetypeTableRecord
  2
CENTER
 70
     0
  3
Center ____ _ ____ _ ____ _ ____ _ ____ _ ____
 72
    65
 73
     4
 40
2.0
 49
1.25
 74
     0
 49
-0.25
 74
     0
 49
0.25
 74
     0
 49
-0.25
 74
     0
  0
LTYPE
  5
317
330
5
100
AcDbSymbolTableRecord
100
AcDbLinetypeTableRecord
  2
PHANTOM2
 70
     0
  3
Phantom (.5x) ___ _ _ ___ _ _ ___ _ _ ___ _ _
 72
    65
 73
     6
 40
1.25
 49
0.625
 74
     0
 49
-0.125
 74
     0
 49
0.125
 74
     0
 49
-0.125
 74
     0
 49
0.125
 74
     0
 49
-0.125
 74
     0
  0
LTYPE
  5
318
330
5
100
AcDbSymbolTableRecord
100
AcDbLinetypeTableRecord
  2
HIDDEN2
 70
     0
  3
Hidden (.5x) _ _ _ _ _ _ _ _ _ _ _ _ _ _ _ _ _
 72
    65
 73
     2
 40
0.1875
 49
0.125
 74
     0
 49
-0.0625
 74
     0
  0
LTYPE
  5
319
330
5
100
AcDbSymbolTableRecord
100
AcDbLinetypeTableRecord
  2
AMZIGZAG2
 70
     0
  3
/\/-/\/-/\/-/\/-/\/-/\/
 72
    65
 73
     2
 40
0.4401
 49
0.0001
 74
     4
 75
   135
340
313
 46
0.0016
 50
0.0
 44
0.0
 45
0.0
 49
-0.4400000000000001
 74
     0
  0
LTYPE
  5
326
330
5
100
AcDbSymbolTableRecord
100
AcDbLinetypeTableRecord
  2
ACANSTGB
 70
     0
  3
__ . . __ . .
 72
    65
 73
     6
 40
0.35433070866
 49
0.15748031496
 74
     0
 49
-0.03937007874
 74
     0
 49
0.03937007874
 74
     0
 49
-0.03937007874
 74
     0
 49
0.03937007874
 74
     0
 49
-0.03937007874
 74
     0
  0
LTYPE
  5
327
330
5
100
AcDbSymbolTableRecord
100
AcDbLinetypeTableRecord
  2
ACANSTGL
 70
     0
  3
_ _ _ _ _
 72
    65
 73
     2
 40
0.11811023622
 49
0.07874015748
 74
     0
 49
-0.03937007874
 74
     0
  0
ENDTAB
  0
TABLE
  2
LAYER
  5
2
330
0
100
AcDbSymbolTable
 70
     5
  0
LAYER
  5
E
330
2
100
AcDbSymbolTableRecord
100
AcDbLayerTableRecord
  2
0
 70
     0
 62
     2
  6
CONTINUOUS
  0
LAYER
  5
26
330
2
100
AcDbSymbolTableRecord
100
AcDbLayerTableRecord
  2
1
 70
     0
 62
     7
  6
CONTINUOUS
  0
LAYER
  5
27
330
2
100
AcDbSymbolTableRecord
100
AcDbLayerTableRecord
  2
3
 70
     0
 62
     1
  6
CENTER2
  0
LAYER
  5
29
330
2
100
AcDbSymbolTableRecord
100
AcDbLayerTableRecord
  2
5
 70
     0
 62
     5
  6
CONTINUOUS
  0
LAYER
  5
167
330
2
100
AcDbSymbolTableRecord
100
AcDbLayerTableRecord
  2
LOGO
 70
     0
 62
     7
  6
CONTINUOUS
  0
ENDTAB
  0
TABLE
  2
STYLE
  5
3
330
0
100
AcDbSymbolTable
 70
     7
  0
STYLE
  5
F
330
3
100
AcDbSymbolTableRecord
100
AcDbTextStyleTableRecord
  2
STANDARD
 70
     0
 40
0.0
 41
1.0
 50
0.0
 71
     0
 42
0.2
  3
txt
  4

  0
STYLE
  5
1C
330
3
100
AcDbSymbolTableRecord
100
AcDbTextStyleTableRecord
  2
CHINA
 70
     0
 40
0.0
 41
1.0
 50
0.0
 71
     0
 42
1.8
  3
/rubon/c2
  4
CHINA.SHX
  0
STYLE
  5
168
330
3
100
AcDbSymbolTableRecord
100
AcDbTextStyleTableRecord
  2
CHINESET
 70
     0
 40
0.0
 41
1.0
 50
0.0
 71
     0
 42
5.0
  3
simplex.shx
  4
chineset.shx
  0
STYLE
  5
169
330
3
100
AcDbSymbolTableRecord
100
AcDbTextStyleTableRecord
  2
LOGO
 70
     0
 40
0.0
 41
1.0
 50
0.0
 71
     0
 42
5.0
  3

  4

1001
ACAD
1000
文鼎中粗隸
1071
    34865
  0
STYLE
  5
313
330
3
100
AcDbSymbolTableRecord
100
AcDbTextStyleTableRecord
  2

 70
     1
 40
0.0
 41
1.0
 50
0.0
 71
     0
 42
1.8
  3
ltypeshp.shx
  4

  0
STYLE
  5
31A
330
3
100
AcDbSymbolTableRecord
100
AcDbTextStyleTableRecord
  2
ACANSTS
 70
     0
 40
1.0
 41
1.0
 50
0.0
 71
     0
 42
1.8
  3
romans.shx
  4
chineset.shx
  0
STYLE
  5
325
330
3
100
AcDbSymbolTableRecord
100
AcDbTextStyleTableRecord
  2
ACANSGDT
 70
     0
 40
0.0
 41
1.0
 50
0.0
 71
     0
 42
1.8
  3
amgdtans.shx
  4

  0
ENDTAB
  0
TABLE
  2
VIEW
  5
6
330
0
100
AcDbSymbolTable
 70
     0
  0
ENDTAB
  0
TABLE
  2
UCS
  5
7
330
0
100
AcDbSymbolTable
 70
     0
  0
ENDTAB
  0
TABLE
  2
APPID
  5
9
330
0
100
AcDbSymbolTable
 70
     4
  0
APPID
  5
10
330
9
100
AcDbSymbolTableRecord
100
AcDbRegAppTableRecord
  2
ACAD
 70
     0
  0
APPID
  5
2EE
330
9
100
AcDbSymbolTableRecord
100
AcDbRegAppTableRecord
  2
MCAD_NO_VIS
 70
     0
  0
APPID
  5
2EF
330
9
100
AcDbSymbolTableRecord
100
AcDbRegAppTableRecord
  2
ACAD_TEMP_GRAPHIC
 70
     0
  0
APPID
  5
300
330
9
100
AcDbSymbolTableRecord
100
AcDbRegAppTableRecord
  2
ACATTRIBSERVICES
 70
     0
  0
ENDTAB
  0
TABLE
  2
DIMSTYLE
  5
A
330
0
100
AcDbSymbolTable
 70
     7
  0
DIMSTYLE
105
150
330
A
100
AcDbSymbolTableRecord
100
AcDbDimStyleTableRecord
  2
STANDARD
 70
     0
  3

  4

  5

  6

  7

 40
1.0
 41
0.18
 42
0.0625
 43
0.38
 44
0.18
 45
0.0
 46
0.0
 47
0.0
 48
0.0
140
0.18
141
0.09
142
0.0
143
25.4
144
1.0
145
0.0
146
1.0
147
0.09
 71
     0
 72
     0
 73
     1
 74
     1
 75
     0
 76
     0
 77
     0
 78
     0
170
     0
171
     2
172
     0
173
     0
174
     0
175
     0
176
     0
177
     0
178
     0
270
     2
271
     4
272
     4
273
     2
274
     2
340
F
275
     0
280
     0
281
     0
282
     0
283
     1
284
     0
285
     0
286
     0
287
     3
288
     0
  0
DIMSTYLE
105
32B
330
A
100
AcDbSymbolTableRecord
100
AcDbDimStyleTableRecord
  2
AM_ANSI
 70
     0
  3

  4
mm
  5

  6

  7

 40
1.0
 41
0.1
 42
0.05
 43
0.5
 44
0.1
 45
0.0
 46
0.0
 47
0.1
 48
0.1
140
0.12
141
0.0
142
0.0
143
25.4
144
1.0
145
0.0
146
0.71
147
0.06
 71
     0
 72
     0
 73
     1
 74
     1
 75
     0
 76
     0
 77
     0
 78
     7
170
     0
171
     2
172
     0
173
     0
174
     0
175
     0
176
   256
177
   256
178
     2
270
     2
271
     4
272
     4
273
     2
274
     4
340
F
275
     0
280
     0
281
     0
282
     0
283
     1
284
     7
285
     0
286
     0
287
     3
288
     0
  0
DIMSTYLE
105
32C
330
A
100
AcDbSymbolTableRecord
100
AcDbDimStyleTableRecord
  2
AM_ANSI$3
 70
     0
  3

  4
mm
  5

  6

  7

 40
1.0
 41
0.1
 42
0.05
 43
0.5
 44
0.1
 45
0.0
 46
0.0
 47
0.1
 48
0.1
140
0.12
141
0.0
142
0.0
143
25.4
144
1.0
145
0.0
146
0.71
147
0.06
 71
     0
 72
     0
 73
     1
 74
     1
 75
     0
 76
     0
 77
     0
 78
     7
170
     0
171
     2
172
     0
173
     0
174
     0
175
     0
176
   256
177
   256
178
     2
270
     2
271
     4
272
     4
273
     2
274
     4
340
F
275
     0
280
     0
281
     0
282
     0
283
     1
284
     7
285
     0
286
     0
287
     0
288
     1
  0
DIMSTYLE
105
32D
330
A
100
AcDbSymbolTableRecord
100
AcDbDimStyleTableRecord
  2
AM_ANSI$4
 70
     0
  3

  4
mm
  5

  6

  7

 40
1.0
 41
0.1
 42
0.05
 43
0.5
 44
0.1
 45
0.0
 46
0.0
 47
0.1
 48
0.1
140
0.12
141
0.0
142
0.0
143
25.4
144
1.0
145
0.0
146
0.71
147
0.06
 71
     0
 72
     0
 73
     1
 74
     1
 75
     0
 76
     0
 77
     0
 78
     7
170
     0
171
     2
172
     0
173
     0
174
     0
175
     0
176
   256
177
   256
178
     2
270
     2
271
     4
272
     4
273
     2
274
     4
340
F
275
     0
280
     0
281
     0
282
     0
283
     1
284
     7
285
     0
286
     0
287
     0
288
     1
  0
DIMSTYLE
105
32E
330
A
100
AcDbSymbolTableRecord
100
AcDbDimStyleTableRecord
  2
AM_ANSI$7
 70
     0
  3

  4
mm
  5

  6

  7

 40
1.0
 41
0.1
 42
0.05
 43
0.5
 44
0.1
 45
0.0
 46
0.0
 47
0.1
 48
0.1
140
0.24
141
0.0
142
0.0
143
25.4
144
1.0
145
0.0
146
0.71
147
0.06
 71
     0
 72
     0
 73
     1
 74
     1
 75
     0
 76
     0
 77
     0
 78
     7
170
     0
171
     2
172
     0
173
     0
174
     0
175
     0
176
   256
177
   256
178
     2
270
     2
271
     4
272
     4
273
     2
274
     4
340
F
275
     0
280
     0
281
     0
282
     0
283
     1
284
     7
285
     0
286
     0
287
     3
288
     0
  0
DIMSTYLE
105
32F
330
A
100
AcDbSymbolTableRecord
100
AcDbDimStyleTableRecord
  2
AM_ANSI$SF
 70
     0
  3

  4
mm
  5

  6

  7

 40
1.0
 41
0.1
 42
0.05
 43
0.5
 44
0.1
 45
0.0
 46
0.0
 47
0.1
 48
0.1
140
0.12
141
0.0
142
0.0
143
25.4
144
1.0
145
0.0
146
0.71
147
0.06
 71
     0
 72
     0
 73
     1
 74
     1
 75
     1
 76
     1
 77
     0
 78
     7
170
     0
171
     2
172
     0
173
     0
174
     0
175
     0
176
   256
177
   256
178
     2
270
     2
271
     4
272
     4
273
     2
274
     4
340
F
275
     0
280
     0
281
     0
282
     0
283
     1
284
     7
285
     0
286
     0
287
     3
288
     0
  0
DIMSTYLE
105
334
330
A
100
AcDbSymbolTableRecord
100
AcDbDimStyleTableRecord
  2
AM_ANSI$SH
 70
     0
  3

  4
mm
  5

  6
GENAXEH
  7

 40
1.0
 41
0.1
 42
0.05
 43
0.5
 44
0.1
 45
0.0
 46
0.0
 47
0.1
 48
0.1
140
0.12
141
0.0
142
0.0
143
25.4
144
1.0
145
0.0
146
0.71
147
0.06
 71
     0
 72
     0
 73
     1
 74
     1
 75
     1
 76
     1
 77
     0
 78
     7
170
     0
171
     2
172
     0
173
     1
174
     0
175
     0
176
   256
177
   256
178
     2
270
     2
271
     4
272
     4
273
     2
274
     4
340
F
275
     0
280
     0
281
     0
282
     0
283
     1
284
     7
285
     0
286
     0
287
     3
288
     0
  0
ENDTAB
  0
TABLE
  2
BLOCK_RECORD
  5
1
330
0
100
AcDbSymbolTable
 70
     1
  0
BLOCK_RECORD
  5
17
102
{ACAD_XDICTIONARY
360
2C1
102
}
330
1
100
AcDbSymbolTableRecord
100
AcDbBlockTableRecord
  2
*MODEL_SPACE
  0
BLOCK_RECORD
  5
14
102
{ACAD_XDICTIONARY
360
2BF
102
}
330
1
100
AcDbSymbolTableRecord
100
AcDbBlockTableRecord
  2
*PAPER_SPACE
  0
BLOCK_RECORD
  5
330
330
1
100
AcDbSymbolTableRecord
100
AcDbBlockTableRecord
  2
GENAXEH
  0
ENDTAB
  0
ENDSEC
  0
SECTION
  2
BLOCKS
  0
BLOCK
  5
2E
330
17
100
AcDbEntity
  8
0
100
AcDbBlockBegin
  2
*MODEL_SPACE
 70
     0
 10
0.0
 20
0.0
 30
0.0
  3
*MODEL_SPACE
  1

  0
ENDBLK
  5
2F
330
17
100
AcDbEntity
  8
0
100
AcDbBlockEnd
  0
BLOCK
  5
2C
330
14
100
AcDbEntity
 67
     1
  8
0
100
AcDbBlockBegin
  2
*PAPER_SPACE
 70
     0
 10
0.0
 20
0.0
 30
0.0
  3
*PAPER_SPACE
  1

  0
ENDBLK
  5
2D
330
14
100
AcDbEntity
 67
     1
  8
0
100
AcDbBlockEnd
  0
BLOCK
  5
332
330
330
100
AcDbEntity
  8
0
100
AcDbBlockBegin
  2
GENAXEH
 70
     0
 10
0.0
 20
0.0
 30
0.0
  3
GENAXEH
  1

  0
LINE
  5
331
330
330
100
AcDbEntity
  8
0
100
AcDbLine
 10
-1.0
 20
0.0
 30
0.0
 11
1.0
 21
0.0
 31
0.0
  0
ENDBLK
  5
333
330
330
100
AcDbEntity
  8
0
100
AcDbBlockEnd
  0
ENDSEC
  0
SECTION
  2
ENTITIES
  0
POLYLINE
  5
B3
330
17
100
AcDbEntity
  8
5
100
AcDb2dPolyline
 66
     1
 10
0.0
 20
0.0
 30
0.0
  0
VERTEX
  5
2C3
330
B3
100
AcDbEntity
  8
5
100
AcDbVertex
100
AcDb2dVertex
 10
138.8954164571203
 20
165.9151476186677
 30
0.0
  0
VERTEX
  5
2C4
330
B3
100
AcDbEntity
  8
5
100
AcDbVertex
100
AcDb2dVertex
 10
138.8954164571203
 20
165.9151476186677
 30
0.0
 42
0.0249251791076351
  0
SEQEND
  5
2C5
330
B3
100
AcDbEntity
  8
5
  0
LINE
  5
CE
330
17
100
AcDbEntity
  8
1
100
AcDbLine
 10
104.74473
 20
151.82277
 30
0.0
 11
140.74473
 21
151.82277
 31
0.0
  0
LINE
  5
CF
330
17
100
AcDbEntity
  8
1
100
AcDbLine
 10
104.74473
 20
118.32277
 30
0.0
 11
140.74473
 21
118.32277
 31
0.0
  0
LINE
  5
D0
330
17
100
AcDbEntity
  8
1
100
AcDbLine
 10
102.74473
 20
146.07277
 30
0.0
 11
102.74473
 21
124.07277
 31
0.0
  0
LINE
  5
D1
330
17
100
AcDbEntity
  8
1
100
AcDbLine
 10
104.74473
 20
151.82277
 30
0.0
 11
104.74473
 21
118.32277
 31
0.0
  0
LINE
  5
D2
330
17
100
AcDbEntity
  8
1
100
AcDbLine
 10
102.74473
 20
146.07277
 30
0.0
 11
104.74473
 21
146.07277
 31
0.0
  0
LINE
  5
D3
330
17
100
AcDbEntity
  8
1
100
AcDbLine
 10
102.74473
 20
124.07277
 30
0.0
 11
104.74473
 21
124.07277
 31
0.0
  0
LINE
  5
D4
330
17
100
AcDbEntity
  8
1
100
AcDbLine
 10
140.74473
 20
152.82277
 30
0.0
 11
140.74473
 21
117.32277
 31
0.0
  0
LINE
  5
D5
330
17
100
AcDbEntity
  8
1
100
AcDbLine
 10
150.74473
 20
152.82277
 30
0.0
 11
150.74473
 21
148.07277
 31
0.0
  0
LINE
  5
D6
330
17
100
AcDbEntity
  8
1
100
AcDbLine
 10
150.74473
 20
148.07277
 30
0.0
 11
179.7447299999999
 21
148.07277
 31
0.0
  0
LINE
  5
D7
330
17
100
AcDbEntity
  8
1
100
AcDbLine
 10
150.74473
 20
122.07277
 30
0.0
 11
179.7447299999999
 21
122.07277
 31
0.0
  0
LINE
  5
D8
330
17
100
AcDbEntity
  8
1
100
AcDbLine
 10
201.74473
 20
140.07277
 30
0.0
 11
201.74473
 21
130.07277
 31
0.0
  0
LINE
  5
D9
330
17
100
AcDbEntity
  8
1
100
AcDbLine
 10
140.74473
 20
152.82277
 30
0.0
 11
150.74473
 21
152.82277
 31
0.0
  0
LINE
  5
DA
330
17
100
AcDbEntity
  8
1
100
AcDbLine
 10
140.74473
 20
117.32277
 30
0.0
 11
150.74473
 21
117.32277
 31
0.0
  0
LINE
  5
DB
330
17
100
AcDbEntity
  8
1
100
AcDbLine
 10
140.74473
 20
73.18878000000002
 30
0.0
 11
201.74473
 21
73.18878000000002
 31
0.0
  0
LINE
  5
DC
330
17
100
AcDbEntity
  8
1
100
AcDbLine
 10
140.74473
 20
33.18878000000002
 30
0.0
 11
201.74473
 21
33.18878000000002
 31
0.0
  0
ARC
  5
DD
330
17
100
AcDbEntity
  8
0
100
AcDbCircle
 10
113.74473
 20
135.07277
 30
0.0
 40
2.5
100
AcDbArc
 50
184.8386753497086
 51
98.66630487401117
  0
ARC
  5
DE
330
17
100
AcDbEntity
  8
0
100
AcDbCircle
 10
134.24473
 20
135.07277
 30
0.0
 40
2.5
100
AcDbArc
 50
184.2772401783626
 51
97.98119878396377
  0
CIRCLE
  5
DF
330
17
100
AcDbEntity
  8
1
100
AcDbCircle
 10
134.24473
 20
135.07277
 30
0.0
 40
2.1
  0
CIRCLE
  5
E0
330
17
100
AcDbEntity
  8
1
100
AcDbCircle
 10
113.74473
 20
135.07277
 30
0.0
 40
2.1
  0
LINE
  5
E1
330
17
100
AcDbEntity
  8
3
100
AcDbLine
 10
134.24473
 20
138.04734
 30
0.0
 11
134.24473
 21
132.10856
 31
0.0
  0
LINE
  5
E2
330
17
100
AcDbEntity
  8
3
100
AcDbLine
 10
113.74473
 20
138.33286
 30
0.0
 11
113.74473
 21
132.05146
 31
0.0
  0
LINE
  5
E3
330
17
100
AcDbEntity
  8
1
100
AcDbLine
 10
179.7447299999999
 20
148.07277
 30
0.0
 11
179.7447299999999
 21
122.07277
 31
0.0
  0
LINE
  5
E4
330
17
100
AcDbEntity
  8
1
100
AcDbLine
 10
179.7447299999999
 20
140.07277
 30
0.0
 11
201.74473
 21
140.07277
 31
0.0
  0
LINE
  5
E5
330
17
100
AcDbEntity
  8
1
100
AcDbLine
 10
179.7447299999999
 20
130.07277
 30
0.0
 11
201.74473
 21
130.07277
 31
0.0
  0
ARC
  5
E6
330
17
100
AcDbEntity
  8
0
100
AcDbCircle
 10
185.74473
 20
135.07277
 30
0.0
 40
2.0
100
AcDbArc
 50
186.4588774947634
 51
98.13919589850941
  0
ARC
  5
E7
330
17
100
AcDbEntity
  8
0
100
AcDbCircle
 10
197.74473
 20
135.07277
 30
0.0
 40
2.0
100
AcDbArc
 50
185.3681339965456
 51
98.62999808963188
  0
CIRCLE
  5
E8
330
17
100
AcDbEntity
  8
1
100
AcDbCircle
 10
185.74473
 20
135.07277
 30
0.0
 40
1.649999999999999
  0
CIRCLE
  5
E9
330
17
100
AcDbEntity
  8
1
100
AcDbCircle
 10
197.74473
 20
135.07277
 30
0.0
 40
1.649999999999999
  0
LINE
  5
EA
330
17
100
AcDbEntity
  8
3
100
AcDbLine
 10
197.74473
 20
137.39786
 30
0.0
 11
197.74473
 21
132.78694
 31
0.0
  0
LINE
  5
EB
330
17
100
AcDbEntity
  8
3
100
AcDbLine
 10
185.74473
 20
137.39786
 30
0.0
 11
185.74473
 21
132.6025
 31
0.0
  0
LINE
  5
EC
330
17
100
AcDbEntity
  8
1
100
AcDbLine
 10
179.7447299999999
 20
73.18878000000002
 30
0.0
 11
179.7447299999999
 21
33.18878000000002
 31
0.0
  0
LINE
  5
ED
330
17
100
AcDbEntity
  8
1
100
AcDbLine
 10
150.74473
 20
73.18878000000002
 30
0.0
 11
150.74473
 21
33.18878000000002
 31
0.0
  0
LINE
  5
EE
330
17
100
AcDbEntity
  8
1
100
AcDbLine
 10
140.74473
 20
73.18878000000002
 30
0.0
 11
140.74473
 21
33.18878000000002
 31
0.0
  0
LINE
  5
EF
330
17
100
AcDbEntity
  8
1
100
AcDbLine
 10
179.7447299999999
 20
65.18878
 30
0.0
 11
201.74473
 21
65.18878000000002
 31
0.0
  0
LINE
  5
F0
330
17
100
AcDbEntity
  8
1
100
AcDbLine
 10
179.7447299999999
 20
41.18878000000001
 30
0.0
 11
201.74473
 21
41.18878000000001
 31
0.0
  0
LINE
  5
F1
330
17
100
AcDbEntity
  8
1
100
AcDbLine
 10
201.74473
 20
73.18878000000002
 30
0.0
 11
201.74473
 21
65.18878000000002
 31
0.0
  0
LINE
  5
F2
330
17
100
AcDbEntity
  8
1
100
AcDbLine
 10
201.7447299999999
 20
41.18878000000001
 30
0.0
 11
201.7447299999999
 21
33.18878000000002
 31
0.0
  0
LINE
  5
F3
330
17
100
AcDbEntity
  8
3
100
AcDbLine
 10
185.74473
 20
71.51387000000001
 30
0.0
 11
185.74473
 21
66.71851000000002
 31
0.0
  0
ARC
  5
F4
330
17
100
AcDbEntity
  8
0
100
AcDbCircle
 10
185.74473
 20
69.18878000000002
 30
0.0
 40
2.0
100
AcDbArc
 50
186.4588774947634
 51
98.13919589850941
  0
CIRCLE
  5
F5
330
17
100
AcDbEntity
  8
1
100
AcDbCircle
 10
185.74473
 20
69.18878000000002
 30
0.0
 40
1.649999999999999
  0
LINE
  5
F6
330
17
100
AcDbEntity
  8
3
100
AcDbLine
 10
197.74473
 20
71.51387000000001
 30
0.0
 11
197.74473
 21
66.90295000000002
 31
0.0
  0
ARC
  5
F7
330
17
100
AcDbEntity
  8
0
100
AcDbCircle
 10
197.74473
 20
69.18878000000002
 30
0.0
 40
2.0
100
AcDbArc
 50
185.3681339965456
 51
98.62999808963188
  0
CIRCLE
  5
F8
330
17
100
AcDbEntity
  8
1
100
AcDbCircle
 10
197.74473
 20
69.18878000000002
 30
0.0
 40
1.649999999999999
  0
LINE
  5
F9
330
17
100
AcDbEntity
  8
3
100
AcDbLine
 10
185.7447299999999
 20
39.51387000000002
 30
0.0
 11
185.7447299999999
 21
34.71851
 31
0.0
  0
ARC
  5
FA
330
17
100
AcDbEntity
  8
0
100
AcDbCircle
 10
185.7447299999999
 20
37.18878000000001
 30
0.0
 40
2.0
100
AcDbArc
 50
186.4588774947634
 51
98.13919589850941
  0
CIRCLE
  5
FB
330
17
100
AcDbEntity
  8
1
100
AcDbCircle
 10
185.7447299999999
 20
37.18878000000001
 30
0.0
 40
1.649999999999999
  0
LINE
  5
FC
330
17
100
AcDbEntity
  8
3
100
AcDbLine
 10
197.7447299999999
 20
39.51387000000002
 30
0.0
 11
197.7447299999999
 21
34.90295
 31
0.0
  0
ARC
  5
FD
330
17
100
AcDbEntity
  8
0
100
AcDbCircle
 10
197.7447299999999
 20
37.18878000000001
 30
0.0
 40
2.0
100
AcDbArc
 50
185.3681339965456
 51
98.62999808963188
  0
CIRCLE
  5
FE
330
17
100
AcDbEntity
  8
1
100
AcDbCircle
 10
197.7447299999999
 20
37.18878000000001
 30
0.0
 40
1.649999999999999
  0
LINE
  5
FF
330
17
100
AcDbEntity
  8
1
100
AcDbLine
 10
104.74473
 20
69.68878000000002
 30
0.0
 11
104.74473
 21
36.68878000000003
 31
0.0
  0
LINE
  5
100
330
17
100
AcDbEntity
  8
1
100
AcDbLine
 10
102.74473
 20
64.18878000000002
 30
0.0
 11
102.74473
 21
42.18878000000001
 31
0.0
  0
LINE
  5
101
330
17
100
AcDbEntity
  8
1
100
AcDbLine
 10
102.74473
 20
42.18878000000001
 30
0.0
 11
104.74473
 21
42.18878000000001
 31
0.0
  0
LINE
  5
102
330
17
100
AcDbEntity
  8
1
100
AcDbLine
 10
102.74473
 20
64.18878000000002
 30
0.0
 11
104.74473
 21
64.18878000000002
 31
0.0
  0
LINE
  5
103
330
17
100
AcDbEntity
  8
1
100
AcDbLine
 10
53.31114000000003
 20
69.68878000000005
 30
0.0
 11
53.31114000000003
 21
53.18878000000002
 31
0.0
  0
LINE
  5
104
330
17
100
AcDbEntity
  8
1
100
AcDbLine
 10
19.81113999999999
 20
69.68878000000005
 30
0.0
 11
19.81113999999999
 21
53.18878000000002
 31
0.0
  0
LINE
  5
105
330
17
100
AcDbEntity
  8
1
100
AcDbLine
 10
19.56113999999999
 20
73.18878000000002
 30
0.0
 11
19.56113999999999
 21
33.18878000000002
 31
0.0
  0
LINE
  5
106
330
17
100
AcDbEntity
  8
1
100
AcDbLine
 10
53.56114000000005
 20
73.18878000000002
 30
0.0
 11
53.56114000000005
 21
33.18878000000002
 31
0.0
  0
LINE
  5
107
330
17
100
AcDbEntity
  8
1
100
AcDbLine
 10
38.81114000000001
 20
36.68878000000003
 30
0.0
 11
19.81113999999999
 21
36.68878000000003
 31
0.0
  0
LINE
  5
108
330
17
100
AcDbEntity
  8
1
100
AcDbLine
 10
19.81113999999999
 20
36.68878000000001
 30
0.0
 11
19.81113999999999
 21
53.18878000000005
 31
0.0
  0
LINE
  5
109
330
17
100
AcDbEntity
  8
3
100
AcDbLine
 10
20.68313999999999
 20
60.68878000000002
 30
0.0
 11
26.2052
 21
60.68878000000002
 31
0.0
  0
CIRCLE
  5
10A
330
17
100
AcDbEntity
  8
1
100
AcDbCircle
 10
23.56113999999998
 20
60.68878000000002
 30
0.0
 40
2.1
  0
ARC
  5
10B
330
17
100
AcDbEntity
  8
0
100
AcDbCircle
 10
23.56113999999998
 20
60.68878000000002
 30
0.0
 40
2.5
100
AcDbArc
 50
85.89072508659098
 51
351.8247258279809
  0
LINE
  5
10C
330
17
100
AcDbEntity
  8
3
100
AcDbLine
 10
23.56113999999998
 20
63.37307000000006
 30
0.0
 11
23.56113999999998
 21
57.82351999999999
 31
0.0
  0
LINE
  5
10D
330
17
100
AcDbEntity
  8
1
100
AcDbLine
 10
53.31114000000003
 20
36.68878000000001
 30
0.0
 11
53.31114000000003
 21
53.18878000000005
 31
0.0
  0
LINE
  5
10E
330
17
100
AcDbEntity
  8
1
100
AcDbLine
 10
53.31114000000003
 20
36.68878000000003
 30
0.0
 11
45.81114000000001
 21
36.68878000000003
 31
0.0
  0
LINE
  5
10F
330
17
100
AcDbEntity
  8
3
100
AcDbLine
 10
52.43914000000003
 20
45.68878
 30
0.0
 11
46.91708000000002
 21
45.68878
 31
0.0
  0
CIRCLE
  5
110
330
17
100
AcDbEntity
  8
1
100
AcDbCircle
 10
49.56114000000005
 20
45.68878
 30
0.0
 40
2.1
  0
ARC
  5
111
330
17
100
AcDbEntity
  8
0
100
AcDbCircle
 10
49.56114000000005
 20
45.68878
 30
0.0
 40
2.5
100
AcDbArc
 50
265.8907250865909
 51
171.8247258279809
  0
LINE
  5
112
330
17
100
AcDbEntity
  8
1
100
AcDbLine
 10
38.81114000000001
 20
40.68878
 30
0.0
 11
47.51114000000003
 21
40.68877999999997
 31
0.0
  0
LINE
  5
113
330
17
100
AcDbEntity
  8
1
100
AcDbLine
 10
38.81114000000001
 20
36.68878000000001
 30
0.0
 11
38.81114000000001
 21
40.68878
 31
0.0
  0
LINE
  5
114
330
17
100
AcDbEntity
  8
1
100
AcDbLine
 10
45.81114000000001
 20
36.68878000000001
 30
0.0
 11
45.81113999999998
 21
38.98878000000005
 31
0.0
  0
LINE
  5
115
330
17
100
AcDbEntity
  8
1
100
AcDbLine
 10
47.51114000000003
 20
38.98878000000001
 30
0.0
 11
47.51114000000003
 21
40.68878
 31
0.0
  0
LINE
  5
116
330
17
100
AcDbEntity
  8
1
100
AcDbLine
 10
45.81113999999998
 20
38.98878000000001
 30
0.0
 11
47.51114000000003
 21
38.98878000000001
 31
0.0
  0
LINE
  5
117
330
17
100
AcDbEntity
  8
3
100
AcDbLine
 10
49.56114000000005
 20
43.00448999999995
 30
0.0
 11
49.56114000000005
 21
48.55403999999994
 31
0.0
  0
LINE
  5
118
330
17
100
AcDbEntity
  8
1
100
AcDbLine
 10
53.31114000000003
 20
69.68878000000002
 30
0.0
 11
34.31114
 21
69.68878000000002
 31
0.0
  0
LINE
  5
119
330
17
100
AcDbEntity
  8
1
100
AcDbLine
 10
27.31114000000001
 20
69.68878000000002
 30
0.0
 11
19.81113999999999
 21
69.68878000000005
 31
0.0
  0
LINE
  5
11A
330
17
100
AcDbEntity
  8
1
100
AcDbLine
 10
34.31114
 20
65.68878000000005
 30
0.0
 11
25.61113999999999
 21
65.68878000000008
 31
0.0
  0
LINE
  5
11B
330
17
100
AcDbEntity
  8
1
100
AcDbLine
 10
27.31114000000001
 20
69.68878000000005
 30
0.0
 11
27.31114000000003
 21
67.38878000000001
 31
0.0
  0
LINE
  5
11C
330
17
100
AcDbEntity
  8
1
100
AcDbLine
 10
27.31114000000003
 20
67.38878000000004
 30
0.0
 11
25.61113999999999
 21
67.38878000000004
 31
0.0
  0
LINE
  5
11D
330
17
100
AcDbEntity
  8
1
100
AcDbLine
 10
25.61113999999999
 20
67.38878000000004
 30
0.0
 11
25.61113999999999
 21
65.68878000000005
 31
0.0
  0
LINE
  5
11E
330
17
100
AcDbEntity
  8
1
100
AcDbLine
 10
34.31114
 20
69.68878000000005
 30
0.0
 11
34.31114
 21
65.68878000000005
 31
0.0
  0
LINE
  5
11F
330
17
100
AcDbEntity
  8
3
100
AcDbLine
 10
100.81127
 20
53.18878000000002
 30
0.0
 11
181.0289599999999
 21
53.18878000000002
 31
0.0
  0
LINE
  5
120
330
17
100
AcDbEntity
  8
1
100
AcDbLine
 10
140.74473
 20
69.68878000000002
 30
0.0
 11
104.74473
 21
69.68878000000002
 31
0.0
  0
LINE
  5
121
330
17
100
AcDbEntity
  8
1
100
AcDbLine
 10
140.74473
 20
36.68878000000003
 30
0.0
 11
104.74473
 21
36.68878000000003
 31
0.0
  0
LINE
  5
122
330
17
100
AcDbEntity
  8
1
100
AcDbLine
 10
151.74473
 20
148.07277
 30
0.0
 11
151.74473
 21
122.07277
 31
0.0
  0
LINE
  5
123
330
17
100
AcDbEntity
  8
1
100
AcDbLine
 10
150.74473
 20
122.07277
 30
0.0
 11
150.74473
 21
117.32277
 31
0.0
  0
ARC
  5
124
330
17
100
AcDbEntity
  8
0
100
AcDbCircle
 10
145.74473
 20
65.18878000000002
 30
0.0
 40
2.5
100
AcDbArc
 50
190.3013446454659
 51
102.1385883468613
  0
ARC
  5
125
330
17
100
AcDbEntity
  8
0
100
AcDbCircle
 10
145.74473
 20
41.18878000000001
 30
0.0
 40
2.5
100
AcDbArc
 50
194.8680125618055
 51
101.9214447461143
  0
CIRCLE
  5
126
330
17
100
AcDbEntity
  8
1
100
AcDbCircle
 10
145.74473
 20
65.18878000000002
 30
0.0
 40
2.1
  0
CIRCLE
  5
127
330
17
100
AcDbEntity
  8
1
100
AcDbCircle
 10
145.74473
 20
41.18878000000001
 30
0.0
 40
2.1
  0
LINE
  5
128
330
17
100
AcDbEntity
  8
3
100
AcDbLine
 10
145.74473
 20
68.21463000000001
 30
0.0
 11
145.74473
 21
61.91223
 31
0.0
  0
LINE
  5
129
330
17
100
AcDbEntity
  8
3
100
AcDbLine
 10
145.74473
 20
43.95038000000001
 30
0.0
 11
145.74473
 21
37.9631
 31
0.0
  0
LINE
  5
12A
330
17
100
AcDbEntity
  8
3
100
AcDbLine
 10
142.53392
 20
65.18878000000002
 30
0.0
 11
148.8405799999999
 21
65.18878000000002
 31
0.0
  0
LINE
  5
12B
330
17
100
AcDbEntity
  8
3
100
AcDbLine
 10
142.74414
 20
41.18878000000001
 30
0.0
 11
148.8405799999999
 21
41.18878000000001
 31
0.0
  0
CIRCLE
  5
12C
330
17
100
AcDbEntity
  8
1
100
AcDbCircle
 10
36.56114
 20
53.18878000000002
 30
0.0
 40
11.0
  0
LINE
  5
12D
330
17
100
AcDbEntity
  8
1
100
AcDbLine
 10
19.56113999999999
 20
33.18878000000002
 30
0.0
 11
53.56114000000005
 21
33.18878000000002
 31
0.0
  0
LINE
  5
12E
330
17
100
AcDbEntity
  8
1
100
AcDbLine
 10
19.56113999999999
 20
73.18878000000002
 30
0.0
 11
53.56114000000005
 21
73.18878000000002
 31
0.0
  0
SOLID
  5
12F
330
17
100
AcDbEntity
  8
5
100
AcDbTrace
 10
132.657022952944
 20
138.7352126026534
 30
0.0
 11
132.0109370843568
 21
138.5708426088702
 31
0.0
 12
132.8270899999999
 22
136.7147699999999
 32
0.0
 13
132.8270899999999
 23
136.7147699999999
 33
0.0
  0
LINE
  5
130
330
17
100
AcDbEntity
  8
5
100
AcDbLine
 10
132.3339800186504
 20
138.6530276057617
 30
0.0
 11
125.87901
 21
164.0254499999999
 31
0.0
  0
LINE
  5
131
330
17
100
AcDbEntity
  8
5
100
AcDbLine
 10
125.87901
 20
164.0254499999999
 30
0.0
 11
168.4534299999999
 21
164.02545
 31
0.0
  0
TEXT
  5
132
330
17
100
AcDbEntity
  8
5
100
AcDbText
 10
128.05343
 20
165.52545
 30
0.0
 40
3.0
  1
M5X0.8 SHUT PORT
 50
0.0000000000007812
  7
CHINA
 11
128.05343
 21
167.02545
 31
0.0
100
AcDbText
 73
     2
  0
SOLID
  5
135
330
17
100
AcDbEntity
  8
5
100
AcDbTrace
 10
112.3001736747777
 20
138.9383583449402
 30
0.0
 11
111.6744794183226
 21
138.7082471937903
 31
0.0
 12
112.6776599999999
 22
136.9462199999999
 32
0.0
 13
112.6776599999999
 23
136.9462199999999
 33
0.0
  0
LINE
  5
136
330
17
100
AcDbEntity
  8
5
100
AcDbLine
 10
111.9873265465502
 20
138.8233027693652
 30
0.0
 11
102.7187499999999
 21
164.0254499999999
 31
0.0
  0
LINE
  5
137
330
17
100
AcDbEntity
  8
5
100
AcDbLine
 10
102.7187499999999
 20
164.02545
 30
0.0
 11
58.91964333333337
 21
164.02545
 31
0.0
  0
TEXT
  5
138
330
17
100
AcDbEntity
  8
5
100
AcDbText
 10
58.51964333333335
 20
165.52545
 30
0.0
 40
3.0
  1
M5X0.8 OPEN PORT
  7
CHINA
 72
     2
 11
99.38631
 21
167.02545
 31
0.0
100
AcDbText
 73
     2
  0
SOLID
  5
139
330
17
100
AcDbEntity
  8
5
100
AcDbTrace
 10
187.9667217376181
 20
138.4285424406062
 30
0.0
 11
187.3646116629557
 21
138.7147380073685
 31
0.0
 12
186.8070799999999
 22
136.76531
 32
0.0
 13
186.8070799999999
 23
136.76531
 33
0.0
  0
LINE
  5
13A
330
17
100
AcDbEntity
  8
5
100
AcDbLine
 10
187.6656667002869
 20
138.5716402239874
 30
0.0
 11
193.30189
 21
150.42936
 31
0.0
  0
LINE
  5
13B
330
17
100
AcDbEntity
  8
5
100
AcDbLine
 10
193.30189
 20
150.42936
 30
0.0
 11
212.22257
 21
150.42936
 31
0.0
  0
TEXT
  5
13C
330
17
100
AcDbEntity
  8
5
100
AcDbText
 10
194.32738
 20
151.22643
 30
0.0
 40
3.0
  1
8-M4X0.7
  7
CHINA
100
AcDbText
  0
SOLID
  5
13D
330
17
100
AcDbEntity
  8
5
100
AcDbTrace
 10
148.838688385339
 20
68.91712154431079
 30
0.0
 11
148.2261295933821
 21
69.18021120743098
 31
0.0
 12
147.74314
 22
67.21099000000005
 32
0.0
 13
147.74314
 23
67.21099000000005
 33
0.0
  0
LINE
  5
13E
330
17
100
AcDbEntity
  8
5
100
AcDbLine
 10
148.5324089893606
 20
69.04866637587089
 30
0.0
 11
154.28612
 21
82.29120000000005
 31
0.0
  0
LINE
  5
13F
330
17
100
AcDbEntity
  8
5
100
AcDbLine
 10
154.28612
 20
82.29120000000005
 30
0.0
 11
203.89605
 21
82.29120000000005
 31
0.0
  0
TEXT
  5
140
330
17
100
AcDbEntity
  8
5
100
AcDbText
 10
155.99829
 20
83.46190000000001
 30
0.0
 40
3.0
  1
2X2-M5X0.8 DEPTH 12
  7
CHINA
100
AcDbText
  0
LINE
  5
141
330
17
100
AcDbEntity
  8
5
100
AcDbLine
 10
64.22917515748031
 20
82.95903
 30
0.0
 11
41.39332
 21
82.95903
 31
0.0
  0
TEXT
  5
142
330
17
100
AcDbEntity
  8
5
100
AcDbText
 10
44.45196031496062
 20
84.45902999999999
 30
0.0
 40
3.0
  1
2-M5X0.8
  7
CHINA
 11
44.45196031496062
 21
85.95902999999999
 31
0.0
100
AcDbText
 73
     2
  0
LINE
  5
143
330
17
100
AcDbEntity
  8
3
100
AcDbLine
 10
194.9701899999999
 20
69.18878000000002
 30
0.0
 11
200.58973
 21
69.18878000000002
 31
0.0
  0
LINE
  5
144
330
17
100
AcDbEntity
  8
3
100
AcDbLine
 10
182.95062
 20
69.18878000000002
 30
0.0
 11
188.88236
 21
69.18878000000002
 31
0.0
  0
LINE
  5
145
330
17
100
AcDbEntity
  8
3
100
AcDbLine
 10
195.12629
 20
37.18878000000001
 30
0.0
 11
200.58973
 21
37.18878000000001
 31
0.0
  0
LINE
  5
146
330
17
100
AcDbEntity
  8
3
100
AcDbLine
 10
182.95062
 20
37.18878000000001
 30
0.0
 11
188.5701599999999
 21
37.18878000000001
 31
0.0
  0
LINE
  5
147
330
17
100
AcDbEntity
  8
3
100
AcDbLine
 10
36.56114
 20
65.70322
 30
0.0
 11
36.56114
 21
41.05631999999999
 31
0.0
  0
LINE
  5
148
330
17
100
AcDbEntity
  8
3
100
AcDbLine
 10
48.8786
 20
53.18878000000002
 30
0.0
 11
23.87951
 21
53.18878000000002
 31
0.0
  0
LINE
  5
149
330
17
100
AcDbEntity
  8
3
100
AcDbLine
 10
109.98498
 20
135.07277
 30
0.0
 11
117.79482
 21
135.07277
 31
0.0
  0
LINE
  5
14A
330
17
100
AcDbEntity
  8
3
100
AcDbLine
 10
130.81121
 20
135.07277
 30
0.0
 11
138.1477199999999
 21
135.07277
 31
0.0
  0
LINE
  5
14B
330
17
100
AcDbEntity
  8
3
100
AcDbLine
 10
182.6401099999999
 20
135.07277
 30
0.0
 11
189.2666399999999
 21
135.07277
 31
0.0
  0
LINE
  5
14C
330
17
100
AcDbEntity
  8
3
100
AcDbLine
 10
194.94652
 20
135.07277
 30
0.0
 11
200.86306
 21
135.07277
 31
0.0
  0
SOLID
  5
14D
330
17
100
AcDbEntity
  8
5
100
AcDbTrace
 10
26.64192819870255
 20
64.0978686504267
 30
0.0
 11
26.12289684187752
 21
64.51625949052339
 31
0.0
 12
25.12723999999997
 22
62.74996999999996
 32
0.0
 13
25.12723999999997
 23
62.74996999999996
 33
0.0
  0
LINE
  5
14E
330
17
100
AcDbEntity
  8
5
100
AcDbLine
 10
26.38241252029004
 20
64.30706407047505
 30
0.0
 11
41.39332
 21
82.95903
 31
0.0
  0
POLYLINE
  5
1EE
330
17
100
AcDbEntity
  8
1
 62
     4
100
AcDb2dPolyline
 66
     1
 10
0.0
 20
0.0
 30
0.0
 70
     1
  0
VERTEX
  5
2C8
330
1EE
100
AcDbEntity
  8
1
 62
     4
100
AcDbVertex
100
AcDb2dVertex
 10
0.1911010308976984
 20
172.0134676103751
 30
0.0
  0
VERTEX
  5
2C9
330
1EE
100
AcDbEntity
  8
1
 62
     4
100
AcDbVertex
100
AcDb2dVertex
 10
247.0488623763182
 20
172.0134676103751
 30
0.0
  0
VERTEX
  5
2CA
330
1EE
100
AcDbEntity
  8
1
 62
     4
100
AcDbVertex
100
AcDb2dVertex
 10
247.0488623763182
 20
24.42886515365256
 30
0.0
  0
VERTEX
  5
2CB
330
1EE
100
AcDbEntity
  8
1
 62
     4
100
AcDbVertex
100
AcDb2dVertex
 10
0.1911010308976984
 20
24.42886515365256
 30
0.0
  0
SEQEND
  5
2CC
330
1EE
100
AcDbEntity
  8
1
 62
     4
  0
LINE
  5
1F2
330
17
100
AcDbEntity
  8
LOGO
 62
     1
100
AcDbLine
 10
247.0488623763182
 20
24.42886515365256
 30
0.0
 11
0.1911010308976984
 21
24.42886515365256
 31
0.0
  0
LINE
  5
1F3
330
17
100
AcDbEntity
  8
LOGO
 62
     1
100
AcDbLine
 10
247.0488623763182
 20
-6.800066131394054
 30
0.0
 11
0.1911010308976984
 21
-6.800066131394054
 31
0.0
  0
LINE
  5
1F4
330
17
100
AcDbEntity
  8
LOGO
  6
CONTINUOUS
 62
     6
100
AcDbLine
 10
59.56805037730102
 20
16.12925514308961
 30
0.0
 11
65.25240746771849
 21
16.88009091442132
 31
0.0
  0
LINE
  5
1F5
330
17
100
AcDbEntity
  8
LOGO
  6
CONTINUOUS
 62
     6
100
AcDbLine
 10
59.56805037730102
 20
14.00447617569678
 30
0.0
 11
65.25240746771849
 21
13.25364040436507
 31
0.0
  0
TEXT
  5
1F6
330
17
100
AcDbEntity
  8
LOGO
 62
     6
100
AcDbText
 10
52.76031695104511
 20
7.252952946876924
 30
0.0
 40
3.122893128504662
  1
m/m
  7
CHINESET
 72
     1
 11
58.26255722507713
 21
8.814399511129256
 31
0.0
100
AcDbText
 73
     2
  0
TEXT
  5
1F7
330
17
100
AcDbEntity
  8
LOGO
 62
     6
100
AcDbText
 10
52.76031695104511
 20
19.74452546089557
 30
0.0
 40
3.122893128504662
  1
1 : 1
  7
CHINESET
 72
     1
 11
58.26255722507713
 21
21.3059720251479
 31
0.0
100
AcDbText
 73
     2
  0
LINE
  5
1F8
330
17
100
AcDbEntity
  8
LOGO
 62
     1
100
AcDbLine
 10
68.89474985800013
 20
18.18307889664325
 30
0.0
 11
23.09231730659857
 21
18.18307889664325
 31
0.0
  0
LINE
  5
1F9
330
17
100
AcDbEntity
  8
LOGO
 62
     1
100
AcDbLine
 10
68.89474985800013
 20
11.93729263963392
 30
0.0
 11
23.09231730659857
 21
11.93729263963392
 31
0.0
  0
LINE
  5
1FA
330
17
100
AcDbEntity
  8
LOGO
 62
     1
100
AcDbLine
 10
68.89474985800013
 20
5.691506382624591
 30
0.0
 11
0.1911010308976257
 21
5.691506382624591
 31
0.0
  0
TEXT
  5
1FB
330
17
100
AcDbEntity
  8
LOGO
  6
CONTINUOUS
 62
     5
100
AcDbText
 10
1.213276679116402
 20
-0.6651897090131769
 30
0.0
 40
4.684339692756993
  1
金器工業股份有限公司
 41
0.8
  7
LOGO
100
AcDbText
  0
TEXT
  5
1FC
330
17
100
AcDbEntity
  8
LOGO
  6
CONTINUOUS
 62
     5
100
AcDbText
 10
2.554589034690347
 20
-5.350447165083522
 30
0.0
 40
3.122893128504662
  1
MINDMAN INDUSTRIAL CO.,LTD
 41
0.85
  7
CHINESET
100
AcDbText
  0
SOLID
  5
1FD
330
17
100
AcDbEntity
  8
LOGO
 62
     5
100
AcDbTrace
 10
1.266359605144988
 20
6.226812927344901
 30
0.0
 11
1.731965482404105
 21
6.226812927344901
 31
0.0
 12
3.043147872628979
 22
8.5548423136372
 32
0.0
 13
3.508753749887151
 23
8.5548423136372
 33
0.0
  0
LINE
  5
1FE
330
17
100
AcDbEntity
  8
LOGO
 62
     1
100
AcDbLine
 10
0.1911010308976984
 20
-6.800066131394054
 30
0.0
 11
0.1911010308976984
 21
24.42886515365256
 31
0.0
  0
LINE
  5
1FF
330
17
100
AcDbEntity
  8
LOGO
 62
     1
100
AcDbLine
 10
23.09231730659857
 20
5.691506382624591
 30
0.0
 11
23.09231730659857
 21
24.42886515365256
 31
0.0
  0
SOLID
  5
200
330
17
100
AcDbEntity
  8
LOGO
 62
     5
100
AcDbTrace
 10
11.11360318452274
 20
9.253251129525182
 30
0.0
 11
11.57920906178084
 21
9.253251129525182
 31
0.0
 12
11.11360318452274
 22
6.226812927344901
 32
0.0
 13
11.57920906178084
 23
6.226812927344901
 33
0.0
  0
POLYLINE
  5
201
330
17
100
AcDbEntity
  8
LOGO
 62
     5
100
AcDb2dPolyline
 66
     1
 10
0.0
 20
0.0
 30
0.0
 70
     1
  0
VERTEX
  5
2CD
330
201
100
AcDbEntity
  8
LOGO
 62
     5
100
AcDbVertex
100
AcDb2dVertex
 10
16.39054739443184
 20
7.390827620491015
 30
0.0
 42
1.000000057330635
  0
VERTEX
  5
2CE
330
201
100
AcDbEntity
  8
LOGO
 62
     5
100
AcDbVertex
100
AcDb2dVertex
 10
17.78736502620771
 20
7.390827620491015
 30
0.0
 42
1.000000057330635
  0
SEQEND
  5
2CF
330
201
100
AcDbEntity
  8
LOGO
 62
     5
  0
CIRCLE
  5
202
330
17
100
AcDbEntity
  8
LOGO
 62
     5
100
AcDbCircle
 10
17.08895621031972
 20
7.390827620491016
 30
0.0
 40
0.6984088158877883
  0
POLYLINE
  5
203
330
17
100
AcDbEntity
  8
LOGO
 62
     5
100
AcDb2dPolyline
 66
     1
 10
0.0
 20
0.0
 30
0.0
 70
     1
 40
0.4663520405233628
 41
0.4663520405233628
  0
VERTEX
  5
2D0
330
203
100
AcDbEntity
  8
LOGO
 62
     5
100
AcDbVertex
100
AcDb2dVertex
 10
16.1562521292728
 20
7.390827620490784
 30
0.0
 42
1.0
  0
VERTEX
  5
2D1
330
203
100
AcDbEntity
  8
LOGO
 62
     5
100
AcDbVertex
100
AcDb2dVertex
 10
18.02166029136616
 20
7.390827620490784
 30
0.0
 42
1.0
  0
SEQEND
  5
2D2
330
203
100
AcDbEntity
  8
LOGO
 62
     5
  0
POLYLINE
  5
204
330
17
100
AcDbEntity
  8
LOGO
 62
     5
100
AcDb2dPolyline
 66
     1
 10
0.0
 20
0.0
 30
0.0
 70
     1
 40
0.4663520405233628
 41
0.4663520405233628
  0
VERTEX
  5
2D3
330
204
100
AcDbEntity
  8
LOGO
 62
     5
100
AcDbVertex
100
AcDb2dVertex
 10
9.482536848175294
 20
7.390827620490784
 30
0.0
 42
1.0
  0
VERTEX
  5
2D4
330
204
100
AcDbEntity
  8
LOGO
 62
     5
100
AcDbVertex
100
AcDb2dVertex
 10
11.3479450102689
 20
7.390827620490784
 30
0.0
 42
1.0
  0
SEQEND
  5
2D5
330
204
100
AcDbEntity
  8
LOGO
 62
     5
  0
SOLID
  5
205
330
17
100
AcDbEntity
  8
LOGO
 62
     5
100
AcDbTrace
 10
5.836705535200546
 20
8.5548423136372
 30
0.0
 11
6.302311412460027
 21
8.5548423136372
 31
0.0
 12
5.836705535200546
 22
6.226812927344013
 32
0.0
 13
6.302311412460027
 23
6.226812927344901
 33
0.0
  0
SOLID
  5
206
330
17
100
AcDbEntity
  8
LOGO
 62
     5
100
AcDbTrace
 10
3.043147872628979
 20
8.5548423136372
 30
0.0
 11
3.508753749887151
 21
8.5548423136372
 31
0.0
 12
3.043147872628979
 22
6.226812927344901
 32
0.0
 13
3.508753749887151
 23
6.226812927344901
 33
0.0
  0
SOLID
  5
207
330
17
100
AcDbEntity
  8
LOGO
 62
     5
100
AcDbTrace
 10
3.043147872628979
 20
6.226812927344901
 30
0.0
 11
3.508753749887151
 21
6.226812927344901
 31
0.0
 12
4.819936140113695
 22
8.5548423136372
 32
0.0
 13
5.285542017371651
 23
8.5548423136372
 33
0.0
  0
SOLID
  5
208
330
17
100
AcDbEntity
  8
LOGO
 62
     5
100
AcDbTrace
 10
4.819936140113695
 20
8.5548423136372
 30
0.0
 11
5.285542017371651
 21
8.5548423136372
 31
0.0
 12
4.819936140113695
 22
6.226812927344901
 32
0.0
 13
5.285542017371651
 23
6.226812927344901
 33
0.0
  0
POLYLINE
  5
209
330
17
100
AcDbEntity
  8
LOGO
 62
     5
100
AcDb2dPolyline
 66
     1
 10
0.0
 20
0.0
 30
0.0
 40
0.4663520405233628
 41
0.4663520405233628
  0
VERTEX
  5
2D6
330
209
100
AcDbEntity
  8
LOGO
 62
     5
100
AcDbVertex
100
AcDb2dVertex
 10
8.476273604758848
 20
7.623630559120052
 30
0.0
 42
1.0
  0
VERTEX
  5
2D7
330
209
100
AcDbEntity
  8
LOGO
 62
     5
100
AcDbVertex
100
AcDb2dVertex
 10
7.077217483188706
 20
7.623630559120052
 30
0.0
 42
1.0
  0
SEQEND
  5
2D8
330
209
100
AcDbEntity
  8
LOGO
 62
     5
  0
SOLID
  5
20A
330
17
100
AcDbEntity
  8
LOGO
 62
     5
100
AcDbTrace
 10
6.845533789457058
 20
8.5548423136372
 30
0.0
 11
7.311139666715122
 21
8.5548423136372
 31
0.0
 12
6.845533789457058
 22
6.226812927344901
 32
0.0
 13
7.311139666715122
 23
6.226812927344901
 33
0.0
  0
SOLID
  5
20B
330
17
100
AcDbEntity
  8
LOGO
 62
     5
100
AcDbTrace
 10
8.242351421232193
 20
7.623630559120048
 30
0.0
 11
8.707957298491093
 21
7.623630559120048
 31
0.0
 12
8.242351421232193
 22
6.226812927344901
 32
0.0
 13
8.707957298491093
 23
6.226812927344901
 33
0.0
  0
POLYLINE
  5
20C
330
17
100
AcDbEntity
  8
LOGO
 62
     5
100
AcDb2dPolyline
 66
     1
 10
0.0
 20
0.0
 30
0.0
 40
0.4663520405233628
 41
0.4663520405233628
  0
VERTEX
  5
2D9
330
20C
100
AcDbEntity
  8
LOGO
 62
     5
100
AcDbVertex
100
AcDb2dVertex
 10
13.75317125408085
 20
7.623630559120052
 30
0.0
 42
1.0
  0
VERTEX
  5
2DA
330
20C
100
AcDbEntity
  8
LOGO
 62
     5
100
AcDbVertex
100
AcDb2dVertex
 10
12.35411513251071
 20
7.623630559120052
 30
0.0
 42
1.0
  0
SEQEND
  5
2DB
330
20C
100
AcDbEntity
  8
LOGO
 62
     5
  0
SOLID
  5
20D
330
17
100
AcDbEntity
  8
LOGO
 62
     5
100
AcDbTrace
 10
12.12243143877918
 20
8.5548423136372
 30
0.0
 11
12.58803731603735
 21
8.5548423136372
 31
0.0
 12
12.12243143877918
 22
6.226812927344901
 32
0.0
 13
12.58803731603735
 23
6.226812927344901
 33
0.0
  0
POLYLINE
  5
20E
330
17
100
AcDbEntity
  8
LOGO
 62
     5
100
AcDb2dPolyline
 66
     1
 10
0.0
 20
0.0
 30
0.0
 40
0.4663520405233628
 41
0.4663520405233628
  0
VERTEX
  5
2DC
330
20E
100
AcDbEntity
  8
LOGO
 62
     5
100
AcDbVertex
100
AcDb2dVertex
 10
15.14998888585612
 20
7.623630559120052
 30
0.0
 42
1.0
  0
VERTEX
  5
2DD
330
20E
100
AcDbEntity
  8
LOGO
 62
     5
100
AcDbVertex
100
AcDb2dVertex
 10
13.75093276428597
 20
7.623630559120052
 30
0.0
 42
1.0
  0
SEQEND
  5
2DE
330
20E
100
AcDbEntity
  8
LOGO
 62
     5
  0
SOLID
  5
20F
330
17
100
AcDbEntity
  8
LOGO
 62
     5
100
AcDbTrace
 10
13.51924907055442
 20
7.623630559120048
 30
0.0
 11
13.98485494781252
 21
7.623630559120048
 31
0.0
 12
13.51924907055442
 22
6.226812927344901
 32
0.0
 13
13.98485494781252
 23
6.226812927344901
 33
0.0
  0
SOLID
  5
210
330
17
100
AcDbEntity
  8
LOGO
 62
     5
100
AcDbTrace
 10
14.9160667023297
 20
7.623630559120048
 30
0.0
 11
15.38167257958765
 21
7.623630559120048
 31
0.0
 12
14.9160667023297
 22
6.226812927344013
 32
0.0
 13
15.38167257958765
 23
6.226812927344013
 33
0.0
  0
POLYLINE
  5
211
330
17
100
AcDbEntity
  8
LOGO
 62
     5
100
AcDb2dPolyline
 66
     1
 10
0.0
 20
0.0
 30
0.0
 40
0.4663520405233628
 41
0.4663520405233628
  0
VERTEX
  5
2DF
330
211
100
AcDbEntity
  8
LOGO
 62
     5
100
AcDbVertex
100
AcDb2dVertex
 10
20.42688653517835
 20
7.623630559120052
 30
0.0
 42
1.0
  0
VERTEX
  5
2E0
330
211
100
AcDbEntity
  8
LOGO
 62
     5
100
AcDbVertex
100
AcDb2dVertex
 10
19.02783041360821
 20
7.623630559120052
 30
0.0
 42
1.0
  0
SEQEND
  5
2E1
330
211
100
AcDbEntity
  8
LOGO
 62
     5
  0
LINE
  5
212
330
17
100
AcDbEntity
  8
LOGO
 62
     5
100
AcDbLine
 10
20.65857022890989
 20
6.226812927344901
 30
0.0
 11
20.65857022890989
 21
7.623630559120048
 31
0.0
  0
SOLID
  5
213
330
17
100
AcDbEntity
  8
LOGO
 62
     5
100
AcDbTrace
 10
17.78731846562061
 20
8.5548423136372
 30
0.0
 11
18.25292434287868
 21
8.5548423136372
 31
0.0
 12
17.78731846562061
 22
6.226812927344901
 32
0.0
 13
18.25292434287868
 23
6.226812927344901
 33
0.0
  0
SOLID
  5
214
330
17
100
AcDbEntity
  8
LOGO
 62
     5
100
AcDbTrace
 10
18.79614671987571
 20
6.226812927344901
 30
0.0
 11
19.26175259713461
 21
6.226812927344901
 31
0.0
 12
18.79614671987571
 22
8.5548423136372
 32
0.0
 13
19.26175259713461
 23
8.5548423136372
 33
0.0
  0
SOLID
  5
215
330
17
100
AcDbEntity
  8
LOGO
 62
     5
100
AcDbTrace
 10
20.19296435165171
 20
7.623630559120048
 30
0.0
 11
20.65857022890989
 21
7.623630559119991
 31
0.0
 12
20.19296435165171
 22
6.226812927344901
 32
0.0
 13
20.65857022890989
 23
6.226812927344901
 33
0.0
  0
SOLID
  5
216
330
17
100
AcDbEntity
  8
LOGO
 62
     5
100
AcDbTrace
 10
12.32422502598256
 20
11.90720462989819
 30
0.0
 11
13.6744820700321
 21
16.85814712474751
 31
0.0
 12
18.74958613214964
 22
23.68703332453961
 32
0.0
 13
17.39932908809999
 23
23.68703332453961
 33
0.0
  0
SOLID
  5
217
330
17
100
AcDbEntity
  8
LOGO
 62
     5
100
AcDbTrace
 10
12.32422502598256
 20
10.88287169992989
 30
0.0
 11
13.6744820700321
 21
10.88287169992989
 31
0.0
 12
18.74958613214964
 22
22.66270039457037
 32
0.0
 13
17.39932908809999
 23
17.71175789972111
 33
0.0
  0
SOLID
  5
218
330
17
100
AcDbEntity
  8
LOGO
 62
     2
100
AcDbTrace
 10
11.765497973272
 20
10.88287169992989
 30
0.0
 11
12.32422502598256
 21
10.88287169992989
 31
0.0
 12
18.74958613214964
 22
23.68703332453961
 32
0.0
 13
19.30831318486034
 23
23.68703332453867
 33
0.0
  0
SOLID
  5
219
330
17
100
AcDbEntity
  8
LOGO
 62
     5
100
AcDbTrace
 10
3.431152770344207
 20
10.88287169992989
 30
0.0
 11
4.78140981439375
 21
10.88287169992943
 31
0.0
 12
10.41524092922246
 22
23.68703332453961
 32
0.0
 13
11.765497973272
 23
23.68703332453867
 33
0.0
  0
SOLID
  5
21A
330
17
100
AcDbEntity
  8
LOGO
 62
     5
100
AcDbTrace
 10
5.340136867104815
 20
10.88287169992989
 30
0.0
 11
6.690393911154358
 21
10.88287169992989
 31
0.0
 12
11.765497973272
 22
22.66270039457037
 32
0.0
 13
10.41524092922246
 23
17.71175789972111
 33
0.0
  0
SOLID
  5
21B
330
17
100
AcDbEntity
  8
LOGO
 62
     5
100
AcDbTrace
 10
10.41524092922246
 20
10.88287169992989
 30
0.0
 11
11.765497973272
 21
10.88287169992989
 31
0.0
 12
10.41524092922246
 22
17.71175789972111
 32
0.0
 13
11.765497973272
 23
22.66270039457037
 33
0.0
  0
SOLID
  5
21C
330
17
100
AcDbEntity
  8
LOGO
 62
     5
100
AcDbTrace
 10
12.32422502598256
 20
23.68703332453867
 30
0.0
 11
13.6744820700321
 21
23.68703332453961
 31
0.0
 12
12.32422502598256
 22
11.90720462989819
 32
0.0
 13
13.6744820700321
 23
16.85814712474751
 33
0.0
  0
SOLID
  5
21D
330
17
100
AcDbEntity
  8
LOGO
 62
     2
100
AcDbTrace
 10
4.78140981439375
 20
10.88287169992943
 30
0.0
 11
5.340136867104815
 21
10.88287169992989
 31
0.0
 12
11.765497973272
 22
23.68703332453867
 32
0.0
 13
12.32422502598256
 23
23.68703332453867
 33
0.0
  0
SOLID
  5
21E
330
17
100
AcDbEntity
  8
LOGO
 62
     2
100
AcDbTrace
 10
11.765497973272
 20
23.68703332453867
 30
0.0
 11
12.32422502598256
 21
23.68703332453867
 31
0.0
 12
11.765497973272
 22
10.88287169992989
 32
0.0
 13
12.32422502598256
 23
10.88287169992989
 33
0.0
  0
SOLID
  5
21F
330
17
100
AcDbEntity
  8
LOGO
 62
     5
100
AcDbTrace
 10
5.836705535200546
 20
8.880766427717906
 30
0.0
 11
6.302311412460027
 21
8.880766427717906
 31
0.0
 12
5.836705535200546
 22
9.253251129525182
 32
0.0
 13
6.302311412460027
 23
9.253251129525182
 33
0.0
  0
SOLID
  5
220
330
17
100
AcDbEntity
  8
LOGO
 62
     5
100
AcDbTrace
 10
18.74958613214964
 20
22.66270039457037
 30
0.0
 11
17.39932908809999
 21
17.71175789972111
 31
0.0
 12
18.74958613214964
 22
10.88287169992943
 32
0.0
 13
17.39932908809999
 23
10.88287169992943
 33
0.0
  0
SOLID
  5
221
330
17
100
AcDbEntity
  8
LOGO
 62
     5
100
AcDbTrace
 10
19.30831318486034
 20
10.88287169992943
 30
0.0
 11
20.65857022890989
 21
10.88287169992943
 31
0.0
 12
19.30831318486034
 22
23.68703332453867
 32
0.0
 13
20.65857022890989
 23
23.68703332453961
 33
0.0
  0
SOLID
  5
222
330
17
100
AcDbEntity
  8
LOGO
 62
     2
100
AcDbTrace
 10
18.74958613214964
 20
23.68703332453961
 30
0.0
 11
19.30831318486034
 21
23.68703332453867
 31
0.0
 12
18.74958613214964
 22
10.88287169992943
 32
0.0
 13
19.30831318486034
 23
10.88287169992943
 33
0.0
  0
LINE
  5
223
330
17
100
AcDbEntity
  8
LOGO
 62
     1
100
AcDbLine
 10
48.07546233463585
 20
5.691506382624591
 30
0.0
 11
48.07546233463585
 21
24.42886515365256
 31
0.0
  0
CIRCLE
  5
224
330
17
100
AcDbEntity
  8
LOGO
  6
CONTINUOUS
 62
     6
100
AcDbCircle
 10
53.85788956736012
 20
15.0668656593932
 30
0.0
 40
1.813225255028138
  0
CIRCLE
  5
225
330
17
100
AcDbEntity
  8
LOGO
  6
CONTINUOUS
 62
     6
100
AcDbCircle
 10
53.85788956736012
 20
15.0668656593932
 30
0.0
 40
1.062389483696425
  0
LINE
  5
226
330
17
100
AcDbEntity
  8
LOGO
 62
     6
100
AcDbLine
 10
59.56805037730113
 20
14.00447617569678
 30
0.0
 11
59.56805037730102
 21
16.12925514308968
 31
0.0
  0
TEXT
  5
227
330
17
100
AcDbEntity
  8
LOGO
  6
CONTINUOUS
 62
     7
100
AcDbText
 10
114.3024605740756
 20
14.01922139197036
 30
0.0
 40
5.204821880841103
  1
MCHH
  7
CHINESET
 72
     1
 11
124.3403313442692
 21
16.6216323323909
 31
0.0
100
AcDbText
 73
     2
  0
LINE
  5
228
330
17
100
AcDbEntity
  8
LOGO
 62
     6
100
AcDbLine
 10
136.8319038582879
 20
21.3059720251479
 30
0.0
 11
111.8487588302506
 21
21.3059720251479
 31
0.0
  0
LINE
  5
229
330
17
100
AcDbEntity
  8
LOGO
 62
     6
100
AcDbLine
 10
136.8319038582879
 20
11.93729263963392
 30
0.0
 11
111.8487588302506
 21
11.93729263963392
 31
0.0
  0
LINE
  5
22A
330
17
100
AcDbEntity
  8
LOGO
 62
     6
100
AcDbLine
 10
134.7499751059514
 20
7.25295294687692
 30
0.0
 11
113.930687582587
 21
7.25295294687692
 31
0.0
  0
LINE
  5
22B
330
17
100
AcDbEntity
  8
LOGO
 62
     6
100
AcDbLine
 10
134.7499751059514
 20
-4.197655190973499
 30
0.0
 11
113.930687582587
 21
-4.197655190973499
 31
0.0
  0
TEXT
  5
22C
330
17
100
AcDbEntity
  8
LOGO
 62
     7
100
AcDbText
 10
70.70396006677348
 20
10.74800176334809
 30
0.0
 40
4.163857504672882
  1
Order example:
 41
0.8
  7
CHINESET
100
AcDbText
  0
TEXT
  5
22D
330
17
100
AcDbEntity
  8
LOGO
 62
     7
100
AcDbText
 10
71.45099053681232
 20
16.60985099223033
 30
0.0
 40
6.245786257009324
  1
訂購代號:
  7
CHINESET
100
AcDbText
  0
LINE
  5
22E
330
17
100
AcDbEntity
  8
LOGO
 62
     1
100
AcDbLine
 10
68.89474985800013
 20
-6.800066131394054
 30
0.0
 11
68.89474985800013
 21
24.42886515365256
 31
0.0
  0
LINE
  5
22F
330
17
100
AcDbEntity
  8
LOGO
 62
     6
100
AcDbLine
 10
65.25240746771849
 20
13.25364040436507
 30
0.0
 11
65.25240746771849
 21
16.88009091442132
 31
0.0
  0
LINE
  5
230
330
17
100
AcDbEntity
  8
LOGO
 62
     6
100
AcDbLine
 10
113.930687582587
 20
7.25295294687692
 30
0.0
 11
113.930687582587
 21
-4.197655190973499
 31
0.0
  0
LINE
  5
231
330
17
100
AcDbEntity
  8
LOGO
 62
     6
100
AcDbLine
 10
111.8487588302506
 20
21.3059720251479
 30
0.0
 11
111.8487588302506
 21
11.93729263963392
 31
0.0
  0
LINE
  5
232
330
17
100
AcDbEntity
  8
LOGO
 62
     6
100
AcDbLine
 10
171.325769281759
 20
21.30597202514797
 30
0.0
 11
144.2030218932562
 21
21.3059720251479
 31
0.0
  0
LINE
  5
233
330
17
100
AcDbEntity
  8
LOGO
 62
     6
100
AcDbLine
 10
171.325769281759
 20
-4.197655190973499
 30
0.0
 11
144.2030218932562
 21
-4.197655190973499
 31
0.0
  0
LINE
  5
234
330
17
100
AcDbEntity
  8
LOGO
 62
     6
100
AcDbLine
 10
171.325769281759
 20
7.25295294687692
 30
0.0
 11
144.2030218932562
 21
7.25295294687692
 31
0.0
  0
LINE
  5
235
330
17
100
AcDbEntity
  8
LOGO
 62
     6
100
AcDbLine
 10
171.325769281759
 20
11.93729263963392
 30
0.0
 11
144.2030218932562
 21
11.93729263963392
 31
0.0
  0
LINE
  5
236
330
17
100
AcDbEntity
  8
LOGO
 62
     6
100
AcDbLine
 10
124.3403313442692
 20
11.93729263963392
 30
0.0
 11
124.3403313442692
 21
7.25295294687692
 31
0.0
  0
LINE
  5
237
330
17
100
AcDbEntity
  8
LOGO
 62
     6
100
AcDbLine
 10
134.7499751059514
 20
7.25295294687692
 30
0.0
 11
134.7499751059514
 21
-4.197655190973499
 31
0.0
  0
LINE
  5
238
330
17
100
AcDbEntity
  8
LOGO
 62
     6
100
AcDbLine
 10
144.2030218932562
 20
7.25295294687692
 30
0.0
 11
144.2030218932562
 21
-4.197655190973499
 31
0.0
  0
LINE
  5
239
330
17
100
AcDbEntity
  8
LOGO
 62
     6
100
AcDbLine
 10
144.2030218932562
 20
21.3059720251479
 30
0.0
 11
144.2030218932562
 21
11.93729263963392
 31
0.0
  0
LINE
  5
23A
330
17
100
AcDbEntity
  8
LOGO
 62
     6
100
AcDbLine
 10
136.8319038582879
 20
21.3059720251479
 30
0.0
 11
136.8319038582879
 21
11.93729263963392
 31
0.0
  0
LINE
  5
23B
330
17
100
AcDbEntity
  8
LOGO
  6
CONTINUOUS
 62
     7
100
AcDbLine
 10
138.4459865192668
 20
16.58844698940609
 30
0.0
 11
142.582853487989
 21
16.58844698940609
 31
0.0
  0
LINE
  5
23C
330
17
100
AcDbEntity
  8
LOGO
 62
     6
100
AcDbLine
 10
157.7643955875077
 20
11.93729263963392
 30
0.0
 11
157.7643955875077
 21
7.25295294687692
 31
0.0
  0
LINE
  5
23E
330
17
100
AcDbEntity
  8
LOGO
 62
     6
100
AcDbLine
 10
171.325769281759
 20
7.25295294687692
 30
0.0
 11
171.325769281759
 21
-4.197655190973499
 31
0.0
  0
TEXT
  5
23F
330
17
100
AcDbEntity
  8
LOGO
  6
CONTINUOUS
 62
     7
100
AcDbText
 10
153.5509683506363
 20
13.96019838387133
 30
0.0
 40
5.204821880841103
  1
20
  7
CHINESET
 72
     1
 11
157.7643955875077
 21
16.56260932429188
 31
0.0
100
AcDbText
 73
     2
  0
LINE
  5
240
330
17
100
AcDbEntity
  8
LOGO
 62
     6
100
AcDbLine
 10
171.325769281759
 20
21.30597202514797
 30
0.0
 11
171.325769281759
 21
11.93729263963392
 31
0.0
  0
TEXT
  5
241
330
17
100
AcDbEntity
  8
LOGO
 62
     6
100
AcDbText
 10
25.66730998889681
 20
19.74606231775014
 30
204.6692709763071
 40
3.122893128504662
  1
比例 Scale:
 41
0.9
  7
CHINESET
 72
     4
 11
35.58388982061719
 21
21.3059720251479
 31
204.6692709763071
100
AcDbText
  0
TEXT
  5
242
330
17
100
AcDbEntity
  8
LOGO
 62
     6
100
AcDbText
 10
26.75892843515536
 20
13.54266769564629
 30
204.6692709763071
 40
3.122893128504662
  1
投影 View:
 41
0.9
  7
CHINESET
 72
     4
 11
35.58388982061719
 21
15.06018576813857
 31
204.6692709763071
100
AcDbText
  0
TEXT
  5
243
330
17
100
AcDbEntity
  8
LOGO
 62
     6
100
AcDbText
 10
27.06424700441541
 20
7.252952946876924
 30
204.6692709763071
 40
3.122893128504662
  1
單位 Unit:
 41
0.9
  7
CHINESET
 72
     4
 11
35.58388982061719
 21
8.814399511129256
 31
204.6692709763071
100
AcDbText
  0
TEXT
  5
244
330
17
100
AcDbEntity
  8
LOGO
 62
     6
100
AcDbText
 10
120.1764738395963
 20
1.634204286535859
 30
204.6692709763071
 40
4.163857504672882
  1
型式
  7
CHINESET
 72
     4
 11
124.3403313442692
 21
3.60957763028815
 31
204.6692709763071
100
AcDbText
  0
TEXT
  5
245
330
17
100
AcDbEntity
  8
LOGO
  6
CONTINUOUS
 62
     6
100
AcDbText
 10
119.3833581244205
 20
-2.896449720763227
 30
204.6692709763071
 40
2.602410940420551
  1
Model
  7
CHINESET
 72
     4
 11
124.3403313442692
 21
-1.595244250552951
 31
204.6692709763071
100
AcDbText
  0
TEXT
  5
246
330
17
100
AcDbEntity
  8
LOGO
 62
     6
100
AcDbText
 10
153.6005380828348
 20
1.527648877951709
 30
204.6692709763071
 40
4.163857504672882
  1
缸徑
  7
CHINESET
 72
     4
 11
157.7643955875077
 21
3.60957763028815
 31
204.6692709763071
100
AcDbText
  0
TEXT
  5
247
330
17
100
AcDbEntity
  8
LOGO
  6
CONTINUOUS
 62
     6
100
AcDbText
 10
153.7368548463807
 20
-2.896449720763227
 30
204.6692709763071
 40
2.602410940420551
  1
Bore
  7
CHINESET
 72
     4
 11
157.7643955875077
 21
-1.595244250552951
 31
204.6692709763071
100
AcDbText
  0
LINE
  5
248
330
17
100
AcDbEntity
  8
LOGO
 62
     6
100
AcDbLine
 10
243.3790951041574
 20
-4.19765519097362
 30
0.0
 11
205.8884709382266
 21
-4.19765519097362
 31
0.0
  0
LINE
  5
249
330
17
100
AcDbEntity
  8
LOGO
 62
     6
100
AcDbLine
 10
243.3790951041574
 20
7.252952946876799
 30
0.0
 11
205.8884709382266
 21
7.252952946876799
 31
0.0
  0
LINE
  5
24A
330
17
100
AcDbEntity
  8
LOGO
 62
     6
100
AcDbLine
 10
204.1858831399034
 20
7.25295294687692
 30
0.0
 11
175.1206832520713
 21
7.25295294687692
 31
0.0
  0
LINE
  5
24B
330
17
100
AcDbEntity
  8
LOGO
 62
     6
100
AcDbLine
 10
198.3236931297729
 20
11.93729263963392
 30
0.0
 11
180.9828732622018
 21
11.93729263963392
 31
0.0
  0
LINE
  5
24C
330
17
100
AcDbEntity
  8
LOGO
 62
     6
100
AcDbLine
 10
204.1858831399034
 20
-4.197655190973499
 30
0.0
 11
175.1206832520713
 21
-4.197655190973499
 31
0.0
  0
LINE
  5
24D
330
17
100
AcDbEntity
  8
LOGO
 62
     6
100
AcDbLine
 10
198.3236931297729
 20
21.3059720251479
 30
0.0
 11
180.9828732622018
 21
21.3059720251479
 31
0.0
  0
LINE
  5
254
330
17
100
AcDbEntity
  8
LOGO
 62
     6
100
AcDbLine
 10
175.1206832520713
 20
7.25295294687692
 30
0.0
 11
175.1206832520713
 21
-4.197655190973499
 31
0.0
  0
LINE
  5
256
330
17
100
AcDbEntity
  8
LOGO
  6
CONTINUOUS
 62
     7
100
AcDbLine
 10
174.2051301812492
 20
16.62163233239097
 30
0.0
 11
178.3419971499714
 21
16.62163233239097
 31
0.0
  0
LINE
  5
258
330
17
100
AcDbEntity
  8
LOGO
 62
     6
100
AcDbLine
 10
180.9828732622018
 20
21.3059720251479
 30
0.0
 11
180.9828732622018
 21
11.93729263963392
 31
0.0
  0
LINE
  5
259
330
17
100
AcDbEntity
  8
LOGO
 62
     6
100
AcDbLine
 10
189.8737499990545
 20
11.93729263963392
 30
0.0
 11
189.8737499990545
 21
7.25295294687692
 31
0.0
  0
LINE
  5
25A
330
17
100
AcDbEntity
  8
LOGO
 62
     6
100
AcDbLine
 10
205.8884709382266
 20
7.252952946876799
 30
0.0
 11
205.8884709382266
 21
-4.19765519097362
 31
0.0
  0
LINE
  5
25B
330
17
100
AcDbEntity
  8
LOGO
 62
     6
100
AcDbLine
 10
204.1858831399034
 20
7.25295294687692
 30
0.0
 11
204.1858831399034
 21
-4.240831576299967
 31
0.0
  0
TEXT
  5
25C
330
17
100
AcDbEntity
  8
LOGO
  6
CONTINUOUS
 62
     7
100
AcDbText
 10
185.8017151382314
 20
13.96019838387133
 30
0.0
 40
5.204821880841103
  1
PS
  7
CHINESET
 72
     1
 11
190.139066705599
 21
16.56260932429188
 31
0.0
100
AcDbText
 73
     2
  0
LINE
  5
25D
330
17
100
AcDbEntity
  8
LOGO
 62
     6
100
AcDbLine
 10
198.3236931297729
 20
21.3059720251479
 30
0.0
 11
198.3236931297729
 21
11.93729263963392
 31
0.0
  0
LINE
  5
25E
330
17
100
AcDbEntity
  8
LOGO
  6
CONTINUOUS
 62
     7
100
AcDbLine
 10
205.11818445262
 20
16.62163233239084
 30
0.0
 11
209.2550514213422
 21
16.62163233239084
 31
0.0
  0
LINE
  5
25F
330
17
100
AcDbEntity
  8
LOGO
 62
     6
100
AcDbLine
 10
224.940419481042
 20
11.93729263963379
 30
0.0
 11
224.940419481042
 21
7.252952946876799
 31
0.0
  0
LINE
  5
260
330
17
100
AcDbEntity
  8
LOGO
 62
     6
100
AcDbLine
 10
233.3903626117603
 20
21.30597202514778
 30
0.0
 11
216.0495427441893
 21
21.30597202514778
 31
0.0
  0
LINE
  5
261
330
17
100
AcDbEntity
  8
LOGO
 62
     6
100
AcDbLine
 10
233.3903626117603
 20
11.93729263963379
 30
0.0
 11
216.0495427441893
 21
11.93729263963379
 31
0.0
  0
TEXT
  5
262
330
17
100
AcDbEntity
  8
LOGO
  6
CONTINUOUS
 62
     7
100
AcDbText
 10
224.5861145351054
 20
13.96019838387122
 30
0.0
 40
5.204821880841103
  1
1
  7
CHINESET
 72
     1
 11
225.2057361875865
 21
16.56260932429177
 31
0.0
100
AcDbText
 73
     2
  0
LINE
  5
263
330
17
100
AcDbEntity
  8
LOGO
 62
     6
100
AcDbLine
 10
216.0495427441893
 20
21.30597202514778
 30
0.0
 11
216.0495427441893
 21
11.93729263963379
 31
0.0
  0
LINE
  5
264
330
17
100
AcDbEntity
  8
LOGO
 62
     6
100
AcDbLine
 10
233.3903626117603
 20
21.30597202514778
 30
0.0
 11
233.3903626117603
 21
11.93729263963379
 31
0.0
  0
LINE
  5
265
330
17
100
AcDbEntity
  8
LOGO
 62
     1
100
AcDbLine
 10
247.0488623763182
 20
-6.800066131394054
 30
0.0
 11
247.0488623763182
 21
24.42886515365256
 31
0.0
  0
LINE
  5
266
330
17
100
AcDbEntity
  8
LOGO
 62
     6
100
AcDbLine
 10
243.3790951041574
 20
7.252952946876799
 30
0.0
 11
243.3790951041574
 21
-4.240831576300081
 31
0.0
  0
TEXT
  5
267
330
17
100
AcDbEntity
  8
LOGO
  6
CONTINUOUS
 62
     6
100
AcDbText
 10
206.3791517645348
 20
-2.896449720763344
 30
204.6692709763071
 40
2.602410940420551
  1
Number of auto swicth
 41
0.8
  7
CHINESET
 72
     4
 11
224.7199526779749
 21
-1.595244250553069
 31
204.6692709763071
100
AcDbText
  0
TEXT
  5
268
330
17
100
AcDbEntity
  8
LOGO
  6
CONTINUOUS
 62
     6
100
AcDbText
 10
176.2198857701975
 20
-2.462714564026469
 30
204.6692709763071
 40
2.602410940420551
  1
Auto swicth type
 41
0.8
  7
CHINESET
 72
     4
 11
189.6532831959874
 21
-1.595244250552951
 31
204.6692709763071
100
AcDbText
  0
TEXT
  5
26A
330
17
100
AcDbEntity
  8
LOGO
 62
     6
100
AcDbText
 10
182.2364120157888
 20
1.573071536098157
 30
204.6692709763071
 40
4.163857504672882
  1
感應開關
 41
0.9
  7
CHINESET
 72
     4
 11
189.6532831959874
 21
3.60957763028815
 31
204.6692709763071
100
AcDbText
  0
TEXT
  5
26B
330
17
100
AcDbEntity
  8
LOGO
 62
     6
100
AcDbText
 10
213.4385012512518
 20
1.632155144062972
 30
204.6692709763071
 40
4.163857504672882
  1
感應開關數量
 41
0.9
  7
CHINESET
 72
     4
 11
224.7199526779749
 21
3.609577630288036
 31
204.6692709763071
100
AcDbText
  0
ENDSEC
  0
SECTION
  2
OBJECTS
  0
DICTIONARY
  5
C
330
0
100
AcDbDictionary
  3
ACAD_GROUP
350
D
  3
ACAD_LAYOUT
350
15F
  3
ACAD_MLINESTYLE
350
1A
  3
ACAD_PLOTSETTINGS
350
160
  3
ACMDICTIONARY
350
303
  3
AMG
350
2E9
  3
AMGSNAPSETTINGS
350
338
  3
DWGPROPS
350
359
1001
ACAD
1000
TREAT_AS_HARD
1070
     0
  0
DICTIONARY
  5
2C1
330
17
100
AcDbDictionary
  3
ACAD_INDEX
350
33F
  3
ACAD_LAYOUTSELFREF
350
3A5
1001
ACAD
1000
TREAT_AS_HARD
1070
     1
  0
DICTIONARY
  5
2BF
330
14
100
AcDbDictionary
  3
ACAD_LAYOUTSELFREF
350
3A4
1001
ACAD
1000
TREAT_AS_HARD
1070
     1
  0
DICTIONARY
  5
D
102
{ACAD_REACTORS
330
C
102
}
330
C
100
AcDbDictionary
1001
ACAD
1000
TREAT_AS_HARD
1070
     0
  0
DICTIONARY
  5
15F
102
{ACAD_REACTORS
330
C
102
}
330
C
100
AcDbDictionary
1001
ACAD
1000
TREAT_AS_HARD
1070
     0
  0
DICTIONARY
  5
1A
102
{ACAD_REACTORS
330
C
102
}
330
C
100
AcDbDictionary
  3
STANDARD
350
1B
1001
ACAD
1000
TREAT_AS_HARD
1070
     0
  0
DICTIONARY
  5
160
102
{ACAD_REACTORS
330
C
102
}
330
C
100
AcDbDictionary
1001
ACAD
1000
TREAT_AS_HARD
1070
     0
  0
DICTIONARY
  5
303
102
{ACAD_REACTORS
330
C
102
}
330
C
100
AcDbDictionary
  3
ACMSTDDICTIONARY
350
309
1001
ACAD
1000
TREAT_AS_HARD
1070
     0
  0
DICTIONARY
  5
2E9
102
{ACAD_REACTORS
330
C
102
}
330
C
100
AcDbDictionary
  3
ACMGSETTINGS
350
2EA
1001
ACAD
1000
TREAT_AS_HARD
1070
     0
  0
DICTIONARY
  5
338
102
{ACAD_REACTORS
330
C
102
}
330
C
100
AcDbDictionary
1001
ACAD
1000
TREAT_AS_HARD
1070
     0
  0
XRECORD
  5
359
102
{ACAD_REACTORS
330
C
102
}
330
C
100
AcDbXrecord
  1
DWGPROPS COOKIE
  2

  3

  4

  6

  7

  8

  9

300
AmdtFileType=84
301
=
302
=
303
=
304
=
305
=
306
=
307
=
308
=
309
=
 40
0.0258565856481482
 41
2451407.509098264
 42
2452752.41860228
  1

 90
        1
  0
DICTIONARY
  5
33F
102
{ACAD_REACTORS
330
2C1
102
}
330
2C1
100
AcDbDictionary
  3
*A1
350
340
1001
ACAD
1000
TREAT_AS_HARD
1070
     0
  0
XRECORD
  5
3A5
102
{ACAD_REACTORS
330
2C1
102
}
330
2C1
100
AcDbXrecord
340
17
  0
XRECORD
  5
3A4
102
{ACAD_REACTORS
330
2BF
102
}
330
2BF
100
AcDbXrecord
340
14
  0
MLINESTYLE
  5
1B
102
{ACAD_REACTORS
330
1A
102
}
330
1A
100
AcDbMlineStyle
  2
STANDARD
 70
     0
  3

 62
   256
 51
90.0
 52
90.0
 71
     2
 49
0.5
 62
   256
  6
BYLAYER
 49
-0.5
 62
   256
  6
BYLAYER
  0
DICTIONARY
  5
309
102
{ACAD_REACTORS
330
303
102
}
330
303
100
AcDbDictionary
1001
ACAD
1000
TREAT_AS_HARD
1070
     0
  0
DICTIONARY
  5
2EA
102
{ACAD_REACTORS
330
2E9
102
}
330
2E9
100
AcDbDictionary
1001
ACAD
1000
TREAT_AS_HARD
1070
     0
  0
LAYER_INDEX
  5
340
102
{ACAD_REACTORS
330
33F
102
}
330
33F
100
AcDbIndex
 40
2452752.442639502
100
AcDbLayerIndex
  8
0
360
341
 90
       12
  8
1
360
342
 90
       69
  8
3
360
343
 90
       27
  8
5
360
344
 90
       21
  8
LOGO
360
345
 90
      112
  0
IDBUFFER
  5
341
330
0
100
AcDbIdBuffer
330
DD
330
DE
330
E6
330
E7
330
F4
330
F7
330
FA
330
FD
330
10B
330
111
330
124
330
125
  0
IDBUFFER
  5
342
330
0
100
AcDbIdBuffer
330
113
330
114
330
115
330
116
330
118
330
119
330
11A
330
11B
330
11C
330
11D
330
11E
330
120
330
121
330
122
330
123
330
126
330
127
330
12C
330
12D
330
12E
330
1EE
330
CE
330
CF
330
D0
330
D1
330
D2
330
D3
330
D4
330
D5
330
D6
330
D7
330
D8
330
D9
330
DA
330
DB
330
DC
330
DF
330
E0
330
E3
330
E4
330
E5
330
E8
330
E9
330
EC
330
ED
330
EE
330
EF
330
F0
330
F1
330
F2
330
F5
330
F8
330
FB
330
FE
330
FF
330
100
330
101
330
102
330
103
330
104
330
105
330
106
330
107
330
108
330
10A
330
10D
330
10E
330
110
330
112
  0
IDBUFFER
  5
343
330
0
100
AcDbIdBuffer
330
12B
330
143
330
144
330
145
330
146
330
147
330
148
330
149
330
14A
330
14B
330
14C
330
E1
330
E2
330
EA
330
EB
330
F3
330
F6
330
F9
330
FC
330
109
330
10C
330
10F
330
117
330
11F
330
128
330
129
330
12A
  0
IDBUFFER
  5
344
330
0
100
AcDbIdBuffer
330
140
330
141
330
142
330
14D
330
14E
330
B3
330
12F
330
130
330
131
330
132
330
135
330
136
330
137
330
138
330
139
330
13A
330
13B
330
13C
330
13D
330
13E
330
13F
  0
IDBUFFER
  5
345
330
0
100
AcDbIdBuffer
330
222
330
223
330
224
330
225
330
226
330
227
330
228
330
229
330
22A
330
22B
330
22C
330
22D
330
22E
330
22F
330
230
330
231
330
232
330
233
330
234
330
235
330
236
330
237
330
238
330
239
330
23A
330
23B
330
23C
330
23E
330
23F
330
240
330
241
330
242
330
243
330
244
330
245
330
246
330
247
330
248
330
249
330
24A
330
24B
330
24C
330
24D
330
254
330
256
330
258
330
259
330
25A
330
25B
330
25C
330
25D
330
25E
330
25F
330
260
330
261
330
262
330
263
330
264
330
265
330
266
330
267
330
268
330
26A
330
26B
330
1F2
330
1F3
330
1F4
330
1F5
330
1F6
330
1F7
330
1F8
330
1F9
330
1FA
330
1FB
330
1FC
330
1FD
330
1FE
330
1FF
330
200
330
201
330
202
330
203
330
204
330
205
330
206
330
207
330
208
330
209
330
20A
330
20B
330
20C
330
20D
330
20E
330
20F
330
210
330
211
330
212
330
213
330
214
330
215
330
216
330
217
330
218
330
219
330
21A
330
21B
330
21C
330
21D
330
21E
330
21F
330
220
330
221
  0
ENDSEC
  0
EOF
