  0
SECTION
  2
HEADER
  9
$ACADVER
  1
AC1012
  9
$DWGCODEPAGE
  3
big5
  9
$INSBASE
 10
0.0
 20
0.0
 30
0.0
  9
$EXTMIN
 10
-1.058114305026833
 20
-31.34461338712572
 30
-0.0109270393674024
  9
$EXTMAX
 10
369.2672217511368
 20
236.9003182667804
 30
307.0210848756011
  9
$LIMMIN
 10
0.0
 20
0.0
  9
$LIMMAX
 10
297.0
 20
210.0
  9
$ORTHOMODE
 70
     0
  9
$REGENMODE
 70
     1
  9
$FILLMODE
 70
     1
  9
$QTEXTMODE
 70
     0
  9
$MIRRTEXT
 70
     1
  9
$DRAGMODE
 70
     2
  9
$LTSCALE
 40
15.0
  9
$OSMODE
 70
    55
  9
$ATTMODE
 70
     1
  9
$TEXTSIZE
 40
1.8
  9
$TRACEWID
 40
0.05
  9
$TEXTSTYLE
  7
CHINA
  9
$CLAYER
  8
5
  9
$CELTYPE
  6
BYLAYER
  9
$CECOLOR
 62
   256
  9
$CELTSCALE
 40
1.0
  9
$DELOBJ
 70
     1
  9
$DISPSILH
 70
     0
  9
$DIMSCALE
 40
1.0
  9
$DIMASZ
 40
2.0
  9
$DIMEXO
 40
1.0
  9
$DIMDLI
 40
0.38
  9
$DIMRND
 40
0.0
  9
$DIMDLE
 40
0.0
  9
$DIMEXE
 40
1.0
  9
$DIMTP
 40
0.0
  9
$DIMTM
 40
0.0
  9
$DIMTXT
 40
3.0
  9
$DIMCEN
 40
1.0
  9
$DIMTSZ
 40
0.0
  9
$DIMTOL
 70
     0
  9
$DIMLIM
 70
     0
  9
$DIMTIH
 70
     0
  9
$DIMTOH
 70
     1
  9
$DIMSE1
 70
     0
  9
$DIMSE2
 70
     0
  9
$DIMTAD
 70
     1
  9
$DIMZIN
 70
     0
  9
$DIMBLK
  1

  9
$DIMASO
 70
     0
  9
$DIMSHO
 70
     1
  9
$DIMPOST
  1
 
  9
$DIMAPOST
  1

  9
$DIMALT
 70
     0
  9
$DIMALTD
 70
     2
  9
$DIMALTF
 40
25.4
  9
$DIMLFAC
 40
1.0
  9
$DIMTOFL
 70
     1
  9
$DIMTVP
 40
1.0
  9
$DIMTIX
 70
     1
  9
$DIMSOXD
 70
     0
  9
$DIMSAH
 70
     0
  9
$DIMBLK1
  1

  9
$DIMBLK2
  1

  9
$DIMSTYLE
  2
STANDARD
  9
$DIMCLRD
 70
     0
  9
$DIMCLRE
 70
     0
  9
$DIMCLRT
 70
     0
  9
$DIMTFAC
 40
1.0
  9
$DIMGAP
 40
0.09
  9
$DIMJUST
 70
     0
  9
$DIMSD1
 70
     0
  9
$DIMSD2
 70
     0
  9
$DIMTOLJ
 70
     1
  9
$DIMTZIN
 70
     0
  9
$DIMALTZ
 70
     0
  9
$DIMALTTZ
 70
     0
  9
$DIMFIT
 70
     5
  9
$DIMUPT
 70
     0
  9
$DIMUNIT
 70
     2
  9
$DIMDEC
 70
     2
  9
$DIMTDEC
 70
     2
  9
$DIMALTU
 70
     2
  9
$DIMALTTD
 70
     2
  9
$DIMTXSTY
  7
CHINA
  9
$DIMAUNIT
 70
     0
  9
$LUNITS
 70
     2
  9
$LUPREC
 70
     2
  9
$SKETCHINC
 40
0.1
  9
$FILLETRAD
 40
0.0
  9
$AUNITS
 70
     0
  9
$AUPREC
 70
     0
  9
$MENU
  1
acad
  9
$ELEVATION
 40
0.0
  9
$PELEVATION
 40
0.0
  9
$THICKNESS
 40
0.0
  9
$LIMCHECK
 70
     0
  9
$BLIPMODE
 70
     0
  9
$CHAMFERA
 40
2.0
  9
$CHAMFERB
 40
2.0
  9
$CHAMFERC
 40
0.0
  9
$CHAMFERD
 40
0.0
  9
$SKPOLY
 70
     0
  9
$TDCREATE
 40
2451407.573541551
  9
$TDUPDATE
 40
2452752.440055578
  9
$TDINDWG
 40
0.0250535995
  9
$TDUSRTIMER
 40
0.0250535995
  9
$USRTIMER
 70
     1
  9
$ANGBASE
 50
0.0
  9
$ANGDIR
 70
     0
  9
$PDMODE
 70
     0
  9
$PDSIZE
 40
0.0
  9
$PLINEWID
 40
0.0
  9
$COORDS
 70
     0
  9
$SPLFRAME
 70
     0
  9
$SPLINETYPE
 70
     6
  9
$SPLINESEGS
 70
     8
  9
$ATTDIA
 70
     1
  9
$ATTREQ
 70
     1
  9
$HANDLING
 70
 22529
  9
$HANDSEED
  5
301
  9
$SURFTAB1
 70
     6
  9
$SURFTAB2
 70
     6
  9
$SURFTYPE
 70
     6
  9
$SURFU
 70
     6
  9
$SURFV
 70
     6
  9
$UCSNAME
  2

  9
$UCSORG
 10
0.0
 20
0.0
 30
0.0
  9
$UCSXDIR
 10
1.0
 20
0.0
 30
0.0
  9
$UCSYDIR
 10
0.0
 20
1.0
 30
0.0
  9
$PUCSNAME
  2

  9
$PUCSORG
 10
0.0
 20
0.0
 30
0.0
  9
$PUCSXDIR
 10
1.0
 20
0.0
 30
0.0
  9
$PUCSYDIR
 10
0.0
 20
1.0
 30
0.0
  9
$USERI1
 70
     0
  9
$USERI2
 70
     0
  9
$USERI3
 70
     0
  9
$USERI4
 70
     0
  9
$USERI5
 70
     0
  9
$USERR1
 40
0.0
  9
$USERR2
 40
0.0
  9
$USERR3
 40
0.0
  9
$USERR4
 40
0.0
  9
$USERR5
 40
0.0
  9
$WORLDVIEW
 70
     1
  9
$SHADEDGE
 70
     3
  9
$SHADEDIF
 70
    70
  9
$TILEMODE
 70
     1
  9
$MAXACTVP
 70
    16
  9
$PINSBASE
 10
0.0
 20
0.0
 30
0.0
  9
$PLIMCHECK
 70
     0
  9
$PEXTMIN
 10
1.000000000000000E+20
 20
1.000000000000000E+20
 30
1.000000000000000E+20
  9
$PEXTMAX
 10
-1.000000000000000E+20
 20
-1.000000000000000E+20
 30
-1.000000000000000E+20
  9
$PLIMMIN
 10
0.0
 20
0.0
  9
$PLIMMAX
 10
12.0
 20
9.0
  9
$UNITMODE
 70
     0
  9
$VISRETAIN
 70
     0
  9
$PLINEGEN
 70
     0
  9
$PSLTSCALE
 70
     1
  9
$TREEDEPTH
 70
  3020
  9
$PICKSTYLE
 70
     0
  9
$CMLSTYLE
  2
STANDARD
  9
$CMLJUST
 70
     0
  9
$CMLSCALE
 40
1.0
  9
$SAVEIMAGES
 70
     1
  0
ENDSEC
  0
SECTION
  2
CLASSES
  0
CLASS
  1
DICTIONARYVAR
  2
AcDbDictionaryVar
  3
AutoCAD 2000
 90
    32768
280
     0
281
     0
  0
CLASS
  1
ACDBDICTIONARYWDFLT
  2
AcDbDictionaryWithDefault
  3
AutoCAD 2000
 90
    32768
280
     0
281
     0
  0
CLASS
  1
ACDBPLACEHOLDER
  2
AcDbPlaceHolder
  3
AutoCAD 2000
 90
    32768
280
     0
281
     0
  0
CLASS
  1
LAYOUT
  2
AcDbLayout
  3
AutoCAD 2000
 90
    32768
280
     0
281
     0
  0
CLASS
  1
LONG_TRANSACTION
  2
AcDbLongTransaction
  3
AutoCAD 2000
 90
    32768
280
     0
281
     0
  0
CLASS
  1
LWPOLYLINE
  2
AcDbPolyline
  3
AutoCAD 2000
 90
    32768
280
     0
281
     1
  0
CLASS
  1
HATCH
  2
AcDbHatch
  3
AutoCAD 2000
 90
    32768
280
     0
281
     1
  0
CLASS
  1
XRECORD
  2
AcDbXrecord
  3
AutoCAD 2000
 90
    32768
280
     0
281
     0
  0
CLASS
  1
ACME_DOCUMENT
  2
AcMeDbDoc
  3
AcMeServices
 90
    32768
280
     0
281
     0
  0
CLASS
  1
AMGSETTINGSOBJ
  2
AmgSettingsObj
  3
"AcadM|Product Description: AutoCAD Mechanical 2000|Company: Autodesk"
 90
    32768
280
     0
281
     0
  0
CLASS
  1
ACMESCOPE
  2
AcMeScope
  3
AcMeServices
 90
    32768
280
     0
281
     0
  0
CLASS
  1
ACMECOMMANDHISTORY
  2
AcMeCommandHistory
  3
AcMeServices
 90
    32768
280
     0
281
     0
  0
CLASS
  1
ACIMSYSVARMAN
  2
AcImSysVarManager
  3
AcMeServices
 90
    32768
280
     0
281
     0
  0
CLASS
  1
ACIMREALSYSVAR
  2
AcImRealSysVar
  3
AcMeServices
 90
    32768
280
     0
281
     0
  0
CLASS
  1
ACIMINTSYSVAR
  2
AcImIntSysVar
  3
AcMeServices
 90
    32768
280
     0
281
     0
  0
CLASS
  1
ACMEDRAWINGMAN
  2
AcMeDrawingMan
  3
AcMeServices
 90
    32768
280
     0
281
     0
  0
CLASS
  1
ACMEVIEW
  2
AcMeView
  3
AcMeServices
 90
    32768
280
     0
281
     0
  0
CLASS
  1
ACDBENTITYCACHE
  2
AcMeEntityCache
  3
AcMeServices
 90
    32768
280
     0
281
     0
  0
CLASS
  1
GSMANAGER
  2
AcMeGSManager
  3
AcMeServices
 90
    32768
280
     0
281
     0
  0
CLASS
  1
AMDTINTERNALREACTOR
  2
AmdtInternalReactor
  3
AcMeServices
 90
    32768
280
     0
281
     0
  0
CLASS
  1
ACMESTATEMGR
  2
AcMeStateMgr
  3
AcMeServices
 90
    32768
280
     0
281
     0
  0
CLASS
  1
ACGREFMASTER
  2
AcGrefMaster
  3
AcAttribServices
 90
    32768
280
     0
281
     0
  0
CLASS
  1
ACME_DATABASE
  2
AcMeDbDatabase
  3
AcMeServices
 90
    32768
280
     0
281
     0
  0
CLASS
  1
ACRFINSADJUSTERMGR
  2
AcRfInsAdjusterMgr
  3
AcMeServices
 90
    32768
280
     0
281
     0
  0
CLASS
  1
ACGREFACADMASTER
  2
AcGrefacadMaster
  3
AcGrefServices
 90
    32768
280
     0
281
     0
  0
CLASS
  1
AMIMASTER
  2
AmiMaster
  3
AmiServices
 90
    32768
280
     0
281
     0
  0
CLASS
  1
ACMDATADICTIONARY
  2
AcmDataDictionary
  3
"AcmSymBB|Product Description: AutoCAD Mechanical 2000|Company: Autodesk"
 90
    32768
280
     0
281
     0
  0
CLASS
  1
ACMDATAENTRYBLOCK
  2
AcmDataEntryBlock
  3
"AcmSymBB|Product Description: AutoCAD Mechanical 2000|Company: Autodesk"
 90
    32768
280
     0
281
     0
  0
CLASS
  1
ACIMSTRSYSVAR
  2
AcImStrSysVar
  3
AcMeServices
 90
    32768
280
     0
281
     0
  0
CLASS
  1
ACMSTANDARDANSI
  2
AcmStandardANSI
  3
"Amdt_StdImp|Product Description: AutoCAD Mechanical 2000|Company: Autodesk"
 90
    32768
280
     0
281
     0
  0
CLASS
  1
AMGOBJPROPCFG
  2
AmgObjPropCfg
  3
"AmgLay|Product Description: AutoCAD Mechanical 2000|Company: Autodesk"
 90
    32769
280
     0
281
     0
  0
CLASS
  1
ACMSURFSTANDARDANSI
  2
AcmSurfTextStdANSI
  3
"Amdt_StdImp|Product Description: AutoCAD Mechanical 2000|Company: Autodesk"
 90
    32768
280
     0
281
     0
  0
CLASS
  1
ACMFCFSTANDARDANSI
  2
AcmFCFStdANSI
  3
"Amdt_StdImp|Product Description: AutoCAD Mechanical 2000|Company: Autodesk"
 90
    32768
280
     0
281
     0
  0
CLASS
  1
ACMWELDSTANDARDANSI
  2
AcmWeldingStdANSI
  3
"Amdt_StdImp|Product Description: AutoCAD Mechanical 2000|Company: Autodesk"
 90
    32768
280
     0
281
     0
  0
CLASS
  1
ACMIDSTANDARDANSI
  2
AcmIdStdANSI
  3
"Amdt_StdImp|Product Description: AutoCAD Mechanical 2000|Company: Autodesk"
 90
    32768
280
     0
281
     0
  0
CLASS
  1
ACMDATUMSTANDARDANSI
  2
AcmDatumStdANSI
  3
"Amdt_StdImp|Product Description: AutoCAD Mechanical 2000|Company: Autodesk"
 90
    32768
280
     0
281
     0
  0
CLASS
  1
ACMBOMSTANDARDANSI
  2
AcmBOMStdANSI
  3
"Amdt_StdImp|Product Description: AutoCAD Mechanical 2000|Company: Autodesk"
 90
    32768
280
     0
281
     0
  0
CLASS
  1
ACMDETAILSTANDARDANSI
  2
AmdtDetailSymStdANSI
  3
"Amdt_StdImp|Product Description: AutoCAD Mechanical 2000|Company: Autodesk"
 90
    32768
280
     0
281
     0
  0
CLASS
  1
ACMSECTIONSTANDARDANSI
  2
AmdtSectionSymStdANSI
  3
"Amdt_StdImp|Product Description: AutoCAD Mechanical 2000|Company: Autodesk"
 90
    32768
280
     0
281
     0
  0
CLASS
  1
ACMCENTERLINESTANDARDANSI
  2
AmdtCenterLineStdANSI
  3
"Amdt_StdImp|Product Description: AutoCAD Mechanical 2000|Company: Autodesk"
 90
    32768
280
     0
281
     0
  0
CLASS
  1
ACMNOTESTANDARDANSI
  2
AmdtNoteStdANSI
  3
"Amdt_StdImp|Product Description: AutoCAD Mechanical 2000|Company: Autodesk"
 90
    32768
280
     0
281
     0
  0
CLASS
  1
ACAMGLAYSTD
  2
AcAmgLayStd
  3
"AcAmgLayStd|Product Description: AutoCAD Mechanical 2000|Company: Autodesk"
 90
    32768
280
     0
281
     0
  0
CLASS
  1
ACAMGDIMSTD
  2
AcAmgDimStd
  3
"AcAmgDimStd|Product Description: AutoCAD Mechanical 2000|Company: Autodesk"
 90
    32768
280
     0
281
     0
  0
CLASS
  1
ACAMGHOLECHARTSTDANSI
  2
AcAmgHoleChartStdANSI
  3
ACMSYMBB_MODULE_NAME
 90
    32768
280
     0
281
     0
  0
CLASS
  1
ACAMGTITLESTD
  2
AcAmgTitleStd
  3
"TITLEAPP"
 90
    32768
280
     0
281
     0
  0
CLASS
  1
ACAMGFILTERDAT
  2
AcAmgFilterDat
  3
"AcadM|Product Description: AutoCAD Mechanical 2000|Company: Autodesk"
 90
    32768
280
     0
281
     0
  0
CLASS
  1
LAYER_INDEX
  2
AcDbLayerIndex
  3
AutoCAD 2000
 90
    32768
280
     0
281
     0
  0
CLASS
  1
IDBUFFER
  2
AcDbIdBuffer
  3
AutoCAD 2000
 90
    32768
280
     0
281
     0
  0
CLASS
  1
LONG_TRANSACTION
  2
AcDbLongTransaction
  3
AutoCAD 2000
 90
    32768
280
     0
281
     0
  0
CLASS
  1
LWPOLYLINE
  2
AcDbPolyline
  3
AutoCAD 2000
 90
    32768
280
     0
281
     1
  0
CLASS
  1
HATCH
  2
AcDbHatch
  3
AutoCAD 2000
 90
    32768
280
     0
281
     1
  0
CLASS
  1
XRECORD
  2
AcDbXrecord
  3
AutoCAD 2000
 90
    32768
280
     0
281
     0
  0
ENDSEC
  0
SECTION
  2
TABLES
  0
TABLE
  2
VPORT
  5
8
330
0
100
AcDbSymbolTable
 70
     4
  0
VPORT
  5
2FE
330
8
100
AcDbSymbolTableRecord
100
AcDbViewportTableRecord
  2
*ACTIVE
 70
     0
 10
0.0
 20
0.0
 11
1.0
 21
1.0
 12
184.118679866857
 22
102.7880847034877
 13
0.0
 23
0.0
 14
1.0
 24
1.0
 15
0.0
 25
0.0
 16
0.0
 26
0.0
 36
1.0
 17
0.0
 27
0.0
 37
0.0
 40
271.1649196477982
 41
1.765124555160142
 42
50.0
 43
0.0
 44
0.0
 50
0.0
 51
0.0
 71
     0
 72
   100
 73
     1
 74
     1
 75
     0
 76
     0
 77
     0
 78
     0
  0
ENDTAB
  0
TABLE
  2
LTYPE
  5
5
330
0
100
AcDbSymbolTable
 70
    16
  0
LTYPE
  5
11
330
5
100
AcDbSymbolTableRecord
100
AcDbLinetypeTableRecord
  2
BYBLOCK
 70
     0
  3

 72
    65
 73
     0
 40
0.0
  0
LTYPE
  5
12
330
5
100
AcDbSymbolTableRecord
100
AcDbLinetypeTableRecord
  2
BYLAYER
 70
     0
  3

 72
    65
 73
     0
 40
0.0
  0
LTYPE
  5
13
330
5
100
AcDbSymbolTableRecord
100
AcDbLinetypeTableRecord
  2
CONTINUOUS
 70
     0
  3
Solid line
 72
    65
 73
     0
 40
0.0
  0
LTYPE
  5
21
330
5
100
AcDbSymbolTableRecord
100
AcDbLinetypeTableRecord
  2
CENTER2
 70
     0
  3
___ _ ___ _ ___ _ ___ _ ___ _ ___ _ ___ _ ___ _
 72
    65
 73
     4
 40
1.125
 49
0.75
 74
     0
 49
-0.125
 74
     0
 49
0.125
 74
     0
 49
-0.125
 74
     0
  0
LTYPE
  5
267
330
5
100
AcDbSymbolTableRecord
100
AcDbLinetypeTableRecord
  2
AM_ISO02W050
 70
     0
  3
__ __ __ __ __ __ __ __ __ __ __ __ __ __ __
 72
    65
 73
     2
 40
7.5
 49
6.0
 74
     0
 49
-1.5
 74
     0
  0
LTYPE
  5
268
330
5
100
AcDbSymbolTableRecord
100
AcDbLinetypeTableRecord
  2
AM_ISO08W050
 70
     0
  3
____ . ____ . ____ . ____ . ____ . ____ . ____
 72
    65
 73
     4
 40
18.0
 49
12.0
 74
     0
 49
-1.5
 74
     0
 49
3.0
 74
     0
 49
-1.5
 74
     0
  0
LTYPE
  5
269
330
5
100
AcDbSymbolTableRecord
100
AcDbLinetypeTableRecord
  2
AM_ISO09W050
 70
     0
  3
_____ . . _____ . . _____ . . ____ .. ____
 72
    65
 73
     6
 40
22.5
 49
12.0
 74
     0
 49
-1.5
 74
     0
 49
3.0
 74
     0
 49
-1.5
 74
     0
 49
3.0
 74
     0
 49
-1.5
 74
     0
  0
LTYPE
  5
26A
330
5
100
AcDbSymbolTableRecord
100
AcDbLinetypeTableRecord
  2
AMCONSTR
 70
     0
  3
_______________________
 72
    65
 73
     2
 40
9999.0
 49
9999.0
 74
     0
 49
0.0
 74
     0
  0
LTYPE
  5
26B
330
5
100
AcDbSymbolTableRecord
100
AcDbLinetypeTableRecord
  2
AM_ISO08W050X2
 70
     0
  3
__ . __ . __ . __ . __ . __
 72
    65
 73
     4
 40
9.0
 49
6.0
 74
     0
 49
-0.75
 74
     0
 49
1.5
 74
     0
 49
-0.75
 74
     0
  0
LTYPE
  5
26C
330
5
100
AcDbSymbolTableRecord
100
AcDbLinetypeTableRecord
  2
AM_ISO02W050X2
 70
     0
  3
 _ _ _ _ _ _ _ _ _ _ _ _
 72
    65
 73
     2
 40
3.75
 49
3.0
 74
     0
 49
-0.75
 74
     0
  0
LTYPE
  5
26F
330
5
100
AcDbSymbolTableRecord
100
AcDbLinetypeTableRecord
  2
AMZIGZAG
 70
     0
  3
/\/-/\/-/\/-/\/-/\/-/\/
 72
    65
 73
     2
 40
11.00009999999999
 49
0.0001
 74
     4
 75
   135
340
26E
 46
0.04
 50
0.0
 44
0.0
 45
0.0
 49
-11.0
 74
     0
  0
LTYPE
  5
270
330
5
100
AcDbSymbolTableRecord
100
AcDbLinetypeTableRecord
  2
HIDDEN
 70
     0
  3
Hidden __ __ __ __ __ __ __ __ __ __ __ __ __ _
 72
    65
 73
     2
 40
0.375
 49
0.25
 74
     0
 49
-0.125
 74
     0
  0
LTYPE
  5
271
330
5
100
AcDbSymbolTableRecord
100
AcDbLinetypeTableRecord
  2
CENTER
 70
     0
  3
Center ____ _ ____ _ ____ _ ____ _ ____ _ ____
 72
    65
 73
     4
 40
2.0
 49
1.25
 74
     0
 49
-0.25
 74
     0
 49
0.25
 74
     0
 49
-0.25
 74
     0
  0
LTYPE
  5
272
330
5
100
AcDbSymbolTableRecord
100
AcDbLinetypeTableRecord
  2
PHANTOM2
 70
     0
  3
Phantom (.5x) ___ _ _ ___ _ _ ___ _ _ ___ _ _
 72
    65
 73
     6
 40
1.25
 49
0.625
 74
     0
 49
-0.125
 74
     0
 49
0.125
 74
     0
 49
-0.125
 74
     0
 49
0.125
 74
     0
 49
-0.125
 74
     0
  0
LTYPE
  5
273
330
5
100
AcDbSymbolTableRecord
100
AcDbLinetypeTableRecord
  2
HIDDEN2
 70
     0
  3
Hidden (.5x) _ _ _ _ _ _ _ _ _ _ _ _ _ _ _ _ _
 72
    65
 73
     2
 40
0.1875
 49
0.125
 74
     0
 49
-0.0625
 74
     0
  0
LTYPE
  5
274
330
5
100
AcDbSymbolTableRecord
100
AcDbLinetypeTableRecord
  2
AMZIGZAG2
 70
     0
  3
/\/-/\/-/\/-/\/-/\/-/\/
 72
    65
 73
     2
 40
0.4401
 49
0.0001
 74
     4
 75
   135
340
26E
 46
0.0016
 50
0.0
 44
0.0
 45
0.0
 49
-0.4400000000000001
 74
     0
  0
LTYPE
  5
281
330
5
100
AcDbSymbolTableRecord
100
AcDbLinetypeTableRecord
  2
ACANSTGB
 70
     0
  3
__ . . __ . .
 72
    65
 73
     6
 40
0.35433070866
 49
0.15748031496
 74
     0
 49
-0.03937007874
 74
     0
 49
0.03937007874
 74
     0
 49
-0.03937007874
 74
     0
 49
0.03937007874
 74
     0
 49
-0.03937007874
 74
     0
  0
LTYPE
  5
282
330
5
100
AcDbSymbolTableRecord
100
AcDbLinetypeTableRecord
  2
ACANSTGL
 70
     0
  3
_ _ _ _ _
 72
    65
 73
     2
 40
0.11811023622
 49
0.07874015748
 74
     0
 49
-0.03937007874
 74
     0
  0
ENDTAB
  0
TABLE
  2
LAYER
  5
2
330
0
100
AcDbSymbolTable
 70
     5
  0
LAYER
  5
E
330
2
100
AcDbSymbolTableRecord
100
AcDbLayerTableRecord
  2
0
 70
     0
 62
     2
  6
CONTINUOUS
  0
LAYER
  5
25
330
2
100
AcDbSymbolTableRecord
100
AcDbLayerTableRecord
  2
1
 70
     0
 62
     7
  6
CONTINUOUS
  0
LAYER
  5
27
330
2
100
AcDbSymbolTableRecord
100
AcDbLayerTableRecord
  2
3
 70
     0
 62
     1
  6
CENTER2
  0
LAYER
  5
29
330
2
100
AcDbSymbolTableRecord
100
AcDbLayerTableRecord
  2
5
 70
     0
 62
     5
  6
CONTINUOUS
  0
LAYER
  5
E3
330
2
100
AcDbSymbolTableRecord
100
AcDbLayerTableRecord
  2
LOGO
 70
     0
 62
     7
  6
CONTINUOUS
  0
ENDTAB
  0
TABLE
  2
STYLE
  5
3
330
0
100
AcDbSymbolTable
 70
     7
  0
STYLE
  5
F
330
3
100
AcDbSymbolTableRecord
100
AcDbTextStyleTableRecord
  2
STANDARD
 70
     0
 40
0.0
 41
1.0
 50
0.0
 71
     0
 42
0.2
  3
txt
  4

  0
STYLE
  5
1C
330
3
100
AcDbSymbolTableRecord
100
AcDbTextStyleTableRecord
  2
CHINA
 70
     0
 40
0.0
 41
1.0
 50
0.0
 71
     0
 42
1.8
  3
C:\RUBON\CHINA\C2.SHX
  4
CHINA.SHX
  0
STYLE
  5
E4
330
3
100
AcDbSymbolTableRecord
100
AcDbTextStyleTableRecord
  2
CHINESET
 70
     0
 40
0.0
 41
1.0
 50
0.0
 71
     0
 42
5.0
  3
simplex.shx
  4
chineset.shx
  0
STYLE
  5
E5
330
3
100
AcDbSymbolTableRecord
100
AcDbTextStyleTableRecord
  2
LOGO
 70
     0
 40
0.0
 41
1.0
 50
0.0
 71
     0
 42
5.0
  3

  4

1001
ACAD
1000
文鼎中粗隸
1071
    34865
  0
STYLE
  5
26E
330
3
100
AcDbSymbolTableRecord
100
AcDbTextStyleTableRecord
  2

 70
     1
 40
0.0
 41
1.0
 50
0.0
 71
     0
 42
1.8
  3
ltypeshp.shx
  4

  0
STYLE
  5
275
330
3
100
AcDbSymbolTableRecord
100
AcDbTextStyleTableRecord
  2
ACANSTS
 70
     0
 40
1.0
 41
1.0
 50
0.0
 71
     0
 42
1.8
  3
romans.shx
  4
chineset.shx
  0
STYLE
  5
280
330
3
100
AcDbSymbolTableRecord
100
AcDbTextStyleTableRecord
  2
ACANSGDT
 70
     0
 40
0.0
 41
1.0
 50
0.0
 71
     0
 42
1.8
  3
amgdtans.shx
  4

  0
ENDTAB
  0
TABLE
  2
VIEW
  5
6
330
0
100
AcDbSymbolTable
 70
     0
  0
ENDTAB
  0
TABLE
  2
UCS
  5
7
330
0
100
AcDbSymbolTable
 70
     0
  0
ENDTAB
  0
TABLE
  2
APPID
  5
9
330
0
100
AcDbSymbolTable
 70
     4
  0
APPID
  5
10
330
9
100
AcDbSymbolTableRecord
100
AcDbRegAppTableRecord
  2
ACAD
 70
     0
  0
APPID
  5
249
330
9
100
AcDbSymbolTableRecord
100
AcDbRegAppTableRecord
  2
MCAD_NO_VIS
 70
     0
  0
APPID
  5
24A
330
9
100
AcDbSymbolTableRecord
100
AcDbRegAppTableRecord
  2
ACAD_TEMP_GRAPHIC
 70
     0
  0
APPID
  5
25B
330
9
100
AcDbSymbolTableRecord
100
AcDbRegAppTableRecord
  2
ACATTRIBSERVICES
 70
     0
  0
ENDTAB
  0
TABLE
  2
DIMSTYLE
  5
A
330
0
100
AcDbSymbolTable
 70
     7
  0
DIMSTYLE
105
CD
330
A
100
AcDbSymbolTableRecord
100
AcDbDimStyleTableRecord
  2
STANDARD
 70
     0
  3

  4

  5

  6

  7

 40
1.0
 41
0.18
 42
0.0625
 43
0.38
 44
0.18
 45
0.0
 46
0.0
 47
0.0
 48
0.0
140
0.18
141
0.09
142
0.0
143
25.4
144
1.0
145
0.0
146
1.0
147
0.09
 71
     0
 72
     0
 73
     1
 74
     1
 75
     0
 76
     0
 77
     0
 78
     0
170
     0
171
     2
172
     0
173
     0
174
     0
175
     0
176
     0
177
     0
178
     0
270
     2
271
     4
272
     4
273
     2
274
     2
340
F
275
     0
280
     0
281
     0
282
     0
283
     1
284
     0
285
     0
286
     0
287
     3
288
     0
  0
DIMSTYLE
105
286
330
A
100
AcDbSymbolTableRecord
100
AcDbDimStyleTableRecord
  2
AM_ANSI
 70
     0
  3

  4
mm
  5

  6

  7

 40
1.0
 41
0.1
 42
0.05
 43
0.5
 44
0.1
 45
0.0
 46
0.0
 47
0.1
 48
0.1
140
0.12
141
0.0
142
0.0
143
25.4
144
1.0
145
0.0
146
0.71
147
0.06
 71
     0
 72
     0
 73
     1
 74
     1
 75
     0
 76
     0
 77
     0
 78
     7
170
     0
171
     2
172
     0
173
     0
174
     0
175
     0
176
   256
177
   256
178
     2
270
     2
271
     4
272
     4
273
     2
274
     4
340
F
275
     0
280
     0
281
     0
282
     0
283
     1
284
     7
285
     0
286
     0
287
     3
288
     0
  0
DIMSTYLE
105
287
330
A
100
AcDbSymbolTableRecord
100
AcDbDimStyleTableRecord
  2
AM_ANSI$3
 70
     0
  3

  4
mm
  5

  6

  7

 40
1.0
 41
0.1
 42
0.05
 43
0.5
 44
0.1
 45
0.0
 46
0.0
 47
0.1
 48
0.1
140
0.12
141
0.0
142
0.0
143
25.4
144
1.0
145
0.0
146
0.71
147
0.06
 71
     0
 72
     0
 73
     1
 74
     1
 75
     0
 76
     0
 77
     0
 78
     7
170
     0
171
     2
172
     0
173
     0
174
     0
175
     0
176
   256
177
   256
178
     2
270
     2
271
     4
272
     4
273
     2
274
     4
340
F
275
     0
280
     0
281
     0
282
     0
283
     1
284
     7
285
     0
286
     0
287
     0
288
     1
  0
DIMSTYLE
105
288
330
A
100
AcDbSymbolTableRecord
100
AcDbDimStyleTableRecord
  2
AM_ANSI$4
 70
     0
  3

  4
mm
  5

  6

  7

 40
1.0
 41
0.1
 42
0.05
 43
0.5
 44
0.1
 45
0.0
 46
0.0
 47
0.1
 48
0.1
140
0.12
141
0.0
142
0.0
143
25.4
144
1.0
145
0.0
146
0.71
147
0.06
 71
     0
 72
     0
 73
     1
 74
     1
 75
     0
 76
     0
 77
     0
 78
     7
170
     0
171
     2
172
     0
173
     0
174
     0
175
     0
176
   256
177
   256
178
     2
270
     2
271
     4
272
     4
273
     2
274
     4
340
F
275
     0
280
     0
281
     0
282
     0
283
     1
284
     7
285
     0
286
     0
287
     0
288
     1
  0
DIMSTYLE
105
289
330
A
100
AcDbSymbolTableRecord
100
AcDbDimStyleTableRecord
  2
AM_ANSI$7
 70
     0
  3

  4
mm
  5

  6

  7

 40
1.0
 41
0.1
 42
0.05
 43
0.5
 44
0.1
 45
0.0
 46
0.0
 47
0.1
 48
0.1
140
0.24
141
0.0
142
0.0
143
25.4
144
1.0
145
0.0
146
0.71
147
0.06
 71
     0
 72
     0
 73
     1
 74
     1
 75
     0
 76
     0
 77
     0
 78
     7
170
     0
171
     2
172
     0
173
     0
174
     0
175
     0
176
   256
177
   256
178
     2
270
     2
271
     4
272
     4
273
     2
274
     4
340
F
275
     0
280
     0
281
     0
282
     0
283
     1
284
     7
285
     0
286
     0
287
     3
288
     0
  0
DIMSTYLE
105
28A
330
A
100
AcDbSymbolTableRecord
100
AcDbDimStyleTableRecord
  2
AM_ANSI$SF
 70
     0
  3

  4
mm
  5

  6

  7

 40
1.0
 41
0.1
 42
0.05
 43
0.5
 44
0.1
 45
0.0
 46
0.0
 47
0.1
 48
0.1
140
0.12
141
0.0
142
0.0
143
25.4
144
1.0
145
0.0
146
0.71
147
0.06
 71
     0
 72
     0
 73
     1
 74
     1
 75
     1
 76
     1
 77
     0
 78
     7
170
     0
171
     2
172
     0
173
     0
174
     0
175
     0
176
   256
177
   256
178
     2
270
     2
271
     4
272
     4
273
     2
274
     4
340
F
275
     0
280
     0
281
     0
282
     0
283
     1
284
     7
285
     0
286
     0
287
     3
288
     0
  0
DIMSTYLE
105
28F
330
A
100
AcDbSymbolTableRecord
100
AcDbDimStyleTableRecord
  2
AM_ANSI$SH
 70
     0
  3

  4
mm
  5

  6
GENAXEH
  7

 40
1.0
 41
0.1
 42
0.05
 43
0.5
 44
0.1
 45
0.0
 46
0.0
 47
0.1
 48
0.1
140
0.12
141
0.0
142
0.0
143
25.4
144
1.0
145
0.0
146
0.71
147
0.06
 71
     0
 72
     0
 73
     1
 74
     1
 75
     1
 76
     1
 77
     0
 78
     7
170
     0
171
     2
172
     0
173
     1
174
     0
175
     0
176
   256
177
   256
178
     2
270
     2
271
     4
272
     4
273
     2
274
     4
340
F
275
     0
280
     0
281
     0
282
     0
283
     1
284
     7
285
     0
286
     0
287
     3
288
     0
  0
ENDTAB
  0
TABLE
  2
BLOCK_RECORD
  5
1
330
0
100
AcDbSymbolTable
 70
     1
  0
BLOCK_RECORD
  5
17
102
{ACAD_XDICTIONARY
360
21F
102
}
330
1
100
AcDbSymbolTableRecord
100
AcDbBlockTableRecord
  2
*MODEL_SPACE
  0
BLOCK_RECORD
  5
14
102
{ACAD_XDICTIONARY
360
21D
102
}
330
1
100
AcDbSymbolTableRecord
100
AcDbBlockTableRecord
  2
*PAPER_SPACE
  0
BLOCK_RECORD
  5
28B
330
1
100
AcDbSymbolTableRecord
100
AcDbBlockTableRecord
  2
GENAXEH
  0
ENDTAB
  0
ENDSEC
  0
SECTION
  2
BLOCKS
  0
BLOCK
  5
2D
330
17
100
AcDbEntity
  8
0
100
AcDbBlockBegin
  2
*MODEL_SPACE
 70
     0
 10
0.0
 20
0.0
 30
0.0
  3
*MODEL_SPACE
  1

  0
ENDBLK
  5
2E
330
17
100
AcDbEntity
  8
0
100
AcDbBlockEnd
  0
BLOCK
  5
2B
330
14
100
AcDbEntity
 67
     1
  8
0
100
AcDbBlockBegin
  2
*PAPER_SPACE
 70
     0
 10
0.0
 20
0.0
 30
0.0
  3
*PAPER_SPACE
  1

  0
ENDBLK
  5
2C
330
14
100
AcDbEntity
 67
     1
  8
0
100
AcDbBlockEnd
  0
BLOCK
  5
28D
330
28B
100
AcDbEntity
  8
0
100
AcDbBlockBegin
  2
GENAXEH
 70
     0
 10
0.0
 20
0.0
 30
0.0
  3
GENAXEH
  1

  0
LINE
  5
28C
330
28B
100
AcDbEntity
  8
0
100
AcDbLine
 10
-1.0
 20
0.0
 30
0.0
 11
1.0
 21
0.0
 31
0.0
  0
ENDBLK
  5
28E
330
28B
100
AcDbEntity
  8
0
100
AcDbBlockEnd
  0
ENDSEC
  0
SECTION
  2
ENTITIES
  0
LINE
  5
31
330
17
100
AcDbEntity
  8
1
100
AcDbLine
 10
133.3344145060342
 20
210.4985005550571
 30
0.0
 11
133.3344145060342
 21
151.4985005550571
 31
0.0
  0
LINE
  5
32
330
17
100
AcDbEntity
  8
1
100
AcDbLine
 10
131.3344145060342
 20
201.9985005550571
 30
0.0
 11
131.3344145060342
 21
159.9985005550571
 31
0.0
  0
LINE
  5
33
330
17
100
AcDbEntity
  8
1
100
AcDbLine
 10
131.3344145060342
 20
201.9985005550571
 30
0.0
 11
133.3344145060342
 21
201.9985005550571
 31
0.0
  0
LINE
  5
34
330
17
100
AcDbEntity
  8
1
100
AcDbLine
 10
131.3344145060342
 20
159.9985005550571
 30
0.0
 11
133.3344145060342
 21
159.9985005550571
 31
0.0
  0
LINE
  5
35
330
17
100
AcDbEntity
  8
1
100
AcDbLine
 10
190.3344145060342
 20
210.9985005550571
 30
0.0
 11
190.3344145060342
 21
150.9985005550571
 31
0.0
  0
LINE
  5
36
330
17
100
AcDbEntity
  8
1
100
AcDbLine
 10
205.3344145060342
 20
210.9985005550571
 30
0.0
 11
205.3344145060342
 21
199.9985005550571
 31
0.0
  0
LINE
  5
37
330
17
100
AcDbEntity
  8
1
100
AcDbLine
 10
263.3344145060342
 20
199.9985005550571
 30
0.0
 11
263.3344145060342
 21
161.998500555057
 31
0.0
  0
LINE
  5
38
330
17
100
AcDbEntity
  8
1
100
AcDbLine
 10
300.3344145060342
 20
187.9985005550571
 30
0.0
 11
300.3344145060342
 21
173.9985005550571
 31
0.0
  0
LINE
  5
39
330
17
100
AcDbEntity
  8
1
100
AcDbLine
 10
263.3344145060342
 20
187.9985005550571
 30
0.0
 11
300.3344145060342
 21
187.9985005550571
 31
0.0
  0
LINE
  5
3A
330
17
100
AcDbEntity
  8
1
100
AcDbLine
 10
263.3344145060342
 20
173.9985005550571
 30
0.0
 11
300.3344145060342
 21
173.9985005550571
 31
0.0
  0
LINE
  5
3B
330
17
100
AcDbEntity
  8
3
100
AcDbLine
 10
293.3344145060342
 20
184.523779134139
 30
0.0
 11
293.3344145060342
 21
177.4732219759752
 31
0.0
  0
LINE
  5
3C
330
17
100
AcDbEntity
  8
3
100
AcDbLine
 10
273.3344145060342
 20
184.523779134139
 30
0.0
 11
273.3344145060342
 21
177.4732219759752
 31
0.0
  0
ARC
  5
3D
330
17
100
AcDbEntity
  8
0
100
AcDbCircle
 10
273.3344145060342
 20
180.9985005550571
 30
0.0
 40
3.0
100
AcDbArc
 50
195.8482493359081
 51
102.2340727447067
  0
ARC
  5
3E
330
17
100
AcDbEntity
  8
0
100
AcDbCircle
 10
293.3344145060342
 20
180.9985005550571
 30
0.0
 40
3.0
100
AcDbArc
 50
189.2401153202091
 51
101.2393441673343
  0
CIRCLE
  5
3F
330
17
100
AcDbEntity
  8
1
100
AcDbCircle
 10
273.3344145060342
 20
180.9985005550571
 30
0.0
 40
2.5
  0
CIRCLE
  5
40
330
17
100
AcDbEntity
  8
1
100
AcDbCircle
 10
293.3344145060342
 20
180.9985005550571
 30
0.0
 40
2.5
  0
LINE
  5
41
330
17
100
AcDbEntity
  8
1
100
AcDbLine
 10
205.3344145060342
 20
161.998500555057
 30
0.0
 11
263.3344145060342
 21
161.9985005550571
 31
0.0
  0
LINE
  5
42
330
17
100
AcDbEntity
  8
1
100
AcDbLine
 10
205.3344145060342
 20
199.9985005550571
 30
0.0
 11
263.3344145060342
 21
199.9985005550571
 31
0.0
  0
LINE
  5
43
330
17
100
AcDbEntity
  8
3
100
AcDbLine
 10
126.607933058611
 20
180.9985005550571
 30
0.0
 11
301.5828735940524
 21
180.9985005550571
 31
0.0
  0
LINE
  5
44
330
17
100
AcDbEntity
  8
1
100
AcDbLine
 10
190.3344145060342
 20
111.2319784735151
 30
0.0
 11
190.3344145060342
 21
29.23197847351515
 31
0.0
  0
LINE
  5
45
330
17
100
AcDbEntity
  8
1
100
AcDbLine
 10
205.3344145060342
 20
106.563782722685
 30
0.0
 11
205.3344145060342
 21
33.90017422434523
 31
0.0
  0
LINE
  5
46
330
17
100
AcDbEntity
  8
1
100
AcDbLine
 10
263.3344145060342
 20
116.2319784735151
 30
0.0
 11
263.3344145060342
 21
24.23197847351514
 31
0.0
  0
LINE
  5
47
330
17
100
AcDbEntity
  8
1
100
AcDbLine
 10
133.3344145060342
 20
102.7319784735152
 30
0.0
 11
133.3344145060342
 21
42.23197847351516
 31
0.0
  0
LINE
  5
48
330
17
100
AcDbEntity
  8
1
100
AcDbLine
 10
131.3344145060342
 20
91.23197847351518
 30
0.0
 11
131.3344145060342
 21
49.23197847351516
 31
0.0
  0
LINE
  5
49
330
17
100
AcDbEntity
  8
1
100
AcDbLine
 10
131.3344145060342
 20
91.23197847351518
 30
0.0
 11
133.3344145060342
 21
91.23197847351518
 31
0.0
  0
LINE
  5
4A
330
17
100
AcDbEntity
  8
1
100
AcDbLine
 10
131.3344145060342
 20
49.23197847351516
 30
0.0
 11
133.3344145060342
 21
49.23197847351516
 31
0.0
  0
LINE
  5
4B
330
17
100
AcDbEntity
  8
3
100
AcDbLine
 10
63.40712510940227
 20
118.321397156559
 30
0.0
 11
63.40712510940227
 21
21.04702207227211
 31
0.0
  0
ARC
  5
4C
330
17
100
AcDbEntity
  8
1
100
AcDbCircle
 10
63.40712510940227
 20
70.23197847351517
 30
0.0
 40
41.0
100
AcDbArc
 50
222.9702839317431
 51
317.0297160682567
  0
LINE
  5
4D
330
17
100
AcDbEntity
  8
3
100
AcDbLine
 10
126.0905103776534
 20
70.23197847351517
 30
0.0
 11
266.9538336353446
 21
70.23197847351517
 31
0.0
  0
LINE
  5
4E
330
17
100
AcDbEntity
  8
1
100
AcDbLine
 10
93.40712510940226
 20
98.17835569847941
 30
0.0
 11
93.40712510940226
 21
42.28560124855092
 31
0.0
  0
LINE
  5
4F
330
17
100
AcDbEntity
  8
1
100
AcDbLine
 10
33.40712510940227
 20
98.17835569847941
 30
0.0
 11
33.40712510940227
 21
42.28560124855092
 31
0.0
  0
ARC
  5
50
330
17
100
AcDbEntity
  8
1
100
AcDbCircle
 10
63.40712510940227
 20
70.23197847351517
 30
0.0
 40
41.0
100
AcDbArc
 50
42.97028393174316
 51
137.0297160682568
  0
LINE
  5
51
330
17
100
AcDbEntity
  8
1
100
AcDbLine
 10
44.40712510940227
 20
116.2319784735151
 30
0.0
 11
82.40712510940227
 21
116.2319784735151
 31
0.0
  0
LINE
  5
52
330
17
100
AcDbEntity
  8
1
100
AcDbLine
 10
44.40712510940227
 20
24.23197847351514
 30
0.0
 11
82.40712510940227
 21
24.23197847351514
 31
0.0
  0
LINE
  5
53
330
17
100
AcDbEntity
  8
1
100
AcDbLine
 10
82.40712510940227
 20
116.2319784735151
 30
0.0
 11
82.40712510940221
 21
106.563782722685
 31
0.0
  0
LINE
  5
54
330
17
100
AcDbEntity
  8
1
100
AcDbLine
 10
44.40712510940227
 20
116.2319784735151
 30
0.0
 11
44.40712510940227
 21
106.563782722685
 31
0.0
  0
LINE
  5
55
330
17
100
AcDbEntity
  8
1
100
AcDbLine
 10
82.40712510940221
 20
33.90017422434524
 30
0.0
 11
82.40712510940227
 21
24.23197847351514
 31
0.0
  0
LINE
  5
56
330
17
100
AcDbEntity
  8
1
100
AcDbLine
 10
44.40712510940227
 20
33.90017422434526
 30
0.0
 11
44.40712510940227
 21
24.23197847351514
 31
0.0
  0
LINE
  5
57
330
17
100
AcDbEntity
  8
3
100
AcDbLine
 10
30.6896729227476
 20
70.23197847351517
 30
0.0
 11
96.06147560967958
 21
70.23197847351517
 31
0.0
  0
ARC
  5
58
330
17
100
AcDbEntity
  8
0
100
AcDbCircle
 10
46.40712510940227
 20
92.23197847351517
 30
0.0
 40
3.0
100
AcDbArc
 50
192.5559555711209
 51
104.8844316145596
  0
ARC
  5
59
330
17
100
AcDbEntity
  8
0
100
AcDbCircle
 10
46.40712510940227
 20
48.23197847351515
 30
0.0
 40
3.0
100
AcDbArc
 50
191.6886702195278
 51
104.4309917828595
  0
ARC
  5
5A
330
17
100
AcDbEntity
  8
0
100
AcDbCircle
 10
80.40712510940227
 20
92.23197847351517
 30
0.0
 40
3.0
100
AcDbArc
 50
191.8961607069216
 51
102.1840796670242
  0
ARC
  5
5B
330
17
100
AcDbEntity
  8
0
100
AcDbCircle
 10
80.40712510940227
 20
48.23197847351515
 30
0.0
 40
3.0
100
AcDbArc
 50
191.9345038266029
 51
101.8075216534448
  0
CIRCLE
  5
5C
330
17
100
AcDbEntity
  8
1
100
AcDbCircle
 10
46.40712510940227
 20
92.23197847351517
 30
0.0
 40
2.5
  0
CIRCLE
  5
5D
330
17
100
AcDbEntity
  8
1
100
AcDbCircle
 10
80.40712510940227
 20
92.23197847351517
 30
0.0
 40
2.5
  0
CIRCLE
  5
5E
330
17
100
AcDbEntity
  8
1
100
AcDbCircle
 10
80.40712510940227
 20
48.23197847351515
 30
0.0
 40
2.5
  0
CIRCLE
  5
5F
330
17
100
AcDbEntity
  8
1
100
AcDbCircle
 10
46.40712510940227
 20
48.23197847351515
 30
0.0
 40
2.5
  0
LINE
  5
60
330
17
100
AcDbEntity
  8
3
100
AcDbLine
 10
46.40712510940227
 20
52.30921577124359
 30
0.0
 11
46.40712510940227
 21
43.67306097683022
 31
0.0
  0
LINE
  5
61
330
17
100
AcDbEntity
  8
3
100
AcDbLine
 10
80.40712510940227
 20
52.54910883284686
 30
0.0
 11
80.40712510940227
 21
43.43316791522695
 31
0.0
  0
LINE
  5
62
330
17
100
AcDbEntity
  8
3
100
AcDbLine
 10
76.66022331296506
 20
92.23197847351517
 30
0.0
 11
84.58204143271672
 21
92.23197847351517
 31
0.0
  0
LINE
  5
63
330
17
100
AcDbEntity
  8
3
100
AcDbLine
 10
80.40712510940227
 20
96.68945454280517
 30
0.0
 11
80.40712510940227
 21
87.81340668678854
 31
0.0
  0
LINE
  5
64
330
17
100
AcDbEntity
  8
3
100
AcDbLine
 10
46.40712510940227
 20
96.20966841959859
 30
0.0
 11
46.40712510940227
 21
87.81340668678854
 31
0.0
  0
LINE
  5
65
330
17
100
AcDbEntity
  8
3
100
AcDbLine
 10
42.57240010237518
 20
92.23197847351517
 30
0.0
 11
50.97432836844348
 21
92.23197847351517
 31
0.0
  0
LINE
  5
66
330
17
100
AcDbEntity
  8
3
100
AcDbLine
 10
76.66022331296506
 20
48.23197847351515
 30
0.0
 11
84.58204143271672
 21
48.23197847351515
 31
0.0
  0
LINE
  5
67
330
17
100
AcDbEntity
  8
3
100
AcDbLine
 10
42.57240010237518
 20
48.23197847351515
 30
0.0
 11
50.97432836844348
 21
48.23197847351515
 31
0.0
  0
CIRCLE
  5
68
330
17
100
AcDbEntity
  8
1
100
AcDbCircle
 10
63.40712510940227
 20
70.23197847351517
 30
0.0
 40
21.0
  0
LINE
  5
69
330
17
100
AcDbEntity
  8
1
100
AcDbLine
 10
190.3344145060342
 20
111.2319784735151
 30
0.0
 11
206.3344145060343
 21
111.2319784735151
 31
0.0
  0
LINE
  5
6A
330
17
100
AcDbEntity
  8
1
100
AcDbLine
 10
190.3344145060342
 20
29.23197847351515
 30
0.0
 11
206.3344145060343
 21
29.23197847351515
 31
0.0
  0
LINE
  5
6B
330
17
100
AcDbEntity
  8
1
100
AcDbLine
 10
206.3344145060343
 20
116.2319784735151
 30
0.0
 11
263.3344145060342
 21
116.2319784735151
 31
0.0
  0
LINE
  5
6C
330
17
100
AcDbEntity
  8
1
100
AcDbLine
 10
263.3344145060342
 20
24.23197847351514
 30
0.0
 11
206.3344145060343
 21
24.23197847351514
 31
0.0
  0
LINE
  5
6D
330
17
100
AcDbEntity
  8
1
100
AcDbLine
 10
263.3344145060342
 20
116.2319784735151
 30
0.0
 11
300.3344145060342
 21
116.2319784735151
 31
0.0
  0
LINE
  5
6E
330
17
100
AcDbEntity
  8
3
100
AcDbLine
 10
273.3344145060342
 20
113.7572570525971
 30
0.0
 11
273.3344145060342
 21
106.2586147461582
 31
0.0
  0
CIRCLE
  5
6F
330
17
100
AcDbEntity
  8
1
100
AcDbCircle
 10
273.3344145060342
 20
110.2319784735151
 30
0.0
 40
2.5
  0
ARC
  5
70
330
17
100
AcDbEntity
  8
0
100
AcDbCircle
 10
273.3344145060342
 20
110.2319784735151
 30
0.0
 40
3.0
100
AcDbArc
 50
195.8482493359081
 51
102.2340727447067
  0
LINE
  5
71
330
17
100
AcDbEntity
  8
1
100
AcDbLine
 10
300.3344145060342
 20
116.2319784735151
 30
0.0
 11
300.3344145060342
 21
104.2319784735151
 31
0.0
  0
ARC
  5
72
330
17
100
AcDbEntity
  8
0
100
AcDbCircle
 10
293.3344145060342
 20
110.2319784735151
 30
0.0
 40
3.0
100
AcDbArc
 50
189.2401153202091
 51
101.2393441673343
  0
CIRCLE
  5
73
330
17
100
AcDbEntity
  8
1
100
AcDbCircle
 10
293.3344145060342
 20
110.2319784735151
 30
0.0
 40
2.5
  0
LINE
  5
74
330
17
100
AcDbEntity
  8
3
100
AcDbLine
 10
293.3344145060342
 20
113.7572570525971
 30
0.0
 11
293.3344145060342
 21
106.2586147461582
 31
0.0
  0
LINE
  5
75
330
17
100
AcDbEntity
  8
1
100
AcDbLine
 10
263.3344145060342
 20
104.2319784735151
 30
0.0
 11
300.3344145060342
 21
104.2319784735151
 31
0.0
  0
LINE
  5
76
330
17
100
AcDbEntity
  8
3
100
AcDbLine
 10
293.3344145060342
 20
26.7066998944332
 30
0.0
 11
293.3344145060342
 21
33.75725705259709
 31
0.0
  0
ARC
  5
77
330
17
100
AcDbEntity
  8
0
100
AcDbCircle
 10
293.3344145060342
 20
30.23197847351515
 30
0.0
 40
3.0
100
AcDbArc
 50
258.7606558326656
 51
170.7598846797908
  0
LINE
  5
78
330
17
100
AcDbEntity
  8
3
100
AcDbLine
 10
273.3344145060342
 20
26.7066998944332
 30
0.0
 11
273.3344145060342
 21
33.75725705259709
 31
0.0
  0
ARC
  5
79
330
17
100
AcDbEntity
  8
0
100
AcDbCircle
 10
273.3344145060342
 20
30.23197847351515
 30
0.0
 40
3.0
100
AcDbArc
 50
257.7659272552931
 51
164.1517506640918
  0
LINE
  5
7A
330
17
100
AcDbEntity
  8
1
100
AcDbLine
 10
300.3344145060342
 20
24.23197847351514
 30
0.0
 11
300.3344145060342
 21
36.23197847351515
 31
0.0
  0
LINE
  5
7B
330
17
100
AcDbEntity
  8
1
100
AcDbLine
 10
263.3344145060342
 20
36.23197847351515
 30
0.0
 11
300.3344145060342
 21
36.23197847351515
 31
0.0
  0
CIRCLE
  5
7C
330
17
100
AcDbEntity
  8
1
100
AcDbCircle
 10
273.3344145060342
 20
30.23197847351515
 30
0.0
 40
2.5
  0
CIRCLE
  5
7D
330
17
100
AcDbEntity
  8
1
100
AcDbCircle
 10
293.3344145060342
 20
30.23197847351515
 30
0.0
 40
2.5
  0
LINE
  5
7E
330
17
100
AcDbEntity
  8
1
100
AcDbLine
 10
263.3344145060342
 20
24.23197847351514
 30
0.0
 11
300.3344145060342
 21
24.23197847351514
 31
0.0
  0
ARC
  5
7F
330
17
100
AcDbEntity
  8
0
100
AcDbCircle
 10
198.3344145060343
 20
49.23197847351516
 30
0.0
 40
4.0
100
AcDbArc
 50
189.9159322805106
 51
102.896583954977
  0
ARC
  5
80
330
17
100
AcDbEntity
  8
0
100
AcDbCircle
 10
198.3344145060342
 20
91.23197847351518
 30
0.0
 40
4.0
100
AcDbArc
 50
189.1321253157263
 51
102.8729064653837
  0
CIRCLE
  5
81
330
17
100
AcDbEntity
  8
1
100
AcDbCircle
 10
198.3344145060342
 20
91.23197847351518
 30
0.0
 40
3.375
  0
CIRCLE
  5
82
330
17
100
AcDbEntity
  8
1
100
AcDbCircle
 10
198.3344145060343
 20
49.23197847351516
 30
0.0
 40
3.375
  0
LINE
  5
83
330
17
100
AcDbEntity
  8
3
100
AcDbLine
 10
198.3344145060342
 20
96.33165624827128
 30
0.0
 11
198.3344145060342
 21
85.78787109701966
 31
0.0
  0
LINE
  5
84
330
17
100
AcDbEntity
  8
3
100
AcDbLine
 10
193.7140140160633
 20
91.23197847351518
 30
0.0
 11
202.9251181303472
 21
91.23197847351518
 31
0.0
  0
LINE
  5
85
330
17
100
AcDbEntity
  8
3
100
AcDbLine
 10
198.3344145060343
 20
53.98915409347326
 30
0.0
 11
198.3344145060343
 21
44.28217722792105
 31
0.0
  0
LINE
  5
86
330
17
100
AcDbEntity
  8
3
100
AcDbLine
 10
192.8766411855578
 20
49.23197847351516
 30
0.0
 11
203.2600674114856
 21
49.23197847351516
 31
0.0
  0
CIRCLE
  5
87
330
17
100
AcDbEntity
  8
0
100
AcDbCircle
 10
180.3344145060342
 20
180.9985005550571
 30
0.0
 40
4.849999999999999
  0
CIRCLE
  5
88
330
17
100
AcDbEntity
  8
0
100
AcDbCircle
 10
145.3344145060342
 20
180.9985005550571
 30
0.0
 40
4.849999999999999
  0
CIRCLE
  5
89
330
17
100
AcDbEntity
  8
0
100
AcDbCircle
 10
145.3344145060342
 20
180.9985005550571
 30
0.0
 40
4.25
  0
CIRCLE
  5
8A
330
17
100
AcDbEntity
  8
0
100
AcDbCircle
 10
180.3344145060342
 20
180.9985005550571
 30
0.0
 40
4.25
  0
LINE
  5
8B
330
17
100
AcDbEntity
  8
3
100
AcDbLine
 10
180.3344145060342
 20
186.9954187789263
 30
0.0
 11
180.3344145060342
 21
173.9686862081777
 31
0.0
  0
LINE
  5
8C
330
17
100
AcDbEntity
  8
3
100
AcDbLine
 10
145.3344145060342
 20
187.3676113067809
 30
0.0
 11
145.3344145060342
 21
174.3408781992902
 31
0.0
  0
LINE
  5
8D
330
17
100
AcDbEntity
  8
1
100
AcDbLine
 10
206.3344145060343
 20
199.9985005550571
 30
0.0
 11
206.3344145060343
 21
161.9985005550571
 31
0.0
  0
LINE
  5
8E
330
17
100
AcDbEntity
  8
1
100
AcDbLine
 10
205.3344145060342
 20
161.9985005550571
 30
0.0
 11
205.3344145060342
 21
150.9985005550571
 31
0.0
  0
LINE
  5
8F
330
17
100
AcDbEntity
  8
1
100
AcDbLine
 10
206.3344145060343
 20
116.2319784735151
 30
0.0
 11
206.3344145060343
 21
106.563782722685
 31
0.0
  0
LINE
  5
90
330
17
100
AcDbEntity
  8
1
100
AcDbLine
 10
205.3344145060342
 20
106.563782722685
 30
0.0
 11
206.3344145060343
 21
106.563782722685
 31
0.0
  0
LINE
  5
91
330
17
100
AcDbEntity
  8
1
100
AcDbLine
 10
205.3344145060342
 20
33.90017422434523
 30
0.0
 11
206.3344145060343
 21
33.90017422434523
 31
0.0
  0
LINE
  5
92
330
17
100
AcDbEntity
  8
1
100
AcDbLine
 10
206.3344145060343
 20
33.90017422434523
 30
0.0
 11
206.3344145060343
 21
24.23197847351514
 31
0.0
  0
LINE
  5
96
330
17
100
AcDbEntity
  8
1
100
AcDbLine
 10
133.3344145060342
 20
210.4985005550571
 30
0.0
 11
190.3344145060342
 21
210.4985005550571
 31
0.0
  0
LINE
  5
97
330
17
100
AcDbEntity
  8
1
100
AcDbLine
 10
190.3344145060342
 20
210.9985005550571
 30
0.0
 11
205.3344145060342
 21
210.9985005550571
 31
0.0
  0
LINE
  5
98
330
17
100
AcDbEntity
  8
1
100
AcDbLine
 10
190.3344145060342
 20
150.9985005550571
 30
0.0
 11
205.3344145060342
 21
150.9985005550571
 31
0.0
  0
LINE
  5
99
330
17
100
AcDbEntity
  8
1
100
AcDbLine
 10
133.3344145060342
 20
151.4985005550571
 30
0.0
 11
190.3344145060342
 21
151.4985005550571
 31
0.0
  0
LINE
  5
9A
330
17
100
AcDbEntity
  8
1
100
AcDbLine
 10
92.90712510940227
 20
85.02217793126419
 30
0.0
 11
92.90712510940227
 21
55.44177901576611
 31
0.0
  0
LINE
  5
9B
330
17
100
AcDbEntity
  8
1
100
AcDbLine
 10
33.90712510940227
 20
85.02217793126419
 30
0.0
 11
33.90712510940227
 21
55.44177901576611
 31
0.0
  0
ARC
  5
9C
330
17
100
AcDbEntity
  8
1
100
AcDbCircle
 10
63.40712510940227
 20
70.23197847351517
 30
0.0
 40
33.0
100
AcDbArc
 50
206.6274783929745
 51
238.0472535997345
  0
ARC
  5
9D
330
17
100
AcDbEntity
  8
1
100
AcDbCircle
 10
63.40712510940227
 20
70.23197847351517
 30
0.0
 40
33.0
100
AcDbArc
 50
26.62747839297464
 51
80.01344855279979
  0
LINE
  5
9E
330
17
100
AcDbEntity
  8
1
100
AcDbLine
 10
45.94287591282927
 20
42.23197847351515
 30
0.0
 11
55.40712510940227
 21
42.23197847351515
 31
0.0
  0
LINE
  5
9F
330
17
100
AcDbEntity
  8
1
100
AcDbLine
 10
62.40712510940227
 20
42.23197847351515
 30
0.0
 11
64.40712510940227
 21
42.23197847351515
 31
0.0
  0
LINE
  5
A0
330
17
100
AcDbEntity
  8
1
100
AcDbLine
 10
53.70712510940228
 20
45.03197847351517
 30
0.0
 11
53.70712510940228
 21
46.33197847351517
 31
0.0
  0
LINE
  5
A1
330
17
100
AcDbEntity
  8
1
100
AcDbLine
 10
62.40712510940227
 20
42.23197847351515
 30
0.0
 11
62.40712510940227
 21
46.33197847351517
 31
0.0
  0
LINE
  5
A2
330
17
100
AcDbEntity
  8
1
100
AcDbLine
 10
55.40712510940227
 20
45.03197847351517
 30
0.0
 11
53.70712510940228
 21
45.03197847351517
 31
0.0
  0
LINE
  5
A3
330
17
100
AcDbEntity
  8
1
100
AcDbLine
 10
55.40712510940227
 20
42.23197847351515
 30
0.0
 11
55.40712510940227
 21
45.03197847351517
 31
0.0
  0
LINE
  5
A4
330
17
100
AcDbEntity
  8
1
100
AcDbLine
 10
62.40712510940227
 20
46.33197847351517
 30
0.0
 11
53.70712510940228
 21
46.33197847351517
 31
0.0
  0
LINE
  5
A5
330
17
100
AcDbEntity
  8
1
100
AcDbLine
 10
73.10712510940226
 20
45.03197847351517
 30
0.0
 11
73.10712510940226
 21
46.33197847351517
 31
0.0
  0
LINE
  5
A6
330
17
100
AcDbEntity
  8
1
100
AcDbLine
 10
64.40712510940227
 20
42.23197847351515
 30
0.0
 11
64.40712510940227
 21
46.33197847351517
 31
0.0
  0
LINE
  5
A7
330
17
100
AcDbEntity
  8
1
100
AcDbLine
 10
71.40712510940227
 20
45.03197847351517
 30
0.0
 11
73.10712510940226
 21
45.03197847351517
 31
0.0
  0
LINE
  5
A8
330
17
100
AcDbEntity
  8
1
100
AcDbLine
 10
71.40712510940227
 20
42.23197847351515
 30
0.0
 11
71.40712510940227
 21
45.03197847351517
 31
0.0
  0
LINE
  5
A9
330
17
100
AcDbEntity
  8
1
100
AcDbLine
 10
64.40712510940227
 20
46.33197847351517
 30
0.0
 11
73.10712510940226
 21
46.33197847351517
 31
0.0
  0
ARC
  5
AA
330
17
100
AcDbEntity
  8
1
100
AcDbCircle
 10
63.40712510940227
 20
70.23197847351517
 30
0.0
 40
33.0
100
AcDbArc
 50
301.9527464002655
 51
333.3725216070253
  0
LINE
  5
AB
330
17
100
AcDbEntity
  8
1
100
AcDbLine
 10
71.40712510940227
 20
42.23197847351515
 30
0.0
 11
80.87137430597522
 21
42.23197847351515
 31
0.0
  0
LINE
  5
AC
330
17
100
AcDbEntity
  8
1
100
AcDbLine
 10
57.68436353827252
 20
102.7319784735151
 30
0.0
 11
69.12988668053199
 21
102.7319784735151
 31
0.0
  0
ARC
  5
AD
330
17
100
AcDbEntity
  8
1
100
AcDbCircle
 10
63.40712510940227
 20
70.23197847351517
 30
0.0
 40
33.0
100
AcDbArc
 50
99.98655144720016
 51
153.3725216070253
  0
LINE
  5
AE
330
17
100
AcDbEntity
  8
1
100
AcDbLine
 10
133.3344145060342
 20
102.7319784735152
 30
0.0
 11
190.3344145060342
 21
102.7319784735152
 31
0.0
  0
LINE
  5
AF
330
17
100
AcDbEntity
  8
1
100
AcDbLine
 10
133.3344145060342
 20
42.23197847351516
 30
0.0
 11
190.3344145060342
 21
42.23197847351518
 31
0.0
  0
LINE
  5
B0
330
17
100
AcDbEntity
  8
1
100
AcDbLine
 10
133.3344145060342
 20
55.44177901576614
 30
0.0
 11
190.3344145060342
 21
55.44177901576614
 31
0.0
  0
LINE
  5
B1
330
17
100
AcDbEntity
  8
1
100
AcDbLine
 10
133.3344145060342
 20
85.02217793126423
 30
0.0
 11
190.3344145060342
 21
85.02217793126423
 31
0.0
  0
LINE
  5
B2
330
17
100
AcDbEntity
  8
1
100
AcDbLine
 10
190.3344145060342
 20
98.17835569847941
 30
0.0
 11
205.3344145060342
 21
98.17835569847941
 31
0.0
  0
LINE
  5
B3
330
17
100
AcDbEntity
  8
1
100
AcDbLine
 10
190.3344145060342
 20
42.28560124855092
 30
0.0
 11
205.3344145060342
 21
42.28560124855092
 31
0.0
  0
TEXT
  5
B4
330
17
100
AcDbEntity
  8
5
100
AcDbText
 10
171.8383342235302
 20
227.2324599107041
 30
0.0
 40
4.0
  1
RC1/8" SHUT PORT
  7
CHINA
 11
171.8383342235302
 21
229.2324599107041
 31
0.0
100
AcDbText
 73
     2
  0
SOLID
  5
B5
330
17
100
AcDbEntity
  8
5
100
AcDbTrace
 10
143.3436909540886
 20
187.5539233782896
 30
0.0
 11
142.7116824957155
 21
187.3417683571629
 31
0.0
 12
143.6641517882824
 22
185.5518204926069
 32
0.0
 13
143.6641517882824
 23
185.5518204926069
 33
0.0
  0
LINE
  5
B6
330
17
100
AcDbEntity
  8
5
100
AcDbLine
 10
143.0276867249021
 20
187.4478458677262
 30
0.0
 11
130.4946987913536
 21
224.7835371967497
 31
0.0
  0
LINE
  5
B7
330
17
100
AcDbEntity
  8
5
100
AcDbLine
 10
130.4946987913536
 20
224.7835371967498
 30
0.0
 11
75.05429565067664
 21
224.7835371967497
 31
0.0
  0
TEXT
  5
B8
330
17
100
AcDbEntity
  8
5
100
AcDbText
 10
75.41766447277251
 20
227.1301603970645
 30
0.0
 40
4.0
  1
RC1/8" OPEN PORT
  7
CHINA
 72
     2
 11
130.3509978061058
 21
229.1301603970645
 31
0.0
100
AcDbText
 73
     2
  0
SOLID
  5
B9
330
17
100
AcDbEntity
  8
5
100
AcDbTrace
 10
275.9667208843648
 20
185.2817741709265
 30
0.0
 11
275.3470295282156
 21
185.527593347474
 31
0.0
 12
274.9194176766477
 22
183.5456096907529
 32
0.0
 13
274.9194176766477
 23
183.5456096907529
 33
0.0
  0
LINE
  5
BA
330
17
100
AcDbEntity
  8
5
100
AcDbLine
 10
275.6568752062902
 20
185.4046837592003
 30
0.0
 11
285.6337389905799
 21
210.555594829015
 31
0.0
  0
LINE
  5
BB
330
17
100
AcDbEntity
  8
5
100
AcDbLine
 10
285.6337389905799
 20
210.555594829015
 30
0.0
 11
287.6337389905799
 21
210.555594829015
 31
0.0
  0
LINE
  5
BC
330
17
100
AcDbEntity
  8
5
100
AcDbLine
 10
287.6337389905799
 20
210.555594829015
 30
0.0
 11
309.776366634485
 21
210.555594829015
 31
0.0
  0
TEXT
  5
BD
330
17
100
AcDbEntity
  8
5
100
AcDbText
 10
286.0530935816477
 20
211.9408687292569
 30
0.0
 40
4.0
  1
8-M6X1.0
  7
CHINA
 11
286.0530935816477
 21
213.9408687292569
 31
0.0
100
AcDbText
 73
     2
  0
TEXT
  5
BE
330
17
100
AcDbEntity
  8
5
100
AcDbText
 10
67.57454981180626
 20
131.4983010190113
 30
0.0
 40
4.0
  1
4-M6X1.0
  7
CHINA
 72
     2
 11
90.86343870069516
 21
133.4983010190113
 31
0.0
100
AcDbText
 73
     2
  0
SOLID
  5
BF
330
17
100
AcDbEntity
  8
5
100
AcDbTrace
 10
178.333012963344
 20
187.446699219345
 30
0.0
 11
177.675758223664
 21
187.3350719305102
 31
0.0
 12
178.3392674600085
 22
185.4191213558876
 32
0.0
 13
178.3392674600085
 23
185.4191213558876
 33
0.0
  0
LINE
  5
C0
330
17
100
AcDbEntity
  8
5
100
AcDbLine
 10
178.004385593504
 20
187.3908855749276
 30
0.0
 11
171.6664880286565
 21
224.7080439291547
 31
0.0
  0
LINE
  5
C1
330
17
100
AcDbEntity
  8
5
100
AcDbLine
 10
171.6664880286565
 20
224.7080439291547
 30
0.0
 11
227.725261792336
 21
224.7080439291546
 31
0.0
  0
SOLID
  5
C2
330
17
100
AcDbEntity
  8
5
100
AcDbTrace
 10
199.9946085177773
 20
97.46286332540481
 30
0.0
 11
199.3584133302793
 21
97.66211223468365
 31
0.0
 12
199.0787641961918
 22
95.65390221755016
 32
0.0
 13
199.0787641961918
 23
95.65390221755016
 33
0.0
  0
LINE
  5
C3
330
17
100
AcDbEntity
  8
5
100
AcDbLine
 10
199.6765109240283
 20
97.56248778004422
 30
0.0
 11
209.4413160147815
 21
129.8593705210128
 31
0.0
  0
LINE
  5
C4
330
17
100
AcDbEntity
  8
5
100
AcDbLine
 10
209.4413160147815
 20
129.8593705210128
 30
0.0
 11
261.1569383714169
 21
129.8593705210128
 31
0.0
  0
TEXT
  5
C5
330
17
100
AcDbEntity
  8
5
100
AcDbText
 10
211.3816102874274
 20
131.55194254724
 30
0.0
 40
4.0
  1
2X2-M8X1.25 DP14
 50
359.9999999999991
  7
CHINA
 11
211.3816102874275
 21
133.55194254724
 31
0.0
100
AcDbText
 73
     2
  0
SOLID
  5
C6
330
17
100
AcDbEntity
  8
5
100
AcDbTrace
 10
48.89524463316383
 20
96.77867277510101
 30
0.0
 11
48.31025966514267
 21
97.09841803563461
 31
0.0
 12
47.64351636755242
 22
95.18359050130426
 32
0.0
 13
47.64351636755242
 23
95.18359050130426
 33
0.0
  0
LINE
  5
C7
330
17
100
AcDbEntity
  8
5
100
AcDbLine
 10
48.60275214915327
 20
96.93854540536781
 30
0.0
 11
66.78522810002778
 21
130.2040114670619
 31
0.0
  0
LINE
  5
C8
330
17
100
AcDbEntity
  8
5
100
AcDbLine
 10
91.05715238304126
 20
130.2040114670619
 30
0.0
 11
66.78522810002778
 21
130.2040114670619
 31
0.0
  0
LINE
  5
C9
330
17
100
AcDbEntity
  8
3
100
AcDbLine
 10
277.4229917479488
 20
110.2319784735151
 30
0.0
 11
269.1075047821614
 21
110.2319784735151
 31
0.0
  0
LINE
  5
CA
330
17
100
AcDbEntity
  8
3
100
AcDbLine
 10
297.3297650512922
 20
110.2319784735151
 30
0.0
 11
289.0142780855049
 21
110.2319784735151
 31
0.0
  0
LINE
  5
CB
330
17
100
AcDbEntity
  8
3
100
AcDbLine
 10
277.4229917479488
 20
30.23197847351515
 30
0.0
 11
268.6035355188306
 21
30.23197847351515
 31
0.0
  0
LINE
  5
CC
330
17
100
AcDbEntity
  8
3
100
AcDbLine
 10
297.3297650512922
 20
30.23197847351515
 30
0.0
 11
289.2662618772887
 21
30.23197847351515
 31
0.0
  0
LINE
  5
15D
330
17
100
AcDbEntity
  8
LOGO
 62
     6
100
AcDbLine
 10
255.6714177978006
 20
-10.24629971465648
 30
0.0
 11
214.9872967150464
 21
-10.24629971465648
 31
0.0
  0
LINE
  5
15E
330
17
100
AcDbEntity
  8
LOGO
 62
     6
100
AcDbLine
 10
255.6714177978006
 20
-3.219790175520977
 30
0.0
 11
214.9872967150464
 21
-3.219790175520977
 31
0.0
  0
LINE
  5
15F
330
17
100
AcDbEntity
  8
LOGO
 62
     6
100
AcDbLine
 10
255.6714177978006
 20
10.83322890275009
 30
0.0
 11
214.9872967150464
 21
10.83322890274999
 31
0.0
  0
LINE
  5
160
330
17
100
AcDbEntity
  8
LOGO
 62
     6
100
AcDbLine
 10
255.6714177978006
 20
-27.4222119214321
 30
0.0
 11
214.9872967150464
 21
-27.4222119214321
 31
0.0
  0
LINE
  5
161
330
17
100
AcDbEntity
  8
LOGO
 62
     1
100
AcDbLine
 10
369.2560574396393
 20
-31.32582833206294
 30
0.0
 11
-1.030584578491357
 21
-31.32582833206294
 31
0.0
  0
LINE
  5
162
330
17
100
AcDbEntity
  8
LOGO
 62
     1
100
AcDbLine
 10
369.2560574396393
 20
15.51756859550698
 30
0.0
 11
-1.030584578491357
 21
15.51756859550698
 31
0.0
  0
POLYLINE
  5
163
330
17
100
AcDbEntity
  8
1
 62
     4
100
AcDb2dPolyline
 66
     1
 10
0.0
 20
0.0
 30
0.0
 70
     1
  0
VERTEX
  5
223
330
163
100
AcDbEntity
  8
1
 62
     4
100
AcDbVertex
100
AcDb2dVertex
 10
-1.030584578491357
 20
236.8944722805909
 30
0.0
  0
VERTEX
  5
224
330
163
100
AcDbEntity
  8
1
 62
     4
100
AcDbVertex
100
AcDb2dVertex
 10
369.2560574396393
 20
236.8944722805909
 30
0.0
  0
VERTEX
  5
225
330
163
100
AcDbEntity
  8
1
 62
     4
100
AcDbVertex
100
AcDb2dVertex
 10
369.2560574396393
 20
15.51756859550698
 30
0.0
  0
VERTEX
  5
226
330
163
100
AcDbEntity
  8
1
 62
     4
100
AcDbVertex
100
AcDb2dVertex
 10
-1.030584578491357
 20
15.51756859550698
 30
0.0
  0
SEQEND
  5
227
330
163
100
AcDbEntity
  8
1
 62
     4
  0
TEXT
  5
164
330
17
100
AcDbEntity
  8
LOGO
 62
     6
100
AcDbText
 10
77.82323930172977
 20
-10.24629971465648
 30
0.0
 40
4.684339692756993
  1
m/m
  7
CHINESET
 72
     1
 11
86.07659971277781
 21
-7.904129868277983
 31
0.0
100
AcDbText
 73
     2
  0
TEXT
  5
165
330
17
100
AcDbEntity
  8
LOGO
 62
     6
100
AcDbText
 10
77.82323930172977
 20
8.491059056371494
 30
0.0
 40
4.684339692756993
  1
1 : 1
  7
CHINESET
 72
     1
 11
86.07659971277781
 21
10.83322890274999
 31
0.0
100
AcDbText
 73
     2
  0
LINE
  5
166
330
17
100
AcDbEntity
  8
LOGO
 62
     1
100
AcDbLine
 10
102.0248886621623
 20
-3.219790175520977
 30
0.0
 11
33.32123983505995
 21
-3.219790175520977
 31
0.0
  0
LINE
  5
167
330
17
100
AcDbEntity
  8
LOGO
 62
     1
100
AcDbLine
 10
102.0248886621623
 20
6.14888920999301
 30
0.0
 11
33.32123983505995
 21
6.14888920999301
 31
0.0
  0
LINE
  5
168
330
17
100
AcDbEntity
  8
LOGO
 62
     1
100
AcDbLine
 10
102.0248886621623
 20
-12.58846956103496
 30
0.0
 11
-1.030584578491466
 21
-12.58846956103496
 31
0.0
  0
TEXT
  5
169
330
17
100
AcDbEntity
  8
LOGO
  6
CONTINUOUS
 62
     5
100
AcDbText
 10
0.5026788938366993
 20
-22.12351369849162
 30
0.0
 40
7.02650953913549
  1
金器工業股份有限公司
 41
0.8
  7
LOGO
100
AcDbText
  0
TEXT
  5
16A
330
17
100
AcDbEntity
  8
LOGO
  6
CONTINUOUS
 62
     5
100
AcDbText
 10
2.514647427197616
 20
-29.15139988259714
 30
0.0
 40
4.684339692756993
  1
MINDMAN INDUSTRIAL CO.,LTD
 41
0.85
  7
CHINESET
100
AcDbText
  0
POLYLINE
  5
16B
330
17
100
AcDbEntity
  8
LOGO
 62
     5
100
AcDb2dPolyline
 66
     1
 10
0.0
 20
0.0
 30
0.0
 70
     1
 40
0.6995280607850442
 41
0.6995280607850442
  0
VERTEX
  5
228
330
16B
100
AcDbEntity
  8
LOGO
 62
     5
100
AcDbVertex
100
AcDb2dVertex
 10
12.90656914742504
 20
-10.03948770423568
 30
0.0
 42
1.0
  0
VERTEX
  5
229
330
16B
100
AcDbEntity
  8
LOGO
 62
     5
100
AcDbVertex
100
AcDb2dVertex
 10
15.70468139056545
 20
-10.03948770423568
 30
0.0
 42
1.0
  0
SEQEND
  5
22A
330
16B
100
AcDbEntity
  8
LOGO
 62
     5
  0
SOLID
  5
16C
330
17
100
AcDbEntity
  8
LOGO
 62
     5
100
AcDbTrace
 10
3.829493030678406
 20
-4.801421585077012
 30
0.0
 11
5.854878596752721
 21
-4.801421585077715
 31
0.0
 12
14.30562526899579
 22
14.40482085183756
 32
0.0
 13
16.3310108350701
 23
14.40482085183615
 33
0.0
  0
SOLID
  5
16D
330
17
100
AcDbEntity
  8
LOGO
 62
     5
100
AcDbTrace
 10
6.692969175819318
 20
-4.801421585077012
 30
0.0
 11
8.718354741893632
 21
-4.801421585077012
 31
0.0
 12
16.3310108350701
 22
12.86832145688369
 32
0.0
 13
14.30562526899579
 23
5.441907714609808
 33
0.0
  0
SOLID
  5
16E
330
17
100
AcDbEntity
  8
LOGO
 62
     2
100
AcDbTrace
 10
5.854878596752721
 20
-4.801421585077715
 30
0.0
 11
6.692969175819318
 21
-4.801421585077012
 31
0.0
 12
16.3310108350701
 22
14.40482085183615
 32
0.0
 13
17.16910141413594
 23
14.40482085183615
 33
0.0
  0
SOLID
  5
16F
330
17
100
AcDbEntity
  8
LOGO
 62
     5
100
AcDbTrace
 10
7.437822177962914
 20
-8.293465664516059
 30
0.0
 11
8.136230993852135
 21
-8.293465664516059
 31
0.0
 12
7.437822177962914
 22
-11.78550974395584
 32
0.0
 13
8.136230993852135
 23
-11.7855097439545
 33
0.0
  0
SOLID
  5
170
330
17
100
AcDbEntity
  8
LOGO
 62
     5
100
AcDbTrace
 10
5.912668085332638
 20
-8.293465664516059
 30
0.0
 11
6.611076901219572
 21
-8.293465664516059
 31
0.0
 12
5.912668085332638
 22
-11.7855097439545
 32
0.0
 13
6.611076901219572
 23
-11.7855097439545
 33
0.0
  0
SOLID
  5
171
330
17
100
AcDbEntity
  8
LOGO
 62
     5
100
AcDbTrace
 10
8.951064559347683
 20
-8.293465664516059
 30
0.0
 11
9.649473375234778
 21
-8.293465664516059
 31
0.0
 12
8.951064559347683
 22
-11.7855097439545
 32
0.0
 13
9.649473375234778
 23
-11.7855097439545
 33
0.0
  0
SOLID
  5
172
330
17
100
AcDbEntity
  8
LOGO
 62
     5
100
AcDbTrace
 10
11.04629100701038
 20
-9.690283296291795
 30
0.0
 11
11.74469982289873
 21
-9.690283296291795
 31
0.0
 12
11.04629100701038
 22
-11.7855097439545
 32
0.0
 13
11.74469982289873
 23
-11.7855097439545
 33
0.0
  0
SOLID
  5
173
330
17
100
AcDbEntity
  8
LOGO
 62
     5
100
AcDbTrace
 10
0.5823032828795785
 20
-11.7855097439545
 30
0.0
 11
1.280712098768253
 21
-11.7855097439545
 31
0.0
 12
3.247485684105564
 22
-8.293465664516059
 32
0.0
 13
3.945894499992823
 23
-8.293465664516059
 33
0.0
  0
SOLID
  5
174
330
17
100
AcDbEntity
  8
LOGO
 62
     5
100
AcDbTrace
 10
3.247485684105564
 20
-8.293465664516059
 30
0.0
 11
3.945894499992823
 21
-8.293465664516059
 31
0.0
 12
3.247485684105564
 22
-11.7855097439545
 32
0.0
 13
3.945894499992823
 23
-11.7855097439545
 33
0.0
  0
SOLID
  5
175
330
17
100
AcDbEntity
  8
LOGO
 62
     5
100
AcDbTrace
 10
3.247485684105564
 20
-11.7855097439545
 30
0.0
 11
3.945894499992823
 21
-11.7855097439545
 31
0.0
 12
5.912668085332638
 22
-8.293465664516059
 32
0.0
 13
6.611076901219572
 23
-8.293465664516059
 33
0.0
  0
LINE
  5
176
330
17
100
AcDbEntity
  8
LOGO
 62
     1
100
AcDbLine
 10
-1.030584578491357
 20
-31.32582833206294
 30
0.0
 11
-1.030584578491357
 21
15.51756859550698
 31
0.0
  0
SOLID
  5
177
330
17
100
AcDbEntity
  8
LOGO
 62
     5
100
AcDbTrace
 10
7.437822177962914
 20
-7.804579493394999
 30
0.0
 11
8.136230993852135
 21
-7.804579493394999
 31
0.0
 12
7.437822177962914
 22
-7.245852440684089
 32
0.0
 13
8.136230993852135
 23
-7.245852440684089
 33
0.0
  0
POLYLINE
  5
178
330
17
100
AcDbEntity
  8
LOGO
 62
     5
100
AcDb2dPolyline
 66
     1
 10
0.0
 20
0.0
 30
0.0
 40
0.6995280607850442
 41
0.6995280607850442
  0
VERTEX
  5
22B
330
178
100
AcDbEntity
  8
LOGO
 62
     5
100
AcDbVertex
100
AcDb2dVertex
 10
11.39717428230036
 20
-9.690283296291784
 30
0.0
 42
1.0
  0
VERTEX
  5
22C
330
178
100
AcDbEntity
  8
LOGO
 62
     5
100
AcDbVertex
100
AcDb2dVertex
 10
9.298590099945155
 20
-9.690283296291784
 30
0.0
 42
1.0
  0
SEQEND
  5
22D
330
178
100
AcDbEntity
  8
LOGO
 62
     5
  0
LINE
  5
179
330
17
100
AcDbEntity
  8
LOGO
 62
     1
100
AcDbLine
 10
70.79595737711587
 20
-12.58846956103496
 30
0.0
 11
70.79595737711587
 21
15.51756859550698
 31
0.0
  0
LINE
  5
17A
330
17
100
AcDbEntity
  8
LOGO
 62
     5
100
AcDbLine
 10
29.67061921852693
 20
-11.7855097439545
 30
0.0
 11
29.67061921852693
 21
-9.690283296291795
 31
0.0
  0
SOLID
  5
17B
330
17
100
AcDbEntity
  8
LOGO
 62
     5
100
AcDbTrace
 10
28.97221040263967
 20
-9.690283296291795
 30
0.0
 11
29.67061921852693
 21
-9.69028329629188
 31
0.0
 12
28.97221040263967
 22
-11.7855097439545
 32
0.0
 13
29.67061921852693
 23
-11.7855097439545
 33
0.0
  0
SOLID
  5
17C
330
17
100
AcDbEntity
  8
LOGO
 62
     5
100
AcDbTrace
 10
16.86641103333086
 20
-8.293465664516059
 30
0.0
 11
17.56481984921812
 21
-8.293465664516059
 31
0.0
 12
16.86641103333086
 22
-11.7855097439545
 32
0.0
 13
17.56481984921812
 23
-11.7855097439545
 33
0.0
  0
SOLID
  5
17D
330
17
100
AcDbEntity
  8
LOGO
 62
     5
100
AcDbTrace
 10
18.96163748099373
 20
-9.690283296291795
 30
0.0
 11
19.66004629688088
 21
-9.690283296291795
 31
0.0
 12
18.96163748099373
 22
-11.7855097439545
 32
0.0
 13
19.66004629688088
 23
-11.7855097439545
 33
0.0
  0
SOLID
  5
17E
330
17
100
AcDbEntity
  8
LOGO
 62
     5
100
AcDbTrace
 10
21.05686392865665
 20
-9.690283296291795
 30
0.0
 11
21.75527274454358
 21
-9.690283296291795
 31
0.0
 12
21.05686392865665
 22
-11.78550974395584
 32
0.0
 13
21.75527274454358
 23
-11.78550974395584
 33
0.0
  0
POLYLINE
  5
17F
330
17
100
AcDbEntity
  8
LOGO
 62
     5
100
AcDb2dPolyline
 66
     1
 10
0.0
 20
0.0
 30
0.0
 70
     1
 40
0.6995280607850442
 41
0.6995280607850442
  0
VERTEX
  5
22E
330
17F
100
AcDbEntity
  8
LOGO
 62
     5
100
AcDbVertex
100
AcDb2dVertex
 10
22.91714206907129
 20
-10.03948770423568
 30
0.0
 42
1.0
  0
VERTEX
  5
22F
330
17F
100
AcDbEntity
  8
LOGO
 62
     5
100
AcDbVertex
100
AcDb2dVertex
 10
25.71525431221134
 20
-10.03948770423568
 30
0.0
 42
1.0
  0
SEQEND
  5
230
330
17F
100
AcDbEntity
  8
LOGO
 62
     5
  0
SOLID
  5
180
330
17
100
AcDbEntity
  8
LOGO
 62
     5
100
AcDbTrace
 10
25.36374157359301
 20
-8.293465664516059
 30
0.0
 11
26.06215038948011
 21
-8.293465664516059
 31
0.0
 12
25.36374157359301
 22
-11.7855097439545
 32
0.0
 13
26.06215038948011
 23
-11.7855097439545
 33
0.0
  0
SOLID
  5
181
330
17
100
AcDbEntity
  8
LOGO
 62
     5
100
AcDbTrace
 10
26.87698395497566
 20
-11.7855097439545
 30
0.0
 11
27.57539277086401
 21
-11.7855097439545
 31
0.0
 12
26.87698395497566
 22
-8.293465664516059
 32
0.0
 13
27.57539277086401
 23
-8.293465664516059
 33
0.0
  0
LINE
  5
182
330
17
100
AcDbEntity
  8
LOGO
 62
     1
100
AcDbLine
 10
33.32123983505995
 20
-12.58846956103496
 30
0.0
 11
33.32123983505995
 21
15.51756859550698
 31
0.0
  0
SOLID
  5
183
330
17
100
AcDbEntity
  8
LOGO
 62
     5
100
AcDbTrace
 10
15.3531686519462
 20
-7.245852440684089
 30
0.0
 11
16.05157746783335
 21
-7.245852440684089
 31
0.0
 12
15.3531686519462
 22
-11.7855097439545
 32
0.0
 13
16.05157746783335
 23
-11.7855097439545
 33
0.0
  0
SOLID
  5
184
330
17
100
AcDbEntity
  8
LOGO
 62
     5
100
AcDbTrace
 10
17.16910141413594
 20
-3.264922190124579
 30
0.0
 11
19.19448698021025
 21
4.161491552149403
 31
0.0
 12
26.80714307338656
 22
14.40482085183756
 32
0.0
 13
24.78175750731208
 23
14.40482085183756
 33
0.0
  0
SOLID
  5
185
330
17
100
AcDbEntity
  8
LOGO
 62
     5
100
AcDbTrace
 10
17.16910141413594
 20
14.40482085183615
 30
0.0
 11
19.19448698021025
 21
14.40482085183756
 31
0.0
 12
17.16910141413594
 22
-3.264922190124579
 32
0.0
 13
19.19448698021025
 23
4.161491552149403
 33
0.0
  0
SOLID
  5
186
330
17
100
AcDbEntity
  8
LOGO
 62
     5
100
AcDbTrace
 10
27.64523365245261
 20
-4.801421585077715
 30
0.0
 11
29.67061921852693
 21
-4.801421585077715
 31
0.0
 12
27.64523365245261
 22
14.40482085183615
 32
0.0
 13
29.67061921852693
 23
14.40482085183756
 33
0.0
  0
SOLID
  5
187
330
17
100
AcDbEntity
  8
LOGO
 62
     2
100
AcDbTrace
 10
26.80714307338656
 20
14.40482085183756
 30
0.0
 11
27.64523365245261
 21
14.40482085183615
 31
0.0
 12
26.80714307338656
 22
-4.801421585077715
 32
0.0
 13
27.64523365245261
 23
-4.801421585077715
 33
0.0
  0
SOLID
  5
188
330
17
100
AcDbEntity
  8
LOGO
 62
     2
100
AcDbTrace
 10
16.3310108350701
 20
-4.801421585077012
 30
0.0
 11
17.16910141413594
 21
-4.801421585077012
 31
0.0
 12
26.80714307338656
 22
14.40482085183756
 32
0.0
 13
27.64523365245261
 23
14.40482085183615
 33
0.0
  0
SOLID
  5
189
330
17
100
AcDbEntity
  8
LOGO
 62
     2
100
AcDbTrace
 10
16.3310108350701
 20
14.40482085183615
 30
0.0
 11
17.16910141413594
 21
14.40482085183615
 31
0.0
 12
16.3310108350701
 22
-4.801421585077012
 32
0.0
 13
17.16910141413594
 23
-4.801421585077012
 33
0.0
  0
SOLID
  5
18A
330
17
100
AcDbEntity
  8
LOGO
 62
     5
100
AcDbTrace
 10
17.16910141413594
 20
-4.801421585077012
 30
0.0
 11
19.19448698021025
 21
-4.801421585077012
 31
0.0
 12
26.80714307338656
 22
12.86832145688369
 32
0.0
 13
24.78175750731208
 23
5.441907714609808
 33
0.0
  0
SOLID
  5
18B
330
17
100
AcDbEntity
  8
LOGO
 62
     5
100
AcDbTrace
 10
26.80714307338656
 20
12.86832145688369
 30
0.0
 11
24.78175750731208
 21
5.441907714609808
 31
0.0
 12
26.80714307338656
 22
-4.801421585077715
 32
0.0
 13
24.78175750731208
 23
-4.801421585077715
 33
0.0
  0
SOLID
  5
18C
330
17
100
AcDbEntity
  8
LOGO
 62
     5
100
AcDbTrace
 10
14.30562526899579
 20
-4.801421585077012
 30
0.0
 11
16.3310108350701
 21
-4.801421585077012
 31
0.0
 12
14.30562526899579
 22
5.441907714609808
 32
0.0
 13
16.3310108350701
 23
12.86832145688369
 33
0.0
  0
POLYLINE
  5
18D
330
17
100
AcDbEntity
  8
LOGO
 62
     5
100
AcDb2dPolyline
 66
     1
 10
0.0
 20
0.0
 30
0.0
 40
0.6995280607850442
 41
0.6995280607850442
  0
VERTEX
  5
231
330
18D
100
AcDbEntity
  8
LOGO
 62
     5
100
AcDbVertex
100
AcDb2dVertex
 10
21.40774720394627
 20
-9.690283296291784
 30
0.0
 42
1.0
  0
VERTEX
  5
232
330
18D
100
AcDbEntity
  8
LOGO
 62
     5
100
AcDbVertex
100
AcDb2dVertex
 10
19.30916302159106
 20
-9.690283296291784
 30
0.0
 42
1.0
  0
SEQEND
  5
233
330
18D
100
AcDbEntity
  8
LOGO
 62
     5
  0
POLYLINE
  5
18E
330
17
100
AcDbEntity
  8
LOGO
 62
     5
100
AcDb2dPolyline
 66
     1
 10
0.0
 20
0.0
 30
0.0
 40
0.6995280607850442
 41
0.6995280607850442
  0
VERTEX
  5
234
330
18E
100
AcDbEntity
  8
LOGO
 62
     5
100
AcDbVertex
100
AcDb2dVertex
 10
19.31252075628337
 20
-9.690283296291784
 30
0.0
 42
1.0
  0
VERTEX
  5
235
330
18E
100
AcDbEntity
  8
LOGO
 62
     5
100
AcDbVertex
100
AcDb2dVertex
 10
17.21393657392815
 20
-9.690283296291784
 30
0.0
 42
1.0
  0
SEQEND
  5
236
330
18E
100
AcDbEntity
  8
LOGO
 62
     5
  0
POLYLINE
  5
18F
330
17
100
AcDbEntity
  8
LOGO
 62
     5
100
AcDb2dPolyline
 66
     1
 10
0.0
 20
0.0
 30
0.0
 70
     1
  0
VERTEX
  5
237
330
18F
100
AcDbEntity
  8
LOGO
 62
     5
100
AcDbVertex
100
AcDb2dVertex
 10
23.26858496680987
 20
-10.03948770423533
 30
0.0
 42
1.000000057330635
  0
VERTEX
  5
238
330
18F
100
AcDbEntity
  8
LOGO
 62
     5
100
AcDbVertex
100
AcDb2dVertex
 10
25.36381141447367
 20
-10.03948770423533
 30
0.0
 42
1.000000057330635
  0
SEQEND
  5
239
330
18F
100
AcDbEntity
  8
LOGO
 62
     5
  0
CIRCLE
  5
190
330
17
100
AcDbEntity
  8
LOGO
 62
     5
100
AcDbCircle
 10
24.31619819064168
 20
-10.03948770423533
 30
0.0
 40
1.047613223831682
  0
POLYLINE
  5
191
330
17
100
AcDbEntity
  8
LOGO
 62
     5
100
AcDb2dPolyline
 66
     1
 10
0.0
 20
0.0
 30
0.0
 40
0.6995280607850442
 41
0.6995280607850442
  0
VERTEX
  5
23A
330
191
100
AcDbEntity
  8
LOGO
 62
     5
100
AcDbVertex
100
AcDb2dVertex
 10
29.32309367792962
 20
-9.690283296291784
 30
0.0
 42
1.0
  0
VERTEX
  5
23B
330
191
100
AcDbEntity
  8
LOGO
 62
     5
100
AcDbVertex
100
AcDb2dVertex
 10
27.2245094955744
 20
-9.690283296291784
 30
0.0
 42
1.0
  0
SEQEND
  5
23C
330
191
100
AcDbEntity
  8
LOGO
 62
     5
  0
CIRCLE
  5
192
330
17
100
AcDbEntity
  8
LOGO
  6
CONTINUOUS
 62
     6
100
AcDbCircle
 10
79.46959822620228
 20
1.474569354117939
 30
0.0
 40
1.593584225544638
  0
CIRCLE
  5
193
330
17
100
AcDbEntity
  8
LOGO
  6
CONTINUOUS
 62
     6
100
AcDbCircle
 10
79.46959822620228
 20
1.474569354117939
 30
0.0
 40
2.719837882542207
  0
TEXT
  5
194
330
17
100
AcDbEntity
  8
LOGO
 62
     7
100
AcDbText
 10
104.7387039753223
 20
-5.003726489949713
 30
0.0
 40
6.245786257009322
  1
Order example:
 41
0.8
  7
CHINESET
100
AcDbText
  0
LINE
  5
195
330
17
100
AcDbEntity
  8
LOGO
 62
     1
100
AcDbLine
 10
102.0248886621623
 20
-31.32582833206294
 30
0.0
 11
102.0248886621623
 21
15.51756859550698
 31
0.0
  0
TEXT
  5
196
330
17
100
AcDbEntity
  8
LOGO
 62
     7
100
AcDbText
 10
105.8592496803805
 20
3.789047353373639
 30
0.0
 40
9.368679385513987
  1
訂購代號:
  7
CHINESET
100
AcDbText
  0
LINE
  5
197
330
17
100
AcDbEntity
  8
LOGO
 62
     6
100
AcDbLine
 10
96.56137507673983
 20
-1.245268528424254
 30
0.0
 11
96.56137507673983
 21
4.194407236660111
 31
0.0
  0
LINE
  5
198
330
17
100
AcDbEntity
  8
LOGO
 62
     6
100
AcDbLine
 10
88.03483944111379
 20
-0.1190148714266819
 30
0.0
 11
88.03483944111363
 21
3.068153579662656
 31
0.0
  0
LINE
  5
199
330
17
100
AcDbEntity
  8
LOGO
  6
CONTINUOUS
 62
     6
100
AcDbLine
 10
88.03483944111363
 20
-0.1190148714266819
 30
0.0
 11
96.56137507673983
 21
-1.245268528424254
 31
0.0
  0
LINE
  5
19A
330
17
100
AcDbEntity
  8
LOGO
  6
CONTINUOUS
 62
     6
100
AcDbLine
 10
88.03483944111363
 20
3.06815357966256
 30
0.0
 11
96.56137507673983
 21
4.194407236660111
 31
0.0
  0
LINE
  5
19B
330
17
100
AcDbEntity
  8
LOGO
 62
     6
100
AcDbLine
 10
200.8077265340893
 20
-10.24629971465648
 30
0.0
 11
200.8077265340893
 21
-27.4222119214321
 31
0.0
  0
LINE
  5
19C
330
17
100
AcDbEntity
  8
LOGO
 62
     6
100
AcDbLine
 10
214.9872967150464
 20
-10.24629971465648
 30
0.0
 11
214.9872967150464
 21
-27.4222119214321
 31
0.0
  0
LINE
  5
19D
330
17
100
AcDbEntity
  8
LOGO
 62
     6
100
AcDbLine
 10
169.5787952490426
 20
-10.24629971465648
 30
0.0
 11
169.5787952490426
 21
-27.4222119214321
 31
0.0
  0
LINE
  5
19E
330
17
100
AcDbEntity
  8
LOGO
 62
     6
100
AcDbLine
 10
200.8077265340893
 20
-27.4222119214321
 30
0.0
 11
169.5787952490426
 21
-27.4222119214321
 31
0.0
  0
LINE
  5
19F
330
17
100
AcDbEntity
  8
LOGO
 62
     6
100
AcDbLine
 10
203.9306196625939
 20
10.83322890274999
 30
0.0
 11
166.455902120538
 21
10.83322890274999
 31
0.0
  0
LINE
  5
1A0
330
17
100
AcDbEntity
  8
LOGO
 62
     6
100
AcDbLine
 10
203.9306196625939
 20
-3.219790175520977
 30
0.0
 11
166.455902120538
 21
-3.219790175520977
 31
0.0
  0
LINE
  5
1A1
330
17
100
AcDbEntity
  8
LOGO
 62
     6
100
AcDbLine
 10
200.8077265340893
 20
-10.24629971465648
 30
0.0
 11
169.5787952490426
 21
-10.24629971465648
 31
0.0
  0
TEXT
  5
1A2
330
17
100
AcDbEntity
  8
LOGO
  6
CONTINUOUS
 62
     7
100
AcDbText
 10
170.1364547362756
 20
-0.0968970470163266
 30
0.0
 40
7.807232821261655
  1
MCHH
  7
CHINESET
 72
     1
 11
185.1932608915659
 21
3.806719363614501
 31
0.0
100
AcDbText
 73
     2
  0
LINE
  5
1A3
330
17
100
AcDbEntity
  8
LOGO
 62
     6
100
AcDbLine
 10
166.455902120538
 20
10.83322890274999
 30
0.0
 11
166.455902120538
 21
-3.219790175520977
 31
0.0
  0
LINE
  5
1A4
330
17
100
AcDbEntity
  8
LOGO
 62
     6
100
AcDbLine
 10
185.1932608915659
 20
-3.219790175520977
 30
0.0
 11
185.1932608915659
 21
-10.24629971465648
 31
0.0
  0
LINE
  5
1A5
330
17
100
AcDbEntity
  8
LOGO
 62
     6
100
AcDbLine
 10
203.9306196625939
 20
10.83322890274999
 30
0.0
 11
203.9306196625939
 21
-3.219790175520977
 31
0.0
  0
LINE
  5
1A6
330
17
100
AcDbEntity
  8
LOGO
 62
     6
100
AcDbLine
 10
214.9872967150464
 20
10.83322890274999
 30
0.0
 11
214.9872967150464
 21
-3.219790175520977
 31
0.0
  0
LINE
  5
1A7
330
17
100
AcDbEntity
  8
LOGO
  6
CONTINUOUS
 62
     7
100
AcDbLine
 10
206.3517436540623
 20
3.756941349137278
 30
0.0
 11
212.5570441071457
 21
3.756941349137278
 31
0.0
  0
TEXT
  5
1A8
330
17
100
AcDbEntity
  8
LOGO
 62
     6
100
AcDbText
 10
38.82115652789512
 20
-0.8117275915024201
 30
307.0039064644606
 40
4.684339692756993
  1
投影 View:
 41
0.9
  7
CHINESET
 72
     4
 11
52.05859860608788
 21
1.464549517235997
 31
307.0039064644606
100
AcDbText
  0
TEXT
  5
1A9
330
17
100
AcDbEntity
  8
LOGO
 62
     6
100
AcDbText
 10
39.27913438178521
 20
-10.24629971465648
 30
307.0039064644606
 40
4.684339692756993
  1
單位 Unit:
 41
0.9
  7
CHINESET
 72
     4
 11
52.05859860608788
 21
-7.904129868277983
 31
307.0039064644606
100
AcDbText
  0
TEXT
  5
1AA
330
17
100
AcDbEntity
  8
LOGO
 62
     6
100
AcDbText
 10
37.18372885850731
 20
8.493364341653361
 30
307.0039064644606
 40
4.684339692756993
  1
比例 Scale:
 41
0.9
  7
CHINESET
 72
     4
 11
52.05859860608788
 21
10.83322890274999
 31
307.0039064644606
100
AcDbText
  0
TEXT
  5
1AB
330
17
100
AcDbEntity
  8
LOGO
  6
CONTINUOUS
 62
     6
100
AcDbText
 10
177.7578010617929
 20
-25.4704037161167
 30
307.0039064644606
 40
3.903616410630828
  1
Model
  7
CHINESET
 72
     4
 11
185.1932608915659
 21
-23.51859551080129
 31
307.0039064644606
100
AcDbText
  0
TEXT
  5
1AC
330
17
100
AcDbEntity
  8
LOGO
 62
     6
100
AcDbText
 10
178.9474746345566
 20
-18.67442270516807
 30
307.0039064644606
 40
6.245786257009322
  1
型式
  7
CHINESET
 72
     4
 11
185.1932608915659
 21
-15.71136268953963
 31
307.0039064644606
100
AcDbText
  0
LINE
  5
1AD
330
17
100
AcDbEntity
  8
LOGO
 62
     6
100
AcDbLine
 10
363.7514065313981
 20
-10.24629971465665
 30
0.0
 11
307.515470282502
 21
-10.24629971465665
 31
0.0
  0
LINE
  5
1AE
330
17
100
AcDbEntity
  8
LOGO
 62
     6
100
AcDbLine
 10
363.7514065313981
 20
-27.42221192143229
 30
0.0
 11
307.515470282502
 21
-27.42221192143229
 31
0.0
  0
LINE
  5
1AF
330
17
100
AcDbEntity
  8
LOGO
 62
     6
100
AcDbLine
 10
296.1683035698214
 20
10.83322890274999
 30
0.0
 11
270.1570737684649
 21
10.83322890274999
 31
0.0
  0
LINE
  5
1B0
330
17
100
AcDbEntity
  8
LOGO
 62
     6
100
AcDbLine
 10
304.9615885850172
 20
-27.4222119214321
 30
0.0
 11
261.3637887532691
 21
-27.4222119214321
 31
0.0
  0
LINE
  5
1B1
330
17
100
AcDbEntity
  8
LOGO
 62
     6
100
AcDbLine
 10
296.1683035698214
 20
-3.219790175520977
 30
0.0
 11
270.1570737684649
 21
-3.219790175520977
 31
0.0
  0
LINE
  5
1B2
330
17
100
AcDbEntity
  8
LOGO
 62
     6
100
AcDbLine
 10
304.9615885850172
 20
-10.24629971465648
 30
0.0
 11
261.3637887532691
 21
-10.24629971465648
 31
0.0
  0
LINE
  5
1B3
330
17
100
AcDbEntity
  8
LOGO
 62
     6
100
AcDbLine
 10
255.6714177978006
 20
-10.24629971465648
 30
0.0
 11
255.6714177978006
 21
-27.4222119214321
 31
0.0
  0
LINE
  5
1B4
330
17
100
AcDbEntity
  8
LOGO
 62
     6
100
AcDbLine
 10
261.3637887532691
 20
-10.24629971465648
 30
0.0
 11
261.3637887532691
 21
-27.4222119214321
 31
0.0
  0
TEXT
  5
1B5
330
17
100
AcDbEntity
  8
LOGO
  6
CONTINUOUS
 62
     7
100
AcDbText
 10
229.0092164011166
 20
-0.1854315591648645
 30
0.0
 40
7.807232821261655
  1
40
  7
CHINESET
 72
     1
 11
235.3293572564237
 21
3.718184851465963
 31
0.0
100
AcDbText
 73
     2
  0
LINE
  5
1B6
330
17
100
AcDbEntity
  8
LOGO
 62
     6
100
AcDbLine
 10
235.3293572564237
 20
-3.219790175520977
 30
0.0
 11
235.3293572564237
 21
-10.24629971465648
 31
0.0
  0
LINE
  5
1B7
330
17
100
AcDbEntity
  8
LOGO
 62
     6
100
AcDbLine
 10
255.6714177978006
 20
10.83322890275009
 30
0.0
 11
255.6714177978006
 21
-3.219790175520977
 31
0.0
  0
LINE
  5
1B8
330
17
100
AcDbEntity
  8
LOGO
 62
     6
100
AcDbLine
 10
270.1570737684649
 20
10.83322890274999
 30
0.0
 11
270.1570737684649
 21
-3.219790175520977
 31
0.0
  0
LINE
  5
1B9
330
17
100
AcDbEntity
  8
LOGO
  6
CONTINUOUS
 62
     7
100
AcDbLine
 10
259.9904591470359
 20
3.806719363614597
 30
0.0
 11
266.1957596001192
 21
3.806719363614597
 31
0.0
  0
TEXT
  5
1BA
330
17
100
AcDbEntity
  8
LOGO
  6
CONTINUOUS
 62
     7
100
AcDbText
 10
277.3853365825093
 20
-0.1854315591648645
 30
0.0
 40
7.807232821261655
  1
PS
  7
CHINESET
 72
     1
 11
283.8913639335606
 21
3.718184851465963
 31
0.0
100
AcDbText
 73
     2
  0
LINE
  5
1BB
330
17
100
AcDbEntity
  8
LOGO
 62
     6
100
AcDbLine
 10
283.493388873744
 20
-3.219790175520977
 30
0.0
 11
283.493388873744
 21
-10.24629971465648
 31
0.0
  0
LINE
  5
1BC
330
17
100
AcDbEntity
  8
LOGO
 62
     6
100
AcDbLine
 10
304.9615885850172
 20
-10.24629971465648
 30
0.0
 11
304.9615885850172
 21
-27.48697649942181
 31
0.0
  0
LINE
  5
1BD
330
17
100
AcDbEntity
  8
LOGO
 62
     6
100
AcDbLine
 10
307.515470282502
 20
-10.24629971465665
 30
0.0
 11
307.515470282502
 21
-27.42221192143229
 31
0.0
  0
LINE
  5
1BE
330
17
100
AcDbEntity
  8
LOGO
 62
     6
100
AcDbLine
 10
348.7683077928027
 20
-3.219790175521168
 30
0.0
 11
322.7570779914461
 21
-3.219790175521168
 31
0.0
  0
LINE
  5
1BF
330
17
100
AcDbEntity
  8
LOGO
 62
     6
100
AcDbLine
 10
348.7683077928027
 20
10.83322890274981
 30
0.0
 11
322.7570779914461
 21
10.83322890274981
 31
0.0
  0
LINE
  5
1C0
330
17
100
AcDbEntity
  8
LOGO
  6
CONTINUOUS
 62
     7
100
AcDbLine
 10
306.360040554092
 20
3.806719363614405
 30
0.0
 11
312.5653410071755
 21
3.806719363614405
 31
0.0
  0
LINE
  5
1C1
330
17
100
AcDbEntity
  8
LOGO
 62
     6
100
AcDbLine
 10
296.1683035698214
 20
10.83322890274999
 30
0.0
 11
296.1683035698214
 21
-3.219790175520977
 31
0.0
  0
LINE
  5
1C2
330
17
100
AcDbEntity
  8
LOGO
 62
     6
100
AcDbLine
 10
322.7570779914461
 20
10.83322890274981
 30
0.0
 11
322.7570779914461
 21
-3.219790175521168
 31
0.0
  0
TEXT
  5
1C3
330
17
100
AcDbEntity
  8
LOGO
  6
CONTINUOUS
 62
     7
100
AcDbText
 10
335.5619356778202
 20
-0.1854315591650244
 30
0.0
 40
7.807232821261655
  1
1
  7
CHINESET
 72
     1
 11
336.4913681565419
 21
3.718184851465803
 31
0.0
100
AcDbText
 73
     2
  0
LINE
  5
1C4
330
17
100
AcDbEntity
  8
LOGO
 62
     6
100
AcDbLine
 10
336.0933930967252
 20
-3.219790175521168
 30
0.0
 11
336.0933930967252
 21
-10.24629971465665
 31
0.0
  0
LINE
  5
1C5
330
17
100
AcDbEntity
  8
LOGO
 62
     6
100
AcDbLine
 10
348.7683077928027
 20
10.83322890274981
 30
0.0
 11
348.7683077928027
 21
-3.219790175521168
 31
0.0
  0
LINE
  5
1C6
330
17
100
AcDbEntity
  8
LOGO
 62
     1
100
AcDbLine
 10
369.2560574396393
 20
-31.32582833206294
 30
0.0
 11
369.2560574396393
 21
15.51756859550698
 31
0.0
  0
LINE
  5
1C7
330
17
100
AcDbEntity
  8
LOGO
 62
     6
100
AcDbLine
 10
363.7514065313981
 20
-10.24629971465665
 30
0.0
 11
363.7514065313981
 21
-27.48697649942198
 31
0.0
  0
TEXT
  5
1C8
330
17
100
AcDbEntity
  8
LOGO
  6
CONTINUOUS
 62
     6
100
AcDbText
 10
308.2514915219643
 20
-25.47040371611687
 30
307.0039064644606
 40
3.903616410630828
  1
Number of auto swicth
 41
0.8
  7
CHINESET
 72
     4
 11
335.7626928921245
 21
-23.51859551080146
 31
307.0039064644606
100
AcDbText
  0
TEXT
  5
1C9
330
17
100
AcDbEntity
  8
LOGO
 62
     6
100
AcDbText
 10
272.0373818988453
 20
-18.76612183082462
 30
307.0039064644606
 40
6.245786257009322
  1
感應開關
 41
0.9
  7
CHINESET
 72
     4
 11
283.1626886691432
 21
-15.71136268953963
 31
307.0039064644606
100
AcDbText
  0
TEXT
  5
1CA
330
17
100
AcDbEntity
  8
LOGO
  6
CONTINUOUS
 62
     6
100
AcDbText
 10
263.0125925304584
 20
-24.81980098101157
 30
307.0039064644606
 40
3.903616410630828
  1
Auto swicth type
 41
0.8
  7
CHINESET
 72
     4
 11
283.1626886691432
 21
-23.51859551080129
 31
307.0039064644606
100
AcDbText
  0
TEXT
  5
1CB
330
17
100
AcDbEntity
  8
LOGO
 62
     6
100
AcDbText
 10
229.0835709994144
 20
-18.8342558180443
 30
307.0039064644606
 40
6.245786257009322
  1
缸徑
  7
CHINESET
 72
     4
 11
235.3293572564237
 21
-15.71136268953963
 31
307.0039064644606
100
AcDbText
  0
TEXT
  5
1CC
330
17
100
AcDbEntity
  8
LOGO
  6
CONTINUOUS
 62
     6
100
AcDbText
 10
229.2880461447331
 20
-25.4704037161167
 30
307.0039064644606
 40
3.903616410630828
  1
Bore
  7
CHINESET
 72
     4
 11
235.3293572564237
 21
-23.51859551080129
 31
307.0039064644606
100
AcDbText
  0
TEXT
  5
1CD
330
17
100
AcDbEntity
  8
LOGO
 62
     6
100
AcDbText
 10
318.8405157520398
 20
-18.6774964188774
 30
307.0039064644606
 40
6.245786257009322
  1
感應開關數量
 41
0.9
  7
CHINESET
 72
     4
 11
335.7626928921245
 21
-15.7113626895398
 31
307.0039064644606
100
AcDbText
  0
ENDSEC
  0
SECTION
  2
OBJECTS
  0
DICTIONARY
  5
C
330
0
100
AcDbDictionary
  3
ACAD_GROUP
350
D
  3
ACAD_LAYOUT
350
DB
  3
ACAD_MLINESTYLE
350
1A
  3
ACAD_PLOTSETTINGS
350
DC
  3
ACMDICTIONARY
350
25E
  3
AMG
350
244
  3
AMGSNAPSETTINGS
350
293
  3
DWGPROPS
350
2B4
1001
ACAD
1000
TREAT_AS_HARD
1070
     0
  0
DICTIONARY
  5
21F
330
17
100
AcDbDictionary
  3
ACAD_INDEX
350
29A
  3
ACAD_LAYOUTSELFREF
350
300
1001
ACAD
1000
TREAT_AS_HARD
1070
     1
  0
DICTIONARY
  5
21D
330
14
100
AcDbDictionary
  3
ACAD_LAYOUTSELFREF
350
2FF
1001
ACAD
1000
TREAT_AS_HARD
1070
     1
  0
DICTIONARY
  5
D
102
{ACAD_REACTORS
330
C
102
}
330
C
100
AcDbDictionary
1001
ACAD
1000
TREAT_AS_HARD
1070
     0
  0
DICTIONARY
  5
DB
102
{ACAD_REACTORS
330
C
102
}
330
C
100
AcDbDictionary
1001
ACAD
1000
TREAT_AS_HARD
1070
     0
  0
DICTIONARY
  5
1A
102
{ACAD_REACTORS
330
C
102
}
330
C
100
AcDbDictionary
  3
STANDARD
350
1B
1001
ACAD
1000
TREAT_AS_HARD
1070
     0
  0
DICTIONARY
  5
DC
102
{ACAD_REACTORS
330
C
102
}
330
C
100
AcDbDictionary
1001
ACAD
1000
TREAT_AS_HARD
1070
     0
  0
DICTIONARY
  5
25E
102
{ACAD_REACTORS
330
C
102
}
330
C
100
AcDbDictionary
  3
ACMSTDDICTIONARY
350
264
1001
ACAD
1000
TREAT_AS_HARD
1070
     0
  0
DICTIONARY
  5
244
102
{ACAD_REACTORS
330
C
102
}
330
C
100
AcDbDictionary
  3
ACMGSETTINGS
350
245
1001
ACAD
1000
TREAT_AS_HARD
1070
     0
  0
DICTIONARY
  5
293
102
{ACAD_REACTORS
330
C
102
}
330
C
100
AcDbDictionary
1001
ACAD
1000
TREAT_AS_HARD
1070
     0
  0
XRECORD
  5
2B4
102
{ACAD_REACTORS
330
C
102
}
330
C
100
AcDbXrecord
  1
DWGPROPS COOKIE
  2

  3

  4

  6

  7

  8

  9

300
AmdtFileType=84
301
=
302
=
303
=
304
=
305
=
306
=
307
=
308
=
309
=
 40
0.0197189699074074
 41
2451407.573541551
 42
2452752.418862604
  1

 90
        1
  0
DICTIONARY
  5
29A
102
{ACAD_REACTORS
330
21F
102
}
330
21F
100
AcDbDictionary
  3
*A1
350
29B
1001
ACAD
1000
TREAT_AS_HARD
1070
     0
  0
XRECORD
  5
300
102
{ACAD_REACTORS
330
21F
102
}
330
21F
100
AcDbXrecord
340
17
  0
XRECORD
  5
2FF
102
{ACAD_REACTORS
330
21D
102
}
330
21D
100
AcDbXrecord
340
14
  0
MLINESTYLE
  5
1B
102
{ACAD_REACTORS
330
1A
102
}
330
1A
100
AcDbMlineStyle
  2
STANDARD
 70
     0
  3

 62
   256
 51
90.0
 52
90.0
 71
     2
 49
0.5
 62
   256
  6
BYLAYER
 49
-0.5
 62
   256
  6
BYLAYER
  0
DICTIONARY
  5
264
102
{ACAD_REACTORS
330
25E
102
}
330
25E
100
AcDbDictionary
1001
ACAD
1000
TREAT_AS_HARD
1070
     0
  0
DICTIONARY
  5
245
102
{ACAD_REACTORS
330
244
102
}
330
244
100
AcDbDictionary
1001
ACAD
1000
TREAT_AS_HARD
1070
     0
  0
LAYER_INDEX
  5
29B
102
{ACAD_REACTORS
330
29A
102
}
330
29A
100
AcDbIndex
 40
2452752.439646076
100
AcDbLayerIndex
  8
0
360
29C
 90
       16
  8
1
360
29D
 90
       89
  8
3
360
29E
 90
       28
  8
5
360
29F
 90
       21
  8
LOGO
360
2A0
 90
      112
  0
IDBUFFER
  5
29C
330
0
100
AcDbIdBuffer
330
3D
330
3E
330
58
330
59
330
5A
330
5B
330
70
330
72
330
77
330
79
330
7F
330
80
330
87
330
88
330
89
330
8A
  0
IDBUFFER
  5
29D
330
0
100
AcDbIdBuffer
330
7D
330
7E
330
81
330
82
330
8D
330
8E
330
8F
330
90
330
91
330
92
330
96
330
97
330
98
330
99
330
9A
330
9B
330
9C
330
9D
330
9E
330
9F
330
A0
330
A1
330
A2
330
A3
330
A4
330
A5
330
A6
330
A7
330
A8
330
A9
330
AA
330
AB
330
AC
330
AD
330
AE
330
AF
330
B0
330
B1
330
B2
330
B3
330
163
330
31
330
32
330
33
330
34
330
35
330
36
330
37
330
38
330
39
330
3A
330
3F
330
40
330
41
330
42
330
44
330
45
330
46
330
47
330
48
330
49
330
4A
330
4C
330
4E
330
4F
330
50
330
51
330
52
330
53
330
54
330
55
330
56
330
5C
330
5D
330
5E
330
5F
330
68
330
69
330
6A
330
6B
330
6C
330
6D
330
6F
330
71
330
73
330
75
330
7A
330
7B
330
7C
  0
IDBUFFER
  5
29E
330
0
100
AcDbIdBuffer
330
76
330
78
330
83
330
84
330
85
330
86
330
8B
330
8C
330
C9
330
CA
330
CB
330
CC
330
3B
330
3C
330
43
330
4B
330
4D
330
57
330
60
330
61
330
62
330
63
330
64
330
65
330
66
330
67
330
6E
330
74
  0
IDBUFFER
  5
29F
330
0
100
AcDbIdBuffer
330
C4
330
C5
330
C6
330
C7
330
C8
330
B4
330
B5
330
B6
330
B7
330
B8
330
B9
330
BA
330
BB
330
BC
330
BD
330
BE
330
BF
330
C0
330
C1
330
C2
330
C3
  0
IDBUFFER
  5
2A0
330
0
100
AcDbIdBuffer
330
18E
330
18F
330
190
330
191
330
192
330
193
330
194
330
195
330
196
330
197
330
198
330
199
330
19A
330
19B
330
19C
330
19D
330
19E
330
19F
330
1A0
330
1A1
330
1A2
330
1A3
330
1A4
330
1A5
330
1A6
330
1A7
330
1A8
330
1A9
330
1AA
330
1AB
330
1AC
330
1AD
330
1AE
330
1AF
330
1B0
330
1B1
330
1B2
330
1B3
330
1B4
330
1B5
330
1B6
330
1B7
330
1B8
330
1B9
330
1BA
330
1BB
330
1BC
330
1BD
330
1BE
330
1BF
330
1C0
330
1C1
330
1C2
330
1C3
330
1C4
330
1C5
330
1C6
330
1C7
330
1C8
330
1C9
330
1CA
330
1CB
330
1CC
330
1CD
330
15D
330
15E
330
15F
330
160
330
161
330
162
330
164
330
165
330
166
330
167
330
168
330
169
330
16A
330
16B
330
16C
330
16D
330
16E
330
16F
330
170
330
171
330
172
330
173
330
174
330
175
330
176
330
177
330
178
330
179
330
17A
330
17B
330
17C
330
17D
330
17E
330
17F
330
180
330
181
330
182
330
183
330
184
330
185
330
186
330
187
330
188
330
189
330
18A
330
18B
330
18C
330
18D
  0
ENDSEC
  0
EOF
