  0
SECTION
  2
HEADER
  9
$ACADVER
  1
AC1009
  9
$INSBASE
 10
0.0
 20
0.0
 30
0.0
  9
$EXTMIN
 10
26.999999999999918
 20
-8.8866346659299467
 30
0.0
  9
$EXTMAX
 10
601.20886897220316
 20
395.0
 30
0.0
  9
$LIMMIN
 10
0.0
 20
0.0
  9
$LIMMAX
 10
594.0
 20
420.0
  9
$ORTHOMODE
 70
     0
  9
$REGENMODE
 70
     1
  9
$FILLMODE
 70
     1
  9
$QTEXTMODE
 70
     0
  9
$MIRRTEXT
 70
     1
  9
$DRAGMODE
 70
     2
  9
$LTSCALE
 40
1.0
  9
$OSMODE
 70
    39
  9
$ATTMODE
 70
     1
  9
$TEXTSIZE
 40
3.0
  9
$TRACEWID
 40
0.05
  9
$TEXTSTYLE
  7
ITALICT
  9
$CLAYER
  8
0
  9
$CELTYPE
  6
CONTINUOUS
  9
$CECOLOR
 62
   256
  9
$DIMSCALE
 40
1.0
  9
$DIMASZ
 40
3.0
  9
$DIMEXO
 40
1.0
  9
$DIMDLI
 40
1.4824161510814720E+016
  9
$DIMRND
 40
0.0
  9
$DIMDLE
 40
0.0
  9
$DIMEXE
 40
1.0
  9
$DIMTP
 40
0.15
  9
$DIMTM
 40
-0.1
  9
$DIMTXT
 40
3.0
  9
$DIMCEN
 40
2.0
  9
$DIMTSZ
 40
0.0
  9
$DIMTOL
 70
     0
  9
$DIMLIM
 70
     0
  9
$DIMTIH
 70
     0
  9
$DIMTOH
 70
     0
  9
$DIMSE1
 70
     0
  9
$DIMSE2
 70
     0
  9
$DIMTAD
 70
     1
  9
$DIMZIN
 70
     0
  9
$DIMBLK
  1

  9
$DIMASO
 70
     0
  9
$DIMSHO
 70
     0
  9
$DIMPOST
  1

  9
$DIMAPOST
  1

  9
$DIMALT
 70
     0
  9
$DIMALTD
 70
     2
  9
$DIMALTF
 40
25.399999999999999
  9
$DIMLFAC
 40
1.0
  9
$DIMTOFL
 70
     1
  9
$DIMTVP
 40
1.0
  9
$DIMTIX
 70
     0
  9
$DIMSOXD
 70
     0
  9
$DIMSAH
 70
     0
  9
$DIMBLK1
  1

  9
$DIMBLK2
  1

  9
$DIMSTYLE
  2
STANDARD
  9
$DIMCLRD
 70
     0
  9
$DIMCLRE
 70
     0
  9
$DIMCLRT
 70
     0
  9
$DIMTFAC
 40
1.0
  9
$DIMGAP
 40
0.09
  9
$LUNITS
 70
     2
  9
$LUPREC
 70
     2
  9
$SKETCHINC
 40
0.1
  9
$FILLETRAD
 40
0.0
  9
$AUNITS
 70
     0
  9
$AUPREC
 70
     2
  9
$MENU
  1
ACAD
  9
$ELEVATION
 40
0.0
  9
$PELEVATION
 40
0.0
  9
$THICKNESS
 40
0.0
  9
$LIMCHECK
 70
     0
  9
$BLIPMODE
 70
     0
  9
$CHAMFERA
 40
0.5
  9
$CHAMFERB
 40
0.5
  9
$SKPOLY
 70
     1
  9
$TDCREATE
 40
2450580.7034460641
  9
$TDUPDATE
 40
2451928.4233678821
  9
$TDINDWG
 40
0.1118725926
  9
$TDUSRTIMER
 40
0.1118725926
  9
$USRTIMER
 70
     1
  9
$ANGBASE
 50
0.0
  9
$ANGDIR
 70
     0
  9
$PDMODE
 70
     0
  9
$PDSIZE
 40
0.0
  9
$PLINEWID
 40
0.0
  9
$COORDS
 70
     2
  9
$SPLFRAME
 70
     0
  9
$SPLINETYPE
 70
     6
  9
$SPLINESEGS
 70
     8
  9
$ATTDIA
 70
     0
  9
$ATTREQ
 70
     1
  9
$HANDLING
 70
 12289
  9
$HANDSEED
  5
21E2
  9
$SURFTAB1
 70
     6
  9
$SURFTAB2
 70
     6
  9
$SURFTYPE
 70
     6
  9
$SURFU
 70
     6
  9
$SURFV
 70
     6
  9
$UCSNAME
  2

  9
$UCSORG
 10
0.0
 20
0.0
 30
0.0
  9
$UCSXDIR
 10
1.0
 20
0.0
 30
0.0
  9
$UCSYDIR
 10
0.0
 20
1.0
 30
0.0
  9
$PUCSNAME
  2

  9
$PUCSORG
 10
0.0
 20
0.0
 30
0.0
  9
$PUCSXDIR
 10
1.0
 20
0.0
 30
0.0
  9
$PUCSYDIR
 10
0.0
 20
1.0
 30
0.0
  9
$USERI1
 70
     0
  9
$USERI2
 70
-31485
  9
$USERI3
 70
     0
  9
$USERI4
 70
     0
  9
$USERI5
 70
     0
  9
$USERR1
 40
0.0
  9
$USERR2
 40
0.0
  9
$USERR3
 40
0.0
  9
$USERR4
 40
0.0
  9
$USERR5
 40
0.0
  9
$WORLDVIEW
 70
     1
  9
$SHADEDGE
 70
     3
  9
$SHADEDIF
 70
    70
  9
$TILEMODE
 70
     1
  9
$MAXACTVP
 70
    48
  9
$PLIMCHECK
 70
     0
  9
$PEXTMIN
 10
1.0000000000000000E+020
 20
1.0000000000000000E+020
 30
1.0000000000000000E+020
  9
$PEXTMAX
 10
-1.0000000000000000E+020
 20
-1.0000000000000000E+020
 30
-1.0000000000000000E+020
  9
$PLIMMIN
 10
0.0
 20
0.0
  9
$PLIMMAX
 10
12.0
 20
9.0
  9
$UNITMODE
 70
     0
  9
$VISRETAIN
 70
     1
  9
$PLINEGEN
 70
     0
  9
$PSLTSCALE
 70
     0
  0
ENDSEC
  0
SECTION
  2
TABLES
  0
TABLE
  2
VPORT
 70
     2
  0
VPORT
  2
*ACTIVE
 70
     0
 10
0.0
 20
0.0
 11
1.0
 21
1.0
 12
314.12053168358159
 22
193.0559140782056
 13
0.0
 23
0.0
 14
1.0
 24
1.0
 15
0.0
 25
0.0
 16
0.0
 26
0.0
 36
1.0
 17
0.0
 27
0.0
 37
0.0
 40
408.37066418353089
 41
1.7274401473296499
 42
1.0
 43
0.0
 44
0.0
 50
0.0
 51
0.0
 71
     0
 72
   100
 73
     1
 74
     1
 75
     0
 76
     0
 77
     0
 78
     0
  0
ENDTAB
  0
TABLE
  2
LTYPE
 70
     3
  0
LTYPE
  2
CONTINUOUS
 70
     0
  3
Solid line
 72
    65
 73
     0
 40
0.0
  0
LTYPE
  2
CENTER
 70
     0
  3
_______________ _ _______________ _ ___________
 72
    65
 73
     4
 40
18.0
 49
15.0
 49
-1.0
 49
1.0
 49
-1.0
  0
LTYPE
  2
HIDDEN
 70
     0
  3
___ ___ ___ ___ ___ ___ ___ ___ ___ ___ 
 72
    65
 73
     2
 40
4.0
 49
3.0
 49
-1.0
  0
ENDTAB
  0
TABLE
  2
LAYER
 70
     7
  0
LAYER
  2
0
 70
     0
 62
     7
  6
CONTINUOUS
  0
LAYER
  2
DIM
 70
     0
 62
     5
  6
CONTINUOUS
  0
LAYER
  2
LOGO
 70
     0
 62
     7
  6
CONTINUOUS
  0
LAYER
  2
CENTER
 70
     0
 62
     1
  6
CENTER
  0
LAYER
  2
HIDDEN
 70
     0
 62
     6
  6
HIDDEN
  0
ENDTAB
  0
TABLE
  2
STYLE
 70
     5
  0
STYLE
  2
STANDARD
 70
     0
 40
0.0
 41
1.0
 50
0.0
 71
     0
 42
3.0
  3
txt
  4

  0
STYLE
  2
ITALICT
 70
     0
 40
0.0
 41
1.0
 50
0.0
 71
     0
 42
3.0
  3
ITALICT.SHX
  4

  0
STYLE
  2
ROMANSS
 70
     0
 40
0.0
 41
1.0
 50
0.0
 71
     0
 42
3.0
  3
ROMANSS.SHX
  4
LMP
  0
STYLE
  2
CHINESET
 70
     0
 40
0.0
 41
1.0
 50
0.0
 71
     0
 42
4.0
  3
C:\r13\com\fonts\simplex.shx
  4
C:\r13\com\fonts\chineset.shx
  0
STYLE
  2
LOGO
 70
     0
 40
0.0
 41
1.0
 50
0.0
 71
     0
 42
5.0
  3
txt
  4

  0
ENDTAB
  0
TABLE
  2
VIEW
 70
     0
  0
ENDTAB
  0
TABLE
  2
UCS
 70
     0
  0
ENDTAB
  0
TABLE
  2
APPID
 70
     2
  0
APPID
  2
ACAD
 70
     0
  0
APPID
  2
TCAD
 70
     0
  0
ENDTAB
  0
TABLE
  2
DIMSTYLE
 70
     1
  0
DIMSTYLE
  2
STANDARD
 70
     0
  3

  4

  5

  6

  7

 40
1.0
 41
0.18
 42
0.0625
 43
0.38
 44
0.18
 45
0.0
 46
0.0
 47
0.0
 48
0.0
140
0.18
141
0.09
142
0.0
143
25.399999999999999
144
1.0
145
0.0
146
1.0
147
0.09
 71
     0
 72
     0
 73
     1
 74
     1
 75
     0
 76
     0
 77
     0
 78
     0
170
     0
171
     2
172
     0
173
     0
174
     0
175
     0
176
     0
177
     0
178
     0
  0
ENDTAB
  0
ENDSEC
  0
SECTION
  2
BLOCKS
  0
BLOCK
  8
0
  2
$MODEL_SPACE
 70
     0
 10
0.0
 20
0.0
 30
0.0
  3
$MODEL_SPACE
  1

  0
ENDBLK
  5
41
  8
0
  0
BLOCK
 67
     1
  8
0
  2
$PAPER_SPACE
 70
     0
 10
0.0
 20
0.0
 30
0.0
  3
$PAPER_SPACE
  1

  0
ENDBLK
  5
3F
 67
     1
  8
0
  0
BLOCK
  8
0
  2
HB_T2-M10
 70
     0
 10
0.0
 20
0.0
 30
0.0
  3
HB_T2-M10
  1

  0
POLYLINE
  5
A99
  8
0
  6
CONTINUOUS
 66
     1
 10
0.0
 20
0.0
 30
0.0
  0
VERTEX
  5
2160
  8
0
  6
CONTINUOUS
 10
-7.0
 20
0.0
 30
0.0
  0
VERTEX
  5
2161
  8
0
  6
CONTINUOUS
 10
-7.0
 20
8.25
 30
0.0
  0
VERTEX
  5
2162
  8
0
  6
CONTINUOUS
 10
-6.1050808314084861
 20
9.7999999999992724
 30
0.0
  0
VERTEX
  5
2163
  8
0
  6
CONTINUOUS
 10
0.0
 20
9.7999999999992724
 30
0.0
  0
VERTEX
  5
2164
  8
0
  6
CONTINUOUS
 10
0.0
 20
0.0
 30
0.0
  0
SEQEND
  5
2165
  8
0
  6
CONTINUOUS
  0
LINE
  5
AA0
  8
0
  6
CONTINUOUS
 10
-6.139999999999417
 20
5.0
 30
0.0
 11
0.0
 21
5.0
 31
0.0
  0
POLYLINE
  5
AA1
  8
0
  6
CONTINUOUS
 66
     1
 10
0.0
 20
0.0
 30
0.0
  0
VERTEX
  5
2166
  8
0
  6
CONTINUOUS
 10
-6.5525404157033327
 20
9.0249999999996362
 30
0.0
 42
0.3158477786506792
  0
VERTEX
  5
2167
  8
0
  6
CONTINUOUS
 10
-6.139999999999417
 20
5.0
 30
0.0
 42
0.085170391833105
  0
VERTEX
  5
2168
  8
0
  6
CONTINUOUS
 10
-7.0
 20
0.0
 30
0.0
  0
SEQEND
  5
2169
  8
0
  6
CONTINUOUS
  0
POLYLINE
  5
AA6
  8
0
  6
CONTINUOUS
 66
     1
 10
0.0
 20
0.0
 30
0.0
  0
VERTEX
  5
216A
  8
0
  6
CONTINUOUS
 10
-7.0
 20
0.0
 30
0.0
  0
VERTEX
  5
216B
  8
0
  6
CONTINUOUS
 10
-7.0
 20
-8.25
 30
0.0
  0
VERTEX
  5
216C
  8
0
  6
CONTINUOUS
 10
-6.1050808314084861
 20
-9.7999999999992724
 30
0.0
  0
VERTEX
  5
216D
  8
0
  6
CONTINUOUS
 10
0.0
 20
-9.7999999999992724
 30
0.0
  0
VERTEX
  5
216E
  8
0
  6
CONTINUOUS
 10
0.0
 20
0.0
 30
0.0
  0
SEQEND
  5
216F
  8
0
  6
CONTINUOUS
  0
LINE
  5
AAD
  8
0
  6
CONTINUOUS
 10
-6.139999999999417
 20
-5.0
 30
0.0
 11
0.0
 21
-5.0
 31
0.0
  0
POLYLINE
  5
AAE
  8
0
  6
CONTINUOUS
 66
     1
 10
0.0
 20
0.0
 30
0.0
  0
VERTEX
  5
2170
  8
0
  6
CONTINUOUS
 10
-6.5525404157033327
 20
-9.0249999999996362
 30
0.0
 42
-0.3158477786506792
  0
VERTEX
  5
2171
  8
0
  6
CONTINUOUS
 10
-6.139999999999417
 20
-5.0
 30
0.0
 42
-0.085170391833105
  0
VERTEX
  5
2172
  8
0
  6
CONTINUOUS
 10
-7.0
 20
0.0
 30
0.0
  0
SEQEND
  5
2173
  8
0
  6
CONTINUOUS
  0
ENDBLK
  5
AB3
  8
0
  0
ENDSEC
  0
SECTION
  2
ENTITIES
  0
LINE
  5
B55
  8
0
 62
     4
 10
450.68984515976263
 20
395.0
 30
0.0
 11
450.68984515976263
 21
67.0
 31
0.0
  0
LINE
  5
B56
  8
0
 62
     4
 10
27.0
 20
67.0
 30
0.0
 11
27.0
 21
395.0
 31
0.0
  0
LINE
  5
B57
  8
0
 62
     4
 10
601.20886897220316
 20
67.0
 30
0.0
 11
27.0
 21
67.0
 31
0.0
  0
LINE
  5
B59
  8
0
 62
     4
 10
27.0
 20
395.0
 30
0.0
 11
601.20886897220316
 21
395.0
 31
0.0
  0
LINE
  5
EE3
  8
DIM
 10
472.22927611560539
 20
207.97256626752551
 30
0.0
 11
530.22927611560544
 21
207.97256626752551
 31
0.0
  0
LINE
  5
EE4
  8
DIM
 10
462.22927611560527
 20
199.97256626752551
 30
0.0
 11
540.22927611560544
 21
199.97256626752551
 31
0.0
  0
LINE
  5
EE5
  8
CENTER
  6
CENTER
 10
460.22927611560539
 20
284.08262215502702
 30
0.0
 11
542.1696953425253
 21
284.08262215502702
 31
0.0
  0
LINE
  5
EE6
  8
CENTER
  6
CENTER
 10
513.52612514078749
 20
257.97256626752539
 30
0.0
 11
542.22927611560544
 21
257.97256626752539
 31
0.0
  0
LINE
  5
EE7
  8
CENTER
  6
CENTER
 10
459.68147141072473
 20
246.97256626752551
 30
0.0
 11
542.22927611560544
 21
246.97256626752551
 31
0.0
  0
LINE
  5
EE8
  8
0
 10
464.22927611560539
 20
215.97256626752559
 30
0.0
 11
538.22927611560544
 21
215.97256626752551
 31
0.0
  0
LINE
  5
EE9
  8
0
 10
517.22927611560544
 20
263.97256626752551
 30
0.0
 11
529.22927611560544
 21
263.97256626752551
 31
0.0
  0
LINE
  5
EEA
  8
0
 10
462.72927611560539
 20
290.08262215502702
 30
0.0
 11
539.72927611560544
 21
290.08262215502702
 31
0.0
  0
LINE
  5
EEB
  8
0
 10
462.72927611560539
 20
278.08262215502702
 30
0.0
 11
539.72927611560544
 21
278.08262215502702
 31
0.0
  0
LINE
  5
EEC
  8
DIM
 10
472.22927611560539
 20
238.50389284079441
 30
0.0
 11
472.22927611560539
 21
206.97256626752551
 31
0.0
  0
LINE
  5
EED
  8
0
 10
516.22927611560544
 20
233.97256626752559
 30
0.0
 11
516.22927611560544
 21
262.97256626752551
 31
0.0
  0
LINE
  5
EEE
  8
0
 10
486.22927611560539
 20
233.97256626752559
 30
0.0
 11
486.22927611560539
 21
262.97256626752551
 31
0.0
  0
LINE
  5
EEF
  8
CENTER
  6
CENTER
 10
501.22927611560539
 20
212.97256626752551
 30
0.0
 11
501.22927611560539
 21
264.97256626752551
 31
0.0
  0
LINE
  5
EF0
  8
0
 10
462.22927611560539
 20
217.97256626752559
 30
0.0
 11
462.22927611560527
 21
263.47256626752551
 31
0.0
  0
SOLID
  5
EF1
  8
DIM
 10
475.22927611560539
 20
208.47256626752551
 30
0.0
 11
475.22927611560539
 21
207.47256626752551
 31
0.0
 12
472.22927611560539
 22
207.97256626752551
 32
0.0
 13
472.22927611560539
 23
207.97256626752551
 33
0.0
  0
LINE
  5
EF2
  8
DIM
 10
462.22927611560527
 20
215.22903742845929
 30
0.0
 11
462.22927611560527
 21
198.97256626752551
 31
0.0
  0
SOLID
  5
EF3
  8
DIM
 10
465.22927611560527
 20
200.47256626752551
 30
0.0
 11
465.22927611560527
 21
199.47256626752551
 31
0.0
 12
462.22927611560527
 22
199.97256626752551
 32
0.0
 13
462.22927611560527
 23
199.97256626752551
 33
0.0
  0
LINE
  5
EF4
  8
0
 10
462.22927611560539
 20
217.97256626752559
 30
0.0
 11
464.22927611560539
 21
215.97256626752559
 31
0.0
  0
TEXT
  5
EF5
  8
DIM
 10
498.800704687034
 20
201.1725662675255
 30
0.0
 40
3.0
  1
78
  7
CHINESET
 72
     1
 11
501.22927611560539
 21
202.6725662675255
 31
0.0
 73
     2
  0
LINE
  5
EF6
  8
0
 10
488.22927611560539
 20
231.97256626752559
 30
0.0
 11
514.22927611560544
 21
231.97256626752559
 31
0.0
  0
ARC
  5
EF7
  8
0
 10
488.22927611560539
 20
233.97256626752559
 30
0.0
 40
2.0
 50
180.0
 51
270.0
  0
TEXT
  5
EF8
  8
DIM
 10
499.1820590661888
 20
209.239002406873
 30
0.0
 40
3.0
  1
58
  7
CHINESET
 72
     1
 11
501.6106304947603
 21
210.739002406873
 31
0.0
 73
     2
  0
ARC
  5
EF9
  8
0
 10
514.22927611560544
 20
233.97256626752559
 30
0.0
 40
2.0
 50
270.0
 51
0.0
  0
LINE
  5
EFA
  8
CENTER
  6
CENTER
 10
460.22927611560527
 20
257.97256626752551
 30
0.0
 11
489.22927611560539
 21
257.97256626752539
 31
0.0
  0
LINE
  5
EFB
  8
0
 10
471.22927611560539
 20
281.58262215502702
 30
0.0
 11
473.22927611560539
 21
281.58262215502691
 31
0.0
  0
LINE
  5
EFC
  8
0
 10
471.22927611560539
 20
286.58262215502702
 30
0.0
 11
473.22927611560539
 21
286.58262215502702
 31
0.0
  0
LINE
  5
EFD
  8
0
 10
471.22927611560539
 20
255.47256626752551
 30
0.0
 11
473.22927611560539
 21
255.47256626752551
 31
0.0
  0
LINE
  5
EFE
  8
0
 10
471.22927611560539
 20
260.47256626752551
 30
0.0
 11
473.22927611560539
 21
260.47256626752551
 31
0.0
  0
ARC
  5
EFF
  8
0
 10
472.22927611560539
 20
246.97256626752551
 30
0.0
 40
5.0
 50
101.5369590328181
 51
78.463040967181868
  0
LINE
  5
F00
  8
0
 10
471.22927611560539
 20
251.87154575309191
 30
0.0
 11
471.22927611560539
 21
263.97256626752551
 31
0.0
  0
LINE
  5
F01
  8
CENTER
  6
CENTER
 10
472.22927611560539
 20
238.97256626752551
 30
0.0
 11
472.22927611560539
 21
264.97256626752551
 31
0.0
  0
LINE
  5
F02
  8
0
 10
462.72927611560527
 20
263.97256626752551
 30
0.0
 11
471.22927611560539
 21
263.97256626752551
 31
0.0
  0
LINE
  5
F03
  8
0
 10
462.22927611560527
 20
263.47256626752551
 30
0.0
 11
462.72927611560527
 21
263.97256626752551
 31
0.0
  0
LINE
  5
F04
  8
0
 10
471.22927611560539
 20
278.08262215502702
 30
0.0
 11
471.22927611560539
 21
290.08262215502702
 31
0.0
  0
LINE
  5
F05
  8
CENTER
  6
CENTER
 10
472.22927611560539
 20
276.08262215502702
 30
0.0
 11
472.22927611560539
 21
292.08262215502702
 31
0.0
  0
LINE
  5
F06
  8
0
 10
462.22927611560539
 20
278.58262215502702
 30
0.0
 11
462.22927611560539
 21
289.58262215502702
 31
0.0
  0
LINE
  5
F07
  8
0
 10
462.22927611560539
 20
278.58262215502702
 30
0.0
 11
462.72927611560539
 21
278.08262215502702
 31
0.0
  0
LINE
  5
F08
  8
0
 10
462.22927611560539
 20
289.58262215502702
 30
0.0
 11
462.72927611560539
 21
290.08262215502702
 31
0.0
  0
LINE
  5
F09
  8
0
 10
473.22927611560539
 20
251.87154575309191
 30
0.0
 11
473.22927611560539
 21
263.97256626752551
 31
0.0
  0
LINE
  5
F0A
  8
0
 10
473.22927611560539
 20
263.97256626752551
 30
0.0
 11
485.22927611560539
 21
263.97256626752551
 31
0.0
  0
LINE
  5
F0B
  8
0
 10
485.22927611560539
 20
263.97256626752551
 30
0.0
 11
486.22927611560539
 21
262.97256626752551
 31
0.0
  0
LINE
  5
F0C
  8
0
 10
516.22927611560544
 20
262.97256626752551
 30
0.0
 11
517.22927611560544
 21
263.97256626752551
 31
0.0
  0
LINE
  5
F0D
  8
0
 10
473.22927611560539
 20
278.08262215502702
 30
0.0
 11
473.22927611560539
 21
290.08262215502702
 31
0.0
  0
LINE
  5
F0E
  8
0
 10
486.22927611560539
 20
278.08262215502702
 30
0.0
 11
486.22927611560539
 21
290.08262215502702
 31
0.0
  0
LINE
  5
F0F
  8
0
 10
516.22927611560544
 20
278.08262215502702
 30
0.0
 11
516.22927611560544
 21
290.08262215502702
 31
0.0
  0
LINE
  5
F10
  8
CENTER
  6
CENTER
 10
501.22927611560539
 20
276.08262215502702
 30
0.0
 11
501.22927611560539
 21
292.70854945066179
 31
0.0
  0
LINE
  5
F11
  8
DIM
 10
530.22927611560544
 20
238.52075323560581
 30
0.0
 11
530.22927611560544
 21
206.97256626752551
 31
0.0
  0
LINE
  5
F12
  8
CENTER
  6
CENTER
 10
582.44596131039225
 20
213.1685525897548
 30
0.0
 11
582.44596131039225
 21
266.39561250258822
 31
0.0
  0
LINE
  5
F13
  8
0
 10
576.44596131039225
 20
215.97256626752551
 30
0.0
 11
576.44596131039225
 21
263.97256626752539
 31
0.0
  0
LINE
  5
F14
  8
0
 10
588.44596131039225
 20
215.97256626752551
 30
0.0
 11
588.44596131039225
 21
263.97256626752539
 31
0.0
  0
LINE
  5
F15
  8
DIM
 10
556.22927611560544
 20
215.97256626752559
 30
0.0
 11
556.22927611560544
 21
263.97256626752562
 31
0.0
  0
LINE
  5
F16
  8
DIM
 10
548.22927611560544
 20
215.97256626752559
 30
0.0
 11
548.22927611560544
 21
263.97256626752539
 31
0.0
  0
LINE
  5
F17
  8
0
 10
540.22927611560544
 20
217.97256626752551
 30
0.0
 11
540.22927611560544
 21
263.47256626752551
 31
0.0
  0
LINE
  5
F18
  8
DIM
 10
540.22927611560544
 20
215.34487991948981
 30
0.0
 11
540.22927611560544
 21
198.97256626752551
 31
0.0
  0
SOLID
  5
F19
  8
DIM
 10
537.22927611560544
 20
200.47256626752551
 30
0.0
 11
537.22927611560544
 21
199.47256626752551
 31
0.0
 12
540.22927611560544
 22
199.97256626752551
 32
0.0
 13
540.22927611560544
 23
199.97256626752551
 33
0.0
  0
LINE
  5
F1A
  8
DIM
 10
539.22927611560544
 20
215.97256626752559
 30
0.0
 11
557.22927611560544
 21
215.97256626752559
 31
0.0
  0
SOLID
  5
F1B
  8
DIM
 10
527.22927611560544
 20
208.47256626752551
 30
0.0
 11
527.22927611560544
 21
207.47256626752551
 31
0.0
 12
530.22927611560544
 22
207.97256626752551
 32
0.0
 13
530.22927611560544
 23
207.97256626752551
 33
0.0
  0
LINE
  5
F1C
  8
0
 10
540.22927611560544
 20
217.97256626752551
 30
0.0
 11
538.22927611560544
 21
215.97256626752551
 31
0.0
  0
SOLID
  5
F1D
  8
DIM
 10
548.64594278227207
 20
218.47256626752559
 30
0.0
 11
547.8126094489387
 21
218.47256626752559
 31
0.0
 12
548.22927611560544
 22
215.97256626752559
 32
0.0
 13
548.22927611560544
 23
215.97256626752559
 33
0.0
  0
SOLID
  5
F1E
  8
DIM
 10
556.64594278227196
 20
218.47256626752559
 30
0.0
 11
555.81260944893882
 21
218.47256626752559
 31
0.0
 12
556.22927611560544
 22
215.97256626752559
 32
0.0
 13
556.22927611560544
 23
215.97256626752559
 33
0.0
  0
TEXT
  5
F1F
  8
DIM
 10
547.32927611560535
 20
231.26993187484931
 30
0.0
 40
3.0
  1
31
 50
90.0
  7
CHINESET
 72
     1
 11
545.82927611560535
 21
233.05564616056361
 31
0.0
 73
     2
  0
LINE
  5
F20
  8
0
 10
576.44596131039225
 20
215.97256626752551
 30
0.0
 11
588.44596131039225
 21
215.97256626752551
 31
0.0
  0
LINE
  5
F21
  8
HIDDEN
  6
HIDDEN
 10
576.44596131039225
 20
231.97256626752559
 30
0.0
 11
588.44596131039225
 21
231.97256626752559
 31
0.0
  0
LINE
  5
F22
  8
DIM
 10
540.72927611560544
 20
263.97256626752551
 30
0.0
 11
557.22927611560544
 21
263.97256626752551
 31
0.0
  0
LINE
  5
F23
  8
0
 10
529.22927611560544
 20
251.87154575309191
 30
0.0
 11
529.22927611560544
 21
263.97256626752551
 31
0.0
  0
LINE
  5
F24
  8
0
 10
531.22927611560544
 20
251.87154575309191
 30
0.0
 11
531.22927611560544
 21
263.97256626752551
 31
0.0
  0
LINE
  5
F25
  8
CENTER
  6
CENTER
 10
530.22927611560544
 20
238.97256626752551
 30
0.0
 11
530.22927611560544
 21
264.97256626752551
 31
0.0
  0
ARC
  5
F26
  8
0
 10
530.22927611560544
 20
246.97256626752551
 30
0.0
 40
5.0
 50
101.53695903281169
 51
78.463040967181868
  0
LINE
  5
F27
  8
0
 10
531.22927611560544
 20
255.47256626752551
 30
0.0
 11
529.22927611560544
 21
255.47256626752551
 31
0.0
  0
LINE
  5
F28
  8
0
 10
531.22927611560544
 20
260.47256626752551
 30
0.0
 11
529.22927611560544
 21
260.47256626752551
 31
0.0
  0
LINE
  5
F29
  8
0
 10
531.22927611560544
 20
263.97256626752551
 30
0.0
 11
539.72927611560544
 21
263.97256626752551
 31
0.0
  0
LINE
  5
F2A
  8
0
 10
539.72927611560544
 20
263.97256626752551
 30
0.0
 11
540.22927611560544
 21
263.47256626752551
 31
0.0
  0
TEXT
  5
F2B
  8
DIM
 10
555.32927611560535
 20
237.4651349214889
 30
0.0
 40
3.0
  1
48
 50
90.0
  7
CHINESET
 72
     1
 11
553.82927611560535
 21
239.89370635006031
 31
0.0
 73
     2
  0
SOLID
  5
F2C
  8
DIM
 10
547.8126094489387
 20
244.47256626752551
 30
0.0
 11
548.64594278227207
 21
244.47256626752551
 31
0.0
 12
548.22927611560544
 22
246.97256626752551
 32
0.0
 13
548.22927611560544
 23
246.97256626752551
 33
0.0
  0
SOLID
  5
F2D
  8
DIM
 10
547.8126094489387
 20
249.47256626752551
 30
0.0
 11
548.64594278227207
 21
249.47256626752551
 31
0.0
 12
548.22927611560544
 22
246.97256626752551
 32
0.0
 13
548.22927611560544
 23
246.97256626752551
 33
0.0
  0
LINE
  5
F2E
  8
DIM
 10
544.01449821523238
 20
246.97256626752551
 30
0.0
 11
549.22927611560544
 21
246.97256626752551
 31
0.0
  0
TEXT
  5
F2F
  8
DIM
 10
547.32927611560535
 20
253.3297091246684
 30
0.0
 40
3.0
  1
17
 50
90.0
  7
CHINESET
 72
     1
 11
545.82927611560535
 21
255.47256626752551
 31
0.0
 73
     2
  0
SOLID
  5
F30
  8
DIM
 10
547.8126094489387
 20
261.47256626752551
 30
0.0
 11
548.64594278227207
 21
261.47256626752551
 31
0.0
 12
548.22927611560544
 22
263.97256626752551
 32
0.0
 13
548.22927611560544
 23
263.97256626752551
 33
0.0
  0
SOLID
  5
F31
  8
DIM
 10
556.64594278227196
 20
261.47256626752551
 30
0.0
 11
555.81260944893882
 21
261.47256626752551
 31
0.0
 12
556.22927611560544
 22
263.97256626752551
 32
0.0
 13
556.22927611560544
 23
263.97256626752551
 33
0.0
  0
LINE
  5
F32
  8
DIM
 10
540.72927611560544
 20
290.08262215502702
 30
0.0
 11
551.54244882289629
 21
290.08262215502702
 31
0.0
  0
LINE
  5
F33
  8
DIM
 10
540.72927611560544
 20
278.08262215502702
 30
0.0
 11
551.54244882289629
 21
278.08262215502702
 31
0.0
  0
LINE
  5
F34
  8
0
 10
531.22927611560544
 20
278.08262215502702
 30
0.0
 11
531.22927611560544
 21
290.08262215502702
 31
0.0
  0
LINE
  5
F35
  8
0
 10
529.22927611560544
 20
278.08262215502702
 30
0.0
 11
529.22927611560544
 21
290.08262215502702
 31
0.0
  0
LINE
  5
F36
  8
CENTER
  6
CENTER
 10
530.22927611560544
 20
276.08262215502702
 30
0.0
 11
530.22927611560544
 21
292.08262215502702
 31
0.0
  0
LINE
  5
F37
  8
0
 10
540.22927611560544
 20
278.58262215502702
 30
0.0
 11
540.22927611560544
 21
289.58262215502702
 31
0.0
  0
LINE
  5
F38
  8
0
 10
531.22927611560544
 20
281.58262215502702
 30
0.0
 11
529.22927611560544
 21
281.58262215502702
 31
0.0
  0
LINE
  5
F39
  8
0
 10
539.72927611560544
 20
278.08262215502702
 30
0.0
 11
540.22927611560544
 21
278.58262215502702
 31
0.0
  0
LINE
  5
F3A
  8
0
 10
531.22927611560544
 20
286.58262215502702
 30
0.0
 11
529.22927611560544
 21
286.58262215502702
 31
0.0
  0
LINE
  5
F3B
  8
0
 10
539.72927611560544
 20
290.08262215502702
 30
0.0
 11
540.22927611560544
 21
289.58262215502702
 31
0.0
  0
TEXT
  5
F3C
  8
DIM
 10
549.34244882289624
 20
281.9397650121698
 30
0.0
 40
3.0
  1
12
 50
90.0
  7
CHINESET
 72
     1
 11
547.84244882289624
 21
284.08262215502702
 31
0.0
 73
     2
  0
LINE
  5
F3D
  8
DIM
 10
550.54244882289618
 20
278.08262215502702
 30
0.0
 11
550.54244882289618
 21
290.08262215502702
 31
0.0
  0
SOLID
  5
F3E
  8
DIM
 10
551.04244882289618
 20
281.08262215502702
 30
0.0
 11
550.04244882289618
 21
281.08262215502702
 31
0.0
 12
550.54244882289618
 22
278.08262215502702
 32
0.0
 13
550.54244882289618
 23
278.08262215502702
 33
0.0
  0
SOLID
  5
F3F
  8
DIM
 10
551.04244882289618
 20
287.08262215502702
 30
0.0
 11
550.04244882289618
 21
287.08262215502702
 31
0.0
 12
550.54244882289618
 22
290.08262215502702
 32
0.0
 13
550.54244882289618
 23
290.08262215502702
 33
0.0
  0
LINE
  5
F40
  8
CENTER
  6
CENTER
 10
573.74926560437109
 20
257.97256626752539
 30
0.0
 11
590.71647338393348
 21
257.97256626752539
 31
0.0
  0
LINE
  5
F41
  8
CENTER
  6
CENTER
 10
590.44596131039225
 20
246.97256626752551
 30
0.0
 11
573.82003401475731
 21
246.97256626752551
 31
0.0
  0
LINE
  5
F42
  8
0
 10
576.44596131039225
 20
263.97256626752539
 30
0.0
 11
588.44596131039225
 21
263.97256626752539
 31
0.0
  0
CIRCLE
  5
F43
  8
0
 10
582.44596131039225
 20
257.97256626752539
 30
0.0
 40
3.75
  0
CIRCLE
  5
F44
  8
0
 10
582.44596131039225
 20
257.97256626752539
 30
0.0
 40
4.25
  0
CIRCLE
  5
F45
  8
0
 10
582.44596131039225
 20
257.97256626752539
 30
0.0
 40
4.5
  0
POLYLINE
  5
F46
  8
0
 66
     1
 10
0.0
 20
0.0
 30
0.0
 70
     1
  0
VERTEX
  5
2174
  8
0
 10
583.60066184877144
 20
259.97256626752539
 30
0.0
  0
VERTEX
  5
2175
  8
0
 10
581.29126077201295
 20
259.97256626752539
 30
0.0
  0
VERTEX
  5
2176
  8
0
 10
580.13656023363365
 20
257.97256626752539
 30
0.0
  0
VERTEX
  5
2177
  8
0
 10
581.29126077201295
 20
255.97256626752551
 30
0.0
  0
VERTEX
  5
2178
  8
0
 10
583.60066184877144
 20
255.97256626752551
 30
0.0
  0
VERTEX
  5
2179
  8
0
 10
584.75536238715063
 20
257.97256626752539
 30
0.0
  0
SEQEND
  5
217A
  8
0
  0
LINE
  5
F47
  8
0
 62
     4
 10
601.20886897220316
 20
395.0
 30
0.0
 11
601.20886897220316
 21
67.0
 31
0.0
  0
TEXT
  5
F48
  8
DIM
 10
471.41353250952852
 20
336.55043467984098
 30
0.0
 40
10.0
  1
RP 配件
  7
CHINESET
  0
TEXT
  5
F4C
  8
LOGO
 62
     6
 10
447.78336469100748
 20
11.349801244984629
 30
0.0
 40
10.11821795545732
  1
行程
 41
0.9
  7
CHINESET
 72
     4
 11
456.889760850919
 21
16.408910222713288
 31
0.0
  0
LINE
  5
F4D
  8
LOGO
 62
     6
 10
483.01805804528351
 20
-2.562748443769109
 30
0.0
 11
430.76146365655461
 21
-2.5627484437691939
 31
0.0
  0
LINE
  5
F4E
  8
LOGO
 62
     6
 10
483.01805804528351
 20
25.262350933738531
 30
0.0
 11
430.76146365655461
 21
25.262350933738531
 31
0.0
  0
TEXT
  5
F4F
  8
LOGO
  6
CONTINUOUS
 62
     6
 10
445.44653816319948
 20
0.5991946673112217
 30
0.0
 40
6.3238862221608292
  1
Stroke
 41
0.8
  7
CHINESET
 72
     4
 11
456.889760850919
 21
3.7611377783916349
 31
0.0
  0
TEXT
  5
F50
  8
LOGO
  6
CONTINUOUS
 62
     7
 10
453.8542957900649
 20
41.561028574866789
 30
0.0
 40
12.647772444321649
  1
0
  7
CHINESET
 72
     1
 11
458.0702199381721
 21
47.884914797027619
 31
0.0
 73
     2
  0
LINE
  5
F51
  8
LOGO
 62
     6
 10
477.95894906755478
 20
59.41133653340701
 30
0.0
 11
435.82057263428322
 21
59.41133653340701
 31
0.0
  0
LINE
  5
F52
  8
LOGO
 62
     6
 10
477.95894906755461
 20
36.645346133628003
 30
0.0
 11
435.82057263428322
 21
36.645346133628017
 31
0.0
  0
LINE
  5
F53
  8
LOGO
 62
     1
 10
601.20886897220316
 20
67.0
 30
0.0
 11
27.0
 21
67.0
 31
0.0
  0
LINE
  5
F54
  8
LOGO
 62
     1
 10
601.20886897220316
 20
-8.8866346659299467
 30
0.0
 11
27.0
 21
-8.8866346659299467
 31
0.0
  0
LINE
  5
F55
  8
LOGO
  6
CONTINUOUS
 62
     6
 10
171.28661747978279
 20
46.83185953459553
 30
0.0
 11
185.09966557591611
 21
48.656398432615518
 31
0.0
  0
LINE
  5
F56
  8
LOGO
  6
CONTINUOUS
 62
     6
 10
171.28661747978279
 20
41.668624079221459
 30
0.0
 11
185.09966557591611
 21
39.84408518120145
 31
0.0
  0
LINE
  5
F57
  8
LOGO
 62
     1
 10
193.9505962650457
 20
51.822673066814012
 30
0.0
 11
82.65019875501531
 21
51.822673066814012
 31
0.0
  0
LINE
  5
F58
  8
LOGO
 62
     1
 10
193.9505962650457
 20
36.645346133628017
 30
0.0
 11
82.65019875501531
 21
36.645346133628017
 31
0.0
  0
TEXT
  5
F59
  8
LOGO
 62
     6
 10
154.74375295759231
 20
55.617004800110507
 30
0.0
 40
7.5886634665929931
  1
1 : 1
  7
CHINESET
 72
     1
 11
168.11425525587521
 21
59.41133653340701
 31
0.0
 73
     2
  0
TEXT
  5
F5A
  8
LOGO
 62
     6
 10
154.74375295759231
 20
25.262350933738539
 30
0.0
 40
7.5886634665929931
  1
m/m
  7
CHINESET
 72
     1
 11
168.11425525587521
 21
29.05668266703503
 31
0.0
 73
     2
  0
LINE
  5
F5B
  8
LOGO
 62
     1
 10
193.9505962650457
 20
21.468019200442122
 30
0.0
 11
26.999999999999918
 21
21.468019200442122
 31
0.0
  0
TEXT
  5
F5C
  8
LOGO
  6
CONTINUOUS
 62
     5
 10
29.48389768041563
 20
6.0211801912748149
 30
0.0
 40
11.382995199889489
  1
金器工業股份有限公司
 41
0.8
  7
LOGO
  0
TEXT
  5
F5D
  8
LOGO
  6
CONTINUOUS
 62
     5
 10
32.74330094885476
 20
-5.3640451832125668
 30
0.0
 40
7.5886634665929931
  1
MINDMAN INDUSTRIAL CO.,LTD
 41
0.85
  7
CHINESET
  0
SOLID
  5
F5E
  8
LOGO
 62
     5
 10
34.873360135376181
 20
34.08309205246637
 30
0.0
 11
38.154499091801469
 21
34.08309205246529
 31
0.0
 12
51.844768530681087
 22
65.197340777191073
 32
0.0
 13
55.125907487106112
 23
65.197340777188913
 33
0.0
  0
SOLID
  5
F5F
  8
LOGO
 62
     5
 10
39.5122117634278
 20
34.08309205246637
 30
0.0
 11
42.79335071985281
 21
34.08309205246637
 31
0.0
 12
55.125907487106112
 22
62.708200879211972
 32
0.0
 13
51.844768530681087
 23
50.6773580389847
 33
0.0
  0
SOLID
  5
F60
  8
LOGO
 62
     2
 10
38.154499091801469
 20
34.08309205246529
 30
0.0
 11
39.5122117634278
 21
34.08309205246637
 31
0.0
 12
55.125907487106112
 22
65.197340777188913
 32
0.0
 13
56.483620158731433
 23
65.197340777188913
 33
0.0
  0
SOLID
  5
F61
  8
LOGO
 62
     5
 10
38.248118472440368
 20
28.425955920698161
 30
0.0
 11
39.37954569879286
 21
28.425955920698161
 31
0.0
 12
38.248118472440368
 22
22.768819788931001
 32
0.0
 13
39.37954569879286
 23
22.768819788931001
 33
0.0
  0
SOLID
  5
F62
  8
LOGO
 62
     5
 10
29.612889754392331
 20
22.768819788931001
 30
0.0
 11
30.744316980747112
 21
22.768819788931001
 31
0.0
 12
33.93050411341563
 22
28.425955920698161
 32
0.0
 13
35.061931339768407
 23
28.425955920698161
 33
0.0
  0
SOLID
  5
F63
  8
LOGO
 62
     5
 10
33.93050411341563
 20
28.425955920698161
 30
0.0
 11
35.061931339768407
 21
28.425955920698161
 31
0.0
 12
33.93050411341563
 22
22.768819788931001
 32
0.0
 13
35.061931339768407
 23
22.768819788931001
 33
0.0
  0
SOLID
  5
F64
  8
LOGO
 62
     5
 10
33.93050411341563
 20
22.768819788931001
 30
0.0
 11
35.061931339768407
 21
22.768819788931001
 31
0.0
 12
38.248118472440368
 22
28.425955920698161
 32
0.0
 13
39.37954569879286
 23
28.425955920698161
 33
0.0
  0
LINE
  5
F65
  8
LOGO
 62
     1
 10
27.0
 20
-8.8866346659299467
 30
0.0
 11
27.0
 21
67.0
 31
0.0
  0
TEXT
  5
F66
  8
LOGO
 62
     6
 10
88.907458318764057
 20
55.620739378588162
 30
0.0
 40
7.5886634665929931
  1
比例 Scale:
 41
0.9
  7
CHINESET
 72
     4
 11
113.0048526213872
 21
59.41133653340701
 31
0.0
  0
TEXT
  5
F67
  8
LOGO
 62
     6
 10
91.560102735881145
 20
40.546424568410792
 30
0.0
 40
7.5886634665929931
  1
投影 View:
 41
0.9
  7
CHINESET
 72
     4
 11
113.0048526213872
 21
44.234009600221007
 31
0.0
  0
TEXT
  5
F68
  8
LOGO
 62
     6
 10
92.302030101588244
 20
25.262350933738539
 30
0.0
 40
7.5886634665929931
  1
單位 Unit:
 41
0.9
  7
CHINESET
 72
     4
 11
113.0048526213872
 21
29.05668266703503
 31
0.0
  0
POLYLINE
  5
F69
  8
LOGO
 62
     5
 66
     1
 10
0.0
 20
0.0
 30
0.0
 70
     1
 40
1.13324041101122
 41
1.13324041101122
  0
VERTEX
  5
217B
  8
LOGO
 62
     5
 10
65.795486714874698
 20
25.59738785481402
 30
0.0
 42
1.0
  0
VERTEX
  5
217C
  8
LOGO
 62
     5
 10
70.328448358919502
 20
25.59738785481402
 30
0.0
 42
1.0
  0
SEQEND
  5
217D
  8
LOGO
 62
     5
  0
LINE
  5
F6A
  8
LOGO
 62
     5
 10
76.736167510460035
 20
22.768819788931001
 30
0.0
 11
76.736167510460035
 21
26.163101467990831
 31
0.0
  0
SOLID
  5
F6B
  8
LOGO
 62
     5
 10
69.758995233707452
 20
28.425955920698161
 30
0.0
 11
70.89042246006008
 21
28.425955920698161
 31
0.0
 12
69.758995233707452
 22
22.768819788931001
 32
0.0
 13
70.89042246006008
 23
22.768819788931001
 33
0.0
  0
SOLID
  5
F6C
  8
LOGO
 62
     5
 10
72.210458605045488
 20
22.768819788931001
 30
0.0
 11
73.341885831400134
 21
22.768819788931001
 31
0.0
 12
72.210458605045488
 22
28.425955920698161
 32
0.0
 13
73.341885831400134
 23
28.425955920698161
 33
0.0
  0
SOLID
  5
F6D
  8
LOGO
 62
     5
 10
75.60474028410755
 20
26.163101467990831
 30
0.0
 11
76.736167510460035
 21
26.163101467990678
 31
0.0
 12
75.60474028410755
 22
22.768819788931001
 32
0.0
 13
76.736167510460035
 23
22.768819788931001
 33
0.0
  0
SOLID
  5
F6E
  8
LOGO
 62
     5
 10
53.541796227489613
 20
30.123096760229149
 30
0.0
 11
54.673223453842112
 21
30.123096760229149
 31
0.0
 12
53.541796227489613
 22
22.768819788931001
 32
0.0
 13
54.673223453842112
 23
22.768819788931001
 33
0.0
  0
SOLID
  5
F6F
  8
LOGO
 62
     5
 10
55.993259598830818
 20
28.425955920698161
 30
0.0
 11
57.124686825183467
 21
28.425955920698161
 31
0.0
 12
55.993259598830818
 22
22.768819788931001
 32
0.0
 13
57.124686825183467
 23
22.768819788931001
 33
0.0
  0
SOLID
  5
F70
  8
LOGO
 62
     5
 10
59.38754127789074
 20
26.163101467990831
 30
0.0
 11
60.518968504243382
 21
26.163101467990831
 31
0.0
 12
59.38754127789074
 22
22.768819788931001
 32
0.0
 13
60.518968504243382
 23
22.768819788931001
 33
0.0
  0
SOLID
  5
F71
  8
LOGO
 62
     5
 10
62.781822956950798
 20
26.163101467990831
 30
0.0
 11
63.91325018330329
 21
26.163101467990831
 31
0.0
 12
62.781822956950798
 22
22.768819788928841
 32
0.0
 13
63.91325018330329
 23
22.768819788928841
 33
0.0
  0
LINE
  5
F72
  8
LOGO
 62
     1
 10
82.65019875501531
 20
21.468019200442029
 30
0.0
 11
82.65019875501531
 21
67.0
 31
0.0
  0
SOLID
  5
F73
  8
LOGO
 62
     5
 10
43.17034227167408
 20
28.425955920698161
 30
0.0
 11
44.301769498026559
 21
28.425955920698161
 31
0.0
 12
43.17034227167408
 22
22.768819788931001
 32
0.0
 13
44.301769498026559
 23
22.768819788931001
 33
0.0
  0
SOLID
  5
F74
  8
LOGO
 62
     5
 10
46.564623950733697
 20
26.163101467990831
 30
0.0
 11
47.69605117708835
 21
26.163101467990831
 31
0.0
 12
46.564623950733697
 22
22.768819788931001
 32
0.0
 13
47.69605117708835
 23
22.768819788931001
 33
0.0
  0
SOLID
  5
F75
  8
LOGO
 62
     5
 10
40.718878900332577
 20
28.425955920698161
 30
0.0
 11
41.850306126688373
 21
28.425955920698161
 31
0.0
 12
40.718878900332577
 22
22.768819788928841
 32
0.0
 13
41.850306126688373
 23
22.768819788931001
 33
0.0
  0
POLYLINE
  5
F76
  8
LOGO
 62
     5
 66
     1
 10
0.0
 20
0.0
 30
0.0
 70
     1
 40
1.13324041101122
 41
1.13324041101122
  0
VERTEX
  5
217E
  8
LOGO
 62
     5
 10
49.578287708657882
 20
25.59738785481402
 30
0.0
 42
1.0
  0
VERTEX
  5
217F
  8
LOGO
 62
     5
 10
54.111249352702842
 20
25.59738785481402
 30
0.0
 42
1.0
  0
SEQEND
  5
2180
  8
LOGO
 62
     5
  0
POLYLINE
  5
F77
  8
LOGO
 62
     5
 66
     1
 10
0.0
 20
0.0
 30
0.0
 40
1.13324041101122
 41
1.13324041101122
  0
VERTEX
  5
2181
  8
LOGO
 62
     5
 10
76.173173674270814
 20
26.163101467990849
 30
0.0
 42
1.0
  0
VERTEX
  5
2182
  8
LOGO
 62
     5
 10
72.773452441237012
 20
26.163101467990849
 30
0.0
 42
1.0
  0
SEQEND
  5
2183
  8
LOGO
 62
     5
  0
SOLID
  5
F78
  8
LOGO
 62
     5
 10
73.455028554035025
 20
34.08309205246529
 30
0.0
 11
76.736167510460035
 21
34.08309205246529
 31
0.0
 12
73.455028554035025
 22
65.197340777188913
 32
0.0
 13
76.736167510460035
 23
65.197340777191073
 33
0.0
  0
SOLID
  5
F79
  8
LOGO
 62
     5
 10
56.483620158731433
 20
65.197340777188913
 30
0.0
 11
59.764759115156281
 21
65.197340777191073
 31
0.0
 12
56.483620158731433
 22
36.572231950443317
 32
0.0
 13
59.764759115156281
 23
48.60307479067059
 33
0.0
  0
SOLID
  5
F7A
  8
LOGO
 62
     5
 10
56.483620158731433
 20
36.572231950443317
 30
0.0
 11
59.764759115156281
 21
48.60307479067059
 31
0.0
 12
72.097315882409717
 22
65.197340777191073
 32
0.0
 13
68.816176925984422
 23
65.197340777191073
 33
0.0
  0
SOLID
  5
F7B
  8
LOGO
 62
     5
 10
72.097315882409717
 20
62.708200879211972
 30
0.0
 11
68.816176925984422
 21
50.6773580389847
 31
0.0
 12
72.097315882409717
 22
34.08309205246529
 32
0.0
 13
68.816176925984422
 23
34.08309205246529
 33
0.0
  0
SOLID
  5
F7C
  8
LOGO
 62
     2
 10
72.097315882409717
 20
65.197340777191073
 30
0.0
 11
73.455028554035025
 21
65.197340777188913
 31
0.0
 12
72.097315882409717
 22
34.08309205246529
 32
0.0
 13
73.455028554035025
 23
34.08309205246529
 33
0.0
  0
SOLID
  5
F7D
  8
LOGO
 62
     5
 10
51.844768530681087
 20
34.08309205246637
 30
0.0
 11
55.125907487106112
 21
34.08309205246637
 31
0.0
 12
51.844768530681087
 22
50.6773580389847
 32
0.0
 13
55.125907487106112
 23
62.708200879211972
 33
0.0
  0
SOLID
  5
F7E
  8
LOGO
 62
     2
 10
55.125907487106112
 20
65.197340777188913
 30
0.0
 11
56.483620158731433
 21
65.197340777188913
 31
0.0
 12
55.125907487106112
 22
34.08309205246637
 32
0.0
 13
56.483620158731433
 23
34.08309205246637
 33
0.0
  0
SOLID
  5
F7F
  8
LOGO
 62
     5
 10
56.483620158731433
 20
34.08309205246637
 30
0.0
 11
59.764759115156281
 21
34.08309205246637
 31
0.0
 12
72.097315882409717
 22
62.708200879211972
 32
0.0
 13
68.816176925984422
 23
50.6773580389847
 33
0.0
  0
SOLID
  5
F80
  8
LOGO
 62
     2
 10
55.125907487106112
 20
34.08309205246637
 30
0.0
 11
56.483620158731433
 21
34.08309205246637
 31
0.0
 12
72.097315882409717
 22
65.197340777191073
 32
0.0
 13
73.455028554035025
 23
65.197340777188913
 33
0.0
  0
POLYLINE
  5
F81
  8
LOGO
 62
     5
 66
     1
 10
0.0
 20
0.0
 30
0.0
 40
1.13324041101122
 41
1.13324041101122
  0
VERTEX
  5
2184
  8
LOGO
 62
     5
 10
59.95597466805399
 20
26.163101467990849
 30
0.0
 42
1.0
  0
VERTEX
  5
2185
  8
LOGO
 62
     5
 10
56.556253435020203
 20
26.163101467990849
 30
0.0
 42
1.0
  0
SEQEND
  5
2186
  8
LOGO
 62
     5
  0
POLYLINE
  5
F82
  8
LOGO
 62
     5
 66
     1
 10
0.0
 20
0.0
 30
0.0
 40
1.13324041101122
 41
1.13324041101122
  0
VERTEX
  5
2187
  8
LOGO
 62
     5
 10
47.133057340897238
 20
26.163101467990849
 30
0.0
 42
1.0
  0
VERTEX
  5
2188
  8
LOGO
 62
     5
 10
43.733336107863451
 20
26.163101467990849
 30
0.0
 42
1.0
  0
SEQEND
  5
2189
  8
LOGO
 62
     5
  0
SOLID
  5
F83
  8
LOGO
 62
     5
 10
40.718878900332577
 20
29.217954979145169
 30
0.0
 11
41.850306126688373
 21
29.217954979145169
 31
0.0
 12
40.718878900332577
 22
30.123096760229149
 32
0.0
 13
41.850306126688373
 23
30.123096760229149
 33
0.0
  0
POLYLINE
  5
F84
  8
LOGO
 62
     5
 66
     1
 10
0.0
 20
0.0
 30
0.0
 70
     1
  0
VERTEX
  5
218A
  8
LOGO
 62
     5
 10
66.364826697367135
 20
25.59738785481456
 30
0.0
 42
1.0000000573306349
  0
VERTEX
  5
218B
  8
LOGO
 62
     5
 10
69.7591083764285
 20
25.59738785481456
 30
0.0
 42
1.0000000573306349
  0
SEQEND
  5
218C
  8
LOGO
 62
     5
  0
CIRCLE
  5
F85
  8
LOGO
 62
     5
 10
68.061967536897754
 20
25.59738785481456
 30
0.0
 40
1.697140839530404
  0
POLYLINE
  5
F86
  8
LOGO
 62
     5
 66
     1
 10
0.0
 20
0.0
 30
0.0
 40
1.13324041101122
 41
1.13324041101122
  0
VERTEX
  5
218D
  8
LOGO
 62
     5
 10
63.350256347113898
 20
26.163101467990849
 30
0.0
 42
1.0
  0
VERTEX
  5
218E
  8
LOGO
 62
     5
 10
59.950535114080132
 20
26.163101467990849
 30
0.0
 42
1.0
  0
SEQEND
  5
218F
  8
LOGO
 62
     5
  0
LINE
  5
F87
  8
LOGO
 62
     1
 10
143.35950648775921
 20
21.468019200442029
 30
0.0
 11
143.35950648775921
 21
67.0
 31
0.0
  0
CIRCLE
  5
F88
  8
LOGO
  6
CONTINUOUS
 62
     6
 10
157.4108660711783
 20
44.25024180690847
 30
0.0
 40
4.4061566257070393
  0
CIRCLE
  5
F89
  8
LOGO
  6
CONTINUOUS
 62
     6
 10
157.4108660711783
 20
44.25024180690847
 30
0.0
 40
2.5816177276870351
  0
LINE
  5
F8A
  8
LOGO
 62
     6
 10
171.2866174797829
 20
41.668624079221452
 30
0.0
 11
171.28661747978279
 21
46.83185953459553
 31
0.0
  0
TEXT
  5
F8B
  8
LOGO
  6
CONTINUOUS
 62
     6
 10
316.63845052855987
 20
0.5991946673112994
 30
0.0
 40
6.3238862221608292
  1
Model
  7
CHINESET
 72
     4
 11
328.68394809458061
 21
3.761137778391713
 31
0.0
  0
TEXT
  5
F8C
  8
LOGO
  6
CONTINUOUS
 62
     7
 10
228.16795385897399
 20
50.132503273257129
 30
0.0
 40
8.4337483633714374
  1

  7
CHINESET
 72
     1
 11
228.16795385897399
 21
54.349377454942839
 31
0.0
 73
     2
  0
LINE
  5
F8D
  8
LOGO
 62
     6
 10
359.03860196095258
 20
59.41133653340701
 30
0.0
 11
298.32929422820871
 21
59.41133653340701
 31
0.0
  0
LINE
  5
F8E
  8
LOGO
 62
     6
 10
359.03860196095258
 20
36.645346133628017
 30
0.0
 11
298.32929422820871
 21
36.645346133628017
 31
0.0
  0
LINE
  5
F8F
  8
LOGO
 62
     6
 10
353.97949298322391
 20
25.262350933738531
 30
0.0
 11
303.38840320593732
 21
25.262350933738531
 31
0.0
  0
LINE
  5
F90
  8
LOGO
 62
     6
 10
353.97949298322391
 20
-2.562748443769137
 30
0.0
 11
303.38840320593732
 21
-2.5627484437691939
 31
0.0
  0
TEXT
  5
F91
  8
LOGO
 62
     7
 10
200.16228826118169
 20
47.999712551812493
 30
0.0
 40
15.177326933185981
  1
訂購代號:
  7
CHINESET
  0
TEXT
  5
F92
  8
LOGO
 62
     7
 10
198.34699628571471
 20
33.7553566742884
 30
0.0
 40
10.11821795545732
  1
Order example:
 41
0.8
  7
CHINESET
  0
LINE
  5
F93
  8
LOGO
 62
     1
 10
193.9505962650457
 20
-8.8866346659299467
 30
0.0
 11
193.9505962650457
 21
67.0
 31
0.0
  0
LINE
  5
F94
  8
LOGO
 62
     6
 10
185.09966557591611
 20
39.84408518120145
 30
0.0
 11
185.09966557591611
 21
48.656398432615518
 31
0.0
  0
LINE
  5
F95
  8
LOGO
 62
     6
 10
303.38840320593732
 20
25.262350933738531
 30
0.0
 11
303.38840320593732
 21
-2.5627484437691939
 31
0.0
  0
LINE
  5
F96
  8
LOGO
 62
     6
 10
298.32929422820871
 20
59.41133653340701
 30
0.0
 11
298.32929422820871
 21
36.645346133628017
 31
0.0
  0
TEXT
  5
F97
  8
LOGO
  6
CONTINUOUS
 62
     7
 10
388.54395403502588
 20
41.561028574866917
 30
0.0
 40
12.647772444321649
  1
20
  7
CHINESET
 72
     1
 11
398.78262696614343
 21
47.884914797027761
 31
0.0
 73
     2
  0
LINE
  5
F98
  8
LOGO
 62
     6
 10
417.90867752992119
 20
-2.5627484437689811
 30
0.0
 11
377.29565822785918
 21
-2.562748443769038
 31
0.0
  0
LINE
  5
F99
  8
LOGO
 62
     6
 10
417.90867752992119
 20
36.645346133628173
 30
0.0
 11
377.29565822785918
 21
36.645346133628173
 31
0.0
  0
LINE
  5
F9A
  8
LOGO
 62
     6
 10
417.90867752992119
 20
25.262350933738659
 30
0.0
 11
377.29565822785918
 21
25.262350933738659
 31
0.0
  0
LINE
  5
F9B
  8
LOGO
 62
     6
 10
417.90867752992119
 20
59.41133653340728
 30
0.0
 11
377.29565822785918
 21
59.411336533407152
 31
0.0
  0
LINE
  5
F9C
  8
LOGO
 62
     6
 10
377.29565822785918
 20
25.262350933738659
 30
0.0
 11
377.29565822785918
 21
-2.5627484437689811
 31
0.0
  0
LINE
  5
F9D
  8
LOGO
 62
     6
 10
353.97949298322402
 20
25.262350933738531
 30
0.0
 11
353.97949298322402
 21
-2.562748443769109
 31
0.0
  0
TEXT
  5
F9E
  8
LOGO
 62
     6
 10
318.56573013912322
 20
11.608732019435379
 30
0.0
 40
10.11821795545732
  1
型式
  7
CHINESET
 72
     4
 11
328.68394809458061
 21
16.408910222713359
 31
0.0
  0
LINE
  5
F9F
  8
LOGO
 62
     6
 10
328.68394809458061
 20
36.645346133628017
 30
0.0
 11
328.68394809458061
 21
25.262350933738531
 31
0.0
  0
LINE
  5
FA0
  8
LOGO
 62
     6
 10
377.29565822785918
 20
59.411336533407152
 30
0.0
 11
377.29565822785918
 21
36.645346133628173
 31
0.0
  0
LINE
  5
FA1
  8
LOGO
 62
     6
 10
359.03860196095258
 20
59.41133653340701
 30
0.0
 11
359.03860196095258
 21
36.645346133628017
 31
0.0
  0
LINE
  5
FA2
  8
LOGO
  6
CONTINUOUS
 62
     7
 10
363.3060011308209
 20
47.947700597644712
 30
0.0
 11
373.35863179728551
 21
47.947700597644712
 31
0.0
  0
LINE
  5
FA3
  8
LOGO
 62
     6
 10
430.76146365655461
 20
25.262350933738531
 30
0.0
 11
430.76146365655461
 21
-2.5627484437691939
 31
0.0
  0
LINE
  5
FA4
  8
LOGO
 62
     6
 10
417.90867752992119
 20
25.262350933738659
 30
0.0
 11
417.90867752992119
 21
-2.5627484437688959
 31
0.0
  0
TEXT
  5
FA5
  8
LOGO
  6
CONTINUOUS
 62
     6
 10
389.77259446097679
 20
0.5991946673113709
 30
0.0
 40
6.3238862221608292
  1
Bore
 41
0.8
  7
CHINESET
 72
     4
 11
397.60216787889021
 21
3.7611377783917841
 31
0.0
  0
TEXT
  5
FA6
  8
LOGO
 62
     6
 10
387.92662195898407
 20
11.34980124498478
 30
0.0
 40
10.11821795545732
  1
內徑
 41
0.9
  7
CHINESET
 72
     4
 11
397.60216787889021
 21
16.408910222713441
 31
0.0
  0
LINE
  5
FA7
  8
LOGO
  6
CONTINUOUS
 62
     7
 10
421.83091553724512
 20
47.947700597644847
 30
0.0
 11
431.88354620370978
 21
47.947700597644847
 31
0.0
  0
LINE
  5
FA8
  8
LOGO
 62
     6
 10
417.90867752992119
 20
59.41133653340728
 30
0.0
 11
417.90867752992119
 21
36.645346133628173
 31
0.0
  0
LINE
  5
FA9
  8
LOGO
 62
     6
 10
397.60216729561421
 20
36.645346133628173
 30
0.0
 11
397.60216729561421
 21
25.262350933738659
 31
0.0
  0
LINE
  5
FAA
  8
LOGO
 62
     6
 10
435.82057263428328
 20
59.41133653340701
 30
0.0
 11
435.82057263428322
 21
36.645346133628017
 31
0.0
  0
LINE
  5
FAB
  8
LOGO
 62
     6
 10
457.42549752367341
 20
36.645346133628017
 30
0.0
 11
457.42549752367341
 21
25.262350933738531
 31
0.0
  0
TEXT
  5
FAC
  8
LOGO
 62
     6
 10
518.92633962303034
 20
11.34980124498485
 30
0.0
 40
10.11821795545732
  1
配件
 41
0.9
  7
CHINESET
 72
     4
 11
528.12759407627436
 21
16.408910222713509
 31
0.0
  0
LINE
  5
FAD
  8
LOGO
 62
     6
 10
565.12232847591531
 20
-2.5627484437688959
 30
0.0
 11
491.13285967663359
 21
-2.5627484437689811
 31
0.0
  0
LINE
  5
FAE
  8
LOGO
 62
     6
 10
565.12232847591531
 20
25.262350933738659
 30
0.0
 11
491.13285967663359
 21
25.262350933738659
 31
0.0
  0
TEXT
  5
FAF
  8
LOGO
  6
CONTINUOUS
 62
     6
 10
509.45707284894252
 20
1.65317570433824
 30
0.0
 40
6.3238862221608292
  1
Accessory
 41
0.8
  7
CHINESET
 72
     4
 11
528.12759407627436
 21
3.761137778391848
 31
0.0
  0
LINE
  5
FB0
  8
LOGO
 62
     6
 10
491.13285967663359
 20
25.262350933738659
 30
0.0
 11
491.13285967663359
 21
-2.5627484437689811
 31
0.0
  0
LINE
  5
FB1
  8
LOGO
 62
     6
 10
483.01805804528351
 20
25.262350933738531
 30
0.0
 11
483.01805804528351
 21
-2.667667518634516
 31
0.0
  0
LINE
  5
FB2
  8
LOGO
 62
     6
 10
477.95894906755478
 20
59.41133653340701
 30
0.0
 11
477.95894906755461
 21
36.645346133628003
 31
0.0
  0
LINE
  5
FB3
  8
LOGO
  6
CONTINUOUS
 62
     7
 10
482.44039059667148
 20
47.947700597644712
 30
0.0
 11
492.4930212631362
 21
47.947700597644712
 31
0.0
  0
TEXT
  5
FB4
  8
LOGO
  6
CONTINUOUS
 62
     7
 10
497.52283564907123
 20
41.561028574866789
 30
0.0
 40
12.647772444321649
  1
RP
  7
CHINESET
 72
     1
 11
508.0626460193393
 21
47.884914797027619
 31
0.0
 73
     2
  0
LINE
  5
FB5
  8
LOGO
 62
     6
 10
519.26922319391213
 20
59.411336533407152
 30
0.0
 11
519.26922319391213
 21
36.645346133628017
 31
0.0
  0
LINE
  5
FB6
  8
LOGO
 62
     6
 10
496.23489435407288
 20
59.411336533407152
 30
0.0
 11
496.23489435407288
 21
36.645346133628017
 31
0.0
  0
LINE
  5
FB7
  8
LOGO
 62
     6
 10
519.26922319391213
 20
36.645346133628017
 30
0.0
 11
496.23489435407288
 21
36.645346133628017
 31
0.0
  0
LINE
  5
FB8
  8
LOGO
 62
     6
 10
507.75205877399242
 20
36.645346133628017
 30
0.0
 11
507.75205877399242
 21
25.262350933738659
 31
0.0
  0
LINE
  5
FB9
  8
LOGO
 62
     6
 10
519.26922319391213
 20
59.411336533407152
 30
0.0
 11
496.23489435407288
 21
59.411336533407152
 31
0.0
  0
LINE
  5
FBA
  8
LOGO
 62
     6
 10
565.12232847591531
 20
25.262350933738659
 30
0.0
 11
565.12232847591531
 21
-2.5627484437688959
 31
0.0
  0
LINE
  5
FBB
  8
LOGO
 62
     1
 10
601.20886897220316
 20
-8.8866346659299467
 30
0.0
 11
601.20886897220316
 21
67.0
 31
0.0
  0
TEXT
  5
1AFF
  8
LOGO
  6
CONTINUOUS
 62
     7
 10
305.49636527999098
 20
41.70445511135668
 30
0.0
 40
12.647772444321649
  1
MGTK
  7
CHINESET
 72
     1
 11
328.68394809458073
 21
48.02834133351751
 31
0.0
 73
     2
  0
LINE
  5
1E31
  8
0
  6
CONTINUOUS
 10
228.8622731077507
 20
97.367261304254725
 30
0.0
 11
278.8622731077507
 21
97.367261304254754
 31
0.0
  0
LINE
  5
1E32
  8
0
  6
CONTINUOUS
 10
228.8622731077507
 20
135.3672613042547
 30
0.0
 11
278.8622731077507
 21
135.3672613042547
 31
0.0
  0
LINE
  5
1E33
  8
DIM
  6
CONTINUOUS
 10
219.20391927839211
 20
150.9039701793217
 30
0.0
 11
242.61227310775089
 21
150.9039701793217
 31
0.0
  0
LINE
  5
1E34
  8
DIM
  6
CONTINUOUS
 10
247.3039755307851
 20
142.9039701793217
 30
0.0
 11
220.369897173879
 21
142.9039701793217
 31
0.0
  0
ARC
  5
1E35
  8
0
 62
     2
 10
233.86227310775061
 20
129.3672613042547
 30
0.0
 40
3.0000000000000031
 50
255.00000000000551
 51
194.9999999999944
  0
CIRCLE
  5
1E36
  8
0
 10
233.86227310775061
 20
129.3672613042547
 30
0.0
 40
2.5
  0
ARC
  5
1E37
  8
0
 62
     2
 10
233.86227310775061
 20
103.3672613042547
 30
0.0
 40
3.0000000000000031
 50
255.00000000000551
 51
194.9999999999944
  0
CIRCLE
  5
1E38
  8
0
 10
233.86227310775061
 20
103.3672613042547
 30
0.0
 40
2.5
  0
LINE
  5
1E39
  8
CENTER
  6
CENTER
 10
227.86227310775061
 20
129.3672613042547
 30
0.0
 11
239.8622731077507
 21
129.3672613042547
 31
0.0
  0
LINE
  5
1E3A
  8
CENTER
  6
CENTER
 10
227.86227310775061
 20
103.3672613042547
 30
0.0
 11
239.8622731077507
 21
103.3672613042547
 31
0.0
  0
LINE
  5
1E3B
  8
0
  6
CONTINUOUS
 10
228.8622731077505
 20
355.40536552846328
 30
0.0
 11
278.8622731077507
 21
355.40536552846339
 31
0.0
  0
LINE
  5
1E3C
  8
0
  6
CONTINUOUS
 10
228.8622731077505
 20
317.40536552846339
 30
0.0
 11
278.8622731077507
 21
317.40536552846339
 31
0.0
  0
LINE
  5
1E3D
  8
HIDDEN
  6
HIDDEN
 10
231.36227310775061
 20
207.783354646302
 30
0.0
 11
236.36227310775061
 21
207.783354646302
 31
0.0
  0
LINE
  5
1E3E
  8
HIDDEN
  6
HIDDEN
 10
230.86227310775061
 20
204.783354646302
 30
0.0
 11
236.86227310775061
 21
204.783354646302
 31
0.0
  0
LINE
  5
1E3F
  8
HIDDEN
  6
HIDDEN
 10
231.36227310775061
 20
207.783354646302
 30
0.0
 11
233.86227310775061
 21
209.2267303192761
 31
0.0
  0
LINE
  5
1E40
  8
CENTER
  6
CENTER
 10
205.86227310775061
 20
205.783354646302
 30
0.0
 11
296.17518972384249
 21
205.783354646302
 31
0.0
  0
LINE
  5
1E41
  8
0
  6
CONTINUOUS
 10
228.86227310775061
 20
193.783354646302
 30
0.0
 11
278.86227310775058
 21
193.783354646302
 31
0.0
  0
LINE
  5
1E42
  8
0
  6
CONTINUOUS
 10
228.86227310775061
 20
275.78335464630197
 30
0.0
 11
278.86227310775058
 21
275.78335464630197
 31
0.0
  0
LINE
  5
1E43
  8
DIM
  6
CONTINUOUS
 10
220.82959075537391
 20
283.78335464630197
 30
0.0
 11
263.36227310775058
 21
283.78335464630197
 31
0.0
  0
SOLID
  5
1E44
  8
DIM
  6
CONTINUOUS
 10
235.11227310775041
 20
151.4039701793217
 30
0.0
 11
235.11227310775041
 21
150.4039701793217
 31
0.0
 12
232.11227310775041
 22
150.9039701793217
 32
0.0
 13
232.11227310775041
 23
150.9039701793217
 33
0.0
  0
SOLID
  5
1E45
  8
DIM
  6
CONTINUOUS
 10
231.1122731077507
 20
143.4039701793217
 30
0.0
 11
231.1122731077507
 21
142.4039701793217
 31
0.0
 12
234.1122731077507
 22
142.9039701793217
 32
0.0
 13
234.1122731077507
 23
142.9039701793217
 33
0.0
  0
LINE
  5
1E46
  8
HIDDEN
  6
HIDDEN
 10
232.11227310775061
 20
128.86726130425461
 30
0.0
 11
242.61227310775081
 21
128.86726130425461
 31
0.0
  0
LINE
  5
1E47
  8
HIDDEN
  6
HIDDEN
 10
232.11227310775061
 20
323.90536552846351
 30
0.0
 11
242.6122731077507
 21
323.90536552846351
 31
0.0
  0
LINE
  5
1E48
  8
DIM
  6
CONTINUOUS
 10
293.86227310775058
 20
177.6794068370387
 30
0.0
 11
208.86227310775061
 21
177.6794068370387
 31
0.0
  0
ARC
  5
1E49
  8
0
 62
     2
 10
233.86227310775061
 20
349.40536552846339
 30
0.0
 40
3.0000000000000031
 50
255.00000000000551
 51
194.9999999999944
  0
CIRCLE
  5
1E4A
  8
0
 10
233.86227310775061
 20
349.40536552846339
 30
0.0
 40
2.5
  0
ARC
  5
1E4B
  8
0
 62
     2
 10
233.86227310775061
 20
323.40536552846339
 30
0.0
 40
3.0000000000000031
 50
255.00000000000551
 51
194.9999999999944
  0
CIRCLE
  5
1E4C
  8
0
 10
233.86227310775061
 20
323.40536552846339
 30
0.0
 40
2.5
  0
LINE
  5
1E4D
  8
HIDDEN
  6
HIDDEN
 10
231.36227310775061
 20
261.78335464630209
 30
0.0
 11
236.36227310775061
 21
261.78335464630209
 31
0.0
  0
LINE
  5
1E4E
  8
HIDDEN
  6
HIDDEN
 10
230.86227310775061
 20
264.78335464630197
 30
0.0
 11
236.86227310775061
 21
264.78335464630197
 31
0.0
  0
LINE
  5
1E4F
  8
HIDDEN
  6
HIDDEN
 10
231.36227310775061
 20
261.78335464630209
 30
0.0
 11
233.86227310775061
 21
260.33997897332802
 31
0.0
  0
LINE
  5
1E50
  8
CENTER
  6
CENTER
 10
231.36227310775061
 20
244.283354646302
 30
0.0
 11
243.36227310775061
 21
244.28335464630209
 31
0.0
  0
CIRCLE
  5
1E51
  8
0
  6
CONTINUOUS
 10
237.36227310775061
 20
253.78335464630209
 30
0.0
 40
5.25
  0
LINE
  5
1E52
  8
CENTER
  6
CENTER
 10
231.36227310775061
 20
225.283354646302
 30
0.0
 11
243.36227310775061
 21
225.283354646302
 31
0.0
  0
CIRCLE
  5
1E53
  8
0
  6
CONTINUOUS
 10
237.36227310775061
 20
215.783354646302
 30
0.0
 40
5.25
  0
LINE
  5
1E54
  8
CENTER
  6
CENTER
 10
227.86227310775061
 20
349.40536552846339
 30
0.0
 11
239.86227310775061
 21
349.40536552846339
 31
0.0
  0
LINE
  5
1E55
  8
CENTER
  6
CENTER
 10
227.86227310775061
 20
323.40536552846339
 30
0.0
 11
239.86227310775061
 21
323.40536552846339
 31
0.0
  0
LINE
  5
1E56
  8
DIM
  6
CONTINUOUS
 10
293.86227310775058
 20
161.783354646302
 30
0.0
 11
147.8622731077507
 21
161.783354646302
 31
0.0
  0
LINE
  5
1E57
  8
DIM
  6
CONTINUOUS
 10
290.86227310775058
 20
169.783354646302
 30
0.0
 11
147.8622731077507
 21
169.783354646302
 31
0.0
  0
LINE
  5
1E58
  8
CENTER
  6
CENTER
 10
144.8622731077507
 20
336.40536552846339
 30
0.0
 11
296.86227310775058
 21
336.40536552846339
 31
0.0
  0
LINE
  5
1E59
  8
CENTER
  6
CENTER
 10
144.8622731077507
 20
234.783354646302
 30
0.0
 11
296.86227310775058
 21
234.783354646302
 31
0.0
  0
LINE
  5
1E5A
  8
DIM
  6
CONTINUOUS
 10
250.23625175342681
 20
185.783354646302
 30
0.0
 11
221.6220882058312
 21
185.783354646302
 31
0.0
  0
LINE
  5
1E5B
  8
CENTER
  6
CENTER
 10
229.11227310775061
 20
215.783354646302
 30
0.0
 11
245.61227310775061
 21
215.783354646302
 31
0.0
  0
TEXT
  5
1E5C
  8
DIM
  6
CONTINUOUS
 10
207.975096086886
 20
163.283354646302
 30
0.0
 40
3.0
  1
146+Stroke
  7
ROMANSS
 72
     1
 11
220.61795322974319
 21
164.783354646302
 31
0.0
 73
     2
  0
LINE
  5
1E5D
  8
CENTER
  6
CENTER
 10
229.11227310775061
 20
253.78335464630209
 30
0.0
 11
245.61227310775061
 21
253.78335464630209
 31
0.0
  0
LINE
  5
1E5E
  8
CENTER
  6
CENTER
 10
205.86227310775061
 20
263.78335464630197
 30
0.0
 11
296.17518972384249
 21
263.78335464630197
 31
0.0
  0
LINE
  5
1E5F
  8
CENTER
  6
CENTER
 10
143.3909504821134
 20
116.3672613042547
 30
0.0
 11
296.86227310775058
 21
116.3672613042547
 31
0.0
  0
LINE
  5
1E60
  8
0
  6
CONTINUOUS
 10
209.36227310775061
 20
200.783354646302
 30
0.0
 11
209.36227310775061
 21
210.783354646302
 31
0.0
  0
LINE
  5
1E61
  8
HIDDEN
  6
HIDDEN
 10
231.36227310775061
 20
193.783354646302
 30
0.0
 11
231.36227310775061
 21
207.783354646302
 31
0.0
  0
LINE
  5
1E62
  8
0
  6
CONTINUOUS
 10
208.86227310775061
 20
201.283354646302
 30
0.0
 11
208.86227310775061
 21
210.283354646302
 31
0.0
  0
TEXT
  5
1E63
  8
DIM
  6
CONTINUOUS
 10
199.3622731077505
 20
202.07946250253951
 30
0.0
 40
3.0
  1
%%c10
 50
90.0
  7
ROMANSS
 72
     1
 11
197.8622731077505
 21
205.57946250253951
 31
0.0
 73
     2
  0
LINE
  5
1E64
  8
DIM
  6
CONTINUOUS
 10
200.8622731077505
 20
200.78335464630189
 30
0.0
 11
200.8622731077505
 21
210.783354646302
 31
0.0
  0
LINE
  5
1E65
  8
DIM
  6
CONTINUOUS
 10
147.8622731077507
 20
225.79268809955869
 30
0.0
 11
147.8622731077507
 21
160.52681909690861
 31
0.0
  0
CIRCLE
  5
1E66
  8
0
  6
CONTINUOUS
 10
99.548450459315887
 20
205.783354646302
 30
0.0
 40
10.0
  0
CIRCLE
  5
1E67
  8
0
  6
CONTINUOUS
 10
99.548450459315887
 20
205.783354646302
 30
0.0
 40
5.0
  0
LINE
  5
1E68
  8
CENTER
  6
CENTER
 10
99.548450459315887
 20
277.91697672509008
 30
0.0
 11
99.548450459315887
 21
190.672047541681
 31
0.0
  0
LINE
  5
1E69
  8
0
  6
CONTINUOUS
 10
118.5484504593158
 20
275.78335464630197
 30
0.0
 11
118.5484504593158
 21
193.783354646302
 31
0.0
  0
LINE
  5
1E6A
  8
0
  6
CONTINUOUS
 10
80.548450459315887
 20
275.78335464630197
 30
0.0
 11
80.548450459315887
 21
193.783354646302
 31
0.0
  0
LINE
  5
1E6B
  8
0
  6
CONTINUOUS
 10
228.86227310775061
 20
275.78335464630197
 30
0.0
 11
228.86227310775061
 21
193.783354646302
 31
0.0
  0
LINE
  5
1E6C
  8
CENTER
  6
CENTER
 10
86.548450459315887
 20
205.783354646302
 30
0.0
 11
112.5484504593158
 21
205.783354646302
 31
0.0
  0
LINE
  5
1E6D
  8
0
  6
CONTINUOUS
 10
80.548450459315887
 20
193.783354646302
 30
0.0
 11
118.5484504593158
 21
193.783354646302
 31
0.0
  0
LINE
  5
1E6E
  8
DIM
  6
CONTINUOUS
 10
232.11227310775041
 20
136.8366122633837
 30
0.0
 11
232.11227310775041
 21
151.9039701793217
 31
0.0
  0
LINE
  5
1E6F
  8
0
  6
CONTINUOUS
 10
186.46227310775069
 20
105.5672613042545
 30
0.0
 11
185.8622731077507
 21
106.1672613042545
 31
0.0
  0
LINE
  5
1E70
  8
0
  6
CONTINUOUS
 10
186.4622731077508
 20
127.16726130425459
 30
0.0
 11
185.86227310775081
 21
126.5672613042545
 31
0.0
  0
LINE
  5
1E71
  8
0
  6
CONTINUOUS
 10
185.36227310775081
 20
109.82891288894361
 30
0.0
 11
185.36227310775081
 21
102.8672613042546
 31
0.0
  0
LINE
  5
1E72
  8
0
  6
CONTINUOUS
 10
185.86227310775081
 20
129.8672613042547
 30
0.0
 11
185.86227310775081
 21
102.8672613042547
 31
0.0
  0
LINE
  5
1E73
  8
0
  6
CONTINUOUS
 10
170.3622731077507
 20
109.82891288894361
 30
0.0
 11
170.3622731077507
 21
102.8672613042546
 31
0.0
  0
LINE
  5
1E74
  8
0
  6
CONTINUOUS
 10
169.8622731077507
 20
129.8672613042547
 30
0.0
 11
169.8622731077507
 21
102.8672613042547
 31
0.0
  0
LINE
  5
1E75
  8
0
  6
CONTINUOUS
 10
167.8622731077507
 20
105.3672613042546
 30
0.0
 11
167.8622731077507
 21
108.8174268689839
 31
0.0
  0
LINE
  5
1E76
  8
0
  6
CONTINUOUS
 10
165.8622731077507
 20
105.3672613042546
 30
0.0
 11
165.8622731077507
 21
108.8174268689839
 31
0.0
  0
LINE
  5
1E77
  8
0
  6
CONTINUOUS
 10
149.8622731077507
 20
105.3672613042546
 30
0.0
 11
149.8622731077507
 21
108.8174268689839
 31
0.0
  0
LINE
  5
1E78
  8
0
  6
CONTINUOUS
 10
148.8622731077507
 20
106.3672613042546
 30
0.0
 11
148.86227310775081
 21
110.3672613042546
 31
0.0
  0
LINE
  5
1E79
  8
0
  6
CONTINUOUS
 10
147.8622731077507
 20
106.3672613042546
 30
0.0
 11
147.8622731077507
 21
126.3672613042547
 31
0.0
  0
LINE
  5
1E7A
  8
0
  6
CONTINUOUS
 10
149.8622731077507
 20
105.3672613042546
 30
0.0
 11
165.8622731077507
 21
105.3672613042546
 31
0.0
  0
LINE
  5
1E7B
  8
0
  6
CONTINUOUS
 62
     2
 10
149.06227310775071
 20
106.16726130425459
 30
0.0
 11
166.26227310775531
 21
106.16726130425459
 31
0.0
  0
LINE
  5
1E7C
  8
0
  6
CONTINUOUS
 10
147.8622731077507
 20
106.3672613042546
 30
0.0
 11
148.86227310775081
 21
106.3672613042546
 31
0.0
  0
LINE
  5
1E7D
  8
0
  6
CONTINUOUS
 10
149.8622731077507
 20
105.3672613042546
 30
0.0
 11
148.8622731077507
 21
106.3672613042546
 31
0.0
  0
LINE
  5
1E7E
  8
0
  6
CONTINUOUS
 10
185.86227310775081
 20
102.8672613042547
 30
0.0
 11
169.8622731077507
 21
102.8672613042547
 31
0.0
  0
LINE
  5
1E7F
  8
0
  6
CONTINUOUS
 10
167.8622731077507
 20
105.3672613042546
 30
0.0
 11
169.8622731077507
 21
105.3672613042546
 31
0.0
  0
ARC
  5
1E80
  8
0
  6
CONTINUOUS
 10
166.8622731077507
 20
105.3672613042546
 30
0.0
 40
1.0
 50
0.0
 51
180.0
  0
LINE
  5
1E81
  8
0
  6
CONTINUOUS
 62
     4
 10
169.8622731077507
 20
123.91709573952539
 30
0.0
 11
161.62111264618909
 21
118.841352111859
 31
0.0
  0
LINE
  5
1E82
  8
0
  6
CONTINUOUS
 62
     4
 10
169.8622731077507
 20
108.8174268689839
 30
0.0
 11
161.62111264618909
 21
113.8931704966502
 31
0.0
  0
LINE
  5
1E83
  8
0
  6
CONTINUOUS
 10
149.8622731077507
 20
127.3672613042547
 30
0.0
 11
165.8622731077507
 21
127.3672613042547
 31
0.0
  0
LINE
  5
1E84
  8
0
  6
CONTINUOUS
 62
     2
 10
149.06227310775071
 20
126.5672613042547
 30
0.0
 11
166.2622731077509
 21
126.5672613042547
 31
0.0
  0
LINE
  5
1E85
  8
0
  6
CONTINUOUS
 10
149.8622731077507
 20
123.91709573952539
 30
0.0
 11
169.8622731077507
 21
123.91709573952539
 31
0.0
  0
LINE
  5
1E86
  8
0
  6
CONTINUOUS
 10
149.8622731077507
 20
108.8174268689839
 30
0.0
 11
169.8622731077507
 21
108.8174268689839
 31
0.0
  0
LINE
  5
1E87
  8
0
  6
CONTINUOUS
 10
148.8622731077507
 20
122.3672613042547
 30
0.0
 11
148.8622731077507
 21
126.3672613042547
 31
0.0
  0
LINE
  5
1E88
  8
0
  6
CONTINUOUS
 10
148.8622731077507
 20
122.3672613042547
 30
0.0
 11
149.8622731077507
 21
123.91709573952539
 31
0.0
  0
LINE
  5
1E89
  8
CENTER
  6
CENTER
 10
157.8622731077507
 20
108.8672613042547
 30
0.0
 11
157.8622731077507
 21
123.8672613042546
 31
0.0
  0
LINE
  5
1E8A
  8
0
  6
CONTINUOUS
 62
     4
 10
153.96142599637821
 20
114.1237391149959
 30
0.0
 11
147.8622731077507
 21
110.3672613042546
 31
0.0
  0
LINE
  5
1E8B
  8
0
  6
CONTINUOUS
 62
     4
 10
153.96142599637821
 20
118.6107834935134
 30
0.0
 11
147.8622731077507
 21
122.3672613042547
 31
0.0
  0
LINE
  5
1E8C
  8
0
  6
CONTINUOUS
 10
147.8622731077507
 20
110.3672613042546
 30
0.0
 11
148.86227310775081
 21
110.3672613042546
 31
0.0
  0
LINE
  5
1E8D
  8
0
  6
CONTINUOUS
 10
149.8622731077507
 20
108.8174268689839
 30
0.0
 11
148.86227310775081
 21
110.3672613042546
 31
0.0
  0
LINE
  5
1E8E
  8
0
  6
CONTINUOUS
 10
147.8622731077507
 20
122.3672613042547
 30
0.0
 11
148.8622731077507
 21
122.3672613042547
 31
0.0
  0
CIRCLE
  5
1E8F
  8
0
  6
CONTINUOUS
 10
157.8622731077507
 20
116.3672613042546
 30
0.0
 40
4.5
  0
CIRCLE
  5
1E90
  8
0
  6
CONTINUOUS
 10
157.8622731077507
 20
116.3672613042546
 30
0.0
 40
4.0
  0
LINE
  5
1E91
  8
0
  6
CONTINUOUS
 10
149.8622731077507
 20
123.91709573952539
 30
0.0
 11
149.8622731077507
 21
127.3672613042547
 31
0.0
  0
LINE
  5
1E92
  8
0
  6
CONTINUOUS
 10
147.8622731077507
 20
126.3672613042547
 30
0.0
 11
148.8622731077507
 21
126.3672613042547
 31
0.0
  0
LINE
  5
1E93
  8
0
  6
CONTINUOUS
 10
148.8622731077507
 20
126.3672613042547
 30
0.0
 11
149.8622731077507
 21
127.3672613042547
 31
0.0
  0
LINE
  5
1E94
  8
0
  6
CONTINUOUS
 10
185.36227310775081
 20
130.8672613042547
 30
0.0
 11
185.36227310775081
 21
122.9056097195657
 31
0.0
  0
LINE
  5
1E95
  8
CENTER
  6
CENTER
 10
178.8622731077507
 20
134.3672613042547
 30
0.0
 11
178.8622731077507
 21
120.7213751935674
 31
0.0
  0
LINE
  5
1E96
  8
0
  6
CONTINUOUS
 10
170.3622731077507
 20
130.8672613042547
 30
0.0
 11
170.3622731077507
 21
122.9056097195657
 31
0.0
  0
LINE
  5
1E97
  8
0
  6
CONTINUOUS
 62
     4
 10
185.3622731077503
 20
122.9056097195655
 30
0.0
 11
170.3622731077507
 21
109.82891288894361
 31
0.0
  0
LINE
  5
1E98
  8
0
  6
CONTINUOUS
 10
170.3622731077507
 20
109.82891288894361
 30
0.0
 11
185.36227310775081
 21
109.82891288894361
 31
0.0
  0
LINE
  5
1E99
  8
0
  6
CONTINUOUS
 62
     4
 10
185.3622731077501
 20
109.82891288894361
 30
0.0
 11
170.3622731077507
 21
122.9056097195657
 31
0.0
  0
LINE
  5
1E9A
  8
0
  6
CONTINUOUS
 10
170.3622731077507
 20
122.9056097195657
 30
0.0
 11
185.36227310775081
 21
122.9056097195655
 31
0.0
  0
LINE
  5
1E9B
  8
0
  6
CONTINUOUS
 10
170.3622731077507
 20
109.82891288894361
 30
0.0
 11
169.8622731077507
 21
111.0757586821255
 31
0.0
  0
LINE
  5
1E9C
  8
0
  6
CONTINUOUS
 10
170.3622731077507
 20
122.9056097195657
 30
0.0
 11
169.8622731077507
 21
121.6587639263839
 31
0.0
  0
LINE
  5
1E9D
  8
0
  6
CONTINUOUS
 10
185.36227310775081
 20
109.82891288894361
 30
0.0
 11
185.86227310775081
 21
111.0757586821255
 31
0.0
  0
LINE
  5
1E9E
  8
0
  6
CONTINUOUS
 10
185.36227310775081
 20
122.9056097195657
 30
0.0
 11
185.86227310775081
 21
121.6587639263839
 31
0.0
  0
LINE
  5
1E9F
  8
0
  6
CONTINUOUS
 10
185.86227310775081
 20
129.8672613042547
 30
0.0
 11
169.8622731077507
 21
129.8672613042547
 31
0.0
  0
LINE
  5
1EA0
  8
0
  6
CONTINUOUS
 10
184.86227310775081
 20
131.3672613042547
 30
0.0
 11
170.8622731077507
 21
131.3672613042547
 31
0.0
  0
LINE
  5
1EA1
  8
0
  6
CONTINUOUS
 10
167.8622731077507
 20
127.3672613042547
 30
0.0
 11
169.8622731077507
 21
127.3672613042547
 31
0.0
  0
LINE
  5
1EA2
  8
0
  6
CONTINUOUS
 10
167.8622731077507
 20
123.91709573952539
 30
0.0
 11
167.8622731077507
 21
127.3672613042547
 31
0.0
  0
LINE
  5
1EA3
  8
0
  6
CONTINUOUS
 10
165.8622731077507
 20
123.91709573952539
 30
0.0
 11
165.8622731077507
 21
127.3672613042547
 31
0.0
  0
ARC
  5
1EA4
  8
0
  6
CONTINUOUS
 10
166.8622731077507
 20
127.3672613042547
 30
0.0
 40
1.0
 50
180.0
 51
0.0
  0
LINE
  5
1EA5
  8
0
  6
CONTINUOUS
 10
170.8622731077507
 20
131.3672613042547
 30
0.0
 11
170.3622731077507
 21
130.8672613042547
 31
0.0
  0
LINE
  5
1EA6
  8
HIDDEN
  6
HIDDEN
 10
174.01227310775079
 20
131.3672613042547
 30
0.0
 11
174.36102310775081
 21
125.7872613042547
 31
0.0
  0
LINE
  5
1EA7
  8
HIDDEN
  6
HIDDEN
 10
174.5622731077508
 20
131.3672613042547
 30
0.0
 11
174.9497731077507
 21
125.16726130425469
 31
0.0
  0
LINE
  5
1EA8
  8
0
  6
CONTINUOUS
 10
184.86227310775081
 20
131.3672613042547
 30
0.0
 11
185.36227310775081
 21
130.8672613042547
 31
0.0
  0
LINE
  5
1EA9
  8
HIDDEN
  6
HIDDEN
 10
182.7747731077508
 20
125.16726130425469
 30
0.0
 11
183.16227310775079
 21
131.3672613042547
 31
0.0
  0
LINE
  5
1EAA
  8
HIDDEN
  6
HIDDEN
 10
183.7122731077508
 20
131.3672613042547
 30
0.0
 11
183.36352310775081
 21
125.7872613042547
 31
0.0
  0
LINE
  5
1EAB
  8
0
  6
CONTINUOUS
 10
186.46227310775069
 20
105.5672613042545
 30
0.0
 11
186.46227310775069
 21
127.16726130425459
 31
0.0
  0
LINE
  5
1EAC
  8
0
  6
CONTINUOUS
 10
186.96227310775069
 20
105.5672613042545
 30
0.0
 11
186.9622731077506
 21
127.16726130425459
 31
0.0
  0
LINE
  5
1EAD
  8
0
  6
CONTINUOUS
 10
212.2622731077509
 20
105.5672613042545
 30
0.0
 11
212.2622731077509
 21
111.3672613042546
 31
0.0
  0
LINE
  5
1EAE
  8
0
  6
CONTINUOUS
 10
211.7622731077509
 20
105.5672613042545
 30
0.0
 11
211.7622731077509
 21
111.3672613042546
 31
0.0
  0
LINE
  5
1EAF
  8
0
  6
CONTINUOUS
 10
212.86227310775089
 20
111.3672613042546
 30
0.0
 11
212.86227310775089
 21
102.8672613042547
 31
0.0
  0
LINE
  5
1EB0
  8
0
  6
CONTINUOUS
 10
213.36227310775089
 20
109.82891288894361
 30
0.0
 11
213.36227310775089
 21
102.8672613042546
 31
0.0
  0
LINE
  5
1EB1
  8
0
  6
CONTINUOUS
 10
228.36227310775089
 20
109.82891288894361
 30
0.0
 11
228.36227310775089
 21
102.8672613042546
 31
0.0
  0
LINE
  5
1EB2
  8
0
  6
CONTINUOUS
 10
228.86227310775061
 20
135.36726130425461
 30
0.0
 11
228.86227310775061
 21
97.367261304254697
 31
0.0
  0
LINE
  5
1EB3
  8
0
 10
186.46227310775069
 20
105.5672613042545
 30
0.0
 11
212.26227310775079
 21
105.5672613042546
 31
0.0
  0
LINE
  5
1EB4
  8
0
  6
CONTINUOUS
 10
212.86227310775089
 20
102.8672613042547
 30
0.0
 11
228.86227310775089
 21
102.8672613042547
 31
0.0
  0
LINE
  5
1EB5
  8
0
  6
CONTINUOUS
 10
212.26227310775079
 20
105.5672613042546
 30
0.0
 11
212.86227310775081
 21
106.1672613042545
 31
0.0
  0
LINE
  5
1EB6
  8
0
 10
186.4622731077508
 20
127.16726130425459
 30
0.0
 11
212.26227310775079
 21
127.16726130425459
 31
0.0
  0
LINE
  5
1EB7
  8
0
  6
CONTINUOUS
 10
208.86227310775061
 20
120.8672613042547
 30
0.0
 11
209.36227310775061
 21
121.3672613042547
 31
0.0
  0
LINE
  5
1EB8
  8
0
  6
CONTINUOUS
 10
209.36227310775061
 20
111.3672613042547
 30
0.0
 11
208.86227310775061
 21
111.8672613042547
 31
0.0
  0
LINE
  5
1EB9
  8
0
  6
CONTINUOUS
 10
208.86227310775061
 20
111.8672613042547
 30
0.0
 11
208.86227310775061
 21
120.8672613042547
 31
0.0
  0
LINE
  5
1EBA
  8
0
  6
CONTINUOUS
 10
212.2622731077509
 20
121.3672613042547
 30
0.0
 11
212.26227310775101
 21
127.16726130425459
 31
0.0
  0
LINE
  5
1EBB
  8
0
  6
CONTINUOUS
 10
211.7622731077509
 20
121.3672613042547
 30
0.0
 11
211.7622731077509
 21
127.16726130425459
 31
0.0
  0
LINE
  5
1EBC
  8
0
  6
CONTINUOUS
 10
212.86227310775089
 20
129.8672613042547
 30
0.0
 11
212.86227310775089
 21
121.3672613042547
 31
0.0
  0
LINE
  5
1EBD
  8
0
  6
CONTINUOUS
 10
213.36227310775089
 20
130.8672613042547
 30
0.0
 11
213.36227310775089
 21
122.9056097195657
 31
0.0
  0
LINE
  5
1EBE
  8
CENTER
  6
CENTER
 10
219.86227310775089
 20
134.3672613042547
 30
0.0
 11
219.86227310775089
 21
120.7213751935674
 31
0.0
  0
LINE
  5
1EBF
  8
0
  6
CONTINUOUS
 10
228.36227310775089
 20
130.8672613042547
 30
0.0
 11
228.36227310775089
 21
122.9056097195657
 31
0.0
  0
LINE
  5
1EC0
  8
0
  6
CONTINUOUS
 10
228.36227310775089
 20
109.82891288894361
 30
0.0
 11
213.36227310775089
 21
109.82891288894361
 31
0.0
  0
LINE
  5
1EC1
  8
0
  6
CONTINUOUS
 10
228.36227310775089
 20
122.9056097195657
 30
0.0
 11
213.36227310775089
 21
122.9056097195655
 31
0.0
  0
LINE
  5
1EC2
  8
0
  6
CONTINUOUS
 10
209.36227310775061
 20
111.3672613042547
 30
0.0
 11
228.8622731077505
 21
111.3672613042547
 31
0.0
  0
LINE
  5
1EC3
  8
0
  6
CONTINUOUS
 10
209.36227310775061
 20
121.3672613042547
 30
0.0
 11
228.8622731077505
 21
121.3672613042547
 31
0.0
  0
LINE
  5
1EC4
  8
0
  6
CONTINUOUS
 10
209.36227310775061
 20
111.3672613042547
 30
0.0
 11
209.36227310775061
 21
121.3672613042547
 31
0.0
  0
LINE
  5
1EC5
  8
0
  6
CONTINUOUS
 62
     4
 10
213.36227310775149
 20
109.82891288894361
 30
0.0
 11
215.12687976098741
 21
111.3672613042547
 31
0.0
  0
LINE
  5
1EC6
  8
0
  6
CONTINUOUS
 10
213.36227310775089
 20
109.82891288894361
 30
0.0
 11
212.86227310775089
 21
111.0757586821255
 31
0.0
  0
LINE
  5
1EC7
  8
0
  6
CONTINUOUS
 62
     4
 10
213.36227310775129
 20
122.9056097195655
 30
0.0
 11
215.12687976098701
 21
121.3672613042547
 31
0.0
  0
LINE
  5
1EC8
  8
0
  6
CONTINUOUS
 10
213.36227310775089
 20
122.9056097195657
 30
0.0
 11
212.86227310775089
 21
121.6587639263839
 31
0.0
  0
LINE
  5
1EC9
  8
0
  6
CONTINUOUS
 62
     4
 10
226.59766645451501
 20
111.3672613042547
 30
0.0
 11
228.36227310775089
 21
109.82891288894361
 31
0.0
  0
LINE
  5
1ECA
  8
0
  6
CONTINUOUS
 10
228.36227310775089
 20
109.82891288894361
 30
0.0
 11
228.86227310775089
 21
111.0757586821255
 31
0.0
  0
LINE
  5
1ECB
  8
0
  6
CONTINUOUS
 62
     4
 10
226.59766645451509
 20
121.3672613042547
 30
0.0
 11
228.36227310775089
 21
122.9056097195657
 31
0.0
  0
LINE
  5
1ECC
  8
0
  6
CONTINUOUS
 10
228.36227310775089
 20
122.9056097195657
 30
0.0
 11
228.86227310775089
 21
121.6587639263839
 31
0.0
  0
LINE
  5
1ECD
  8
0
  6
CONTINUOUS
 10
212.86227310775089
 20
129.8672613042547
 30
0.0
 11
228.86227310775089
 21
129.8672613042547
 31
0.0
  0
LINE
  5
1ECE
  8
0
  6
CONTINUOUS
 10
213.86227310775089
 20
131.3672613042547
 30
0.0
 11
227.86227310775101
 21
131.3672613042547
 31
0.0
  0
LINE
  5
1ECF
  8
HIDDEN
  6
HIDDEN
 10
215.0122731077509
 20
131.3672613042547
 30
0.0
 11
215.3610231077509
 21
125.7872613042547
 31
0.0
  0
LINE
  5
1ED0
  8
0
  6
CONTINUOUS
 10
213.86227310775089
 20
131.3672613042547
 30
0.0
 11
213.36227310775089
 21
130.8672613042547
 31
0.0
  0
LINE
  5
1ED1
  8
0
  6
CONTINUOUS
 10
212.26227310775079
 20
127.16726130425459
 30
0.0
 11
212.8622731077507
 21
126.5672613042545
 31
0.0
  0
LINE
  5
1ED2
  8
HIDDEN
  6
HIDDEN
 10
215.9497731077509
 20
125.16726130425469
 30
0.0
 11
215.56227310775091
 21
131.3672613042547
 31
0.0
  0
LINE
  5
1ED3
  8
HIDDEN
  6
HIDDEN
 10
232.11227310775061
 20
135.36726130425461
 30
0.0
 11
232.11227310775061
 21
128.86726130425461
 31
0.0
  0
LINE
  5
1ED4
  8
HIDDEN
  6
HIDDEN
 10
224.16227310775091
 20
131.3672613042547
 30
0.0
 11
223.774773107751
 21
125.16726130425469
 31
0.0
  0
LINE
  5
1ED5
  8
HIDDEN
  6
HIDDEN
 10
224.7122731077508
 20
131.3672613042547
 30
0.0
 11
224.36352310775081
 21
125.7872613042547
 31
0.0
  0
LINE
  5
1ED6
  8
0
  6
CONTINUOUS
 10
227.86227310775101
 20
131.3672613042547
 30
0.0
 11
228.36227310775089
 21
130.8672613042547
 31
0.0
  0
TEXT
  5
1ED7
  8
DIM
  6
CONTINUOUS
 10
175.41371299708121
 20
171.283354646302
 30
0.0
 40
3.0
  1
81+Stroke
  7
ROMANSS
 72
     1
 11
186.6279987113669
 21
172.783354646302
 31
0.0
 73
     2
  0
SOLID
  5
1ED8
  8
DIM
  6
CONTINUOUS
 10
150.86227310775061
 20
162.283354646302
 30
0.0
 11
150.86227310775061
 21
161.283354646302
 31
0.0
 12
147.8622731077507
 22
161.783354646302
 32
0.0
 13
147.8622731077507
 23
161.783354646302
 33
0.0
  0
SOLID
  5
1ED9
  8
DIM
  6
CONTINUOUS
 10
150.86227310775061
 20
170.283354646302
 30
0.0
 11
150.86227310775061
 21
169.283354646302
 31
0.0
 12
147.8622731077507
 22
169.783354646302
 32
0.0
 13
147.8622731077507
 23
169.783354646302
 33
0.0
  0
LINE
  5
1EDA
  8
DIM
  6
CONTINUOUS
 10
228.86227310775061
 20
176.38741064688421
 30
0.0
 11
228.86227310775061
 21
168.783354646302
 31
0.0
  0
TEXT
  5
1EDB
  8
DIM
  6
CONTINUOUS
 10
219.54793792391499
 20
152.4039701793217
 30
0.0
 40
3.0
  1
%%c10.5
  7
ROMANSS
 72
     1
 11
225.1907950667721
 21
153.9039701793217
 31
0.0
 73
     2
  0
TEXT
  5
1EDC
  8
DIM
  6
CONTINUOUS
 10
220.42155004363229
 20
144.4039701793217
 30
0.0
 40
3.0
  1
%%c6.5
  7
ROMANSS
 72
     1
 11
224.92155004363229
 21
145.9039701793217
 31
0.0
 73
     2
  0
SOLID
  5
1EDD
  8
DIM
  6
CONTINUOUS
 10
225.86227310775061
 20
170.283354646302
 30
0.0
 11
225.86227310775061
 21
169.283354646302
 31
0.0
 12
228.86227310775061
 22
169.783354646302
 32
0.0
 13
228.86227310775061
 23
169.783354646302
 33
0.0
  0
SOLID
  5
1EDE
  8
DIM
  6
CONTINUOUS
 10
231.86227310775061
 20
170.283354646302
 30
0.0
 11
231.86227310775061
 21
169.283354646302
 31
0.0
 12
228.86227310775061
 22
169.783354646302
 32
0.0
 13
228.86227310775061
 23
169.783354646302
 33
0.0
  0
LINE
  5
1EDF
  8
0
  6
CONTINUOUS
 10
209.36227310775061
 20
200.783354646302
 30
0.0
 11
208.86227310775061
 21
201.283354646302
 31
0.0
  0
SOLID
  5
1EE0
  8
DIM
  6
CONTINUOUS
 10
211.8622731077505
 20
178.1794068370387
 30
0.0
 11
211.8622731077505
 21
177.1794068370387
 31
0.0
 12
208.86227310775061
 22
177.6794068370387
 32
0.0
 13
208.86227310775061
 23
177.6794068370387
 33
0.0
  0
LINE
  5
1EE1
  8
DIM
  6
CONTINUOUS
 10
208.86227310775061
 20
199.783354646302
 30
0.0
 11
208.86227310775061
 21
176.6794068370387
 31
0.0
  0
LINE
  5
1EE2
  8
DIM
  6
CONTINUOUS
 10
200.8622731077505
 20
197.783354646302
 30
0.0
 11
200.8622731077505
 21
194.783354646302
 31
0.0
  0
LINE
  5
1EE3
  8
DIM
  6
CONTINUOUS
 10
207.38673664352521
 20
200.783354646302
 30
0.0
 11
200.03874624312911
 21
200.783354646302
 31
0.0
  0
SOLID
  5
1EE4
  8
DIM
  6
CONTINUOUS
 10
200.3622731077505
 20
197.783354646302
 30
0.0
 11
201.3622731077505
 21
197.783354646302
 31
0.0
 12
200.8622731077505
 22
200.78335464630189
 32
0.0
 13
200.8622731077505
 23
200.78335464630189
 33
0.0
  0
LINE
  5
1EE5
  8
DIM
  6
CONTINUOUS
 10
228.86227310775061
 20
192.77198516713969
 30
0.0
 11
228.8622731077505
 21
179.2622292561081
 31
0.0
  0
SOLID
  5
1EE6
  8
DIM
  6
CONTINUOUS
 10
225.86227310775061
 20
186.283354646302
 30
0.0
 11
225.86227310775061
 21
185.283354646302
 31
0.0
 12
228.86227310775061
 22
185.783354646302
 32
0.0
 13
228.86227310775061
 23
185.783354646302
 33
0.0
  0
LINE
  5
1EE7
  8
0
  6
CONTINUOUS
 10
209.36227310775061
 20
200.783354646302
 30
0.0
 11
228.8622731077505
 21
200.783354646302
 31
0.0
  0
LINE
  5
1EE8
  8
HIDDEN
  6
HIDDEN
 10
230.86227310775061
 20
193.783354646302
 30
0.0
 11
230.86227310775061
 21
204.783354646302
 31
0.0
  0
TEXT
  5
1EE9
  8
DIM
  6
CONTINUOUS
 10
39.909564555326007
 20
215.16323379407359
 30
0.0
 40
3.0
  1
2-%%c6H7x6L
  7
ROMANSS
 72
     2
 11
65.052421698183153
 21
216.66323379407359
 31
0.0
 73
     2
  0
LINE
  5
1EEA
  8
DIM
  6
CONTINUOUS
 10
66.052421698183167
 20
213.66323379407351
 30
0.0
 11
42.927421698183167
 21
213.66323379407351
 31
0.0
  0
LINE
  5
1EEB
  8
0
  6
CONTINUOUS
 10
186.4622731077506
 20
347.20536552846357
 30
0.0
 11
186.4622731077506
 21
325.60536552846349
 31
0.0
  0
LINE
  5
1EEC
  8
0
  6
CONTINUOUS
 10
186.9622731077506
 20
347.20536552846357
 30
0.0
 11
186.96227310775049
 21
325.60536552846349
 31
0.0
  0
LINE
  5
1EED
  8
0
  6
CONTINUOUS
 10
185.86227310775061
 20
322.90536552846339
 30
0.0
 11
185.86227310775061
 21
349.90536552846339
 31
0.0
  0
LINE
  5
1EEE
  8
0
  6
CONTINUOUS
 10
228.8622731077505
 20
355.40536552846339
 30
0.0
 11
228.8622731077505
 21
317.40536552846339
 31
0.0
  0
LINE
  5
1EEF
  8
0
  6
CONTINUOUS
 10
209.3622731077505
 20
341.40536552846339
 30
0.0
 11
209.3622731077505
 21
331.40536552846339
 31
0.0
  0
LINE
  5
1EF0
  8
0
  6
CONTINUOUS
 10
208.86227310775061
 20
340.90536552846339
 30
0.0
 11
208.86227310775061
 21
331.90536552846339
 31
0.0
  0
CIRCLE
  5
1EF1
  8
0
  6
CONTINUOUS
 10
157.8622731077507
 20
336.40536552846339
 30
0.0
 40
4.5
  0
CIRCLE
  5
1EF2
  8
0
  6
CONTINUOUS
 10
157.8622731077507
 20
336.40536552846339
 30
0.0
 40
4.0
  0
LINE
  5
1EF3
  8
0
  6
CONTINUOUS
 62
     4
 10
185.3622731077503
 20
329.8670171131526
 30
0.0
 11
170.3622731077507
 21
342.94371394377441
 31
0.0
  0
LINE
  5
1EF4
  8
0
  6
CONTINUOUS
 62
     4
 10
185.3622731077501
 20
342.94371394377453
 30
0.0
 11
170.3622731077507
 21
329.86701711315237
 31
0.0
  0
LINE
  5
1EF5
  8
0
  6
CONTINUOUS
 10
169.8622731077507
 20
322.90536552846339
 30
0.0
 11
169.8622731077507
 21
349.90536552846339
 31
0.0
  0
LINE
  5
1EF6
  8
0
  6
CONTINUOUS
 10
147.8622731077507
 20
326.40536552846339
 30
0.0
 11
147.8622731077507
 21
346.40536552846339
 31
0.0
  0
LINE
  5
1EF7
  8
CENTER
  6
CENTER
 10
157.86227310775061
 20
328.90536552846339
 30
0.0
 11
157.86227310775061
 21
343.90536552846339
 31
0.0
  0
TEXT
  5
1EF8
  8
DIM
  6
CONTINUOUS
 10
137.70441262738689
 20
253.7077561691116
 30
0.0
 40
3.0
  1
2-PT1/8
  7
ROMANSS
 72
     2
 11
157.2758411988155
 21
255.2077561691116
 31
0.0
 73
     2
  0
LINE
  5
1EF9
  8
DIM
  6
CONTINUOUS
 10
163.0704468386034
 20
252.2077561691116
 30
0.0
 11
139.5522812076662
 21
252.20775616911169
 31
0.0
  0
CIRCLE
  5
1EFA
  8
0
  6
CONTINUOUS
 10
99.548450459315887
 20
263.78335464630197
 30
0.0
 40
10.0
  0
LINE
  5
1EFB
  8
0
  6
CONTINUOUS
 10
91.998616024045106
 20
242.78335464630209
 30
0.0
 11
107.0982848945866
 21
242.78335464630209
 31
0.0
  0
LINE
  5
1EFC
  8
0
  6
CONTINUOUS
 10
93.010102044004867
 20
248.28335464630209
 30
0.0
 11
106.08679887462689
 21
248.28335464630209
 31
0.0
  0
LINE
  5
1EFD
  8
CENTER
  6
CENTER
 10
86.548450459315887
 20
263.78335464630197
 30
0.0
 11
112.5484504593158
 21
263.78335464630197
 31
0.0
  0
ARC
  5
1EFE
  8
0
  6
CONTINUOUS
 10
99.548450459315887
 20
234.783354646302
 30
0.0
 40
14.5
 50
111.4033496394062
 51
158.59665036059391
  0
LINE
  5
1EFF
  8
0
  6
CONTINUOUS
 10
93.010102044004867
 20
221.283354646302
 30
0.0
 11
106.08679887462689
 21
221.283354646302
 31
0.0
  0
LINE
  5
1F00
  8
0
  6
CONTINUOUS
 10
91.998616024045106
 20
226.783354646302
 30
0.0
 11
107.0982848945866
 21
226.783354646302
 31
0.0
  0
ARC
  5
1F01
  8
0
  6
CONTINUOUS
 10
99.548450459315887
 20
234.783354646302
 30
0.0
 40
14.5
 50
201.403349639406
 51
248.59665036059371
  0
LINE
  5
1F02
  8
CENTER
  6
CENTER
 10
77.548450459315873
 20
234.783354646302
 30
0.0
 11
121.5484504593158
 21
234.783354646302
 31
0.0
  0
ARC
  5
1F03
  8
0
  6
CONTINUOUS
 10
99.548450459315887
 20
234.783354646302
 30
0.0
 40
10.0
 50
126.869897645843
 51
233.13010235415661
  0
ARC
  5
1F04
  8
0
  6
CONTINUOUS
 62
     2
 10
99.548450459315887
 20
234.783354646302
 30
0.0
 40
10.199999999999999
 50
128.34274926046771
 51
231.65725073953229
  0
ARC
  5
1F05
  8
0
  6
CONTINUOUS
 10
99.548450459315887
 20
234.783354646302
 30
0.0
 40
11.0
 50
133.34175822722199
 51
226.65824177277801
  0
LINE
  5
1F06
  8
0
  6
CONTINUOUS
 10
86.048450459315873
 20
241.32170306161299
 30
0.0
 11
86.048450459315873
 21
228.24500623099101
 31
0.0
  0
LINE
  5
1F07
  8
DIM
  6
CONTINUOUS
 10
72.548450459315873
 20
228.283354646302
 30
0.0
 11
72.548450459315873
 21
241.283354646302
 31
0.0
  0
LINE
  5
1F08
  8
DIM
  6
CONTINUOUS
 10
78.438548186389284
 20
223.15067736206541
 30
0.0
 11
69.052421698183167
 21
213.66323379407351
 31
0.0
  0
TEXT
  5
1F09
  8
DIM
  6
CONTINUOUS
 10
71.048450459315887
 20
232.71192607487339
 30
0.0
 40
3.0
  1
19
 50
90.0
  7
ROMANSS
 72
     1
 11
69.548450459315873
 21
234.783354646302
 31
0.0
 73
     2
  0
LINE
  5
1F0A
  8
DIM
  6
CONTINUOUS
 10
69.052421698183167
 20
213.66323379407351
 30
0.0
 11
66.052421698183167
 21
213.66323379407351
 31
0.0
  0
ARC
  5
1F0B
  8
0
  6
CONTINUOUS
 10
99.548450459315887
 20
234.783354646302
 30
0.0
 40
15.0
 50
205.84193276316671
 51
244.1580672368394
  0
LINE
  5
1F0C
  8
HIDDEN
  6
HIDDEN
 10
80.548450459315887
 20
222.283354646302
 30
0.0
 11
86.548450459315887
 21
222.283354646302
 31
0.0
  0
LINE
  5
1F0D
  8
CENTER
  6
CENTER
 10
77.635051530721654
 20
225.283354646302
 30
0.0
 11
90.685303548964214
 21
225.283354646302
 31
0.0
  0
LINE
  5
1F0E
  8
HIDDEN
  6
HIDDEN
 10
80.548450459315887
 20
228.283354646302
 30
0.0
 11
86.548450459315887
 21
228.283354646302
 31
0.0
  0
LINE
  5
1F0F
  8
DIM
  6
CONTINUOUS
 10
76.635051530721654
 20
225.283354646302
 30
0.0
 11
71.548450459315887
 21
225.283354646302
 31
0.0
  0
SOLID
  5
1F10
  8
DIM
  6
CONTINUOUS
 10
72.048450459315873
 20
228.283354646302
 30
0.0
 11
73.048450459315887
 21
228.283354646302
 31
0.0
 12
72.548450459315873
 22
225.283354646302
 32
0.0
 13
72.548450459315873
 23
225.283354646302
 33
0.0
  0
SOLID
  5
1F11
  8
DIM
  6
CONTINUOUS
 10
78.083101972349851
 20
223.5023277408865
 30
0.0
 11
78.793994400428716
 21
222.79902698324429
 31
0.0
 12
80.548450459315887
 22
225.283354646302
 32
0.0
 13
80.548450459315887
 23
225.283354646302
 33
0.0
  0
LINE
  5
1F12
  8
HIDDEN
  6
HIDDEN
 10
86.548450459315887
 20
222.283354646302
 30
0.0
 11
88.280501266884841
 21
225.283354646302
 31
0.0
  0
LINE
  5
1F13
  8
HIDDEN
  6
HIDDEN
 10
86.548450459315887
 20
228.283354646302
 30
0.0
 11
88.280501266884841
 21
225.283354646302
 31
0.0
  0
LINE
  5
1F14
  8
HIDDEN
  6
HIDDEN
 10
86.548450459315887
 20
228.283354646302
 30
0.0
 11
86.548450459315887
 21
222.283354646302
 31
0.0
  0
LINE
  5
1F15
  8
CENTER
  6
CENTER
 10
77.72277789311741
 20
244.283354646302
 30
0.0
 11
90.685303548964214
 21
244.283354646302
 31
0.0
  0
LINE
  5
1F16
  8
HIDDEN
  6
HIDDEN
 10
80.548450459315887
 20
241.283354646302
 30
0.0
 11
86.548450459315887
 21
241.283354646302
 31
0.0
  0
LINE
  5
1F17
  8
HIDDEN
  6
HIDDEN
 10
80.548450459315887
 20
247.28335464630209
 30
0.0
 11
86.548450459315887
 21
247.283354646302
 31
0.0
  0
LINE
  5
1F18
  8
DIM
  6
CONTINUOUS
 10
76.72277789311741
 20
244.283354646302
 30
0.0
 11
71.548450459315887
 21
244.283354646302
 31
0.0
  0
SOLID
  5
1F19
  8
DIM
  6
CONTINUOUS
 10
72.048450459315873
 20
241.283354646302
 30
0.0
 11
73.048450459315887
 21
241.283354646302
 31
0.0
 12
72.548450459315873
 22
244.283354646302
 32
0.0
 13
72.548450459315873
 23
244.283354646302
 33
0.0
  0
LINE
  5
1F1A
  8
HIDDEN
  6
HIDDEN
 10
86.548450459315887
 20
247.283354646302
 30
0.0
 11
88.280501266884841
 21
244.283354646302
 31
0.0
  0
LINE
  5
1F1B
  8
HIDDEN
  6
HIDDEN
 10
86.548450459315887
 20
247.283354646302
 30
0.0
 11
86.548450459315887
 21
241.283354646302
 31
0.0
  0
ARC
  5
1F1C
  8
0
  6
CONTINUOUS
 10
99.548450459315887
 20
234.783354646302
 30
0.0
 40
15.0
 50
115.8419327631605
 51
154.15806723683329
  0
LINE
  5
1F1D
  8
HIDDEN
  6
HIDDEN
 10
86.548450459315887
 20
241.283354646302
 30
0.0
 11
88.280501266884841
 21
244.283354646302
 31
0.0
  0
LINE
  5
1F1E
  8
HIDDEN
  6
HIDDEN
 10
95.548450459315887
 20
227.283354646302
 30
0.0
 11
95.548450459315887
 21
242.28335464630209
 31
0.0
  0
ARC
  5
1F1F
  8
0
  6
CONTINUOUS
 10
65.298450459315774
 20
234.783354646302
 30
0.0
 40
49.250000000000199
 50
351.82876644005
 51
8.1712335599499522
  0
LINE
  5
1F20
  8
0
  6
CONTINUOUS
 10
114.0484504593158
 20
241.78335464630209
 30
0.0
 11
114.0484504593158
 21
227.783354646302
 31
0.0
  0
LINE
  5
1F21
  8
0
  6
CONTINUOUS
 10
114.5484504593158
 20
241.78335464630209
 30
0.0
 11
114.5484504593158
 21
227.783354646302
 31
0.0
  0
LINE
  5
1F22
  8
0
  6
CONTINUOUS
 10
113.0484504593158
 20
241.32170306161311
 30
0.0
 11
113.0484504593158
 21
228.24500623099101
 31
0.0
  0
ARC
  5
1F23
  8
0
  6
CONTINUOUS
 10
99.548450459315887
 20
234.783354646302
 30
0.0
 40
10.0
 50
306.86989764584303
 51
53.130102354156641
  0
LINE
  5
1F24
  8
HIDDEN
  6
HIDDEN
 10
103.5484504593158
 20
227.283354646302
 30
0.0
 11
103.5484504593158
 21
242.28335464630209
 31
0.0
  0
ARC
  5
1F25
  8
0
  6
CONTINUOUS
 10
99.548450459315887
 20
234.783354646302
 30
0.0
 40
11.0
 50
313.34175822722187
 51
46.658241772777977
  0
ARC
  5
1F26
  8
0
  6
CONTINUOUS
 62
     2
 10
99.548450459315887
 20
234.783354646302
 30
0.0
 40
10.199999999999999
 50
308.34274926046771
 51
51.657250739532287
  0
ARC
  5
1F27
  8
0
  6
CONTINUOUS
 10
99.548450459315887
 20
234.783354646302
 30
0.0
 40
14.5
 50
291.4033496394062
 51
338.5966503605938
  0
ARC
  5
1F28
  8
0
  6
CONTINUOUS
 10
99.548450459315887
 20
234.783354646302
 30
0.0
 40
15.0
 50
295.84193276316051
 51
334.15806723683318
  0
LINE
  5
1F29
  8
HIDDEN
  6
HIDDEN
 10
103.5484504593158
 20
227.283354646302
 30
0.0
 11
95.548450459315887
 21
227.283354646302
 31
0.0
  0
LINE
  5
1F2A
  8
HIDDEN
  6
HIDDEN
 10
95.548450459315887
 20
227.283354646302
 30
0.0
 11
95.048450459316015
 21
226.783354646302
 31
0.0
  0
LINE
  5
1F2B
  8
HIDDEN
  6
HIDDEN
 10
103.5484504593158
 20
227.283354646302
 30
0.0
 11
104.048450459316
 21
226.783354646302
 31
0.0
  0
LINE
  5
1F2C
  8
0
  6
CONTINUOUS
 10
112.81494962073749
 20
227.783354646302
 30
0.0
 11
114.5484504593158
 21
227.783354646302
 31
0.0
  0
LINE
  5
1F2D
  8
HIDDEN
  6
HIDDEN
 10
103.5484504593158
 20
242.28335464630209
 30
0.0
 11
95.548450459315887
 21
242.28335464630209
 31
0.0
  0
LINE
  5
1F2E
  8
HIDDEN
  6
HIDDEN
 10
95.548450459315887
 20
242.28335464630209
 30
0.0
 11
95.048450459316015
 21
242.78335464630209
 31
0.0
  0
LINE
  5
1F2F
  8
HIDDEN
  6
HIDDEN
 10
103.5484504593158
 20
242.28335464630209
 30
0.0
 11
104.048450459316
 21
242.78335464630209
 31
0.0
  0
ARC
  5
1F30
  8
0
  6
CONTINUOUS
 10
99.548450459315887
 20
234.783354646302
 30
0.0
 40
15.0
 50
25.841932763166721
 51
64.158067236839457
  0
ARC
  5
1F31
  8
0
  6
CONTINUOUS
 10
99.548450459315887
 20
234.783354646302
 30
0.0
 40
14.5
 50
21.40334963940608
 51
68.59665036059377
  0
LINE
  5
1F32
  8
0
  6
CONTINUOUS
 10
112.81494962073749
 20
241.78335464630209
 30
0.0
 11
114.5484504593158
 21
241.78335464630209
 31
0.0
  0
CIRCLE
  5
1F33
  8
0
  6
CONTINUOUS
 10
99.548450459315887
 20
263.78335464630197
 30
0.0
 40
5.0
  0
LINE
  5
1F34
  8
0
  6
CONTINUOUS
 10
80.548450459315887
 20
275.78335464630197
 30
0.0
 11
118.5484504593158
 21
275.78335464630197
 31
0.0
  0
LINE
  5
1F35
  8
HIDDEN
  6
HIDDEN
 10
231.36227310775061
 20
275.78335464630197
 30
0.0
 11
231.36227310775061
 21
261.78335464630209
 31
0.0
  0
LINE
  5
1F36
  8
HIDDEN
  6
HIDDEN
 10
230.86227310775061
 20
275.78335464630197
 30
0.0
 11
230.86227310775061
 21
264.78335464630197
 31
0.0
  0
LINE
  5
1F37
  8
0
  6
CONTINUOUS
 10
186.4622731077506
 20
245.5833546463021
 30
0.0
 11
185.86227310775061
 21
244.9833546463021
 31
0.0
  0
LINE
  5
1F38
  8
0
  6
CONTINUOUS
 10
186.46227310775069
 20
223.98335464630199
 30
0.0
 11
185.86227310775061
 21
224.58335464630201
 31
0.0
  0
SOLID
  5
1F39
  8
DIM
  6
CONTINUOUS
 10
173.8652493345061
 20
240.9591187698831
 30
0.0
 11
173.12190246313321
 21
240.29021262637701
 31
0.0
 12
175.50029432933809
 22
238.39462508401161
 32
0.0
 13
175.50029432933809
 23
238.39462508401161
 33
0.0
  0
LINE
  5
1F3A
  8
0
  6
CONTINUOUS
 62
     4
 10
170.8622731077507
 20
241.783354646302
 30
0.0
 11
175.36310655685691
 21
237.28252119719571
 31
0.0
  0
LINE
  5
1F3B
  8
0
  6
CONTINUOUS
 10
147.8622731077507
 20
242.783354646302
 30
0.0
 11
147.8622731077507
 21
226.783354646302
 31
0.0
  0
LINE
  5
1F3C
  8
0
  6
CONTINUOUS
 10
148.8622731077507
 20
242.783354646302
 30
0.0
 11
148.8622731077507
 21
226.783354646302
 31
0.0
  0
LINE
  5
1F3D
  8
0
  6
CONTINUOUS
 10
149.8622731077507
 20
242.783354646302
 30
0.0
 11
149.8622731077507
 21
226.783354646302
 31
0.0
  0
LINE
  5
1F3E
  8
0
  6
CONTINUOUS
 10
169.8622731077507
 20
248.28335464630209
 30
0.0
 11
169.8622731077507
 21
221.28335464630189
 31
0.0
  0
LINE
  5
1F3F
  8
CENTER
  6
CENTER
 10
157.86227310775061
 20
245.783354646302
 30
0.0
 11
157.86227310775061
 21
223.783354646302
 31
0.0
  0
LINE
  5
1F40
  8
0
  6
CONTINUOUS
 10
185.86227310775061
 20
248.28335464630209
 30
0.0
 11
185.86227310775061
 21
221.28335464630189
 31
0.0
  0
CIRCLE
  5
1F41
  8
0
  6
CONTINUOUS
 10
178.8622731077507
 20
234.783354646302
 30
0.0
 40
4.2999999999999536
  0
ARC
  5
1F42
  8
0
  6
CONTINUOUS
 10
219.61227310774959
 20
234.78335464630209
 30
0.0
 40
49.249999999998948
 50
171.82876644005
 51
188.17123355994991
  0
LINE
  5
1F43
  8
0
  6
CONTINUOUS
 10
167.8622731077507
 20
242.78335464630189
 30
0.0
 11
167.8622731077507
 21
226.783354646302
 31
0.0
  0
LINE
  5
1F44
  8
0
  6
CONTINUOUS
 10
165.8622731077507
 20
242.78335464630189
 30
0.0
 11
165.8622731077507
 21
226.783354646302
 31
0.0
  0
LINE
  5
1F45
  8
HIDDEN
  6
HIDDEN
 10
161.8622731077507
 20
227.28335464630209
 30
0.0
 11
161.8622731077507
 21
242.28335464630209
 31
0.0
  0
LINE
  5
1F46
  8
HIDDEN
  6
HIDDEN
 10
153.86227310775061
 20
227.28335464630209
 30
0.0
 11
153.86227310775061
 21
242.28335464630209
 31
0.0
  0
LINE
  5
1F47
  8
CENTER
  6
CENTER
 10
178.8622731077507
 20
241.783354646302
 30
0.0
 11
178.86227310775061
 21
227.783354646302
 31
0.0
  0
ARC
  5
1F48
  8
0
  6
CONTINUOUS
 62
     2
 10
178.86227310775061
 20
234.783354646302
 30
0.0
 40
4.849999999999965
 50
338.17329732000428
 51
289.97999234916449
  0
ARC
  5
1F49
  8
0
  6
CONTINUOUS
 10
136.1122731077518
 20
234.78335464630209
 30
0.0
 40
49.249999999998948
 50
351.82876644005
 51
8.1712335599499522
  0
LINE
  5
1F4A
  8
0
  6
CONTINUOUS
 10
147.8622731077507
 20
226.783354646302
 30
0.0
 11
169.8622731077507
 21
226.783354646302
 31
0.0
  0
LINE
  5
1F4B
  8
HIDDEN
  6
HIDDEN
 10
153.86227310775061
 20
227.283354646302
 30
0.0
 11
161.8622731077507
 21
227.283354646302
 31
0.0
  0
LINE
  5
1F4C
  8
HIDDEN
  6
HIDDEN
 10
153.86227310775061
 20
227.283354646302
 30
0.0
 11
153.3622731077505
 21
226.783354646302
 31
0.0
  0
LINE
  5
1F4D
  8
HIDDEN
  6
HIDDEN
 10
161.8622731077507
 20
227.283354646302
 30
0.0
 11
162.3622731077505
 21
226.783354646302
 31
0.0
  0
LINE
  5
1F4E
  8
0
  6
CONTINUOUS
 10
185.3622731077507
 20
227.783354646302
 30
0.0
 11
185.3622731077507
 21
221.283354646302
 31
0.0
  0
LINE
  5
1F4F
  8
0
  6
CONTINUOUS
 10
170.3622731077507
 20
227.783354646302
 30
0.0
 11
170.3622731077507
 21
221.28335464630189
 31
0.0
  0
LINE
  5
1F50
  8
0
  6
CONTINUOUS
 10
185.86227310775061
 20
221.28335464630189
 30
0.0
 11
169.8622731077507
 21
221.28335464630189
 31
0.0
  0
LINE
  5
1F51
  8
0
  6
CONTINUOUS
 62
     4
 10
170.8622731077507
 20
227.783354646302
 30
0.0
 11
174.9694497996488
 21
231.89053133819999
 31
0.0
  0
LINE
  5
1F52
  8
0
  6
CONTINUOUS
 10
170.3622731077507
 20
227.783354646302
 30
0.0
 11
185.3622731077507
 21
227.783354646302
 31
0.0
  0
LINE
  5
1F53
  8
0
  6
CONTINUOUS
 62
     4
 10
181.75509641585259
 20
230.89053133820011
 30
0.0
 11
184.86227310775061
 21
227.783354646302
 31
0.0
  0
LINE
  5
1F54
  8
0
  6
CONTINUOUS
 10
147.8622731077507
 20
242.783354646302
 30
0.0
 11
169.8622731077507
 21
242.78335464630189
 31
0.0
  0
LINE
  5
1F55
  8
HIDDEN
  6
HIDDEN
 10
153.86227310775061
 20
242.283354646302
 30
0.0
 11
161.8622731077507
 21
242.283354646302
 31
0.0
  0
LINE
  5
1F56
  8
HIDDEN
  6
HIDDEN
 10
153.86227310775061
 20
242.283354646302
 30
0.0
 11
153.3622731077505
 21
242.783354646302
 31
0.0
  0
LINE
  5
1F57
  8
HIDDEN
  6
HIDDEN
 10
161.8622731077507
 20
242.283354646302
 30
0.0
 11
162.3622731077505
 21
242.783354646302
 31
0.0
  0
LINE
  5
1F58
  8
0
  6
CONTINUOUS
 10
185.86227310775061
 20
248.28335464630209
 30
0.0
 11
169.8622731077507
 21
248.28335464630209
 31
0.0
  0
LINE
  5
1F59
  8
0
  6
CONTINUOUS
 10
170.3622731077507
 20
241.783354646302
 30
0.0
 11
185.3622731077507
 21
241.783354646302
 31
0.0
  0
LINE
  5
1F5A
  8
0
  6
CONTINUOUS
 10
170.3622731077507
 20
248.28335464630209
 30
0.0
 11
170.3622731077507
 21
241.783354646302
 31
0.0
  0
LINE
  5
1F5B
  8
DIM
  6
CONTINUOUS
 10
173.4935758988197
 20
240.62466569813009
 30
0.0
 11
163.07044683860349
 21
252.2077561691116
 31
0.0
  0
LINE
  5
1F5C
  8
0
  6
CONTINUOUS
 10
185.3622731077507
 20
248.28335464630209
 30
0.0
 11
185.3622731077507
 21
241.783354646302
 31
0.0
  0
LINE
  5
1F5D
  8
0
  6
CONTINUOUS
 62
     4
 10
181.75509641585259
 20
238.6761779544039
 30
0.0
 11
184.86227310775061
 21
241.783354646302
 31
0.0
  0
LINE
  5
1F5E
  8
0
  6
CONTINUOUS
 10
186.4622731077506
 20
245.5833546463021
 30
0.0
 11
186.4622731077506
 21
223.98335464630199
 31
0.0
  0
LINE
  5
1F5F
  8
0
  6
CONTINUOUS
 10
186.9622731077506
 20
245.5833546463021
 30
0.0
 11
186.96227310775049
 21
223.98335464630199
 31
0.0
  0
LINE
  5
1F60
  8
0
  6
CONTINUOUS
 10
212.26227310775079
 20
245.58335464630201
 30
0.0
 11
212.26227310775079
 21
223.98335464630199
 31
0.0
  0
LINE
  5
1F61
  8
0
  6
CONTINUOUS
 10
211.76227310775059
 20
245.58335464630201
 30
0.0
 11
211.7622731077507
 21
223.98335464630199
 31
0.0
  0
LINE
  5
1F62
  8
0
  6
CONTINUOUS
 62
     4
 10
227.8622731077507
 20
241.783354646302
 30
0.0
 11
223.36143965864429
 21
237.28252119719571
 31
0.0
  0
LINE
  5
1F63
  8
0
  6
CONTINUOUS
 10
212.86227310775061
 20
248.28335464630209
 30
0.0
 11
212.8622731077507
 21
221.28335464630189
 31
0.0
  0
LINE
  5
1F64
  8
0
  6
CONTINUOUS
 10
228.86227310775061
 20
248.28335464630209
 30
0.0
 11
228.86227310775061
 21
221.28335464630189
 31
0.0
  0
CIRCLE
  5
1F65
  8
0
  6
CONTINUOUS
 10
219.86227310775061
 20
234.783354646302
 30
0.0
 40
4.2999999999999536
  0
ARC
  5
1F66
  8
0
  6
CONTINUOUS
 10
262.61227310774962
 20
234.78335464630209
 30
0.0
 40
49.249999999998948
 50
171.82876644005
 51
188.17123355994991
  0
ARC
  5
1F67
  8
0
  6
CONTINUOUS
 10
179.11227310775169
 20
234.78335464630209
 30
0.0
 40
49.249999999998948
 50
351.82876644005
 51
8.1712335599499522
  0
LINE
  5
1F68
  8
CENTER
  6
CENTER
 10
219.86227310775061
 20
241.783354646302
 30
0.0
 11
219.86227310775061
 21
227.783354646302
 31
0.0
  0
ARC
  5
1F69
  8
0
  6
CONTINUOUS
 62
     2
 10
219.86227310775061
 20
234.783354646302
 30
0.0
 40
4.849999999999965
 50
70.020007650834756
 51
21.826702679995648
  0
LINE
  5
1F6A
  8
0
  6
CONTINUOUS
 10
208.86227310775061
 20
210.283354646302
 30
0.0
 11
209.36227310775061
 21
210.783354646302
 31
0.0
  0
LINE
  5
1F6B
  8
0
 10
186.46227310775069
 20
223.98335464630199
 30
0.0
 11
212.2622731077507
 21
223.98335464630199
 31
0.0
  0
LINE
  5
1F6C
  8
DIM
  6
CONTINUOUS
 10
200.8622731077505
 20
213.783354646302
 30
0.0
 11
200.8622731077505
 21
216.783354646302
 31
0.0
  0
LINE
  5
1F6D
  8
DIM
  6
CONTINUOUS
 10
207.38673664352521
 20
210.783354646302
 30
0.0
 11
200.03874624312911
 21
210.783354646302
 31
0.0
  0
SOLID
  5
1F6E
  8
DIM
  6
CONTINUOUS
 10
200.3622731077505
 20
213.783354646302
 30
0.0
 11
201.3622731077505
 21
213.783354646302
 31
0.0
 12
200.8622731077505
 22
210.783354646302
 32
0.0
 13
200.8622731077505
 23
210.783354646302
 33
0.0
  0
LINE
  5
1F6F
  8
0
  6
CONTINUOUS
 10
228.36227310775061
 20
227.783354646302
 30
0.0
 11
228.36227310775061
 21
221.28335464630189
 31
0.0
  0
LINE
  5
1F70
  8
0
  6
CONTINUOUS
 10
213.36227310775061
 20
227.783354646302
 30
0.0
 11
213.36227310775061
 21
221.283354646302
 31
0.0
  0
LINE
  5
1F71
  8
0
  6
CONTINUOUS
 10
209.36227310775061
 20
210.783354646302
 30
0.0
 11
228.8622731077505
 21
210.783354646302
 31
0.0
  0
LINE
  5
1F72
  8
0
  6
CONTINUOUS
 10
212.8622731077507
 20
221.28335464630189
 30
0.0
 11
228.86227310775061
 21
221.28335464630189
 31
0.0
  0
LINE
  5
1F73
  8
0
  6
CONTINUOUS
 10
228.3622731077507
 20
227.783354646302
 30
0.0
 11
213.36227310775061
 21
227.783354646302
 31
0.0
  0
LINE
  5
1F74
  8
0
  6
CONTINUOUS
 62
     4
 10
216.96944979964869
 20
230.89053133820011
 30
0.0
 11
213.86227310775061
 21
227.783354646302
 31
0.0
  0
LINE
  5
1F75
  8
0
  6
CONTINUOUS
 10
212.2622731077507
 20
223.98335464630199
 30
0.0
 11
212.86227310775061
 21
224.58335464630201
 31
0.0
  0
LINE
  5
1F76
  8
0
  6
CONTINUOUS
 62
     4
 10
227.86227310775061
 20
227.783354646302
 30
0.0
 11
223.75509641585259
 21
231.89053133819999
 31
0.0
  0
LINE
  5
1F77
  8
0
  6
CONTINUOUS
 10
208.86227310775061
 20
259.28335464630197
 30
0.0
 11
209.36227310775061
 21
258.78335464630197
 31
0.0
  0
LINE
  5
1F78
  8
0
  6
CONTINUOUS
 10
209.36227310775061
 20
268.78335464630197
 30
0.0
 11
208.86227310775061
 21
268.28335464630209
 31
0.0
  0
LINE
  5
1F79
  8
0
 10
186.4622731077506
 20
245.5833546463021
 30
0.0
 11
212.2622731077507
 21
245.58335464630201
 31
0.0
  0
LINE
  5
1F7A
  8
0
  6
CONTINUOUS
 10
208.86227310775061
 20
268.28335464630209
 30
0.0
 11
208.86227310775061
 21
259.28335464630197
 31
0.0
  0
LINE
  5
1F7B
  8
0
  6
CONTINUOUS
 10
228.36227310775061
 20
241.783354646302
 30
0.0
 11
213.36227310775061
 21
241.783354646302
 31
0.0
  0
LINE
  5
1F7C
  8
0
  6
CONTINUOUS
 10
212.86227310775061
 20
248.28335464630209
 30
0.0
 11
228.86227310775061
 21
248.28335464630209
 31
0.0
  0
LINE
  5
1F7D
  8
0
  6
CONTINUOUS
 10
213.36227310775061
 20
248.28335464630209
 30
0.0
 11
213.36227310775061
 21
241.783354646302
 31
0.0
  0
LINE
  5
1F7E
  8
0
  6
CONTINUOUS
 62
     4
 10
216.96944979964869
 20
238.6761779544039
 30
0.0
 11
213.86227310775061
 21
241.783354646302
 31
0.0
  0
LINE
  5
1F7F
  8
0
  6
CONTINUOUS
 10
212.2622731077507
 20
245.58335464630201
 30
0.0
 11
212.8622731077507
 21
244.9833546463021
 31
0.0
  0
LINE
  5
1F80
  8
0
  6
CONTINUOUS
 10
228.36227310775061
 20
248.28335464630209
 30
0.0
 11
228.36227310775061
 21
241.783354646302
 31
0.0
  0
LINE
  5
1F81
  8
0
  6
CONTINUOUS
 10
209.36227310775061
 20
268.78335464630197
 30
0.0
 11
228.8622731077505
 21
268.78335464630197
 31
0.0
  0
LINE
  5
1F82
  8
0
  6
CONTINUOUS
 10
209.36227310775061
 20
258.78335464630197
 30
0.0
 11
228.8622731077505
 21
258.78335464630197
 31
0.0
  0
LINE
  5
1F83
  8
0
  6
CONTINUOUS
 10
209.36227310775061
 20
268.78335464630197
 30
0.0
 11
209.36227310775061
 21
258.78335464630197
 31
0.0
  0
LINE
  5
1F84
  8
0
  6
CONTINUOUS
 10
186.46227310775069
 20
325.60536552846349
 30
0.0
 11
185.8622731077507
 21
326.20536552846352
 31
0.0
  0
LINE
  5
1F85
  8
0
  6
CONTINUOUS
 62
     4
 10
169.8622731077507
 20
328.85553109319261
 30
0.0
 11
161.621112646189
 21
333.93127472085899
 31
0.0
  0
LINE
  5
1F86
  8
0
  6
CONTINUOUS
 10
149.8622731077507
 20
325.40536552846339
 30
0.0
 11
165.8622731077507
 21
325.40536552846339
 31
0.0
  0
LINE
  5
1F87
  8
0
  6
CONTINUOUS
 62
     2
 10
149.06227310775071
 20
326.20536552846329
 30
0.0
 11
166.26227310775531
 21
326.20536552846329
 31
0.0
  0
LINE
  5
1F88
  8
0
  6
CONTINUOUS
 10
149.8622731077507
 20
328.85553109319261
 30
0.0
 11
169.8622731077507
 21
328.85553109319261
 31
0.0
  0
LINE
  5
1F89
  8
0
  6
CONTINUOUS
 62
     4
 10
153.9614259963781
 20
334.16184333920461
 30
0.0
 11
147.8622731077507
 21
330.40536552846339
 31
0.0
  0
LINE
  5
1F8A
  8
0
  6
CONTINUOUS
 10
148.8622731077507
 20
326.40536552846339
 30
0.0
 11
148.86227310775081
 21
330.40536552846339
 31
0.0
  0
LINE
  5
1F8B
  8
0
  6
CONTINUOUS
 10
149.8622731077507
 20
328.85553109319261
 30
0.0
 11
148.86227310775081
 21
330.40536552846339
 31
0.0
  0
LINE
  5
1F8C
  8
0
  6
CONTINUOUS
 10
149.8622731077507
 20
325.40536552846339
 30
0.0
 11
149.8622731077507
 21
328.85553109319261
 31
0.0
  0
LINE
  5
1F8D
  8
0
  6
CONTINUOUS
 10
147.8622731077507
 20
326.40536552846339
 30
0.0
 11
148.86227310775081
 21
326.40536552846339
 31
0.0
  0
LINE
  5
1F8E
  8
0
  6
CONTINUOUS
 10
149.8622731077507
 20
325.40536552846339
 30
0.0
 11
148.8622731077507
 21
326.40536552846339
 31
0.0
  0
LINE
  5
1F8F
  8
0
  6
CONTINUOUS
 10
147.8622731077507
 20
330.40536552846339
 30
0.0
 11
148.86227310775081
 21
330.40536552846339
 31
0.0
  0
LINE
  5
1F90
  8
CENTER
  6
CENTER
 10
178.8622731077507
 20
318.40536552846339
 30
0.0
 11
178.8622731077507
 21
332.05125163915062
 31
0.0
  0
LINE
  5
1F91
  8
0
  6
CONTINUOUS
 10
170.3622731077507
 20
329.86701711315237
 30
0.0
 11
185.3622731077507
 21
329.8670171131526
 31
0.0
  0
LINE
  5
1F92
  8
0
  6
CONTINUOUS
 10
185.86227310775061
 20
322.90536552846339
 30
0.0
 11
169.8622731077507
 21
322.90536552846339
 31
0.0
  0
LINE
  5
1F93
  8
0
  6
CONTINUOUS
 10
184.86227310775061
 20
321.40536552846339
 30
0.0
 11
170.8622731077507
 21
321.40536552846339
 31
0.0
  0
LINE
  5
1F94
  8
0
  6
CONTINUOUS
 10
170.3622731077507
 20
321.90536552846339
 30
0.0
 11
170.3622731077507
 21
329.86701711315237
 31
0.0
  0
LINE
  5
1F95
  8
0
  6
CONTINUOUS
 10
167.8622731077507
 20
325.40536552846339
 30
0.0
 11
169.8622731077507
 21
325.40536552846339
 31
0.0
  0
LINE
  5
1F96
  8
0
  6
CONTINUOUS
 10
167.8622731077507
 20
325.40536552846339
 30
0.0
 11
167.8622731077507
 21
328.85553109319261
 31
0.0
  0
LINE
  5
1F97
  8
0
  6
CONTINUOUS
 10
165.8622731077507
 20
325.40536552846339
 30
0.0
 11
165.8622731077507
 21
328.85553109319261
 31
0.0
  0
ARC
  5
1F98
  8
0
  6
CONTINUOUS
 10
166.8622731077507
 20
325.40536552846339
 30
0.0
 40
1.0
 50
0.0
 51
180.0
  0
LINE
  5
1F99
  8
0
  6
CONTINUOUS
 10
170.8622731077507
 20
321.40536552846339
 30
0.0
 11
170.3622731077507
 21
321.90536552846339
 31
0.0
  0
LINE
  5
1F9A
  8
HIDDEN
  6
HIDDEN
 10
174.0122731077507
 20
321.40536552846339
 30
0.0
 11
174.3610231077507
 21
326.98536552846338
 31
0.0
  0
LINE
  5
1F9B
  8
0
  6
CONTINUOUS
 10
170.3622731077507
 20
329.86701711315237
 30
0.0
 11
169.8622731077507
 21
331.11386290633419
 31
0.0
  0
LINE
  5
1F9C
  8
0
  6
CONTINUOUS
 10
185.3622731077507
 20
321.90536552846339
 30
0.0
 11
185.3622731077507
 21
329.86701711315237
 31
0.0
  0
LINE
  5
1F9D
  8
HIDDEN
  6
HIDDEN
 10
174.56227310775071
 20
321.40536552846339
 30
0.0
 11
174.9497731077507
 21
327.60536552846332
 31
0.0
  0
LINE
  5
1F9E
  8
0
  6
CONTINUOUS
 10
184.86227310775061
 20
321.40536552846339
 30
0.0
 11
185.3622731077507
 21
321.90536552846339
 31
0.0
  0
LINE
  5
1F9F
  8
HIDDEN
  6
HIDDEN
 10
182.77477310775069
 20
327.60536552846332
 30
0.0
 11
183.16227310775071
 21
321.40536552846339
 31
0.0
  0
LINE
  5
1FA0
  8
HIDDEN
  6
HIDDEN
 10
183.71227310775069
 20
321.40536552846339
 30
0.0
 11
183.36352310775069
 21
326.98536552846338
 31
0.0
  0
LINE
  5
1FA1
  8
0
  6
CONTINUOUS
 10
185.3622731077507
 20
329.86701711315237
 30
0.0
 11
185.86227310775061
 21
331.11386290633419
 31
0.0
  0
TEXT
  5
1FA2
  8
DIM
  6
CONTINUOUS
 10
222.7612866170933
 20
285.28335464630209
 30
0.0
 40
3.0
  1
5
  7
ROMANSS
 72
     1
 11
223.76128661709339
 21
286.78335464630209
 31
0.0
 73
     2
  0
LINE
  5
1FA3
  8
DIM
  6
CONTINUOUS
 10
228.86227310775061
 20
276.92952326826338
 30
0.0
 11
228.86227310775061
 21
284.78335464630209
 31
0.0
  0
SOLID
  5
1FA4
  8
DIM
  6
CONTINUOUS
 10
225.86227310775061
 20
284.28335464630197
 30
0.0
 11
225.86227310775061
 21
283.28335464630209
 31
0.0
 12
228.86227310775061
 22
283.78335464630197
 32
0.0
 13
228.86227310775061
 23
283.78335464630197
 33
0.0
  0
LINE
  5
1FA5
  8
0
 10
186.46227310775069
 20
325.60536552846349
 30
0.0
 11
212.26227310775079
 21
325.60536552846349
 31
0.0
  0
LINE
  5
1FA6
  8
0
  6
CONTINUOUS
 10
208.86227310775061
 20
331.90536552846339
 30
0.0
 11
209.3622731077505
 21
331.40536552846339
 31
0.0
  0
LINE
  5
1FA7
  8
CENTER
  6
CENTER
 10
219.86227310775089
 20
318.40536552846339
 30
0.0
 11
219.86227310775089
 21
332.05125163915062
 31
0.0
  0
LINE
  5
1FA8
  8
HIDDEN
  6
HIDDEN
 10
232.1122731077505
 20
317.40536552846339
 30
0.0
 11
232.11227310775061
 21
323.90536552846339
 31
0.0
  0
LINE
  5
1FA9
  8
0
  6
CONTINUOUS
 10
228.36227310775089
 20
329.86701711315237
 30
0.0
 11
213.36227310775081
 21
329.8670171131526
 31
0.0
  0
LINE
  5
1FAA
  8
0
  6
CONTINUOUS
 10
212.86227310775089
 20
322.90536552846339
 30
0.0
 11
228.86227310775089
 21
322.90536552846339
 31
0.0
  0
LINE
  5
1FAB
  8
0
  6
CONTINUOUS
 10
213.86227310775089
 20
321.40536552846339
 30
0.0
 11
227.86227310775089
 21
321.40536552846339
 31
0.0
  0
LINE
  5
1FAC
  8
0
  6
CONTINUOUS
 10
209.3622731077505
 20
331.40536552846339
 30
0.0
 11
228.8622731077505
 21
331.40536552846339
 31
0.0
  0
LINE
  5
1FAD
  8
0
  6
CONTINUOUS
 10
212.26227310775079
 20
331.40536552846339
 30
0.0
 11
212.2622731077509
 21
325.60536552846349
 31
0.0
  0
LINE
  5
1FAE
  8
0
  6
CONTINUOUS
 10
211.76227310775079
 20
331.40536552846339
 30
0.0
 11
211.76227310775079
 21
325.60536552846349
 31
0.0
  0
LINE
  5
1FAF
  8
0
  6
CONTINUOUS
 10
212.86227310775089
 20
322.90536552846339
 30
0.0
 11
212.86227310775089
 21
331.40536552846339
 31
0.0
  0
LINE
  5
1FB0
  8
0
  6
CONTINUOUS
 10
213.36227310775089
 20
321.90536552846339
 30
0.0
 11
213.36227310775089
 21
329.86701711315237
 31
0.0
  0
LINE
  5
1FB1
  8
HIDDEN
  6
HIDDEN
 10
215.01227310775079
 20
321.40536552846339
 30
0.0
 11
215.3610231077509
 21
326.98536552846338
 31
0.0
  0
LINE
  5
1FB2
  8
0
  6
CONTINUOUS
 10
213.86227310775089
 20
321.40536552846339
 30
0.0
 11
213.36227310775089
 21
321.90536552846339
 31
0.0
  0
LINE
  5
1FB3
  8
0
  6
CONTINUOUS
 10
212.26227310775079
 20
325.60536552846349
 30
0.0
 11
212.86227310775061
 21
326.20536552846352
 31
0.0
  0
LINE
  5
1FB4
  8
HIDDEN
  6
HIDDEN
 10
215.9497731077509
 20
327.60536552846332
 30
0.0
 11
215.5622731077508
 21
321.40536552846339
 31
0.0
  0
LINE
  5
1FB5
  8
0
  6
CONTINUOUS
 62
     4
 10
213.36227310775121
 20
329.8670171131526
 30
0.0
 11
215.1268797609869
 21
331.40536552846339
 31
0.0
  0
LINE
  5
1FB6
  8
0
  6
CONTINUOUS
 10
213.36227310775089
 20
329.86701711315237
 30
0.0
 11
212.86227310775089
 21
331.11386290633419
 31
0.0
  0
LINE
  5
1FB7
  8
0
  6
CONTINUOUS
 10
228.36227310775089
 20
321.90536552846339
 30
0.0
 11
228.36227310775089
 21
329.86701711315237
 31
0.0
  0
LINE
  5
1FB8
  8
HIDDEN
  6
HIDDEN
 10
224.16227310775079
 20
321.40536552846339
 30
0.0
 11
223.77477310775089
 21
327.60536552846332
 31
0.0
  0
LINE
  5
1FB9
  8
HIDDEN
  6
HIDDEN
 10
224.7122731077508
 20
321.40536552846339
 30
0.0
 11
224.36352310775081
 21
326.98536552846338
 31
0.0
  0
LINE
  5
1FBA
  8
0
  6
CONTINUOUS
 10
227.86227310775089
 20
321.40536552846339
 30
0.0
 11
228.36227310775089
 21
321.90536552846339
 31
0.0
  0
LINE
  5
1FBB
  8
0
  6
CONTINUOUS
 62
     4
 10
226.59766645451501
 20
331.40536552846339
 30
0.0
 11
228.36227310775089
 21
329.86701711315237
 31
0.0
  0
LINE
  5
1FBC
  8
0
  6
CONTINUOUS
 10
228.36227310775089
 20
329.86701711315237
 30
0.0
 11
228.86227310775089
 21
331.11386290633419
 31
0.0
  0
LINE
  5
1FBD
  8
0
  6
CONTINUOUS
 10
186.4622731077506
 20
347.20536552846357
 30
0.0
 11
185.86227310775061
 21
346.60536552846361
 31
0.0
  0
LINE
  5
1FBE
  8
0
  6
CONTINUOUS
 62
     4
 10
169.8622731077507
 20
343.95519996373417
 30
0.0
 11
161.621112646189
 21
338.87945633606779
 31
0.0
  0
LINE
  5
1FBF
  8
0
  6
CONTINUOUS
 10
149.8622731077507
 20
347.40536552846339
 30
0.0
 11
165.8622731077507
 21
347.40536552846339
 31
0.0
  0
LINE
  5
1FC0
  8
0
  6
CONTINUOUS
 62
     2
 10
149.06227310775071
 20
346.60536552846349
 30
0.0
 11
166.2622731077509
 21
346.60536552846349
 31
0.0
  0
LINE
  5
1FC1
  8
0
  6
CONTINUOUS
 10
149.8622731077507
 20
343.95519996373417
 30
0.0
 11
169.8622731077507
 21
343.95519996373417
 31
0.0
  0
LINE
  5
1FC2
  8
0
  6
CONTINUOUS
 62
     4
 10
153.9614259963781
 20
338.64888771772218
 30
0.0
 11
147.8622731077507
 21
342.40536552846339
 31
0.0
  0
LINE
  5
1FC3
  8
0
  6
CONTINUOUS
 10
149.8622731077507
 20
343.95519996373417
 30
0.0
 11
149.8622731077507
 21
347.40536552846339
 31
0.0
  0
LINE
  5
1FC4
  8
0
  6
CONTINUOUS
 10
148.8622731077507
 20
342.40536552846339
 30
0.0
 11
148.8622731077507
 21
346.40536552846339
 31
0.0
  0
LINE
  5
1FC5
  8
0
  6
CONTINUOUS
 10
147.8622731077507
 20
342.40536552846339
 30
0.0
 11
148.8622731077507
 21
342.40536552846339
 31
0.0
  0
LINE
  5
1FC6
  8
0
  6
CONTINUOUS
 10
148.8622731077507
 20
342.40536552846339
 30
0.0
 11
149.8622731077507
 21
343.95519996373417
 31
0.0
  0
LINE
  5
1FC7
  8
0
  6
CONTINUOUS
 10
147.8622731077507
 20
346.40536552846339
 30
0.0
 11
148.8622731077507
 21
346.40536552846339
 31
0.0
  0
LINE
  5
1FC8
  8
0
  6
CONTINUOUS
 10
148.8622731077507
 20
346.40536552846339
 30
0.0
 11
149.8622731077507
 21
347.40536552846339
 31
0.0
  0
LINE
  5
1FC9
  8
0
  6
CONTINUOUS
 10
185.86227310775061
 20
349.90536552846339
 30
0.0
 11
169.8622731077507
 21
349.90536552846339
 31
0.0
  0
LINE
  5
1FCA
  8
0
  6
CONTINUOUS
 10
170.3622731077507
 20
342.94371394377441
 30
0.0
 11
185.3622731077507
 21
342.94371394377453
 31
0.0
  0
LINE
  5
1FCB
  8
0
  6
CONTINUOUS
 10
167.8622731077507
 20
343.95519996373417
 30
0.0
 11
167.8622731077507
 21
347.40536552846339
 31
0.0
  0
LINE
  5
1FCC
  8
0
  6
CONTINUOUS
 10
170.3622731077507
 20
342.94371394377441
 30
0.0
 11
170.3622731077507
 21
349.90536552846351
 31
0.0
  0
LINE
  5
1FCD
  8
0
  6
CONTINUOUS
 10
165.8622731077507
 20
343.95519996373417
 30
0.0
 11
165.8622731077507
 21
347.40536552846339
 31
0.0
  0
LINE
  5
1FCE
  8
0
  6
CONTINUOUS
 10
170.3622731077507
 20
342.94371394377441
 30
0.0
 11
169.8622731077507
 21
341.69686815059259
 31
0.0
  0
LINE
  5
1FCF
  8
0
  6
CONTINUOUS
 10
167.8622731077507
 20
347.40536552846339
 30
0.0
 11
169.8622731077507
 21
347.40536552846339
 31
0.0
  0
ARC
  5
1FD0
  8
0
  6
CONTINUOUS
 10
166.8622731077507
 20
347.40536552846339
 30
0.0
 40
1.0
 50
180.0
 51
0.0
  0
LINE
  5
1FD1
  8
0
  6
CONTINUOUS
 10
185.3622731077507
 20
342.94371394377441
 30
0.0
 11
185.3622731077507
 21
349.90536552846351
 31
0.0
  0
LINE
  5
1FD2
  8
0
  6
CONTINUOUS
 10
185.3622731077507
 20
342.94371394377441
 30
0.0
 11
185.86227310775061
 21
341.69686815059259
 31
0.0
  0
LINE
  5
1FD3
  8
0
 10
186.4622731077506
 20
347.20536552846357
 30
0.0
 11
212.26227310775079
 21
347.20536552846352
 31
0.0
  0
LINE
  5
1FD4
  8
0
  6
CONTINUOUS
 10
209.3622731077505
 20
341.40536552846339
 30
0.0
 11
208.86227310775061
 21
340.90536552846339
 31
0.0
  0
LINE
  5
1FD5
  8
0
  6
CONTINUOUS
 10
212.86227310775089
 20
349.90536552846339
 30
0.0
 11
228.86227310775089
 21
349.90536552846339
 31
0.0
  0
LINE
  5
1FD6
  8
0
  6
CONTINUOUS
 10
228.36227310775089
 20
342.94371394377441
 30
0.0
 11
213.36227310775081
 21
342.94371394377453
 31
0.0
  0
LINE
  5
1FD7
  8
0
  6
CONTINUOUS
 10
209.3622731077505
 20
341.40536552846339
 30
0.0
 11
228.8622731077505
 21
341.40536552846339
 31
0.0
  0
LINE
  5
1FD8
  8
0
  6
CONTINUOUS
 10
212.26227310775079
 20
347.20536552846352
 30
0.0
 11
212.26227310775079
 21
341.40536552846351
 31
0.0
  0
LINE
  5
1FD9
  8
0
  6
CONTINUOUS
 10
211.76227310775079
 20
347.20536552846352
 30
0.0
 11
211.76227310775079
 21
341.40536552846351
 31
0.0
  0
LINE
  5
1FDA
  8
0
  6
CONTINUOUS
 10
212.86227310775089
 20
341.40536552846351
 30
0.0
 11
212.86227310775089
 21
349.90536552846339
 31
0.0
  0
LINE
  5
1FDB
  8
0
  6
CONTINUOUS
 10
213.36227310775089
 20
342.94371394377441
 30
0.0
 11
213.36227310775089
 21
349.90536552846351
 31
0.0
  0
LINE
  5
1FDC
  8
0
  6
CONTINUOUS
 62
     4
 10
213.36227310775141
 20
342.94371394377453
 30
0.0
 11
215.12687976098729
 21
341.40536552846339
 31
0.0
  0
LINE
  5
1FDD
  8
0
  6
CONTINUOUS
 10
213.36227310775089
 20
342.94371394377441
 30
0.0
 11
212.86227310775089
 21
341.69686815059259
 31
0.0
  0
LINE
  5
1FDE
  8
0
  6
CONTINUOUS
 10
212.26227310775079
 20
347.20536552846352
 30
0.0
 11
212.86227310775081
 21
346.60536552846361
 31
0.0
  0
LINE
  5
1FDF
  8
0
  6
CONTINUOUS
 10
228.36227310775089
 20
342.94371394377441
 30
0.0
 11
228.36227310775089
 21
349.90536552846351
 31
0.0
  0
LINE
  5
1FE0
  8
0
  6
CONTINUOUS
 62
     4
 10
226.59766645451489
 20
341.40536552846339
 30
0.0
 11
228.36227310775089
 21
342.94371394377441
 31
0.0
  0
LINE
  5
1FE1
  8
0
  6
CONTINUOUS
 10
228.36227310775089
 20
342.94371394377441
 30
0.0
 11
228.86227310775089
 21
341.69686815059259
 31
0.0
  0
LINE
  5
1FE2
  8
CENTER
  6
CENTER
 10
266.36227310775058
 20
191.90027120545861
 30
0.0
 11
266.36227310775058
 21
210.783354646302
 31
0.0
  0
LINE
  5
1FE3
  8
HIDDEN
  6
HIDDEN
 10
263.86227310775058
 20
193.783354646302
 30
0.0
 11
263.86227310775058
 21
207.783354646302
 31
0.0
  0
LINE
  5
1FE4
  8
HIDDEN
  6
HIDDEN
 10
268.86227310775058
 20
193.783354646302
 30
0.0
 11
268.86227310775058
 21
207.783354646302
 31
0.0
  0
LINE
  5
1FE5
  8
CENTER
  6
CENTER
 10
233.86227310775061
 20
191.90027120545861
 30
0.0
 11
233.86227310775061
 21
210.783354646302
 31
0.0
  0
LINE
  5
1FE6
  8
HIDDEN
  6
HIDDEN
 10
236.36227310775061
 20
193.783354646302
 30
0.0
 11
236.36227310775061
 21
207.783354646302
 31
0.0
  0
POLYLINE
  5
1FE7
  8
0
  6
CONTINUOUS
 66
     1
 10
0.0
 20
0.0
 30
0.0
 70
     1
  0
VERTEX
  5
21B9
  8
0
  6
CONTINUOUS
 10
377.70478720458942
 20
207.783354646302
 30
0.0
  0
VERTEX
  5
21BA
  8
0
  6
CONTINUOUS
 10
376.55008666621131
 20
205.783354646302
 30
0.0
  0
VERTEX
  5
21BB
  8
0
  6
CONTINUOUS
 10
377.70478720458942
 20
203.783354646302
 30
0.0
  0
VERTEX
  5
21BC
  8
0
  6
CONTINUOUS
 10
380.01418828134939
 20
203.783354646302
 30
0.0
  0
VERTEX
  5
21BD
  8
0
  6
CONTINUOUS
 10
381.16888881972761
 20
205.783354646302
 30
0.0
  0
VERTEX
  5
21BE
  8
0
  6
CONTINUOUS
 10
380.01418828134939
 20
207.783354646302
 30
0.0
  0
SEQEND
  5
21BF
  8
0
  6
CONTINUOUS
  0
CIRCLE
  5
1FE8
  8
0
  6
CONTINUOUS
 10
378.85948774296941
 20
205.783354646302
 30
0.0
 40
3.9035796766743651
  0
CIRCLE
  5
1FE9
  8
0
  6
CONTINUOUS
 10
378.85948774296941
 20
205.783354646302
 30
0.0
 40
4.25
  0
SOLID
  5
1FEA
  8
DIM
  6
CONTINUOUS
 10
325.36227310775041
 20
208.783354646302
 30
0.0
 11
326.36227310775041
 21
208.783354646302
 31
0.0
 12
325.86227310775041
 22
205.783354646302
 32
0.0
 13
325.86227310775041
 23
205.783354646302
 33
0.0
  0
LINE
  5
1FEB
  8
0
  6
CONTINUOUS
 10
278.86227310775058
 20
217.783354646302
 30
0.0
 11
278.86227310775058
 21
193.783354646302
 31
0.0
  0
LINE
  5
1FEC
  8
DIM
  6
CONTINUOUS
 10
237.3622731077507
 20
206.26212575655791
 30
0.0
 11
237.36227310775061
 21
184.783354646302
 31
0.0
  0
LINE
  5
1FED
  8
DIM
  6
CONTINUOUS
 10
333.8622731077503
 20
198.783354646302
 30
0.0
 11
333.8622731077503
 21
270.78335464630197
 31
0.0
  0
LINE
  5
1FEE
  8
CENTER
  6
CENTER
 10
368.85948774296941
 20
273.7833546463022
 30
0.0
 11
368.85948774296952
 21
195.78335464630209
 31
0.0
  0
LINE
  5
1FEF
  8
0
  6
CONTINUOUS
 10
281.86227310775058
 20
273.78335464630197
 30
0.0
 11
281.86227310775058
 21
195.78335464630209
 31
0.0
  0
LINE
  5
1FF0
  8
0
  6
CONTINUOUS
 10
359.85948774296941
 20
275.78335464630197
 30
0.0
 11
359.85948774296941
 21
193.783354646302
 31
0.0
  0
LINE
  5
1FF1
  8
0
  6
CONTINUOUS
 10
361.85948774296941
 20
273.78335464630197
 30
0.0
 11
361.85948774296941
 21
195.78335464630209
 31
0.0
  0
LINE
  5
1FF2
  8
0
  6
CONTINUOUS
 10
293.86227310775058
 20
273.78335464630197
 30
0.0
 11
293.86227310775058
 21
195.78335464630209
 31
0.0
  0
LINE
  5
1FF3
  8
DIM
  6
CONTINUOUS
 10
413.85948774296929
 20
203.783354646302
 30
0.0
 11
413.85948774296929
 21
265.78335464630197
 31
0.0
  0
LINE
  5
1FF4
  8
DIM
  6
CONTINUOUS
 10
421.85948774296929
 20
196.783354646302
 30
0.0
 11
421.85948774296929
 21
272.78335464630209
 31
0.0
  0
LINE
  5
1FF5
  8
CENTER
  6
CENTER
 10
388.85948774296941
 20
273.7833546463022
 30
0.0
 11
388.85948774296941
 21
195.783354646302
 31
0.0
  0
LINE
  5
1FF6
  8
0
  6
CONTINUOUS
 10
397.85948774296941
 20
275.78335464630197
 30
0.0
 11
397.85948774296941
 21
193.783354646302
 31
0.0
  0
LINE
  5
1FF7
  8
CENTER
  6
CENTER
 10
378.85948774296941
 20
278.78335464630209
 30
0.0
 11
378.85948774296941
 21
190.783354646302
 31
0.0
  0
LINE
  5
1FF8
  8
0
  6
CONTINUOUS
 10
395.85948774296941
 20
273.78335464630197
 30
0.0
 11
395.85948774296941
 21
195.78335464630209
 31
0.0
  0
POLYLINE
  5
1FF9
  8
0
  6
CONTINUOUS
 66
     1
 10
0.0
 20
0.0
 30
0.0
 70
     1
 40
1.0
 41
1.0
  0
VERTEX
  5
21C0
  8
0
  6
CONTINUOUS
 10
254.36227310775061
 20
205.783354646302
 30
0.0
 42
1.0
  0
VERTEX
  5
21C1
  8
0
  6
CONTINUOUS
 10
253.36227310775061
 20
205.783354646302
 30
0.0
 42
1.0
  0
SEQEND
  5
21C2
  8
0
  6
CONTINUOUS
  0
CIRCLE
  5
1FFA
  8
0
  6
CONTINUOUS
 10
253.86227310775061
 20
205.783354646302
 30
0.0
 40
4.0
  0
LINE
  5
1FFB
  8
DIM
  6
CONTINUOUS
 10
399.3300441864742
 20
193.783354646302
 30
0.0
 11
422.85948774296929
 21
193.783354646302
 31
0.0
  0
LINE
  5
1FFC
  8
DIM
  6
CONTINUOUS
 10
297.86227310775058
 20
205.783354646302
 30
0.0
 11
326.86227310775041
 21
205.783354646302
 31
0.0
  0
LINE
  5
1FFD
  8
DIM
  6
CONTINUOUS
 10
294.86227310775058
 20
195.78335464630209
 30
0.0
 11
334.8622731077503
 21
195.78335464630209
 31
0.0
  0
TEXT
  5
1FFE
  8
DIM
  6
CONTINUOUS
 10
251.9000086259347
 20
138.72440416139739
 30
0.0
 40
3.0
  1
6.5
 50
90.0
  7
ROMANSS
 72
     1
 11
250.40000862593479
 21
141.86726130425461
 31
0.0
 73
     2
  0
LINE
  5
1FFF
  8
DIM
  6
CONTINUOUS
 10
253.4000086259347
 20
122.4498379469108
 30
0.0
 11
253.40000862593479
 21
144.81389192502959
 31
0.0
  0
LINE
  5
2000
  8
DIM
  6
CONTINUOUS
 10
240.61227310775061
 20
130.00019415565669
 30
0.0
 11
240.61227310775061
 21
143.9039701793217
 31
0.0
  0
LINE
  5
2001
  8
DIM
  6
CONTINUOUS
 10
242.61227310775089
 20
136.8366122633837
 30
0.0
 11
242.61227310775089
 21
151.9039701793217
 31
0.0
  0
LINE
  5
2002
  8
DIM
  6
CONTINUOUS
 10
234.1122731077507
 20
130.00019415565669
 30
0.0
 11
234.1122731077507
 21
143.9039701793217
 31
0.0
  0
LINE
  5
2003
  8
DIM
  6
CONTINUOUS
 10
273.439669469671
 20
103.3672613042547
 30
0.0
 11
302.86227310775053
 21
103.3672613042547
 31
0.0
  0
LINE
  5
2004
  8
DIM
  6
CONTINUOUS
 10
273.439669469671
 20
129.3672613042547
 30
0.0
 11
302.86227310775053
 21
129.3672613042547
 31
0.0
  0
LINE
  5
2005
  8
DIM
  6
CONTINUOUS
 10
270.52214863953162
 20
99.044903084980035
 30
0.0
 11
281.22255725257668
 21
88.335863362884155
 31
0.0
  0
LINE
  5
2006
  8
CENTER
  6
CENTER
 10
266.3622731077507
 20
109.3672613042546
 30
0.0
 11
266.3622731077507
 21
97.367261304254583
 31
0.0
  0
LINE
  5
2007
  8
CENTER
  6
CENTER
 10
233.86227310775061
 20
109.3672613042546
 30
0.0
 11
233.86227310775061
 21
97.367261304254697
 31
0.0
  0
LINE
  5
2008
  8
HIDDEN
  6
HIDDEN
 10
240.6122731077507
 20
128.86726130425461
 30
0.0
 11
240.6122731077507
 21
97.367261304254768
 31
0.0
  0
LINE
  5
2009
  8
HIDDEN
  6
HIDDEN
 10
234.1122731077507
 20
128.86726130425461
 30
0.0
 11
234.1122731077507
 21
97.367261304254768
 31
0.0
  0
LINE
  5
200A
  8
CENTER
  6
CENTER
 10
237.36227310775061
 20
94.536147177506265
 30
0.0
 11
237.3622731077507
 21
138.71168020902061
 31
0.0
  0
ARC
  5
200B
  8
0
 62
     2
 10
266.3622731077507
 20
103.3672613042547
 30
0.0
 40
3.0000000000000031
 50
255.00000000000551
 51
194.9999999999944
  0
CIRCLE
  5
200C
  8
0
 10
266.3622731077507
 20
103.3672613042547
 30
0.0
 40
2.5
  0
LINE
  5
200D
  8
CENTER
  6
CENTER
 10
260.3622731077507
 20
103.3672613042547
 30
0.0
 11
272.3622731077507
 21
103.3672613042547
 31
0.0
  0
SOLID
  5
200E
  8
DIM
  6
CONTINUOUS
 10
270.16845274444859
 20
98.691492256338137
 30
0.0
 11
270.87584453461471
 21
99.39831391362199
 31
0.0
 12
268.40168366767989
 22
101.1670784554784
 32
0.0
 13
268.40168366767989
 23
101.1670784554784
 33
0.0
  0
LINE
  5
200F
  8
DIM
  6
CONTINUOUS
 10
254.84468852073559
 20
128.86726130425461
 30
0.0
 11
243.8105477381653
 21
128.86726130425461
 31
0.0
  0
LINE
  5
2010
  8
HIDDEN
  6
HIDDEN
 10
242.61227310775081
 20
135.36726130425461
 30
0.0
 11
242.61227310775081
 21
128.86726130425461
 31
0.0
  0
SOLID
  5
2011
  8
DIM
  6
CONTINUOUS
 10
253.9000086259347
 20
125.8672613042546
 30
0.0
 11
252.90000862593479
 21
125.8672613042546
 31
0.0
 12
253.4000086259347
 22
128.86726130425461
 32
0.0
 13
253.4000086259347
 23
128.86726130425461
 33
0.0
  0
SOLID
  5
2012
  8
DIM
  6
CONTINUOUS
 10
253.9000086259347
 20
138.3672613042547
 30
0.0
 11
252.90000862593479
 21
138.3672613042547
 31
0.0
 12
253.4000086259347
 22
135.3672613042547
 32
0.0
 13
253.4000086259347
 23
135.3672613042547
 33
0.0
  0
LINE
  5
2013
  8
CENTER
  6
CENTER
 10
266.3622731077507
 20
135.36726130425461
 30
0.0
 11
266.3622731077507
 21
123.3672613042547
 31
0.0
  0
ARC
  5
2014
  8
0
 62
     2
 10
266.3622731077507
 20
129.3672613042547
 30
0.0
 40
3.0000000000000031
 50
255.00000000000551
 51
194.9999999999944
  0
CIRCLE
  5
2015
  8
0
 10
266.3622731077507
 20
129.3672613042547
 30
0.0
 40
2.5
  0
LINE
  5
2016
  8
CENTER
  6
CENTER
 10
260.3622731077507
 20
129.3672613042547
 30
0.0
 11
272.3622731077507
 21
129.3672613042547
 31
0.0
  0
LINE
  5
2017
  8
HIDDEN
  6
HIDDEN
 10
287.26227310775062
 20
111.1172613042546
 30
0.0
 11
287.26227310775062
 21
101.6172613042545
 31
0.0
  0
LINE
  5
2018
  8
0
  6
CONTINUOUS
 10
293.86227310775058
 20
133.3672613042547
 30
0.0
 11
293.86227310775058
 21
99.367261304254754
 31
0.0
  0
LINE
  5
2019
  8
0
  6
CONTINUOUS
 10
281.86227310775058
 20
133.3672613042547
 30
0.0
 11
281.8622731077507
 21
99.367261304254754
 31
0.0
  0
LINE
  5
201A
  8
0
  6
CONTINUOUS
 10
278.86227310775058
 20
135.3672613042547
 30
0.0
 11
278.86227310775058
 21
97.367261304254754
 31
0.0
  0
LINE
  5
201B
  8
DIM
  6
CONTINUOUS
 10
301.86227310775053
 20
106.3672613042547
 30
0.0
 11
301.86227310775053
 21
126.3672613042547
 31
0.0
  0
SOLID
  5
201C
  8
DIM
  6
CONTINUOUS
 10
301.36227310775053
 20
106.3672613042547
 30
0.0
 11
302.36227310775053
 21
106.3672613042547
 31
0.0
 12
301.86227310775053
 22
103.3672613042547
 32
0.0
 13
301.86227310775053
 23
103.3672613042547
 33
0.0
  0
TEXT
  5
201D
  8
DIM
  6
CONTINUOUS
 10
285.22255725257668
 20
89.83586336288414
 30
0.0
 40
3.0
  1
4-M6x11L
  7
ROMANSS
 11
285.22255725257668
 21
91.335863362884155
 31
0.0
 73
     2
  0
LINE
  5
201E
  8
DIM
  6
CONTINUOUS
 10
281.22255725257662
 20
88.335863362884155
 30
0.0
 11
306.14188323659312
 21
88.335863362884155
 31
0.0
  0
LINE
  5
201F
  8
HIDDEN
  6
HIDDEN
 10
281.86227310775058
 20
104.3672613042546
 30
0.0
 11
293.86227310775058
 21
104.3672613042546
 31
0.0
  0
LINE
  5
2020
  8
HIDDEN
  6
HIDDEN
 10
281.86227310775058
 20
103.8672613042546
 30
0.0
 11
293.86227310775058
 21
103.8672613042546
 31
0.0
  0
LINE
  5
2021
  8
HIDDEN
  6
HIDDEN
 10
293.86227310775058
 20
103.6172613042547
 30
0.0
 11
287.26227310775062
 21
103.6172613042546
 31
0.0
  0
LINE
  5
2022
  8
CENTER
  6
CENTER
 10
278.8622731077507
 20
106.3672613042546
 30
0.0
 11
296.86227310775058
 21
106.3672613042546
 31
0.0
  0
LINE
  5
2023
  8
0
  6
CONTINUOUS
 10
281.86227310775058
 20
99.367261304254754
 30
0.0
 11
293.86227310775058
 21
99.367261304254754
 31
0.0
  0
LINE
  5
2024
  8
HIDDEN
  6
HIDDEN
 10
287.26227310775062
 20
101.6172613042546
 30
0.0
 11
281.86227310775058
 21
101.6172613042546
 31
0.0
  0
LINE
  5
2025
  8
0
  6
CONTINUOUS
 10
278.86227310775058
 20
99.867261304254754
 30
0.0
 11
281.8622731077507
 21
99.867261304254754
 31
0.0
  0
SOLID
  5
2026
  8
DIM
  6
CONTINUOUS
 10
301.36227310775053
 20
126.3672613042547
 30
0.0
 11
302.36227310775053
 21
126.3672613042547
 31
0.0
 12
301.86227310775053
 22
129.3672613042547
 32
0.0
 13
301.86227310775053
 23
129.3672613042547
 33
0.0
  0
LINE
  5
2027
  8
HIDDEN
  6
HIDDEN
 10
287.26227310775062
 20
131.1172613042547
 30
0.0
 11
287.26227310775062
 21
121.6172613042547
 31
0.0
  0
LINE
  5
2028
  8
HIDDEN
  6
HIDDEN
 10
281.86227310775058
 20
108.8672613042546
 30
0.0
 11
293.86227310775058
 21
108.8672613042546
 31
0.0
  0
LINE
  5
2029
  8
HIDDEN
  6
HIDDEN
 10
281.86227310775058
 20
108.3672613042546
 30
0.0
 11
293.86227310775058
 21
108.3672613042546
 31
0.0
  0
LINE
  5
202A
  8
HIDDEN
  6
HIDDEN
 10
293.86227310775058
 20
123.6172613042548
 30
0.0
 11
287.26227310775062
 21
123.6172613042548
 31
0.0
  0
LINE
  5
202B
  8
HIDDEN
  6
HIDDEN
 10
293.86227310775058
 20
109.1172613042544
 30
0.0
 11
287.26227310775062
 21
109.1172613042546
 31
0.0
  0
LINE
  5
202C
  8
HIDDEN
  6
HIDDEN
 10
287.26227310775062
 20
111.1172613042546
 30
0.0
 11
281.86227310775058
 21
111.1172613042546
 31
0.0
  0
LINE
  5
202D
  8
0
  6
CONTINUOUS
 10
278.86227310775058
 20
111.3672613042547
 30
0.0
 11
281.86227310775058
 21
111.3672613042547
 31
0.0
  0
LINE
  5
202E
  8
HIDDEN
  6
HIDDEN
 10
287.26227310775062
 20
121.6172613042547
 30
0.0
 11
281.86227310775058
 21
121.6172613042547
 31
0.0
  0
LINE
  5
202F
  8
0
  6
CONTINUOUS
 10
278.86227310775058
 20
121.3672613042547
 30
0.0
 11
281.86227310775058
 21
121.3672613042547
 31
0.0
  0
TEXT
  5
2030
  8
DIM
  6
CONTINUOUS
 10
300.36227310775053
 20
114.01011844711179
 30
0.0
 40
3.0
  1
26
 50
90.0
  7
ROMANSS
 72
     1
 11
298.86227310775053
 21
116.3672613042547
 31
0.0
 73
     2
  0
LINE
  5
2031
  8
HIDDEN
  6
HIDDEN
 10
281.86227310775058
 20
124.3672613042547
 30
0.0
 11
293.86227310775058
 21
124.3672613042547
 31
0.0
  0
LINE
  5
2032
  8
HIDDEN
  6
HIDDEN
 10
281.86227310775058
 20
123.8672613042547
 30
0.0
 11
293.86227310775058
 21
123.8672613042548
 31
0.0
  0
LINE
  5
2033
  8
HIDDEN
  6
HIDDEN
 10
281.86227310775058
 20
128.8672613042547
 30
0.0
 11
293.86227310775058
 21
128.8672613042547
 31
0.0
  0
LINE
  5
2034
  8
HIDDEN
  6
HIDDEN
 10
281.86227310775058
 20
128.3672613042547
 30
0.0
 11
293.86227310775058
 21
128.3672613042547
 31
0.0
  0
LINE
  5
2035
  8
HIDDEN
  6
HIDDEN
 10
293.86227310775058
 20
129.11726130425461
 30
0.0
 11
287.26227310775062
 21
129.1172613042547
 31
0.0
  0
LINE
  5
2036
  8
CENTER
  6
CENTER
 10
278.86227310775058
 20
126.3672613042547
 30
0.0
 11
296.86227310775058
 21
126.3672613042547
 31
0.0
  0
LINE
  5
2037
  8
0
  6
CONTINUOUS
 10
281.86227310775058
 20
133.3672613042547
 30
0.0
 11
293.86227310775058
 21
133.3672613042547
 31
0.0
  0
LINE
  5
2038
  8
HIDDEN
  6
HIDDEN
 10
287.26227310775062
 20
131.1172613042547
 30
0.0
 11
281.86227310775058
 21
131.1172613042547
 31
0.0
  0
LINE
  5
2039
  8
0
  6
CONTINUOUS
 10
278.86227310775058
 20
132.8672613042547
 30
0.0
 11
281.8622731077507
 21
132.8672613042547
 31
0.0
  0
TEXT
  5
203A
  8
DIM
  6
CONTINUOUS
 10
258.93370167917908
 20
171.283354646302
 30
0.0
 40
3.0
  1
65
  7
ROMANSS
 72
     1
 11
261.36227310775058
 21
172.783354646302
 31
0.0
 73
     2
  0
SOLID
  5
203B
  8
DIM
  6
CONTINUOUS
 10
243.61227310775061
 20
143.4039701793217
 30
0.0
 11
243.61227310775061
 21
142.4039701793217
 31
0.0
 12
240.61227310775061
 22
142.9039701793217
 32
0.0
 13
240.61227310775061
 23
142.9039701793217
 33
0.0
  0
SOLID
  5
203C
  8
DIM
  6
CONTINUOUS
 10
239.61227310775089
 20
151.4039701793217
 30
0.0
 11
239.61227310775089
 21
150.4039701793217
 31
0.0
 12
242.61227310775089
 22
150.9039701793217
 32
0.0
 13
242.61227310775089
 23
150.9039701793217
 33
0.0
  0
TEXT
  5
203D
  8
DIM
  6
CONTINUOUS
 10
238.60252526828231
 20
179.1794068370387
 30
0.0
 40
3.0
  1
85+Stroke
  7
ROMANSS
 72
     1
 11
250.10252526828219
 21
180.6794068370387
 31
0.0
 73
     2
  0
TEXT
  5
203E
  8
DIM
  6
CONTINUOUS
 10
243.9039510114678
 20
187.283354646302
 30
0.0
 40
3.0
  1
8.5
  7
ROMANSS
 72
     1
 11
247.04680815432491
 21
188.783354646302
 31
0.0
 73
     2
  0
SOLID
  5
203F
  8
DIM
  6
CONTINUOUS
 10
240.36227310775061
 20
186.283354646302
 30
0.0
 11
240.36227310775061
 21
185.283354646302
 31
0.0
 12
237.36227310775061
 22
185.783354646302
 32
0.0
 13
237.36227310775061
 23
185.783354646302
 33
0.0
  0
LINE
  5
2040
  8
HIDDEN
  6
HIDDEN
 10
236.86227310775061
 20
193.783354646302
 30
0.0
 11
236.86227310775061
 21
204.783354646302
 31
0.0
  0
LINE
  5
2041
  8
HIDDEN
  6
HIDDEN
 10
269.36227310775058
 20
204.783354646302
 30
0.0
 11
263.36227310775058
 21
204.783354646302
 31
0.0
  0
LINE
  5
2042
  8
HIDDEN
  6
HIDDEN
 10
263.36227310775058
 20
193.783354646302
 30
0.0
 11
263.36227310775058
 21
204.783354646302
 31
0.0
  0
LINE
  5
2043
  8
HIDDEN
  6
HIDDEN
 10
269.36227310775058
 20
193.783354646302
 30
0.0
 11
269.36227310775058
 21
204.783354646302
 31
0.0
  0
LINE
  5
2044
  8
DIM
  6
CONTINUOUS
 10
293.86227310775058
 20
194.783354646302
 30
0.0
 11
293.86227310775058
 21
160.783354646302
 31
0.0
  0
SOLID
  5
2045
  8
DIM
  6
CONTINUOUS
 10
290.86227310775058
 20
162.283354646302
 30
0.0
 11
290.86227310775058
 21
161.283354646302
 31
0.0
 12
293.86227310775058
 22
161.783354646302
 32
0.0
 13
293.86227310775058
 23
161.783354646302
 33
0.0
  0
SOLID
  5
2046
  8
DIM
  6
CONTINUOUS
 10
290.86227310775058
 20
170.283354646302
 30
0.0
 11
290.86227310775058
 21
169.283354646302
 31
0.0
 12
293.86227310775058
 22
169.783354646302
 32
0.0
 13
293.86227310775058
 23
169.783354646302
 33
0.0
  0
TEXT
  5
2047
  8
DIM
  6
CONTINUOUS
 10
285.71941596489341
 20
187.283354646302
 30
0.0
 40
3.0
  1
12
  7
ROMANSS
 72
     1
 11
287.86227310775058
 21
188.783354646302
 31
0.0
 73
     2
  0
LINE
  5
2048
  8
DIM
  6
CONTINUOUS
 10
281.86227310775058
 20
194.783354646302
 30
0.0
 11
281.86227310775058
 21
184.783354646302
 31
0.0
  0
LINE
  5
2049
  8
DIM
  6
CONTINUOUS
 10
290.86227310775058
 20
185.783354646302
 30
0.0
 11
284.86227310775058
 21
185.783354646302
 31
0.0
  0
SOLID
  5
204A
  8
DIM
  6
CONTINUOUS
 10
284.86227310775058
 20
186.283354646302
 30
0.0
 11
284.86227310775058
 21
185.283354646302
 31
0.0
 12
281.86227310775058
 22
185.783354646302
 32
0.0
 13
281.86227310775058
 23
185.783354646302
 33
0.0
  0
SOLID
  5
204B
  8
DIM
  6
CONTINUOUS
 10
290.86227310775058
 20
178.1794068370387
 30
0.0
 11
290.86227310775058
 21
177.1794068370387
 31
0.0
 12
293.86227310775058
 22
177.6794068370387
 32
0.0
 13
293.86227310775058
 23
177.6794068370387
 33
0.0
  0
SOLID
  5
204C
  8
DIM
  6
CONTINUOUS
 10
290.86227310775058
 20
186.283354646302
 30
0.0
 11
290.86227310775058
 21
185.283354646302
 31
0.0
 12
293.86227310775058
 22
185.783354646302
 32
0.0
 13
293.86227310775058
 23
185.783354646302
 33
0.0
  0
LINE
  5
204D
  8
HIDDEN
  6
HIDDEN
 10
281.86227310775058
 20
202.783354646302
 30
0.0
 11
293.86227310775058
 21
202.783354646302
 31
0.0
  0
LINE
  5
204E
  8
HIDDEN
  6
HIDDEN
 10
281.86227310775058
 20
203.283354646302
 30
0.0
 11
293.86227310775058
 21
203.28335464630189
 31
0.0
  0
LINE
  5
204F
  8
HIDDEN
  6
HIDDEN
 10
281.86227310775058
 20
198.283354646302
 30
0.0
 11
293.86227310775058
 21
198.283354646302
 31
0.0
  0
LINE
  5
2050
  8
HIDDEN
  6
HIDDEN
 10
281.86227310775058
 20
198.783354646302
 30
0.0
 11
293.86227310775058
 21
198.783354646302
 31
0.0
  0
LINE
  5
2051
  8
CENTER
  6
CENTER
 10
281.86227310775058
 20
200.783354646302
 30
0.0
 11
298.3104216669683
 21
200.783354646302
 31
0.0
  0
LINE
  5
2052
  8
0
  6
CONTINUOUS
 10
281.86227310775058
 20
195.78335464630209
 30
0.0
 11
293.86227310775058
 21
195.78335464630209
 31
0.0
  0
LINE
  5
2053
  8
0
  6
CONTINUOUS
 10
278.86227310775058
 20
200.783354646302
 30
0.0
 11
281.86227310775058
 21
200.783354646302
 31
0.0
  0
LINE
  5
2054
  8
DIM
  6
CONTINUOUS
 10
364.85948774296941
 20
177.783354646302
 30
0.0
 11
392.85948774296941
 21
177.783354646302
 31
0.0
  0
SOLID
  5
2055
  8
DIM
  6
CONTINUOUS
 10
371.85948774296952
 20
186.283354646302
 30
0.0
 11
371.85948774296952
 21
185.283354646302
 31
0.0
 12
368.85948774296952
 22
185.783354646302
 32
0.0
 13
368.85948774296952
 23
185.783354646302
 33
0.0
  0
LINE
  5
2056
  8
CENTER
  6
CENTER
 10
362.85948774296941
 20
200.783354646302
 30
0.0
 11
374.85948774296941
 21
200.783354646302
 31
0.0
  0
LINE
  5
2057
  8
0
  6
CONTINUOUS
 10
361.85948774296941
 20
195.78335464630209
 30
0.0
 11
395.85948774296941
 21
195.783354646302
 31
0.0
  0
LINE
  5
2058
  8
0
  6
CONTINUOUS
 10
359.85948774296941
 20
193.783354646302
 30
0.0
 11
397.85948774296941
 21
193.783354646302
 31
0.0
  0
LINE
  5
2059
  8
DIM
  6
CONTINUOUS
 10
362.85948774296941
 20
169.783354646302
 30
0.0
 11
394.85948774296941
 21
169.783354646302
 31
0.0
  0
LINE
  5
205A
  8
DIM
  6
CONTINUOUS
 10
359.85948774296941
 20
192.783354646302
 30
0.0
 11
359.85948774296941
 21
168.783354646302
 31
0.0
  0
SOLID
  5
205B
  8
DIM
  6
CONTINUOUS
 10
362.85948774296941
 20
170.283354646302
 30
0.0
 11
362.85948774296941
 21
169.283354646302
 31
0.0
 12
359.85948774296941
 22
169.783354646302
 32
0.0
 13
359.85948774296941
 23
169.783354646302
 33
0.0
  0
SOLID
  5
205C
  8
DIM
  6
CONTINUOUS
 10
333.3622731077503
 20
198.783354646302
 30
0.0
 11
334.3622731077503
 21
198.783354646302
 31
0.0
 12
333.8622731077503
 22
195.78335464630209
 32
0.0
 13
333.8622731077503
 23
195.78335464630209
 33
0.0
  0
LINE
  5
205D
  8
DIM
  6
CONTINUOUS
 10
361.85948774296941
 20
194.783354646302
 30
0.0
 11
361.85948774296941
 21
176.783354646302
 31
0.0
  0
LINE
  5
205E
  8
DIM
  6
CONTINUOUS
 10
368.85948774296952
 20
194.783354646302
 30
0.0
 11
368.85948774296952
 21
184.783354646302
 31
0.0
  0
SOLID
  5
205F
  8
DIM
  6
CONTINUOUS
 10
364.85948774296941
 20
178.283354646302
 30
0.0
 11
364.85948774296941
 21
177.283354646302
 31
0.0
 12
361.85948774296941
 22
177.783354646302
 32
0.0
 13
361.85948774296941
 23
177.783354646302
 33
0.0
  0
ARC
  5
2060
  8
0
  6
CONTINUOUS
 62
     2
 10
368.85948774296941
 20
200.783354646302
 30
0.0
 40
2.4999999999991238
 50
255.0000000000004
 51
194.9999999999994
  0
CIRCLE
  5
2061
  8
0
  6
CONTINUOUS
 10
368.85948774296941
 20
200.783354646302
 30
0.0
 40
2.1000000000000001
  0
TEXT
  5
2062
  8
DIM
  6
CONTINUOUS
 10
376.43091631439802
 20
171.283354646302
 30
0.0
 40
3.0
  1
38
  7
ROMANSS
 72
     1
 11
378.85948774296941
 21
172.783354646302
 31
0.0
 73
     2
  0
LINE
  5
2063
  8
DIM
  6
CONTINUOUS
 10
397.85948774296941
 20
192.78335464630209
 30
0.0
 11
397.85948774296941
 21
168.783354646302
 31
0.0
  0
SOLID
  5
2064
  8
DIM
  6
CONTINUOUS
 10
394.85948774296941
 20
170.283354646302
 30
0.0
 11
394.85948774296941
 21
169.283354646302
 31
0.0
 12
397.85948774296941
 22
169.783354646302
 32
0.0
 13
397.85948774296941
 23
169.783354646302
 33
0.0
  0
LINE
  5
2065
  8
CENTER
  6
CENTER
 10
382.85948774296941
 20
200.783354646302
 30
0.0
 11
394.85948774296941
 21
200.783354646302
 31
0.0
  0
SOLID
  5
2066
  8
DIM
  6
CONTINUOUS
 10
392.85948774296941
 20
178.283354646302
 30
0.0
 11
392.85948774296941
 21
177.283354646302
 31
0.0
 12
395.85948774296941
 22
177.783354646302
 32
0.0
 13
395.85948774296941
 23
177.783354646302
 33
0.0
  0
TEXT
  5
2067
  8
DIM
  6
CONTINUOUS
 10
376.43091631439802
 20
187.283354646302
 30
0.0
 40
3.0
  1
20
  7
ROMANSS
 72
     1
 11
378.85948774296941
 21
188.783354646302
 31
0.0
 73
     2
  0
LINE
  5
2068
  8
DIM
  6
CONTINUOUS
 10
388.85948774296941
 20
194.783354646302
 30
0.0
 11
388.85948774296941
 21
184.783354646302
 31
0.0
  0
LINE
  5
2069
  8
DIM
  6
CONTINUOUS
 10
371.85948774296952
 20
185.783354646302
 30
0.0
 11
385.85948774296941
 21
185.783354646302
 31
0.0
  0
TEXT
  5
206A
  8
DIM
  6
CONTINUOUS
 10
376.35948774296941
 20
179.283354646302
 30
0.0
 40
3.0
  1
34
  7
ROMANSS
 72
     1
 11
378.85948774296941
 21
180.783354646302
 31
0.0
 73
     2
  0
SOLID
  5
206B
  8
DIM
  6
CONTINUOUS
 10
385.85948774296941
 20
186.283354646302
 30
0.0
 11
385.85948774296941
 21
185.283354646302
 31
0.0
 12
388.85948774296941
 22
185.783354646302
 32
0.0
 13
388.85948774296941
 23
185.783354646302
 33
0.0
  0
LINE
  5
206C
  8
CENTER
  6
CENTER
 10
371.85948774296941
 20
205.783354646302
 30
0.0
 11
385.85948774296941
 21
205.783354646302
 31
0.0
  0
ARC
  5
206D
  8
0
  6
CONTINUOUS
 62
     2
 10
388.85948774296941
 20
200.783354646302
 30
0.0
 40
2.4999999999991238
 50
255.0000000000004
 51
194.9999999999994
  0
CIRCLE
  5
206E
  8
0
  6
CONTINUOUS
 10
388.85948774296941
 20
200.783354646302
 30
0.0
 40
2.1000000000000001
  0
LINE
  5
206F
  8
DIM
  6
CONTINUOUS
 10
395.85948774296941
 20
194.783354646302
 30
0.0
 11
395.85948774296941
 21
176.783354646302
 31
0.0
  0
LINE
  5
2070
  8
DIM
  6
CONTINUOUS
 10
395.85948774296941
 20
200.783354646302
 30
0.0
 11
414.85948774296929
 21
200.783354646302
 31
0.0
  0
SOLID
  5
2071
  8
DIM
  6
CONTINUOUS
 10
413.35948774296929
 20
203.783354646302
 30
0.0
 11
414.35948774296929
 21
203.783354646302
 31
0.0
 12
413.85948774296929
 22
200.783354646302
 32
0.0
 13
413.85948774296929
 23
200.783354646302
 33
0.0
  0
SOLID
  5
2072
  8
DIM
  6
CONTINUOUS
 10
421.35948774296929
 20
196.783354646302
 30
0.0
 11
422.35948774296929
 21
196.783354646302
 31
0.0
 12
421.85948774296929
 22
193.783354646302
 32
0.0
 13
421.85948774296929
 23
193.783354646302
 33
0.0
  0
LINE
  5
2073
  8
DIM
  6
CONTINUOUS
 10
399.3300441864742
 20
275.78335464630197
 30
0.0
 11
422.85948774296929
 21
275.78335464630197
 31
0.0
  0
LINE
  5
2074
  8
DIM
  6
CONTINUOUS
 10
393.64227737743829
 20
231.16070591008111
 30
0.0
 11
427.19980322909578
 21
206.06373612045701
 31
0.0
  0
TEXT
  5
2075
  8
DIM
  6
CONTINUOUS
 10
420.35948774296929
 20
232.3547832177307
 30
0.0
 40
3.0
  1
82
 50
90.0
  7
ROMANSS
 72
     1
 11
418.85948774296929
 21
234.78335464630209
 31
0.0
 73
     2
  0
LINE
  5
2076
  8
HIDDEN
  6
HIDDEN
 10
240.61227310775061
 20
323.90536552846351
 30
0.0
 11
240.61227310775061
 21
355.40536552846328
 31
0.0
  0
LINE
  5
2077
  8
HIDDEN
  6
HIDDEN
 10
234.11227310775061
 20
323.90536552846351
 30
0.0
 11
234.11227310775061
 21
355.40536552846328
 31
0.0
  0
LINE
  5
2078
  8
CENTER
  6
CENTER
 10
237.3622731077505
 20
358.23647965521189
 30
0.0
 11
237.36227310775061
 21
314.06094662369748
 31
0.0
  0
TEXT
  5
2079
  8
DIM
  6
CONTINUOUS
 10
300.36227310775053
 20
334.04822267132062
 30
0.0
 40
3.0
  1
26
 50
90.0
  7
ROMANSS
 72
     1
 11
298.86227310775053
 21
336.40536552846339
 31
0.0
 73
     2
  0
LINE
  5
207A
  8
DIM
  6
CONTINUOUS
 10
301.86227310775053
 20
326.40536552846339
 30
0.0
 11
301.86227310775053
 21
346.40536552846339
 31
0.0
  0
LINE
  5
207B
  8
0
  6
CONTINUOUS
 10
278.86227310775058
 20
355.40536552846339
 30
0.0
 11
278.86227310775058
 21
317.40536552846339
 31
0.0
  0
LINE
  5
207C
  8
0
  6
CONTINUOUS
 10
281.86227310775058
 20
353.40536552846339
 30
0.0
 11
281.8622731077507
 21
319.40536552846339
 31
0.0
  0
LINE
  5
207D
  8
0
  6
CONTINUOUS
 10
293.86227310775058
 20
353.40536552846339
 30
0.0
 11
293.86227310775058
 21
319.40536552846339
 31
0.0
  0
LINE
  5
207E
  8
DIM
  6
CONTINUOUS
 10
294.86227310775058
 20
273.78335464630197
 30
0.0
 11
334.8622731077503
 21
273.78335464630197
 31
0.0
  0
LINE
  5
207F
  8
DIM
  6
CONTINUOUS
 10
310.99976970475012
 20
263.78335464630197
 30
0.0
 11
326.86227310775041
 21
263.78335464630197
 31
0.0
  0
LINE
  5
2080
  8
CENTER
  6
CENTER
 10
266.36227310775058
 20
277.66643808714548
 30
0.0
 11
266.36227310775058
 21
258.78335464630197
 31
0.0
  0
LINE
  5
2081
  8
HIDDEN
  6
HIDDEN
 10
263.36227310775058
 20
275.78335464630197
 30
0.0
 11
263.36227310775058
 21
264.78335464630197
 31
0.0
  0
LINE
  5
2082
  8
HIDDEN
  6
HIDDEN
 10
263.86227310775058
 20
275.78335464630197
 30
0.0
 11
263.86227310775058
 21
261.78335464630209
 31
0.0
  0
LINE
  5
2083
  8
HIDDEN
  6
HIDDEN
 10
268.86227310775058
 20
275.78335464630197
 30
0.0
 11
268.86227310775058
 21
261.78335464630209
 31
0.0
  0
LINE
  5
2084
  8
HIDDEN
  6
HIDDEN
 10
269.36227310775058
 20
275.78335464630197
 30
0.0
 11
269.36227310775058
 21
264.78335464630197
 31
0.0
  0
LINE
  5
2085
  8
DIM
  6
CONTINUOUS
 10
309.8622731077503
 20
272.21133393223153
 30
0.0
 11
309.86227310775041
 21
252.03335464630209
 31
0.0
  0
LINE
  5
2086
  8
DIM
  6
CONTINUOUS
 10
287.26227310775062
 20
285.19617088293433
 30
0.0
 11
287.2622731077505
 21
260.54540579205548
 31
0.0
  0
LINE
  5
2087
  8
0
  6
CONTINUOUS
 10
278.86227310775058
 20
275.78335464630197
 30
0.0
 11
278.86227310775058
 21
251.78335464630209
 31
0.0
  0
LINE
  5
2088
  8
CENTER
  6
CENTER
 10
233.86227310775061
 20
277.66643808714548
 30
0.0
 11
233.86227310775061
 21
258.78335464630197
 31
0.0
  0
LINE
  5
2089
  8
HIDDEN
  6
HIDDEN
 10
236.36227310775061
 20
275.78335464630197
 30
0.0
 11
236.36227310775061
 21
261.78335464630209
 31
0.0
  0
LINE
  5
208A
  8
HIDDEN
  6
HIDDEN
 10
236.86227310775061
 20
275.78335464630197
 30
0.0
 11
236.86227310775061
 21
264.78335464630197
 31
0.0
  0
LINE
  5
208B
  8
CENTER
  6
CENTER
 10
277.49120277229508
 20
214.783354646302
 30
0.0
 11
299.3516099573813
 21
214.783354646302
 31
0.0
  0
LINE
  5
208C
  8
CENTER
  6
CENTER
 10
277.49120277229508
 20
254.783354646302
 30
0.0
 11
297.12662425497501
 21
254.783354646302
 31
0.0
  0
LINE
  5
208D
  8
DIM
  6
CONTINUOUS
 10
246.61227310775061
 20
225.283354646302
 30
0.0
 11
302.91125845029131
 21
225.283354646302
 31
0.0
  0
LINE
  5
208E
  8
DIM
  6
CONTINUOUS
 10
246.61227310775061
 20
244.283354646302
 30
0.0
 11
302.91125845029131
 21
244.283354646302
 31
0.0
  0
LINE
  5
208F
  8
DIM
  6
CONTINUOUS
 10
246.61227310775061
 20
253.78335464630209
 30
0.0
 11
300.34370295606561
 21
253.78335464630209
 31
0.0
  0
LINE
  5
2090
  8
0
  6
CONTINUOUS
 10
272.86227310775058
 20
251.28335464630209
 30
0.0
 11
281.86227310775058
 21
251.28335464630209
 31
0.0
  0
LINE
  5
2091
  8
0
  6
CONTINUOUS
 10
245.86227310775061
 20
251.78335464630209
 30
0.0
 11
278.86227310775058
 21
251.78335464630209
 31
0.0
  0
LINE
  5
2092
  8
DIM
  6
CONTINUOUS
 10
246.61227310775061
 20
215.783354646302
 30
0.0
 11
318.96968231696133
 21
215.783354646302
 31
0.0
  0
LINE
  5
2093
  8
0
  6
CONTINUOUS
 10
272.86227310775058
 20
218.283354646302
 30
0.0
 11
281.86227310775058
 21
218.283354646302
 31
0.0
  0
LINE
  5
2094
  8
0
  6
CONTINUOUS
 10
245.86227310775061
 20
217.783354646302
 30
0.0
 11
278.86227310775058
 21
217.783354646302
 31
0.0
  0
LINE
  5
2095
  8
CENTER
  6
CENTER
 10
237.36227310775061
 20
262.03335464630209
 30
0.0
 11
237.36227310775061
 21
238.283354646302
 31
0.0
  0
LINE
  5
2096
  8
0
  6
CONTINUOUS
 10
272.86227310775058
 20
251.283354646302
 30
0.0
 11
272.86227310775058
 21
218.283354646302
 31
0.0
  0
LINE
  5
2097
  8
0
  6
CONTINUOUS
 10
251.86227310775061
 20
246.47469759739189
 30
0.0
 11
251.86227310775061
 21
223.09201169521211
 31
0.0
  0
LINE
  5
2098
  8
0
  6
CONTINUOUS
 10
245.86227310775061
 20
251.78335464630209
 30
0.0
 11
245.86227310775061
 21
217.783354646302
 31
0.0
  0
INSERT
  5
2099
  8
0
  6
CONTINUOUS
  2
HB_T2-M10
 10
264.86227310775058
 20
234.783354646302
 30
0.0
  0
LINE
  5
209A
  8
0
  6
CONTINUOUS
 10
257.8622731077507
 20
239.783354646302
 30
0.0
 11
257.8622731077507
 21
229.783354646302
 31
0.0
  0
LINE
  5
209B
  8
0
  6
CONTINUOUS
 10
256.3622731077507
 20
239.283354646302
 30
0.0
 11
256.3622731077507
 21
230.28335464630209
 31
0.0
  0
LINE
  5
209C
  8
0
  6
CONTINUOUS
 10
256.8622731077507
 20
239.283354646302
 30
0.0
 11
256.8622731077507
 21
230.28335464630209
 31
0.0
  0
ARC
  5
209D
  8
0
  6
CONTINUOUS
 10
220.98727310774959
 20
234.7833546463018
 30
0.0
 40
30.875000000000981
 50
345.3777786112318
 51
14.62222138876896
  0
LINE
  5
209E
  8
0
  6
CONTINUOUS
 10
251.8622731077507
 20
230.283354646302
 30
0.0
 11
256.8622731077507
 21
230.28335464630209
 31
0.0
  0
ARC
  5
209F
  8
0
  6
CONTINUOUS
 10
243.76852310775061
 20
223.09201169521211
 30
0.0
 40
8.09375
 50
331.21679720615782
 51
28.783202793842172
  0
LINE
  5
20A0
  8
CENTER
  6
CENTER
 10
237.36227310775061
 20
231.283354646302
 30
0.0
 11
237.36227310775061
 21
207.533354646302
 31
0.0
  0
CIRCLE
  5
20A1
  8
0
  6
CONTINUOUS
 10
237.36227310775061
 20
215.783354646302
 30
0.0
 40
3.25
  0
LINE
  5
20A2
  8
HIDDEN
  6
HIDDEN
 10
236.36227310775061
 20
207.783354646302
 30
0.0
 11
233.86227310775061
 21
209.2267303192761
 31
0.0
  0
LINE
  5
20A3
  8
0
  6
CONTINUOUS
 10
250.86227310775061
 20
219.19489737818211
 30
0.0
 11
245.86227310775061
 21
219.19489737818211
 31
0.0
  0
CIRCLE
  5
20A4
  8
HIDDEN
  6
HIDDEN
 10
237.36227310775061
 20
225.283354646302
 30
0.0
 40
3.0
  0
LINE
  5
20A5
  8
0
  6
CONTINUOUS
 10
250.86227310775061
 20
226.989126012242
 30
0.0
 11
245.86227310775061
 21
226.989126012242
 31
0.0
  0
LINE
  5
20A6
  8
HIDDEN
  6
HIDDEN
 10
268.86227310775058
 20
207.783354646302
 30
0.0
 11
266.36227310775058
 21
209.2267303192761
 31
0.0
  0
LINE
  5
20A7
  8
HIDDEN
  6
HIDDEN
 10
268.86227310775058
 20
207.783354646302
 30
0.0
 11
263.86227310775058
 21
207.783354646302
 31
0.0
  0
LINE
  5
20A8
  8
HIDDEN
  6
HIDDEN
 10
263.86227310775058
 20
207.783354646302
 30
0.0
 11
266.36227310775058
 21
209.2267303192761
 31
0.0
  0
LINE
  5
20A9
  8
0
  6
CONTINUOUS
 10
270.86227310775058
 20
237.28335464630209
 30
0.0
 11
264.86227310775058
 21
237.28335464630209
 31
0.0
  0
LINE
  5
20AA
  8
0
  6
CONTINUOUS
 10
270.86227310775058
 20
232.28335464630189
 30
0.0
 11
264.86227310775058
 21
232.28335464630189
 31
0.0
  0
LINE
  5
20AB
  8
0
  6
CONTINUOUS
 10
264.86227310775058
 20
228.783354646302
 30
0.0
 11
270.86227310775058
 21
228.783354646302
 31
0.0
  0
LINE
  5
20AC
  8
0
  6
CONTINUOUS
 62
     4
 10
264.86227310775058
 20
232.28335464630189
 30
0.0
 11
270.86227310775058
 21
237.28335464630209
 31
0.0
  0
LINE
  5
20AD
  8
0
  6
CONTINUOUS
 62
     4
 10
264.86227310775058
 20
237.28335464630209
 30
0.0
 11
270.86227310775058
 21
232.28335464630189
 31
0.0
  0
LINE
  5
20AE
  8
0
  6
CONTINUOUS
 10
256.8622731077507
 20
230.48335464630199
 30
0.0
 11
257.8622731077507
 21
230.48335464630199
 31
0.0
  0
LINE
  5
20AF
  8
0
  6
CONTINUOUS
 10
271.36227310775058
 20
228.283354646302
 30
0.0
 11
270.86227310775058
 21
228.783354646302
 31
0.0
  0
LINE
  5
20B0
  8
0
  6
CONTINUOUS
 10
271.36227310775058
 20
228.283354646302
 30
0.0
 11
272.86227310775058
 21
228.283354646302
 31
0.0
  0
ARC
  5
20B1
  8
0
  6
CONTINUOUS
 10
264.86227310775053
 20
234.78335464630209
 30
0.0
 40
6.500000000000111
 50
337.38013505195943
 51
22.619864948039702
  0
LINE
  5
20B2
  8
0
  6
CONTINUOUS
 10
270.86227310775058
 20
237.28335464630209
 30
0.0
 11
270.86227310775058
 21
232.28335464630189
 31
0.0
  0
LINE
  5
20B3
  8
0
  6
CONTINUOUS
 10
251.86227310775061
 20
239.283354646302
 30
0.0
 11
256.8622731077507
 21
239.283354646302
 31
0.0
  0
CIRCLE
  5
20B4
  8
0
  6
CONTINUOUS
 10
253.86227310775061
 20
263.78335464630197
 30
0.0
 40
4.0
  0
CIRCLE
  5
20B5
  8
0
  6
CONTINUOUS
 10
237.36227310775061
 20
253.78335464630209
 30
0.0
 40
3.25
  0
CIRCLE
  5
20B6
  8
HIDDEN
  6
HIDDEN
 10
237.36227310775061
 20
244.283354646302
 30
0.0
 40
3.0
  0
ARC
  5
20B7
  8
0
  6
CONTINUOUS
 10
243.76852310775061
 20
246.47469759739189
 30
0.0
 40
8.09375
 50
331.21679720615782
 51
28.783202793842172
  0
LINE
  5
20B8
  8
0
  6
CONTINUOUS
 10
250.86227310775061
 20
242.57758328036201
 30
0.0
 11
245.86227310775061
 21
242.57758328036201
 31
0.0
  0
LINE
  5
20B9
  8
0
  6
CONTINUOUS
 10
250.86227310775061
 20
250.37181191442201
 30
0.0
 11
245.8622731077505
 21
250.37181191442201
 31
0.0
  0
LINE
  5
20BA
  8
HIDDEN
  6
HIDDEN
 10
236.36227310775061
 20
261.78335464630209
 30
0.0
 11
233.86227310775061
 21
260.33997897332802
 31
0.0
  0
POLYLINE
  5
20BB
  8
0
  6
CONTINUOUS
 66
     1
 10
0.0
 20
0.0
 30
0.0
 70
     1
 40
1.0
 41
1.0
  0
VERTEX
  5
21C3
  8
0
  6
CONTINUOUS
 10
254.36227310775061
 20
263.78335464630197
 30
0.0
 42
1.0
  0
VERTEX
  5
21C4
  8
0
  6
CONTINUOUS
 10
253.36227310775061
 20
263.78335464630197
 30
0.0
 42
1.0
  0
SEQEND
  5
21C5
  8
0
  6
CONTINUOUS
  0
LINE
  5
20BC
  8
0
  6
CONTINUOUS
 10
264.86227310775058
 20
240.783354646302
 30
0.0
 11
270.86227310775058
 21
240.783354646302
 31
0.0
  0
LINE
  5
20BD
  8
0
  6
CONTINUOUS
 10
256.8622731077507
 20
239.08335464630201
 30
0.0
 11
257.8622731077507
 21
239.08335464630201
 31
0.0
  0
LINE
  5
20BE
  8
0
  6
CONTINUOUS
 10
271.36227310775058
 20
241.283354646302
 30
0.0
 11
270.86227310775058
 21
240.783354646302
 31
0.0
  0
LINE
  5
20BF
  8
0
  6
CONTINUOUS
 10
271.36227310775058
 20
241.283354646302
 30
0.0
 11
272.86227310775058
 21
241.283354646302
 31
0.0
  0
LINE
  5
20C0
  8
HIDDEN
  6
HIDDEN
 10
268.86227310775058
 20
261.78335464630209
 30
0.0
 11
266.36227310775058
 21
260.33997897332802
 31
0.0
  0
LINE
  5
20C1
  8
HIDDEN
  6
HIDDEN
 10
269.36227310775058
 20
264.78335464630197
 30
0.0
 11
263.36227310775058
 21
264.78335464630197
 31
0.0
  0
LINE
  5
20C2
  8
HIDDEN
  6
HIDDEN
 10
268.86227310775058
 20
261.78335464630209
 30
0.0
 11
263.86227310775058
 21
261.78335464630209
 31
0.0
  0
LINE
  5
20C3
  8
HIDDEN
  6
HIDDEN
 10
263.86227310775058
 20
261.78335464630209
 30
0.0
 11
266.36227310775058
 21
260.33997897332802
 31
0.0
  0
LINE
  5
20C4
  8
DIM
  6
CONTINUOUS
 10
301.86227310775053
 20
225.283354646302
 30
0.0
 11
301.86227310775053
 21
244.283354646302
 31
0.0
  0
LINE
  5
20C5
  8
DIM
  6
CONTINUOUS
 10
317.86227310775041
 20
218.783354646302
 30
0.0
 11
317.86227310775041
 21
250.78335464630209
 31
0.0
  0
SOLID
  5
20C6
  8
DIM
  6
CONTINUOUS
 10
301.36227310775053
 20
228.283354646302
 30
0.0
 11
302.36227310775053
 21
228.283354646302
 31
0.0
 12
301.86227310775053
 22
225.283354646302
 32
0.0
 13
301.86227310775053
 23
225.283354646302
 33
0.0
  0
LINE
  5
20C7
  8
HIDDEN
  6
HIDDEN
 10
293.86227310775058
 20
217.53335464630189
 30
0.0
 11
287.26227310775062
 21
217.53335464630189
 31
0.0
  0
LINE
  5
20C8
  8
HIDDEN
  6
HIDDEN
 10
293.86227310775058
 20
212.03335464630209
 30
0.0
 11
287.26227310775062
 21
212.033354646302
 31
0.0
  0
LINE
  5
20C9
  8
HIDDEN
  6
HIDDEN
 10
287.26227310775062
 20
210.033354646302
 30
0.0
 11
287.26227310775062
 21
219.533354646302
 31
0.0
  0
LINE
  5
20CA
  8
HIDDEN
  6
HIDDEN
 10
287.26227310775062
 20
210.033354646302
 30
0.0
 11
281.86227310775058
 21
210.033354646302
 31
0.0
  0
LINE
  5
20CB
  8
0
  6
CONTINUOUS
 10
278.86227310775058
 20
210.783354646302
 30
0.0
 11
281.86227310775058
 21
210.783354646302
 31
0.0
  0
LINE
  5
20CC
  8
HIDDEN
  6
HIDDEN
 10
287.26227310775062
 20
219.533354646302
 30
0.0
 11
281.86227310775058
 21
219.533354646302
 31
0.0
  0
TEXT
  5
20CD
  8
DIM
  6
CONTINUOUS
 10
300.36227310775053
 20
232.71192607487339
 30
0.0
 40
3.0
  1
19
 50
90.0
  7
ROMANSS
 72
     1
 11
298.86227310775053
 21
234.783354646302
 31
0.0
 73
     2
  0
SOLID
  5
20CE
  8
DIM
  6
CONTINUOUS
 10
317.36227310775041
 20
218.783354646302
 30
0.0
 11
318.36227310775041
 21
218.783354646302
 31
0.0
 12
317.86227310775041
 22
215.783354646302
 32
0.0
 13
317.86227310775041
 23
215.783354646302
 33
0.0
  0
TEXT
  5
20CF
  8
DIM
  6
CONTINUOUS
 10
316.36227310775041
 20
232.35478321773061
 30
0.0
 40
3.0
  1
38
 50
90.0
  7
ROMANSS
 72
     1
 11
314.86227310775041
 21
234.783354646302
 31
0.0
 73
     2
  0
TEXT
  5
20D0
  8
DIM
  6
CONTINUOUS
 10
324.36227310775041
 20
232.35478321773061
 30
0.0
 40
3.0
  1
58
 50
90.0
  7
ROMANSS
 72
     1
 11
322.86227310775041
 21
234.783354646302
 31
0.0
 73
     2
  0
LINE
  5
20D1
  8
DIM
  6
CONTINUOUS
 10
288.32585484199882
 20
259.53335464630197
 30
0.0
 11
310.86227310775041
 21
259.53335464630197
 31
0.0
  0
LINE
  5
20D2
  8
DIM
  6
CONTINUOUS
 10
294.79560965370018
 20
257.53335464630192
 30
0.0
 11
302.86227310775041
 21
257.53335464630192
 31
0.0
  0
SOLID
  5
20D3
  8
DIM
  6
CONTINUOUS
 10
301.36227310775053
 20
260.53335464630192
 30
0.0
 11
302.36227310775053
 21
260.53335464630192
 31
0.0
 12
301.86227310775053
 22
257.53335464630192
 32
0.0
 13
301.86227310775053
 23
257.53335464630192
 33
0.0
  0
LINE
  5
20D4
  8
DIM
  6
CONTINUOUS
 10
288.32585484199882
 20
250.03335464630209
 30
0.0
 11
310.86227310775041
 21
250.03335464630209
 31
0.0
  0
LINE
  5
20D5
  8
DIM
  6
CONTINUOUS
 10
294.79560965370018
 20
252.03335464630209
 30
0.0
 11
302.86227310775041
 21
252.03335464630209
 31
0.0
  0
SOLID
  5
20D6
  8
DIM
  6
CONTINUOUS
 10
301.36227310775053
 20
249.0333546463022
 30
0.0
 11
302.36227310775053
 21
249.0333546463022
 31
0.0
 12
301.86227310775053
 22
252.03335464630209
 32
0.0
 13
301.86227310775053
 23
252.03335464630209
 33
0.0
  0
SOLID
  5
20D7
  8
DIM
  6
CONTINUOUS
 10
301.36227310775053
 20
241.28335464630209
 30
0.0
 11
302.36227310775053
 21
241.28335464630209
 31
0.0
 12
301.86227310775053
 22
244.283354646302
 32
0.0
 13
301.86227310775053
 23
244.283354646302
 33
0.0
  0
LINE
  5
20D8
  8
DIM
  6
CONTINUOUS
 10
301.86227310775041
 20
246.5320150520769
 30
0.0
 11
301.86227310775041
 21
270.14255324720318
 31
0.0
  0
LINE
  5
20D9
  8
HIDDEN
  6
HIDDEN
 10
287.26227310775062
 20
259.53335464630197
 30
0.0
 11
287.26227310775062
 21
250.033354646302
 31
0.0
  0
LINE
  5
20DA
  8
HIDDEN
  6
HIDDEN
 10
293.86227310775058
 20
252.03335464630209
 30
0.0
 11
287.26227310775062
 21
252.03335464630209
 31
0.0
  0
LINE
  5
20DB
  8
HIDDEN
  6
HIDDEN
 10
287.26227310775062
 20
250.033354646302
 30
0.0
 11
281.86227310775058
 21
250.033354646302
 31
0.0
  0
LINE
  5
20DC
  8
HIDDEN
  6
HIDDEN
 10
281.86227310775058
 20
266.78335464630197
 30
0.0
 11
293.86227310775058
 21
266.78335464630197
 31
0.0
  0
LINE
  5
20DD
  8
HIDDEN
  6
HIDDEN
 10
281.86227310775058
 20
266.28335464630209
 30
0.0
 11
293.86227310775058
 21
266.28335464630209
 31
0.0
  0
LINE
  5
20DE
  8
HIDDEN
  6
HIDDEN
 10
281.86227310775058
 20
271.28335464630197
 30
0.0
 11
293.86227310775058
 21
271.28335464630197
 31
0.0
  0
LINE
  5
20DF
  8
HIDDEN
  6
HIDDEN
 10
281.86227310775058
 20
270.78335464630197
 30
0.0
 11
293.86227310775058
 21
270.78335464630197
 31
0.0
  0
LINE
  5
20E0
  8
HIDDEN
  6
HIDDEN
 10
293.86227310775058
 20
257.53335464630192
 30
0.0
 11
287.26227310775062
 21
257.53335464630197
 31
0.0
  0
LINE
  5
20E1
  8
CENTER
  6
CENTER
 10
281.86227310775058
 20
268.78335464630197
 30
0.0
 11
296.365476630069
 21
268.78335464630197
 31
0.0
  0
LINE
  5
20E2
  8
HIDDEN
  6
HIDDEN
 10
287.26227310775062
 20
259.53335464630197
 30
0.0
 11
281.86227310775058
 21
259.53335464630197
 31
0.0
  0
LINE
  5
20E3
  8
0
  6
CONTINUOUS
 10
278.86227310775058
 20
258.78335464630197
 30
0.0
 11
281.86227310775058
 21
258.78335464630197
 31
0.0
  0
LINE
  5
20E4
  8
0
  6
CONTINUOUS
 10
278.86227310775058
 20
268.78335464630197
 30
0.0
 11
281.86227310775058
 21
268.78335464630197
 31
0.0
  0
TEXT
  5
20E5
  8
DIM
  6
CONTINUOUS
 10
300.36227310775053
 20
260.88155277232318
 30
0.0
 40
3.0
  1
%%c5.5
 50
90.0
  7
ROMANSS
 72
     1
 11
298.86227310775053
 21
265.38155277232318
 31
0.0
 73
     2
  0
LINE
  5
20E6
  8
DIM
  6
CONTINUOUS
 10
311.38034351720319
 20
253.78335464630209
 30
0.0
 11
318.96968231696133
 21
253.78335464630209
 31
0.0
  0
SOLID
  5
20E7
  8
DIM
  6
CONTINUOUS
 10
310.3622731077503
 20
253.03335464630209
 30
0.0
 11
309.36227310775041
 21
253.03335464630209
 31
0.0
 12
309.86227310775041
 22
250.03335464630209
 32
0.0
 13
309.86227310775041
 23
250.03335464630209
 33
0.0
  0
SOLID
  5
20E8
  8
DIM
  6
CONTINUOUS
 10
317.36227310775041
 20
250.78335464630209
 30
0.0
 11
318.36227310775041
 21
250.78335464630209
 31
0.0
 12
317.86227310775041
 22
253.78335464630209
 32
0.0
 13
317.86227310775041
 23
253.78335464630209
 33
0.0
  0
TEXT
  5
20E9
  8
DIM
  6
CONTINUOUS
 10
308.36227310775053
 20
262.16646829105372
 30
0.0
 40
3.0
  1
%%c9.5
 50
90.0
  7
ROMANSS
 72
     1
 11
306.86227310775053
 21
266.66646829105372
 31
0.0
 73
     2
  0
SOLID
  5
20EA
  8
DIM
  6
CONTINUOUS
 10
310.3622731077503
 20
256.53335464630197
 30
0.0
 11
309.36227310775041
 21
256.53335464630197
 31
0.0
 12
309.86227310775041
 22
259.53335464630197
 32
0.0
 13
309.86227310775041
 23
259.53335464630197
 33
0.0
  0
LINE
  5
20EB
  8
DIM
  6
CONTINUOUS
 10
275.44484975040689
 20
283.78335464630197
 30
0.0
 11
297.80890372852559
 21
283.78335464630209
 31
0.0
  0
LINE
  5
20EC
  8
DIM
  6
CONTINUOUS
 10
270.52214863953151
 20
319.08300730918882
 30
0.0
 11
281.22255725257668
 21
308.37396758709292
 31
0.0
  0
LINE
  5
20ED
  8
DIM
  6
CONTINUOUS
 10
273.79333748929793
 20
323.40536552846351
 30
0.0
 11
302.86227310775053
 21
323.40536552846339
 31
0.0
  0
TEXT
  5
20EE
  8
DIM
  6
CONTINUOUS
 10
246.34392455547609
 20
285.28335464630209
 30
0.0
 40
3.0
  1
32.5
  7
ROMANSS
 72
     1
 11
250.91535312690471
 21
286.78335464630209
 31
0.0
 73
     2
  0
LINE
  5
20EF
  8
DIM
  6
CONTINUOUS
 10
233.86227310775061
 20
278.66643808714542
 30
0.0
 11
233.86227310775061
 21
284.95909593831129
 31
0.0
  0
SOLID
  5
20F0
  8
DIM
  6
CONTINUOUS
 10
236.86227310775061
 20
284.28335464630197
 30
0.0
 11
236.86227310775061
 21
283.28335464630209
 31
0.0
 12
233.86227310775061
 22
283.78335464630197
 32
0.0
 13
233.86227310775061
 23
283.78335464630197
 33
0.0
  0
LINE
  5
20F1
  8
DIM
  6
CONTINUOUS
 10
266.36227310775058
 20
278.66643808714542
 30
0.0
 11
266.36227310775058
 21
284.96522933092263
 31
0.0
  0
SOLID
  5
20F2
  8
DIM
  6
CONTINUOUS
 10
263.36227310775058
 20
284.28335464630197
 30
0.0
 11
263.36227310775058
 21
283.28335464630209
 31
0.0
 12
266.36227310775058
 22
283.78335464630197
 32
0.0
 13
266.36227310775058
 23
283.78335464630197
 33
0.0
  0
LINE
  5
20F3
  8
HIDDEN
  6
HIDDEN
 10
242.61227310775081
 20
317.40536552846339
 30
0.0
 11
242.6122731077507
 21
323.90536552846339
 31
0.0
  0
LINE
  5
20F4
  8
CENTER
  6
CENTER
 10
233.86227310775061
 20
329.40536552846339
 30
0.0
 11
233.86227310775061
 21
317.40536552846339
 31
0.0
  0
ARC
  5
20F5
  8
0
 62
     2
 10
266.36227310775058
 20
323.40536552846339
 30
0.0
 40
3.0000000000000031
 50
255.00000000000551
 51
194.9999999999944
  0
SOLID
  5
20F6
  8
DIM
  6
CONTINUOUS
 10
270.16845274444859
 20
318.72959648054689
 30
0.0
 11
270.8758445346146
 21
319.43641813783069
 31
0.0
 12
268.40168366767989
 22
321.2051826796872
 32
0.0
 13
268.40168366767989
 23
321.2051826796872
 33
0.0
  0
LINE
  5
20F7
  8
CENTER
  6
CENTER
 10
266.36227310775058
 20
329.40536552846339
 30
0.0
 11
266.36227310775058
 21
317.40536552846328
 31
0.0
  0
CIRCLE
  5
20F8
  8
0
 10
266.36227310775058
 20
323.40536552846339
 30
0.0
 40
2.5
  0
LINE
  5
20F9
  8
CENTER
  6
CENTER
 10
260.36227310775058
 20
323.40536552846339
 30
0.0
 11
272.36227310775058
 21
323.40536552846339
 31
0.0
  0
TEXT
  5
20FA
  8
DIM
  6
CONTINUOUS
 10
291.64798739346492
 20
285.28335464630209
 30
0.0
 40
3.0
  1
5.4
  7
ROMANSS
 72
     1
 11
294.86227310775058
 21
286.78335464630209
 31
0.0
 73
     2
  0
SOLID
  5
20FB
  8
DIM
  6
CONTINUOUS
 10
291.3622731077507
 20
284.28335464630197
 30
0.0
 11
291.3622731077507
 21
283.28335464630209
 31
0.0
 12
288.3622731077507
 22
283.78335464630197
 32
0.0
 13
288.3622731077507
 23
283.78335464630197
 33
0.0
  0
LINE
  5
20FC
  8
0
  6
CONTINUOUS
 10
281.86227310775058
 20
273.78335464630197
 30
0.0
 11
293.86227310775058
 21
273.78335464630197
 31
0.0
  0
LINE
  5
20FD
  8
DIM
  6
CONTINUOUS
 10
281.86227310775058
 20
285.19617088293433
 30
0.0
 11
281.86227310775058
 21
274.71516076888662
 31
0.0
  0
SOLID
  5
20FE
  8
DIM
  6
CONTINUOUS
 10
278.86227310775058
 20
284.28335464630197
 30
0.0
 11
278.86227310775058
 21
283.28335464630209
 31
0.0
 12
281.86227310775058
 22
283.78335464630197
 32
0.0
 13
281.86227310775058
 23
283.78335464630197
 33
0.0
  0
SOLID
  5
20FF
  8
DIM
  6
CONTINUOUS
 10
301.36227310775053
 20
326.40536552846339
 30
0.0
 11
302.36227310775053
 21
326.40536552846339
 31
0.0
 12
301.86227310775053
 22
323.40536552846339
 32
0.0
 13
301.86227310775053
 23
323.40536552846339
 33
0.0
  0
TEXT
  5
2100
  8
DIM
  6
CONTINUOUS
 10
285.22255725257668
 20
309.87396758709292
 30
0.0
 40
3.0
  1
4-M6x11L
  7
ROMANSS
 11
285.22255725257668
 21
311.37396758709292
 31
0.0
 73
     2
  0
LINE
  5
2101
  8
DIM
  6
CONTINUOUS
 10
281.22255725257668
 20
308.37396758709292
 30
0.0
 11
305.91461254193177
 21
308.37396758709292
 31
0.0
  0
LINE
  5
2102
  8
0
  6
CONTINUOUS
 10
281.86227310775058
 20
319.40536552846339
 30
0.0
 11
293.86227310775058
 21
319.40536552846339
 31
0.0
  0
LINE
  5
2103
  8
0
  6
CONTINUOUS
 10
278.86227310775058
 20
319.90536552846339
 30
0.0
 11
281.8622731077507
 21
319.90536552846339
 31
0.0
  0
LINE
  5
2104
  8
HIDDEN
  6
HIDDEN
 10
281.86227310775058
 20
324.40536552846322
 30
0.0
 11
293.86227310775058
 21
324.40536552846322
 31
0.0
  0
LINE
  5
2105
  8
HIDDEN
  6
HIDDEN
 10
281.86227310775058
 20
323.90536552846322
 30
0.0
 11
293.86227310775058
 21
323.90536552846328
 31
0.0
  0
LINE
  5
2106
  8
HIDDEN
  6
HIDDEN
 10
281.86227310775058
 20
328.90536552846322
 30
0.0
 11
293.86227310775058
 21
328.90536552846322
 31
0.0
  0
LINE
  5
2107
  8
HIDDEN
  6
HIDDEN
 10
281.86227310775058
 20
328.40536552846322
 30
0.0
 11
293.86227310775058
 21
328.40536552846322
 31
0.0
  0
LINE
  5
2108
  8
HIDDEN
  6
HIDDEN
 10
293.86227310775058
 20
323.65536552846328
 30
0.0
 11
287.26227310775062
 21
323.65536552846328
 31
0.0
  0
LINE
  5
2109
  8
HIDDEN
  6
HIDDEN
 10
293.86227310775058
 20
329.15536552846311
 30
0.0
 11
287.26227310775062
 21
329.15536552846322
 31
0.0
  0
LINE
  5
210A
  8
CENTER
  6
CENTER
 10
278.8622731077507
 20
326.40536552846328
 30
0.0
 11
296.86227310775058
 21
326.40536552846328
 31
0.0
  0
LINE
  5
210B
  8
HIDDEN
  6
HIDDEN
 10
287.26227310775062
 20
331.15536552846322
 30
0.0
 11
287.26227310775062
 21
321.65536552846322
 31
0.0
  0
LINE
  5
210C
  8
HIDDEN
  6
HIDDEN
 10
287.26227310775062
 20
321.65536552846322
 30
0.0
 11
281.86227310775058
 21
321.65536552846322
 31
0.0
  0
LINE
  5
210D
  8
HIDDEN
  6
HIDDEN
 10
287.26227310775062
 20
331.15536552846322
 30
0.0
 11
281.86227310775058
 21
331.15536552846322
 31
0.0
  0
LINE
  5
210E
  8
0
  6
CONTINUOUS
 10
278.86227310775058
 20
331.40536552846339
 30
0.0
 11
281.86227310775058
 21
331.40536552846339
 31
0.0
  0
SOLID
  5
210F
  8
DIM
  6
CONTINUOUS
 10
386.36078280466529
 20
273.71834771378138
 30
0.0
 11
385.5241803853412
 21
273.17053716990603
 31
0.0
 12
387.58591322662909
 22
270.93463518387119
 32
0.0
 13
387.58591322662909
 23
270.93463518387119
 33
0.0
  0
SOLID
  5
2110
  8
DIM
  6
CONTINUOUS
 10
333.3622731077503
 20
270.78335464630197
 30
0.0
 11
334.3622731077503
 21
270.78335464630197
 31
0.0
 12
333.8622731077503
 22
273.78335464630197
 32
0.0
 13
333.8622731077503
 23
273.78335464630197
 33
0.0
  0
LINE
  5
2111
  8
CENTER
  6
CENTER
 10
362.85948774296941
 20
268.78335464630197
 30
0.0
 11
374.85948774296941
 21
268.78335464630197
 31
0.0
  0
CIRCLE
  5
2112
  8
HIDDEN
  6
HIDDEN
 10
368.85948774296941
 20
254.783354646302
 30
0.0
 40
4.75
  0
LINE
  5
2113
  8
CENTER
  6
CENTER
 10
361.10948774296941
 20
254.783354646302
 30
0.0
 11
396.60948774296941
 21
254.783354646302
 31
0.0
  0
CIRCLE
  5
2114
  8
HIDDEN
  6
HIDDEN
 10
368.85948774296941
 20
214.783354646302
 30
0.0
 40
4.75
  0
LINE
  5
2115
  8
CENTER
  6
CENTER
 10
361.10948774296941
 20
214.783354646302
 30
0.0
 11
396.60948774296941
 21
214.783354646302
 31
0.0
  0
LINE
  5
2116
  8
CENTER
  6
CENTER
 10
356.85948774296941
 20
234.783354646302
 30
0.0
 11
400.85948774296941
 21
234.783354646302
 31
0.0
  0
CIRCLE
  5
2117
  8
0
  6
CONTINUOUS
 10
368.85948774296941
 20
234.783354646302
 30
0.0
 40
3.0
  0
LINE
  5
2118
  8
DIM
  6
CONTINUOUS
 10
325.86227310775041
 20
208.783354646302
 30
0.0
 11
325.86227310775041
 21
260.78335464630197
 31
0.0
  0
TEXT
  5
2119
  8
DIM
  6
CONTINUOUS
 10
332.3622731077503
 20
232.3547832177307
 30
0.0
 40
3.0
  1
78
 50
90.0
  7
ROMANSS
 72
     1
 11
330.8622731077503
 21
234.78335464630209
 31
0.0
 73
     2
  0
CIRCLE
  5
211A
  8
0
  6
CONTINUOUS
 10
368.85948774296941
 20
214.783354646302
 30
0.0
 40
2.75
  0
SOLID
  5
211B
  8
DIM
  6
CONTINUOUS
 10
325.36227310775041
 20
260.78335464630197
 30
0.0
 11
326.36227310775041
 21
260.78335464630197
 31
0.0
 12
325.86227310775041
 22
263.78335464630197
 32
0.0
 13
325.86227310775041
 23
263.78335464630197
 33
0.0
  0
CIRCLE
  5
211C
  8
0
  6
CONTINUOUS
 10
368.85948774296941
 20
254.783354646302
 30
0.0
 40
2.75
  0
ARC
  5
211D
  8
0
  6
CONTINUOUS
 62
     2
 10
368.85948774296941
 20
268.78335464630197
 30
0.0
 40
2.4999999999991238
 50
255.0000000000004
 51
194.9999999999994
  0
CIRCLE
  5
211E
  8
0
  6
CONTINUOUS
 10
368.85948774296941
 20
268.78335464630197
 30
0.0
 40
2.1000000000000001
  0
LINE
  5
211F
  8
DIM
  6
CONTINUOUS
 10
405.85948774296929
 20
217.783354646302
 30
0.0
 11
405.85948774296929
 21
251.78335464630209
 31
0.0
  0
POLYLINE
  5
2120
  8
0
  6
CONTINUOUS
 66
     1
 10
0.0
 20
0.0
 30
0.0
 70
     1
  0
VERTEX
  5
21C6
  8
0
  6
CONTINUOUS
 10
377.70478720458942
 20
223.783354646302
 30
0.0
  0
VERTEX
  5
21C7
  8
0
  6
CONTINUOUS
 10
376.55008666621131
 20
221.783354646302
 30
0.0
  0
VERTEX
  5
21C8
  8
0
  6
CONTINUOUS
 10
377.70478720458942
 20
219.783354646302
 30
0.0
  0
VERTEX
  5
21C9
  8
0
  6
CONTINUOUS
 10
380.01418828134939
 20
219.783354646302
 30
0.0
  0
VERTEX
  5
21CA
  8
0
  6
CONTINUOUS
 10
381.16888881972761
 20
221.783354646302
 30
0.0
  0
VERTEX
  5
21CB
  8
0
  6
CONTINUOUS
 10
380.01418828134939
 20
223.783354646302
 30
0.0
  0
SEQEND
  5
21CC
  8
0
  6
CONTINUOUS
  0
CIRCLE
  5
2121
  8
0
  6
CONTINUOUS
 10
378.85948774296941
 20
221.783354646302
 30
0.0
 40
3.9035796766743651
  0
CIRCLE
  5
2122
  8
0
  6
CONTINUOUS
 10
378.85948774296941
 20
221.783354646302
 30
0.0
 40
4.25
  0
LINE
  5
2123
  8
CENTER
  6
CENTER
 10
371.85948774296941
 20
221.783354646302
 30
0.0
 11
385.85948774296941
 21
221.783354646302
 31
0.0
  0
CIRCLE
  5
2124
  8
0
  6
CONTINUOUS
 10
388.85948774296941
 20
214.783354646302
 30
0.0
 40
2.75
  0
CIRCLE
  5
2125
  8
HIDDEN
  6
HIDDEN
 10
388.85948774296941
 20
214.783354646302
 30
0.0
 40
4.75
  0
POLYLINE
  5
2126
  8
0
 66
     1
 10
0.0
 20
0.0
 30
0.0
 70
     1
  0
VERTEX
  5
21CD
  8
0
 10
377.99346233918538
 20
236.283354646302
 30
0.0
  0
VERTEX
  5
21CE
  8
0
 10
377.12743693540131
 20
234.783354646302
 30
0.0
  0
VERTEX
  5
21CF
  8
0
 10
377.99346233918538
 20
233.283354646302
 30
0.0
  0
VERTEX
  5
21D0
  8
0
 10
379.72551314675349
 20
233.283354646302
 30
0.0
  0
VERTEX
  5
21D1
  8
0
 10
380.59153855053762
 20
234.783354646302
 30
0.0
  0
VERTEX
  5
21D2
  8
0
 10
379.72551314675349
 20
236.283354646302
 30
0.0
  0
SEQEND
  5
21D3
  8
0
  0
CIRCLE
  5
2127
  8
0
 10
378.85948774296941
 20
234.783354646302
 30
0.0
 40
2.5
  0
CIRCLE
  5
2128
  8
0
 10
378.85948774296941
 20
234.783354646302
 30
0.0
 40
3.0
  0
CIRCLE
  5
2129
  8
0
  6
CONTINUOUS
 10
388.85948774296941
 20
234.783354646302
 30
0.0
 40
3.0
  0
SOLID
  5
212A
  8
DIM
  6
CONTINUOUS
 10
393.34282117626469
 20
230.76029863794599
 30
0.0
 11
393.94173357861189
 21
231.5611131822163
 31
0.0
 12
391.23983374462739
 22
232.95744311712249
 32
0.0
 13
391.23983374462739
 23
232.95744311712249
 33
0.0
  0
LINE
  5
212B
  8
DIM
  6
CONTINUOUS
 10
397.60948774296941
 20
214.783354646302
 30
0.0
 11
406.85948774296929
 21
214.783354646302
 31
0.0
  0
SOLID
  5
212C
  8
DIM
  6
CONTINUOUS
 10
405.35948774296929
 20
217.783354646302
 30
0.0
 11
406.35948774296929
 21
217.783354646302
 31
0.0
 12
405.85948774296929
 22
214.783354646302
 32
0.0
 13
405.85948774296929
 23
214.783354646302
 33
0.0
  0
TEXT
  5
212D
  8
DIM
  6
CONTINUOUS
 10
404.35948774296929
 20
232.35478321773061
 30
0.0
 40
3.0
  1
40
 50
90.0
  7
ROMANSS
 72
     1
 11
402.85948774296929
 21
234.783354646302
 31
0.0
 73
     2
  0
TEXT
  5
212E
  8
DIM
  6
CONTINUOUS
 10
412.35948774296929
 20
232.35478321773061
 30
0.0
 40
3.0
  1
68
 50
90.0
  7
ROMANSS
 72
     1
 11
410.85948774296929
 21
234.783354646302
 31
0.0
 73
     2
  0
LINE
  5
212F
  8
CENTER
  6
CENTER
 10
382.85948774296941
 20
268.78335464630197
 30
0.0
 11
394.85948774296941
 21
268.78335464630197
 31
0.0
  0
CIRCLE
  5
2130
  8
0
  6
CONTINUOUS
 10
388.85948774296941
 20
254.783354646302
 30
0.0
 40
2.75
  0
CIRCLE
  5
2131
  8
HIDDEN
  6
HIDDEN
 10
388.85948774296941
 20
254.783354646302
 30
0.0
 40
4.75
  0
LINE
  5
2132
  8
CENTER
  6
CENTER
 10
371.85948774296941
 20
247.78335464630209
 30
0.0
 11
385.85948774296941
 21
247.78335464630209
 31
0.0
  0
POLYLINE
  5
2133
  8
0
  6
CONTINUOUS
 66
     1
 10
0.0
 20
0.0
 30
0.0
 70
     1
  0
VERTEX
  5
21D4
  8
0
  6
CONTINUOUS
 10
377.70478720458942
 20
249.78335464630209
 30
0.0
  0
VERTEX
  5
21D5
  8
0
  6
CONTINUOUS
 10
376.55008666621131
 20
247.78335464630209
 30
0.0
  0
VERTEX
  5
21D6
  8
0
  6
CONTINUOUS
 10
377.70478720458942
 20
245.783354646302
 30
0.0
  0
VERTEX
  5
21D7
  8
0
  6
CONTINUOUS
 10
380.01418828134939
 20
245.783354646302
 30
0.0
  0
VERTEX
  5
21D8
  8
0
  6
CONTINUOUS
 10
381.16888881972761
 20
247.78335464630209
 30
0.0
  0
VERTEX
  5
21D9
  8
0
  6
CONTINUOUS
 10
380.01418828134939
 20
249.78335464630209
 30
0.0
  0
SEQEND
  5
21DA
  8
0
  6
CONTINUOUS
  0
CIRCLE
  5
2134
  8
0
  6
CONTINUOUS
 10
378.85948774296941
 20
247.78335464630209
 30
0.0
 40
3.9035796766743651
  0
CIRCLE
  5
2135
  8
0
  6
CONTINUOUS
 10
378.85948774296941
 20
247.78335464630209
 30
0.0
 40
4.25
  0
LINE
  5
2136
  8
CENTER
  6
CENTER
 10
371.85948774296941
 20
263.78335464630197
 30
0.0
 11
385.85948774296941
 21
263.78335464630197
 31
0.0
  0
POLYLINE
  5
2137
  8
0
  6
CONTINUOUS
 66
     1
 10
0.0
 20
0.0
 30
0.0
 70
     1
  0
VERTEX
  5
21DB
  8
0
  6
CONTINUOUS
 10
377.70478720458942
 20
265.78335464630197
 30
0.0
  0
VERTEX
  5
21DC
  8
0
  6
CONTINUOUS
 10
376.55008666621131
 20
263.78335464630197
 30
0.0
  0
VERTEX
  5
21DD
  8
0
  6
CONTINUOUS
 10
377.70478720458942
 20
261.78335464630209
 30
0.0
  0
VERTEX
  5
21DE
  8
0
  6
CONTINUOUS
 10
380.01418828134939
 20
261.78335464630209
 30
0.0
  0
VERTEX
  5
21DF
  8
0
  6
CONTINUOUS
 10
381.16888881972761
 20
263.78335464630197
 30
0.0
  0
VERTEX
  5
21E0
  8
0
  6
CONTINUOUS
 10
380.01418828134939
 20
265.78335464630197
 30
0.0
  0
SEQEND
  5
21E1
  8
0
  6
CONTINUOUS
  0
CIRCLE
  5
2138
  8
0
  6
CONTINUOUS
 10
378.85948774296941
 20
263.78335464630197
 30
0.0
 40
3.9035796766743651
  0
CIRCLE
  5
2139
  8
0
  6
CONTINUOUS
 10
378.85948774296941
 20
263.78335464630197
 30
0.0
 40
4.25
  0
ARC
  5
213A
  8
0
  6
CONTINUOUS
 62
     2
 10
388.85948774296941
 20
268.78335464630197
 30
0.0
 40
2.4999999999991238
 50
255.0000000000004
 51
194.9999999999994
  0
CIRCLE
  5
213B
  8
0
  6
CONTINUOUS
 10
388.85948774296941
 20
268.78335464630197
 30
0.0
 40
2.1000000000000001
  0
LINE
  5
213C
  8
DIM
  6
CONTINUOUS
 10
397.60948774296941
 20
254.783354646302
 30
0.0
 11
406.85948774296929
 21
254.783354646302
 31
0.0
  0
SOLID
  5
213D
  8
DIM
  6
CONTINUOUS
 10
405.35948774296929
 20
251.78335464630209
 30
0.0
 11
406.35948774296929
 21
251.78335464630209
 31
0.0
 12
405.85948774296929
 22
254.783354646302
 32
0.0
 13
405.85948774296929
 23
254.783354646302
 33
0.0
  0
LINE
  5
213E
  8
DIM
  6
CONTINUOUS
 10
395.85948774296941
 20
268.78335464630197
 30
0.0
 11
414.85948774296929
 21
268.78335464630197
 31
0.0
  0
SOLID
  5
213F
  8
DIM
  6
CONTINUOUS
 10
413.35948774296929
 20
265.78335464630197
 30
0.0
 11
414.35948774296929
 21
265.78335464630197
 31
0.0
 12
413.85948774296929
 22
268.78335464630197
 32
0.0
 13
413.85948774296929
 23
268.78335464630197
 33
0.0
  0
TEXT
  5
2140
  8
DIM
  6
CONTINUOUS
 10
363.37530080306681
 20
284.97367499331523
 30
0.0
 40
3.0
  1
4-M5
  7
ROMANSS
 72
     2
 11
375.37530080306681
 21
286.47367499331523
 31
0.0
 73
     2
  0
LINE
  5
2141
  8
DIM
  6
CONTINUOUS
 10
376.37530080306681
 20
283.47367499331523
 30
0.0
 11
364.87530080306681
 21
283.47367499331523
 31
0.0
  0
LINE
  5
2142
  8
0
  6
CONTINUOUS
 10
361.85948774296941
 20
273.78335464630197
 30
0.0
 11
395.85948774296941
 21
273.78335464630197
 31
0.0
  0
LINE
  5
2143
  8
0
  6
CONTINUOUS
 10
359.85948774296941
 20
275.78335464630197
 30
0.0
 11
397.85948774296941
 21
275.78335464630197
 31
0.0
  0
LINE
  5
2144
  8
DIM
  6
CONTINUOUS
 10
385.9424815950033
 20
273.44444244184371
 30
0.0
 11
379.37530080306681
 21
283.47367499331523
 31
0.0
  0
LINE
  5
2145
  8
DIM
  6
CONTINUOUS
 10
379.37530080306681
 20
283.47367499331523
 30
0.0
 11
376.37530080306681
 21
283.47367499331523
 31
0.0
  0
LINE
  5
2146
  8
DIM
  6
CONTINUOUS
 10
273.55255289014048
 20
349.40536552846339
 30
0.0
 11
302.86227310775053
 21
349.40536552846339
 31
0.0
  0
LINE
  5
2147
  8
CENTER
  6
CENTER
 10
233.86227310775061
 20
355.40536552846339
 30
0.0
 11
233.86227310775061
 21
343.40536552846339
 31
0.0
  0
LINE
  5
2148
  8
CENTER
  6
CENTER
 10
266.36227310775058
 20
355.40536552846339
 30
0.0
 11
266.36227310775058
 21
343.40536552846339
 31
0.0
  0
ARC
  5
2149
  8
0
 62
     2
 10
266.36227310775058
 20
349.40536552846339
 30
0.0
 40
3.0000000000000031
 50
255.00000000000551
 51
194.9999999999944
  0
CIRCLE
  5
214A
  8
0
 10
266.36227310775058
 20
349.40536552846339
 30
0.0
 40
2.5
  0
LINE
  5
214B
  8
CENTER
  6
CENTER
 10
260.36227310775058
 20
349.40536552846339
 30
0.0
 11
272.36227310775058
 21
349.40536552846339
 31
0.0
  0
SOLID
  5
214C
  8
DIM
  6
CONTINUOUS
 10
301.36227310775053
 20
346.40536552846339
 30
0.0
 11
302.36227310775053
 21
346.40536552846339
 31
0.0
 12
301.86227310775053
 22
349.40536552846339
 32
0.0
 13
301.86227310775053
 23
349.40536552846339
 33
0.0
  0
LINE
  5
214D
  8
HIDDEN
  6
HIDDEN
 10
281.86227310775058
 20
344.40536552846339
 30
0.0
 11
293.86227310775058
 21
344.40536552846339
 31
0.0
  0
LINE
  5
214E
  8
HIDDEN
  6
HIDDEN
 10
281.86227310775058
 20
343.90536552846339
 30
0.0
 11
293.86227310775058
 21
343.90536552846339
 31
0.0
  0
LINE
  5
214F
  8
HIDDEN
  6
HIDDEN
 10
281.86227310775058
 20
348.90536552846339
 30
0.0
 11
293.86227310775058
 21
348.90536552846339
 31
0.0
  0
LINE
  5
2150
  8
HIDDEN
  6
HIDDEN
 10
281.86227310775058
 20
348.40536552846339
 30
0.0
 11
293.86227310775058
 21
348.40536552846339
 31
0.0
  0
LINE
  5
2151
  8
HIDDEN
  6
HIDDEN
 10
293.86227310775058
 20
343.65536552846351
 30
0.0
 11
287.26227310775062
 21
343.65536552846339
 31
0.0
  0
LINE
  5
2152
  8
HIDDEN
  6
HIDDEN
 10
293.86227310775058
 20
349.15536552846328
 30
0.0
 11
287.26227310775062
 21
349.15536552846339
 31
0.0
  0
LINE
  5
2153
  8
CENTER
  6
CENTER
 10
278.86227310775058
 20
346.40536552846339
 30
0.0
 11
296.86227310775058
 21
346.40536552846339
 31
0.0
  0
LINE
  5
2154
  8
0
  6
CONTINUOUS
 10
281.86227310775058
 20
353.40536552846339
 30
0.0
 11
293.86227310775058
 21
353.40536552846339
 31
0.0
  0
LINE
  5
2155
  8
HIDDEN
  6
HIDDEN
 10
287.26227310775062
 20
351.15536552846339
 30
0.0
 11
287.26227310775062
 21
341.65536552846339
 31
0.0
  0
LINE
  5
2156
  8
HIDDEN
  6
HIDDEN
 10
287.26227310775062
 20
341.65536552846339
 30
0.0
 11
281.86227310775058
 21
341.65536552846339
 31
0.0
  0
LINE
  5
2157
  8
0
  6
CONTINUOUS
 10
278.86227310775058
 20
341.40536552846339
 30
0.0
 11
281.86227310775058
 21
341.40536552846339
 31
0.0
  0
LINE
  5
2158
  8
HIDDEN
  6
HIDDEN
 10
287.26227310775062
 20
351.15536552846339
 30
0.0
 11
281.86227310775058
 21
351.15536552846339
 31
0.0
  0
LINE
  5
2159
  8
0
  6
CONTINUOUS
 10
278.86227310775058
 20
352.90536552846339
 30
0.0
 11
281.8622731077507
 21
352.90536552846339
 31
0.0
  0
TEXT
  5
215A
  8
DIM
  6
CONTINUOUS
 10
428.46359601514592
 20
207.56373612045709
 30
0.0
 40
3.0
  1
2-%%c6H7
  7
ROMANSS
 72
     2
 11
445.7493103008602
 21
209.06373612045701
 31
0.0
 73
     2
  0
LINE
  5
215B
  8
DIM
  6
CONTINUOUS
 10
446.74931030086009
 20
206.06373612045701
 30
0.0
 11
427.19980322909578
 21
206.06373612045701
 31
0.0
  0
SOLID
  5
215C
  8
DIM
  6
CONTINUOUS
 10
421.35948774296929
 20
272.78335464630209
 30
0.0
 11
422.35948774296929
 21
272.78335464630209
 31
0.0
 12
421.85948774296929
 22
275.78335464630197
 32
0.0
 13
421.85948774296929
 23
275.78335464630197
 33
0.0
  0
ENDSEC
  0
EOF
