  0
SECTION
  2
HEADER
  9
$ACADVER
  1
AC1009
  9
$INSBASE
 10
0.0
 20
0.0
 30
0.0
  9
$EXTMIN
 10
26.99892728161057
 20
-8.9019416634678237
 30
-0.0000000349181948
  9
$EXTMAX
 10
601.24213608555283
 20
375.51168262434652
 30
0.0000000814935746
  9
$LIMMIN
 10
0.0
 20
0.0
  9
$LIMMAX
 10
594.0
 20
420.0
  9
$ORTHOMODE
 70
     0
  9
$REGENMODE
 70
     1
  9
$FILLMODE
 70
     1
  9
$QTEXTMODE
 70
     0
  9
$MIRRTEXT
 70
     1
  9
$DRAGMODE
 70
     2
  9
$LTSCALE
 40
1.0
  9
$OSMODE
 70
    39
  9
$ATTMODE
 70
     1
  9
$TEXTSIZE
 40
3.0
  9
$TRACEWID
 40
0.05
  9
$TEXTSTYLE
  7
ITALICT
  9
$CLAYER
  8
0
  9
$CELTYPE
  6
CONTINUOUS
  9
$CECOLOR
 62
   256
  9
$DIMSCALE
 40
1.0
  9
$DIMASZ
 40
3.0
  9
$DIMEXO
 40
1.0
  9
$DIMDLI
 40
1.4824161510814720E+016
  9
$DIMRND
 40
0.0
  9
$DIMDLE
 40
0.0
  9
$DIMEXE
 40
1.0
  9
$DIMTP
 40
0.15
  9
$DIMTM
 40
-0.1
  9
$DIMTXT
 40
3.0
  9
$DIMCEN
 40
2.0
  9
$DIMTSZ
 40
0.0
  9
$DIMTOL
 70
     0
  9
$DIMLIM
 70
     0
  9
$DIMTIH
 70
     0
  9
$DIMTOH
 70
     0
  9
$DIMSE1
 70
     0
  9
$DIMSE2
 70
     0
  9
$DIMTAD
 70
     1
  9
$DIMZIN
 70
     0
  9
$DIMBLK
  1

  9
$DIMASO
 70
     0
  9
$DIMSHO
 70
     0
  9
$DIMPOST
  1

  9
$DIMAPOST
  1

  9
$DIMALT
 70
     0
  9
$DIMALTD
 70
     2
  9
$DIMALTF
 40
25.399999999999999
  9
$DIMLFAC
 40
1.0
  9
$DIMTOFL
 70
     1
  9
$DIMTVP
 40
1.0
  9
$DIMTIX
 70
     0
  9
$DIMSOXD
 70
     0
  9
$DIMSAH
 70
     0
  9
$DIMBLK1
  1

  9
$DIMBLK2
  1

  9
$DIMSTYLE
  2
STANDARD
  9
$DIMCLRD
 70
     0
  9
$DIMCLRE
 70
     0
  9
$DIMCLRT
 70
     0
  9
$DIMTFAC
 40
1.0
  9
$DIMGAP
 40
0.09
  9
$LUNITS
 70
     2
  9
$LUPREC
 70
     2
  9
$SKETCHINC
 40
0.1
  9
$FILLETRAD
 40
0.75
  9
$AUNITS
 70
     0
  9
$AUPREC
 70
     2
  9
$MENU
  1
ACAD
  9
$ELEVATION
 40
0.0
  9
$PELEVATION
 40
0.0
  9
$THICKNESS
 40
0.0
  9
$LIMCHECK
 70
     0
  9
$BLIPMODE
 70
     0
  9
$CHAMFERA
 40
0.5
  9
$CHAMFERB
 40
0.5
  9
$SKPOLY
 70
     1
  9
$TDCREATE
 40
2450580.7034460641
  9
$TDUPDATE
 40
2451928.4400854399
  9
$TDINDWG
 40
0.101913125
  9
$TDUSRTIMER
 40
0.101913125
  9
$USRTIMER
 70
     1
  9
$ANGBASE
 50
0.0
  9
$ANGDIR
 70
     0
  9
$PDMODE
 70
     0
  9
$PDSIZE
 40
0.0
  9
$PLINEWID
 40
0.0
  9
$COORDS
 70
     2
  9
$SPLFRAME
 70
     0
  9
$SPLINETYPE
 70
     6
  9
$SPLINESEGS
 70
     8
  9
$ATTDIA
 70
     0
  9
$ATTREQ
 70
     1
  9
$HANDLING
 70
 12289
  9
$HANDSEED
  5
2190
  9
$SURFTAB1
 70
     6
  9
$SURFTAB2
 70
     6
  9
$SURFTYPE
 70
     6
  9
$SURFU
 70
     6
  9
$SURFV
 70
     6
  9
$UCSNAME
  2

  9
$UCSORG
 10
0.0
 20
0.0
 30
0.0
  9
$UCSXDIR
 10
1.0
 20
0.0
 30
0.0
  9
$UCSYDIR
 10
0.0
 20
1.0
 30
0.0
  9
$PUCSNAME
  2

  9
$PUCSORG
 10
0.0
 20
0.0
 30
0.0
  9
$PUCSXDIR
 10
1.0
 20
0.0
 30
0.0
  9
$PUCSYDIR
 10
0.0
 20
1.0
 30
0.0
  9
$USERI1
 70
     0
  9
$USERI2
 70
-31485
  9
$USERI3
 70
     0
  9
$USERI4
 70
     0
  9
$USERI5
 70
     0
  9
$USERR1
 40
0.0
  9
$USERR2
 40
0.0
  9
$USERR3
 40
0.0
  9
$USERR4
 40
0.0
  9
$USERR5
 40
0.0
  9
$WORLDVIEW
 70
     1
  9
$SHADEDGE
 70
     3
  9
$SHADEDIF
 70
    70
  9
$TILEMODE
 70
     1
  9
$MAXACTVP
 70
    64
  9
$PLIMCHECK
 70
     0
  9
$PEXTMIN
 10
1.0000000000000000E+020
 20
1.0000000000000000E+020
 30
1.0000000000000000E+020
  9
$PEXTMAX
 10
-1.0000000000000000E+020
 20
-1.0000000000000000E+020
 30
-1.0000000000000000E+020
  9
$PLIMMIN
 10
0.0
 20
0.0
  9
$PLIMMAX
 10
12.0
 20
9.0
  9
$UNITMODE
 70
     0
  9
$VISRETAIN
 70
     1
  9
$PLINEGEN
 70
     0
  9
$PSLTSCALE
 70
     0
  0
ENDSEC
  0
SECTION
  2
TABLES
  0
TABLE
  2
VPORT
 70
     4
  0
VPORT
  2
*ACTIVE
 70
     0
 10
0.0
 20
0.0
 11
1.0
 21
1.0
 12
314.12053168358159
 22
183.30487048043929
 13
0.0
 23
0.0
 14
1.0
 24
1.0
 15
0.0
 25
0.0
 16
0.0
 26
0.0
 36
1.0
 17
0.0
 27
0.0
 37
0.0
 40
388.65348043804761
 41
1.7274401473296499
 42
1.0
 43
0.0
 44
0.0
 50
0.0
 51
0.0
 71
     0
 72
   100
 73
     1
 74
     1
 75
     0
 76
     0
 77
     0
 78
     0
  0
ENDTAB
  0
TABLE
  2
LTYPE
 70
     3
  0
LTYPE
  2
CONTINUOUS
 70
     0
  3
Solid line
 72
    65
 73
     0
 40
0.0
  0
LTYPE
  2
CENTER
 70
     0
  3
_______________ _ _______________ _ ___________
 72
    65
 73
     4
 40
18.0
 49
15.0
 49
-1.0
 49
1.0
 49
-1.0
  0
LTYPE
  2
HIDDEN
 70
     0
  3
___ ___ ___ ___ ___ ___ ___ ___ ___ ___ 
 72
    65
 73
     2
 40
4.0
 49
3.0
 49
-1.0
  0
ENDTAB
  0
TABLE
  2
LAYER
 70
     7
  0
LAYER
  2
0
 70
     0
 62
     7
  6
CONTINUOUS
  0
LAYER
  2
DIM
 70
     0
 62
     5
  6
CONTINUOUS
  0
LAYER
  2
HIDDEN
 70
     0
 62
     6
  6
HIDDEN
  0
LAYER
  2
CENTER
 70
     0
 62
     1
  6
CENTER
  0
LAYER
  2
LOGO
 70
     0
 62
     7
  6
CONTINUOUS
  0
ENDTAB
  0
TABLE
  2
STYLE
 70
     8
  0
STYLE
  2
STANDARD
 70
     0
 40
0.0
 41
1.0
 50
0.0
 71
     0
 42
3.0
  3
txt
  4

  0
STYLE
  2
ITALICT
 70
     0
 40
0.0
 41
1.0
 50
0.0
 71
     0
 42
3.0
  3
ITALICT.SHX
  4

  0
STYLE
  2
ROMANS1
 70
     0
 40
0.0
 41
1.0
 50
0.0
 71
     0
 42
3.0
  3
ROMANS.SHX
  4

  0
STYLE
  2
ROMANSS
 70
     0
 40
0.0
 41
1.0
 50
0.0
 71
     0
 42
3.0
  3
ROMANSS.SHX
  4
LMP
  0
STYLE
  2
CHINESET
 70
     0
 40
0.0
 41
1.0
 50
0.0
 71
     0
 42
4.0
  3
C:\r13\com\fonts\simplex.shx
  4
C:\r13\com\fonts\chineset.shx
  0
STYLE
  2
LOGO
 70
     0
 40
0.0
 41
1.0
 50
0.0
 71
     0
 42
5.0
  3
txt
  4

  0
ENDTAB
  0
TABLE
  2
VIEW
 70
     0
  0
ENDTAB
  0
TABLE
  2
UCS
 70
     0
  0
ENDTAB
  0
TABLE
  2
APPID
 70
     2
  0
APPID
  2
ACAD
 70
     0
  0
APPID
  2
TCAD
 70
     0
  0
ENDTAB
  0
TABLE
  2
DIMSTYLE
 70
     1
  0
DIMSTYLE
  2
STANDARD
 70
     0
  3

  4

  5

  6

  7

 40
1.0
 41
0.18
 42
0.0625
 43
0.38
 44
0.18
 45
0.0
 46
0.0
 47
0.0
 48
0.0
140
0.18
141
0.09
142
0.0
143
25.399999999999999
144
1.0
145
0.0
146
1.0
147
0.09
 71
     0
 72
     0
 73
     1
 74
     1
 75
     0
 76
     0
 77
     0
 78
     0
170
     0
171
     2
172
     0
173
     0
174
     0
175
     0
176
     0
177
     0
178
     0
  0
ENDTAB
  0
ENDSEC
  0
SECTION
  2
BLOCKS
  0
BLOCK
  8
0
  2
$MODEL_SPACE
 70
     0
 10
0.0
 20
0.0
 30
0.0
  3
$MODEL_SPACE
  1

  0
ENDBLK
  5
41
  8
0
  0
BLOCK
 67
     1
  8
0
  2
$PAPER_SPACE
 70
     0
 10
0.0
 20
0.0
 30
0.0
  3
$PAPER_SPACE
  1

  0
ENDBLK
  5
3F
 67
     1
  8
0
  0
BLOCK
  8
0
  2
HB_T2-M10
 70
     0
 10
0.0
 20
0.0
 30
0.0
  3
HB_T2-M10
  1

  0
POLYLINE
  5
A99
  8
0
  6
CONTINUOUS
 66
     1
 10
0.0
 20
0.0
 30
0.0
  0
VERTEX
  5
2107
  8
0
  6
CONTINUOUS
 10
-7.0
 20
0.0
 30
0.0
  0
VERTEX
  5
2108
  8
0
  6
CONTINUOUS
 10
-7.0
 20
8.25
 30
0.0
  0
VERTEX
  5
2109
  8
0
  6
CONTINUOUS
 10
-6.1050808314084861
 20
9.7999999999992724
 30
0.0
  0
VERTEX
  5
210A
  8
0
  6
CONTINUOUS
 10
0.0
 20
9.7999999999992724
 30
0.0
  0
VERTEX
  5
210B
  8
0
  6
CONTINUOUS
 10
0.0
 20
0.0
 30
0.0
  0
SEQEND
  5
210C
  8
0
  6
CONTINUOUS
  0
LINE
  5
AA0
  8
0
  6
CONTINUOUS
 10
-6.139999999999417
 20
5.0
 30
0.0
 11
0.0
 21
5.0
 31
0.0
  0
POLYLINE
  5
AA1
  8
0
  6
CONTINUOUS
 66
     1
 10
0.0
 20
0.0
 30
0.0
  0
VERTEX
  5
210D
  8
0
  6
CONTINUOUS
 10
-6.5525404157033327
 20
9.0249999999996362
 30
0.0
 42
0.3158477786506792
  0
VERTEX
  5
210E
  8
0
  6
CONTINUOUS
 10
-6.139999999999417
 20
5.0
 30
0.0
 42
0.085170391833105
  0
VERTEX
  5
210F
  8
0
  6
CONTINUOUS
 10
-7.0
 20
0.0
 30
0.0
  0
SEQEND
  5
2110
  8
0
  6
CONTINUOUS
  0
POLYLINE
  5
AA6
  8
0
  6
CONTINUOUS
 66
     1
 10
0.0
 20
0.0
 30
0.0
  0
VERTEX
  5
2111
  8
0
  6
CONTINUOUS
 10
-7.0
 20
0.0
 30
0.0
  0
VERTEX
  5
2112
  8
0
  6
CONTINUOUS
 10
-7.0
 20
-8.25
 30
0.0
  0
VERTEX
  5
2113
  8
0
  6
CONTINUOUS
 10
-6.1050808314084861
 20
-9.7999999999992724
 30
0.0
  0
VERTEX
  5
2114
  8
0
  6
CONTINUOUS
 10
0.0
 20
-9.7999999999992724
 30
0.0
  0
VERTEX
  5
2115
  8
0
  6
CONTINUOUS
 10
0.0
 20
0.0
 30
0.0
  0
SEQEND
  5
2116
  8
0
  6
CONTINUOUS
  0
LINE
  5
AAD
  8
0
  6
CONTINUOUS
 10
-6.139999999999417
 20
-5.0
 30
0.0
 11
0.0
 21
-5.0
 31
0.0
  0
POLYLINE
  5
AAE
  8
0
  6
CONTINUOUS
 66
     1
 10
0.0
 20
0.0
 30
0.0
  0
VERTEX
  5
2117
  8
0
  6
CONTINUOUS
 10
-6.5525404157033327
 20
-9.0249999999996362
 30
0.0
 42
-0.3158477786506792
  0
VERTEX
  5
2118
  8
0
  6
CONTINUOUS
 10
-6.139999999999417
 20
-5.0
 30
0.0
 42
-0.085170391833105
  0
VERTEX
  5
2119
  8
0
  6
CONTINUOUS
 10
-7.0
 20
0.0
 30
0.0
  0
SEQEND
  5
211A
  8
0
  6
CONTINUOUS
  0
ENDBLK
  5
AB3
  8
0
  0
ENDSEC
  0
SECTION
  2
ENTITIES
  0
LINE
  5
B55
  8
0
 62
     4
 10
445.79984111791759
 20
375.48266814702578
 30
0.0
 11
445.79984111791759
 21
67.0
 31
0.0
  0
LINE
  5
B56
  8
0
 62
     4
 10
27.0
 20
67.0
 30
0.0
 11
27.0
 21
375.48266814702578
 31
0.0
  0
LINE
  5
B57
  8
0
 62
     4
 10
601.20886897220316
 20
67.000000000000057
 30
0.0
 11
27.0
 21
67.0
 31
0.0
  0
LINE
  5
B59
  8
0
 62
     4
 10
27.0
 20
375.48266814702578
 30
0.0
 11
601.20886897220316
 21
375.48266814702578
 31
0.0
  0
LINE
  5
EF5
  8
DIM
 10
474.6761535533019
 20
195.6989162137838
 30
0.0
 11
532.67615355330202
 21
195.69891621378369
 31
0.0
  0
LINE
  5
EF6
  8
DIM
 10
464.6761535533019
 20
187.69891621378369
 30
0.0
 11
542.67615355330202
 21
187.69891621378369
 31
0.0
  0
LINE
  5
EF7
  8
CENTER
  6
CENTER
 10
462.6761535533019
 20
271.80897210128518
 30
0.0
 11
544.61657278022187
 21
271.80897210128518
 31
0.0
  0
LINE
  5
EF8
  8
CENTER
  6
CENTER
 10
515.97300257848406
 20
245.69891621378369
 30
0.0
 11
544.67615355330202
 21
245.69891621378369
 31
0.0
  0
LINE
  5
EF9
  8
CENTER
  6
CENTER
 10
462.1283488484213
 20
234.69891621378369
 30
0.0
 11
544.67615355330202
 21
234.69891621378369
 31
0.0
  0
LINE
  5
EFA
  8
0
 10
466.6761535533019
 20
203.6989162137838
 30
0.0
 11
540.67615355330202
 21
203.69891621378369
 31
0.0
  0
LINE
  5
EFB
  8
0
 10
519.67615355330202
 20
251.69891621378369
 30
0.0
 11
531.67615355330202
 21
251.69891621378369
 31
0.0
  0
LINE
  5
EFC
  8
0
 10
465.17615355330202
 20
277.80897210128518
 30
0.0
 11
542.17615355330202
 21
277.80897210128518
 31
0.0
  0
LINE
  5
EFD
  8
0
 10
465.17615355330202
 20
265.80897210128518
 30
0.0
 11
542.17615355330202
 21
265.80897210128518
 31
0.0
  0
LINE
  5
EFE
  8
DIM
 10
474.6761535533019
 20
226.23024278705259
 30
0.0
 11
474.6761535533019
 21
194.69891621378369
 31
0.0
  0
LINE
  5
EFF
  8
0
 10
518.67615355330202
 20
221.6989162137838
 30
0.0
 11
518.67615355330202
 21
250.69891621378369
 31
0.0
  0
LINE
  5
F00
  8
0
 10
488.6761535533019
 20
221.6989162137838
 30
0.0
 11
488.67615355330202
 21
250.69891621378369
 31
0.0
  0
LINE
  5
F01
  8
CENTER
  6
CENTER
 10
503.6761535533019
 20
200.69891621378369
 30
0.0
 11
503.6761535533019
 21
252.69891621378369
 31
0.0
  0
LINE
  5
F02
  8
0
 10
464.67615355330202
 20
205.6989162137838
 30
0.0
 11
464.6761535533019
 21
251.19891621378369
 31
0.0
  0
SOLID
  5
F03
  8
DIM
 10
477.67615355330202
 20
196.19891621378369
 30
0.0
 11
477.67615355330202
 21
195.19891621378369
 31
0.0
 12
474.6761535533019
 22
195.69891621378369
 32
0.0
 13
474.6761535533019
 23
195.69891621378369
 33
0.0
  0
LINE
  5
F04
  8
DIM
 10
464.6761535533019
 20
202.9553873747175
 30
0.0
 11
464.6761535533019
 21
186.69891621378369
 31
0.0
  0
SOLID
  5
F05
  8
DIM
 10
467.67615355330179
 20
188.19891621378369
 30
0.0
 11
467.67615355330179
 21
187.19891621378369
 31
0.0
 12
464.6761535533019
 22
187.69891621378369
 32
0.0
 13
464.6761535533019
 23
187.69891621378369
 33
0.0
  0
LINE
  5
F06
  8
0
 10
464.67615355330202
 20
205.6989162137838
 30
0.0
 11
466.6761535533019
 21
203.6989162137838
 31
0.0
  0
TEXT
  5
F07
  8
DIM
 10
500.81901069615918
 20
188.89891621378371
 30
0.0
 40
3.0
  1
78
  7
ROMANS1
 72
     1
 11
503.67615355330202
 21
190.39891621378371
 31
0.0
 73
     2
  0
LINE
  5
F08
  8
0
 10
490.67615355330202
 20
219.6989162137838
 30
0.0
 11
516.6761535533019
 21
219.6989162137838
 31
0.0
  0
ARC
  5
F09
  8
0
 10
490.67615355330202
 20
221.6989162137838
 30
0.0
 40
2.0
 50
180.0
 51
270.0
  0
TEXT
  5
F0A
  8
DIM
 10
501.2003650753141
 20
196.96535235313121
 30
0.0
 40
3.0
  1
58
  7
ROMANS1
 72
     1
 11
504.05750793245687
 21
198.46535235313121
 31
0.0
 73
     2
  0
ARC
  5
F0B
  8
0
 10
516.6761535533019
 20
221.6989162137838
 30
0.0
 40
2.0
 50
270.0
 51
0.0
  0
LINE
  5
F0C
  8
CENTER
  6
CENTER
 10
462.67615355330179
 20
245.69891621378369
 30
0.0
 11
491.6761535533019
 21
245.69891621378369
 31
0.0
  0
LINE
  5
F0D
  8
0
 10
473.67615355330202
 20
269.30897210128518
 30
0.0
 11
475.67615355330202
 21
269.30897210128512
 31
0.0
  0
LINE
  5
F0E
  8
0
 10
473.67615355330202
 20
274.30897210128518
 30
0.0
 11
475.67615355330202
 21
274.30897210128518
 31
0.0
  0
LINE
  5
F0F
  8
0
 10
473.67615355330202
 20
243.1989162137838
 30
0.0
 11
475.67615355330202
 21
243.1989162137838
 31
0.0
  0
LINE
  5
F10
  8
0
 10
473.67615355330202
 20
248.19891621378369
 30
0.0
 11
475.67615355330202
 21
248.19891621378369
 31
0.0
  0
ARC
  5
F11
  8
0
 10
474.6761535533019
 20
234.69891621378369
 30
0.0
 40
5.0
 50
101.53695903281491
 51
78.463040967185051
  0
LINE
  5
F12
  8
0
 10
473.67615355330202
 20
239.59789569935009
 30
0.0
 11
473.67615355330202
 21
251.69891621378369
 31
0.0
  0
LINE
  5
F13
  8
CENTER
  6
CENTER
 10
474.6761535533019
 20
226.69891621378369
 30
0.0
 11
474.6761535533019
 21
252.69891621378369
 31
0.0
  0
LINE
  5
F14
  8
0
 10
465.1761535533019
 20
251.69891621378369
 30
0.0
 11
473.67615355330202
 21
251.69891621378369
 31
0.0
  0
LINE
  5
F15
  8
0
 10
464.6761535533019
 20
251.19891621378369
 30
0.0
 11
465.1761535533019
 21
251.69891621378369
 31
0.0
  0
LINE
  5
F16
  8
0
 10
473.67615355330202
 20
265.80897210128518
 30
0.0
 11
473.67615355330202
 21
277.80897210128518
 31
0.0
  0
LINE
  5
F17
  8
CENTER
  6
CENTER
 10
474.6761535533019
 20
263.80897210128518
 30
0.0
 11
474.6761535533019
 21
279.80897210128518
 31
0.0
  0
LINE
  5
F18
  8
0
 10
464.67615355330202
 20
266.30897210128518
 30
0.0
 11
464.67615355330202
 21
277.30897210128518
 31
0.0
  0
LINE
  5
F19
  8
0
 10
464.67615355330202
 20
266.30897210128518
 30
0.0
 11
465.17615355330202
 21
265.80897210128518
 31
0.0
  0
LINE
  5
F1A
  8
0
 10
464.67615355330202
 20
277.30897210128518
 30
0.0
 11
465.17615355330202
 21
277.80897210128518
 31
0.0
  0
LINE
  5
F1B
  8
0
 10
475.67615355330202
 20
239.59789569935009
 30
0.0
 11
475.67615355330202
 21
251.69891621378369
 31
0.0
  0
LINE
  5
F1C
  8
0
 10
475.67615355330202
 20
251.69891621378369
 30
0.0
 11
487.6761535533019
 21
251.69891621378369
 31
0.0
  0
LINE
  5
F1D
  8
0
 10
487.6761535533019
 20
251.69891621378369
 30
0.0
 11
488.67615355330202
 21
250.69891621378369
 31
0.0
  0
LINE
  5
F1E
  8
0
 10
518.67615355330202
 20
250.69891621378369
 30
0.0
 11
519.67615355330202
 21
251.69891621378369
 31
0.0
  0
LINE
  5
F1F
  8
0
 10
475.67615355330202
 20
265.80897210128518
 30
0.0
 11
475.67615355330202
 21
277.80897210128518
 31
0.0
  0
LINE
  5
F20
  8
0
 10
488.67615355330202
 20
265.80897210128518
 30
0.0
 11
488.67615355330202
 21
277.80897210128518
 31
0.0
  0
LINE
  5
F21
  8
0
 10
518.67615355330202
 20
265.80897210128518
 30
0.0
 11
518.67615355330202
 21
277.80897210128518
 31
0.0
  0
LINE
  5
F22
  8
CENTER
  6
CENTER
 10
503.6761535533019
 20
263.80897210128518
 30
0.0
 11
503.6761535533019
 21
280.43489939692
 31
0.0
  0
LINE
  5
F23
  8
DIM
 10
532.67615355330202
 20
226.24710318186399
 30
0.0
 11
532.67615355330202
 21
194.69891621378369
 31
0.0
  0
LINE
  5
F24
  8
CENTER
  6
CENTER
 10
584.89283874808882
 20
200.89490253601301
 30
0.0
 11
584.89283874808882
 21
254.1219624488464
 31
0.0
  0
LINE
  5
F25
  8
0
 10
578.89283874808882
 20
203.69891621378369
 30
0.0
 11
578.89283874808882
 21
251.69891621378369
 31
0.0
  0
LINE
  5
F26
  8
0
 10
590.89283874808882
 20
203.69891621378369
 30
0.0
 11
590.89283874808882
 21
251.69891621378369
 31
0.0
  0
LINE
  5
F27
  8
DIM
 10
558.67615355330202
 20
203.6989162137838
 30
0.0
 11
558.67615355330202
 21
251.69891621378369
 31
0.0
  0
LINE
  5
F28
  8
DIM
 10
550.67615355330202
 20
203.6989162137838
 30
0.0
 11
550.67615355330202
 21
251.69891621378369
 31
0.0
  0
LINE
  5
F29
  8
0
 10
542.67615355330202
 20
205.6989162137838
 30
0.0
 11
542.67615355330202
 21
251.19891621378369
 31
0.0
  0
LINE
  5
F2A
  8
DIM
 10
542.67615355330202
 20
203.07122986574799
 30
0.0
 11
542.67615355330202
 21
186.69891621378369
 31
0.0
  0
SOLID
  5
F2B
  8
DIM
 10
539.67615355330202
 20
188.19891621378369
 30
0.0
 11
539.67615355330202
 21
187.19891621378369
 31
0.0
 12
542.67615355330202
 22
187.69891621378369
 32
0.0
 13
542.67615355330202
 23
187.69891621378369
 33
0.0
  0
LINE
  5
F2C
  8
DIM
 10
541.6761535533019
 20
203.6989162137838
 30
0.0
 11
559.67615355330202
 21
203.6989162137838
 31
0.0
  0
SOLID
  5
F2D
  8
DIM
 10
529.67615355330202
 20
196.19891621378369
 30
0.0
 11
529.67615355330202
 21
195.19891621378369
 31
0.0
 12
532.67615355330202
 22
195.69891621378369
 32
0.0
 13
532.67615355330202
 23
195.69891621378369
 33
0.0
  0
LINE
  5
F2E
  8
0
 10
542.67615355330202
 20
205.6989162137838
 30
0.0
 11
540.67615355330202
 21
203.69891621378369
 31
0.0
  0
SOLID
  5
F2F
  8
DIM
 10
551.09282021996864
 20
206.1989162137838
 30
0.0
 11
550.25948688663516
 21
206.1989162137838
 31
0.0
 12
550.67615355330202
 22
203.6989162137838
 32
0.0
 13
550.67615355330202
 23
203.6989162137838
 33
0.0
  0
SOLID
  5
F30
  8
DIM
 10
559.09282021996864
 20
206.1989162137838
 30
0.0
 11
558.25948688663539
 21
206.1989162137838
 31
0.0
 12
558.67615355330202
 22
203.6989162137838
 32
0.0
 13
558.67615355330202
 23
203.6989162137838
 33
0.0
  0
TEXT
  5
F31
  8
DIM
 10
549.77615355330192
 20
218.35342467825029
 30
0.0
 40
3.0
  1
31
 50
90.0
  7
ROMANS1
 72
     1
 11
548.27615355330192
 21
220.78199610682179
 31
0.0
 73
     2
  0
LINE
  5
F32
  8
0
 10
578.89283874808882
 20
203.69891621378369
 30
0.0
 11
590.89283874808882
 21
203.69891621378369
 31
0.0
  0
LINE
  5
F33
  8
HIDDEN
  6
HIDDEN
 10
578.89283874808882
 20
219.6989162137838
 30
0.0
 11
590.89283874808882
 21
219.6989162137838
 31
0.0
  0
LINE
  5
F34
  8
DIM
 10
543.17615355330213
 20
251.69891621378369
 30
0.0
 11
559.67615355330202
 21
251.69891621378369
 31
0.0
  0
LINE
  5
F35
  8
0
 10
531.67615355330202
 20
239.59789569935009
 30
0.0
 11
531.67615355330202
 21
251.69891621378369
 31
0.0
  0
LINE
  5
F36
  8
0
 10
533.67615355330202
 20
239.59789569935009
 30
0.0
 11
533.67615355330202
 21
251.69891621378369
 31
0.0
  0
LINE
  5
F37
  8
CENTER
  6
CENTER
 10
532.67615355330202
 20
226.69891621378369
 30
0.0
 11
532.67615355330202
 21
252.69891621378369
 31
0.0
  0
ARC
  5
F38
  8
0
 10
532.67615355330202
 20
234.69891621378369
 30
0.0
 40
5.0
 50
101.53695903281491
 51
78.463040967185051
  0
LINE
  5
F39
  8
0
 10
533.67615355330202
 20
243.1989162137838
 30
0.0
 11
531.67615355330202
 21
243.1989162137838
 31
0.0
  0
LINE
  5
F3A
  8
0
 10
533.67615355330202
 20
248.19891621378369
 30
0.0
 11
531.67615355330202
 21
248.19891621378369
 31
0.0
  0
LINE
  5
F3B
  8
0
 10
533.67615355330202
 20
251.69891621378369
 30
0.0
 11
542.17615355330202
 21
251.69891621378369
 31
0.0
  0
LINE
  5
F3C
  8
0
 10
542.17615355330202
 20
251.69891621378369
 30
0.0
 11
542.67615355330202
 21
251.19891621378369
 31
0.0
  0
TEXT
  5
F3D
  8
DIM
 10
557.77615355330204
 20
224.76291343917569
 30
0.0
 40
3.0
  1
48
 50
90.0
  7
ROMANS1
 72
     1
 11
556.27615355330204
 21
227.62005629631861
 31
0.0
 73
     2
  0
SOLID
  5
F3E
  8
DIM
 10
550.25948688663516
 20
232.19891621378369
 30
0.0
 11
551.09282021996864
 21
232.19891621378369
 31
0.0
 12
550.67615355330202
 22
234.69891621378369
 32
0.0
 13
550.67615355330202
 23
234.69891621378369
 33
0.0
  0
SOLID
  5
F3F
  8
DIM
 10
550.25948688663516
 20
237.19891621378369
 30
0.0
 11
551.09282021996864
 21
237.19891621378369
 31
0.0
 12
550.67615355330202
 22
234.69891621378369
 32
0.0
 13
550.67615355330202
 23
234.69891621378369
 33
0.0
  0
LINE
  5
F40
  8
DIM
 10
546.46137565292895
 20
234.69891621378369
 30
0.0
 11
551.67615355330202
 21
234.69891621378369
 31
0.0
  0
TEXT
  5
F41
  8
DIM
 10
549.77615355330204
 20
240.12748764235511
 30
0.0
 40
3.0
  1
17
 50
90.0
  7
ROMANS1
 72
     1
 11
548.27615355330204
 21
243.19891621378369
 31
0.0
 73
     2
  0
SOLID
  5
F42
  8
DIM
 10
550.25948688663516
 20
249.19891621378369
 30
0.0
 11
551.09282021996864
 21
249.19891621378369
 31
0.0
 12
550.67615355330202
 22
251.69891621378369
 32
0.0
 13
550.67615355330202
 23
251.69891621378369
 33
0.0
  0
SOLID
  5
F43
  8
DIM
 10
559.09282021996864
 20
249.19891621378369
 30
0.0
 11
558.25948688663539
 21
249.19891621378369
 31
0.0
 12
558.67615355330202
 22
251.69891621378369
 32
0.0
 13
558.67615355330202
 23
251.69891621378369
 33
0.0
  0
LINE
  5
F44
  8
DIM
 10
543.17615355330202
 20
277.80897210128518
 30
0.0
 11
553.98932626059275
 21
277.80897210128518
 31
0.0
  0
LINE
  5
F45
  8
DIM
 10
543.17615355330202
 20
265.80897210128518
 30
0.0
 11
553.98932626059275
 21
265.80897210128518
 31
0.0
  0
LINE
  5
F46
  8
0
 10
533.67615355330202
 20
265.80897210128518
 30
0.0
 11
533.67615355330202
 21
277.80897210128518
 31
0.0
  0
LINE
  5
F47
  8
0
 10
531.67615355330202
 20
265.80897210128518
 30
0.0
 11
531.67615355330202
 21
277.80897210128518
 31
0.0
  0
LINE
  5
F48
  8
CENTER
  6
CENTER
 10
532.67615355330202
 20
263.80897210128518
 30
0.0
 11
532.67615355330202
 21
279.80897210128518
 31
0.0
  0
LINE
  5
F49
  8
0
 10
542.67615355330202
 20
266.30897210128518
 30
0.0
 11
542.67615355330202
 21
277.30897210128518
 31
0.0
  0
LINE
  5
F4A
  8
0
 10
533.67615355330202
 20
269.30897210128518
 30
0.0
 11
531.67615355330202
 21
269.30897210128518
 31
0.0
  0
LINE
  5
F4B
  8
0
 10
542.17615355330202
 20
265.80897210128518
 30
0.0
 11
542.67615355330202
 21
266.30897210128518
 31
0.0
  0
LINE
  5
F4C
  8
0
 10
533.67615355330202
 20
274.30897210128518
 30
0.0
 11
531.67615355330202
 21
274.30897210128518
 31
0.0
  0
LINE
  5
F4D
  8
0
 10
542.17615355330202
 20
277.80897210128518
 30
0.0
 11
542.67615355330202
 21
277.30897210128518
 31
0.0
  0
TEXT
  5
F4E
  8
DIM
 10
551.78932626059282
 20
268.73754352985662
 30
0.0
 40
3.0
  1
12
 50
90.0
  7
ROMANS1
 72
     1
 11
550.28932626059282
 21
271.80897210128518
 31
0.0
 73
     2
  0
LINE
  5
F4F
  8
DIM
 10
552.98932626059275
 20
265.80897210128518
 30
0.0
 11
552.98932626059275
 21
277.80897210128518
 31
0.0
  0
SOLID
  5
F50
  8
DIM
 10
553.48932626059275
 20
268.80897210128518
 30
0.0
 11
552.48932626059275
 21
268.80897210128518
 31
0.0
 12
552.98932626059275
 22
265.80897210128518
 32
0.0
 13
552.98932626059275
 23
265.80897210128518
 33
0.0
  0
SOLID
  5
F51
  8
DIM
 10
553.48932626059275
 20
274.80897210128518
 30
0.0
 11
552.48932626059275
 21
274.80897210128518
 31
0.0
 12
552.98932626059275
 22
277.80897210128518
 32
0.0
 13
552.98932626059275
 23
277.80897210128518
 33
0.0
  0
LINE
  5
F52
  8
CENTER
  6
CENTER
 10
576.19614304206755
 20
245.69891621378369
 30
0.0
 11
593.16335082163005
 21
245.69891621378369
 31
0.0
  0
LINE
  5
F53
  8
CENTER
  6
CENTER
 10
592.89283874808882
 20
234.69891621378369
 30
0.0
 11
576.26691145245388
 21
234.69891621378369
 31
0.0
  0
LINE
  5
F54
  8
0
 10
578.89283874808882
 20
251.69891621378369
 30
0.0
 11
590.89283874808882
 21
251.69891621378369
 31
0.0
  0
CIRCLE
  5
F55
  8
0
 10
584.89283874808882
 20
245.69891621378369
 30
0.0
 40
3.75
  0
CIRCLE
  5
F56
  8
0
 10
584.89283874808882
 20
245.69891621378369
 30
0.0
 40
4.25
  0
CIRCLE
  5
F57
  8
0
 10
584.89283874808882
 20
245.69891621378369
 30
0.0
 40
4.5
  0
POLYLINE
  5
F58
  8
0
 66
     1
 10
0.0
 20
0.0
 30
0.0
 70
     1
  0
VERTEX
  5
2122
  8
0
 10
586.04753928646801
 20
247.69891621378369
 30
0.0
  0
VERTEX
  5
2123
  8
0
 10
583.73813820970952
 20
247.69891621378369
 30
0.0
  0
VERTEX
  5
2124
  8
0
 10
582.5834376713301
 20
245.69891621378369
 30
0.0
  0
VERTEX
  5
2125
  8
0
 10
583.73813820970952
 20
243.69891621378369
 30
0.0
  0
VERTEX
  5
2126
  8
0
 10
586.04753928646801
 20
243.69891621378369
 30
0.0
  0
VERTEX
  5
2127
  8
0
 10
587.20223982484708
 20
245.69891621378369
 30
0.0
  0
SEQEND
  5
2128
  8
0
  0
LINE
  5
F59
  8
0
 62
     4
 10
601.20886897220316
 20
375.48266814702578
 30
0.0
 11
601.20886897220316
 21
67.0
 31
0.0
  0
TEXT
  5
F5D
  8
LOGO
 62
     6
 10
447.78336469100748
 20
11.349801244984629
 30
0.0
 40
10.11821795545732
  1
行程
 41
0.9
  7
CHINESET
 72
     4
 11
456.889760850919
 21
16.408910222713288
 31
0.0
  0
LINE
  5
F5E
  8
LOGO
 62
     6
 10
483.01805804528351
 20
-2.562748443769109
 30
0.0
 11
430.76146365655461
 21
-2.5627484437691939
 31
0.0
  0
LINE
  5
F5F
  8
LOGO
 62
     6
 10
483.01805804528351
 20
25.262350933738531
 30
0.0
 11
430.76146365655461
 21
25.262350933738531
 31
0.0
  0
TEXT
  5
F60
  8
LOGO
  6
CONTINUOUS
 62
     6
 10
445.44653816319948
 20
0.5991946673112217
 30
0.0
 40
6.3238862221608292
  1
Stroke
 41
0.8
  7
CHINESET
 72
     4
 11
456.889760850919
 21
3.7611377783916349
 31
0.0
  0
TEXT
  5
F61
  8
LOGO
  6
CONTINUOUS
 62
     7
 10
453.8542957900649
 20
41.561028574866789
 30
0.0
 40
12.647772444321649
  1
0
  7
CHINESET
 72
     1
 11
458.0702199381721
 21
47.884914797027619
 31
0.0
 73
     2
  0
LINE
  5
F62
  8
LOGO
 62
     6
 10
477.95894906755478
 20
59.41133653340701
 30
0.0
 11
435.82057263428322
 21
59.41133653340701
 31
0.0
  0
LINE
  5
F63
  8
LOGO
 62
     6
 10
477.95894906755461
 20
36.645346133628003
 30
0.0
 11
435.82057263428322
 21
36.645346133628017
 31
0.0
  0
LINE
  5
F64
  8
LOGO
 62
     1
 10
601.20886897220316
 20
67.0
 30
0.0
 11
26.999999999999979
 21
67.0
 31
0.0
  0
LINE
  5
F65
  8
LOGO
 62
     1
 10
601.20886897220316
 20
-8.8866346659299467
 30
0.0
 11
26.999999999999979
 21
-8.8866346659299467
 31
0.0
  0
LINE
  5
F66
  8
LOGO
  6
CONTINUOUS
 62
     6
 10
171.28661747978279
 20
46.83185953459553
 30
0.0
 11
185.09966557591611
 21
48.656398432615518
 31
0.0
  0
LINE
  5
F67
  8
LOGO
  6
CONTINUOUS
 62
     6
 10
171.28661747978279
 20
41.668624079221459
 30
0.0
 11
185.09966557591611
 21
39.84408518120145
 31
0.0
  0
LINE
  5
F68
  8
LOGO
 62
     1
 10
193.9505962650457
 20
51.822673066814012
 30
0.0
 11
82.650198755015296
 21
51.822673066814012
 31
0.0
  0
LINE
  5
F69
  8
LOGO
 62
     1
 10
193.9505962650457
 20
36.645346133628017
 30
0.0
 11
82.650198755015296
 21
36.645346133628017
 31
0.0
  0
TEXT
  5
F6A
  8
LOGO
 62
     6
 10
154.74375295759231
 20
55.617004800110507
 30
0.0
 40
7.5886634665929931
  1
1 : 1
  7
CHINESET
 72
     1
 11
168.11425525587521
 21
59.41133653340701
 31
0.0
 73
     2
  0
TEXT
  5
F6B
  8
LOGO
 62
     6
 10
154.74375295759231
 20
25.262350933738539
 30
0.0
 40
7.5886634665929931
  1
m/m
  7
CHINESET
 72
     1
 11
168.11425525587521
 21
29.05668266703503
 31
0.0
 73
     2
  0
LINE
  5
F6C
  8
LOGO
 62
     1
 10
193.9505962650457
 20
21.468019200442122
 30
0.0
 11
26.999999999999911
 21
21.468019200442122
 31
0.0
  0
TEXT
  5
F6D
  8
LOGO
  6
CONTINUOUS
 62
     5
 10
29.48389768041562
 20
6.0211801912748149
 30
0.0
 40
11.382995199889489
  1
金器工業股份有限公司
 41
0.8
  7
LOGO
  0
TEXT
  5
F6E
  8
LOGO
  6
CONTINUOUS
 62
     5
 10
32.743300948854753
 20
-5.3640451832125668
 30
0.0
 40
7.5886634665929931
  1
MINDMAN INDUSTRIAL CO.,LTD
 41
0.85
  7
CHINESET
  0
SOLID
  5
F6F
  8
LOGO
 62
     5
 10
34.87336013537616
 20
34.08309205246637
 30
0.0
 11
38.154499091801462
 21
34.08309205246529
 31
0.0
 12
51.84476853068108
 22
65.197340777191073
 32
0.0
 13
55.12590748710609
 23
65.197340777188913
 33
0.0
  0
SOLID
  5
F70
  8
LOGO
 62
     5
 10
39.512211763427779
 20
34.08309205246637
 30
0.0
 11
42.793350719852789
 21
34.08309205246637
 31
0.0
 12
55.12590748710609
 22
62.708200879211972
 32
0.0
 13
51.84476853068108
 23
50.6773580389847
 33
0.0
  0
SOLID
  5
F71
  8
LOGO
 62
     2
 10
38.154499091801462
 20
34.08309205246529
 30
0.0
 11
39.512211763427779
 21
34.08309205246637
 31
0.0
 12
55.12590748710609
 22
65.197340777188913
 32
0.0
 13
56.483620158731412
 23
65.197340777188913
 33
0.0
  0
SOLID
  5
F72
  8
LOGO
 62
     5
 10
38.248118472440353
 20
28.425955920698161
 30
0.0
 11
39.379545698792839
 21
28.425955920698161
 31
0.0
 12
38.248118472440353
 22
22.768819788931001
 32
0.0
 13
39.379545698792839
 23
22.768819788931001
 33
0.0
  0
SOLID
  5
F73
  8
LOGO
 62
     5
 10
29.61288975439231
 20
22.768819788931001
 30
0.0
 11
30.744316980747101
 21
22.768819788931001
 31
0.0
 12
33.930504113415608
 22
28.425955920698161
 32
0.0
 13
35.061931339768392
 23
28.425955920698161
 33
0.0
  0
SOLID
  5
F74
  8
LOGO
 62
     5
 10
33.930504113415608
 20
28.425955920698161
 30
0.0
 11
35.061931339768392
 21
28.425955920698161
 31
0.0
 12
33.930504113415608
 22
22.768819788931001
 32
0.0
 13
35.061931339768392
 23
22.768819788931001
 33
0.0
  0
SOLID
  5
F75
  8
LOGO
 62
     5
 10
33.930504113415608
 20
22.768819788931001
 30
0.0
 11
35.061931339768392
 21
22.768819788931001
 31
0.0
 12
38.248118472440353
 22
28.425955920698161
 32
0.0
 13
39.379545698792839
 23
28.425955920698161
 33
0.0
  0
LINE
  5
F76
  8
LOGO
 62
     1
 10
26.999999999999979
 20
-8.8866346659299467
 30
0.0
 11
26.999999999999979
 21
67.0
 31
0.0
  0
TEXT
  5
F77
  8
LOGO
 62
     6
 10
88.907458318764043
 20
55.620739378588162
 30
0.0
 40
7.5886634665929931
  1
比例 Scale:
 41
0.9
  7
CHINESET
 72
     4
 11
113.0048526213872
 21
59.41133653340701
 31
0.0
  0
TEXT
  5
F78
  8
LOGO
 62
     6
 10
91.560102735881145
 20
40.546424568410792
 30
0.0
 40
7.5886634665929931
  1
投影 View:
 41
0.9
  7
CHINESET
 72
     4
 11
113.0048526213872
 21
44.234009600221007
 31
0.0
  0
TEXT
  5
F79
  8
LOGO
 62
     6
 10
92.302030101588215
 20
25.262350933738539
 30
0.0
 40
7.5886634665929931
  1
單位 Unit:
 41
0.9
  7
CHINESET
 72
     4
 11
113.0048526213872
 21
29.05668266703503
 31
0.0
  0
POLYLINE
  5
F7A
  8
LOGO
 62
     5
 66
     1
 10
0.0
 20
0.0
 30
0.0
 70
     1
 40
1.13324041101122
 41
1.13324041101122
  0
VERTEX
  5
2129
  8
LOGO
 62
     5
 10
65.795486714874684
 20
25.59738785481402
 30
0.0
 42
1.0
  0
VERTEX
  5
212A
  8
LOGO
 62
     5
 10
70.328448358919488
 20
25.59738785481402
 30
0.0
 42
1.0
  0
SEQEND
  5
212B
  8
LOGO
 62
     5
  0
LINE
  5
F7B
  8
LOGO
 62
     5
 10
76.736167510460035
 20
22.768819788931001
 30
0.0
 11
76.736167510460035
 21
26.163101467990831
 31
0.0
  0
SOLID
  5
F7C
  8
LOGO
 62
     5
 10
69.758995233707438
 20
28.425955920698161
 30
0.0
 11
70.890422460060066
 21
28.425955920698161
 31
0.0
 12
69.758995233707438
 22
22.768819788931001
 32
0.0
 13
70.890422460060066
 23
22.768819788931001
 33
0.0
  0
SOLID
  5
F7D
  8
LOGO
 62
     5
 10
72.210458605045474
 20
22.768819788931001
 30
0.0
 11
73.341885831400106
 21
22.768819788931001
 31
0.0
 12
72.210458605045474
 22
28.425955920698161
 32
0.0
 13
73.341885831400106
 23
28.425955920698161
 33
0.0
  0
SOLID
  5
F7E
  8
LOGO
 62
     5
 10
75.604740284107535
 20
26.163101467990831
 30
0.0
 11
76.736167510460035
 21
26.163101467990678
 31
0.0
 12
75.604740284107535
 22
22.768819788931001
 32
0.0
 13
76.736167510460035
 23
22.768819788931001
 33
0.0
  0
SOLID
  5
F7F
  8
LOGO
 62
     5
 10
53.541796227489613
 20
30.123096760229149
 30
0.0
 11
54.673223453842098
 21
30.123096760229149
 31
0.0
 12
53.541796227489613
 22
22.768819788931001
 32
0.0
 13
54.673223453842098
 23
22.768819788931001
 33
0.0
  0
SOLID
  5
F80
  8
LOGO
 62
     5
 10
55.993259598830811
 20
28.425955920698161
 30
0.0
 11
57.124686825183453
 21
28.425955920698161
 31
0.0
 12
55.993259598830811
 22
22.768819788931001
 32
0.0
 13
57.124686825183453
 23
22.768819788931001
 33
0.0
  0
SOLID
  5
F81
  8
LOGO
 62
     5
 10
59.387541277890733
 20
26.163101467990831
 30
0.0
 11
60.518968504243361
 21
26.163101467990831
 31
0.0
 12
59.387541277890733
 22
22.768819788931001
 32
0.0
 13
60.518968504243361
 23
22.768819788931001
 33
0.0
  0
SOLID
  5
F82
  8
LOGO
 62
     5
 10
62.781822956950784
 20
26.163101467990831
 30
0.0
 11
63.913250183303269
 21
26.163101467990831
 31
0.0
 12
62.781822956950784
 22
22.768819788928841
 32
0.0
 13
63.913250183303269
 23
22.768819788928841
 33
0.0
  0
LINE
  5
F83
  8
LOGO
 62
     1
 10
82.650198755015296
 20
21.468019200442029
 30
0.0
 11
82.650198755015296
 21
67.0
 31
0.0
  0
SOLID
  5
F84
  8
LOGO
 62
     5
 10
43.170342271674073
 20
28.425955920698161
 30
0.0
 11
44.301769498026538
 21
28.425955920698161
 31
0.0
 12
43.170342271674073
 22
22.768819788931001
 32
0.0
 13
44.301769498026538
 23
22.768819788931001
 33
0.0
  0
SOLID
  5
F85
  8
LOGO
 62
     5
 10
46.56462395073369
 20
26.163101467990831
 30
0.0
 11
47.696051177088343
 21
26.163101467990831
 31
0.0
 12
46.56462395073369
 22
22.768819788931001
 32
0.0
 13
47.696051177088343
 23
22.768819788931001
 33
0.0
  0
SOLID
  5
F86
  8
LOGO
 62
     5
 10
40.718878900332562
 20
28.425955920698161
 30
0.0
 11
41.850306126688352
 21
28.425955920698161
 31
0.0
 12
40.718878900332562
 22
22.768819788928841
 32
0.0
 13
41.850306126688352
 23
22.768819788931001
 33
0.0
  0
POLYLINE
  5
F87
  8
LOGO
 62
     5
 66
     1
 10
0.0
 20
0.0
 30
0.0
 70
     1
 40
1.13324041101122
 41
1.13324041101122
  0
VERTEX
  5
212C
  8
LOGO
 62
     5
 10
49.578287708657868
 20
25.59738785481402
 30
0.0
 42
1.0
  0
VERTEX
  5
212D
  8
LOGO
 62
     5
 10
54.111249352702828
 20
25.59738785481402
 30
0.0
 42
1.0
  0
SEQEND
  5
212E
  8
LOGO
 62
     5
  0
POLYLINE
  5
F88
  8
LOGO
 62
     5
 66
     1
 10
0.0
 20
0.0
 30
0.0
 40
1.13324041101122
 41
1.13324041101122
  0
VERTEX
  5
212F
  8
LOGO
 62
     5
 10
76.173173674270799
 20
26.163101467990849
 30
0.0
 42
1.0
  0
VERTEX
  5
2130
  8
LOGO
 62
     5
 10
72.773452441236998
 20
26.163101467990849
 30
0.0
 42
1.0
  0
SEQEND
  5
2131
  8
LOGO
 62
     5
  0
SOLID
  5
F89
  8
LOGO
 62
     5
 10
73.45502855403501
 20
34.08309205246529
 30
0.0
 11
76.736167510460035
 21
34.08309205246529
 31
0.0
 12
73.45502855403501
 22
65.197340777188913
 32
0.0
 13
76.736167510460035
 23
65.197340777191073
 33
0.0
  0
SOLID
  5
F8A
  8
LOGO
 62
     5
 10
56.483620158731412
 20
65.197340777188913
 30
0.0
 11
59.764759115156266
 21
65.197340777191073
 31
0.0
 12
56.483620158731412
 22
36.572231950443317
 32
0.0
 13
59.764759115156266
 23
48.60307479067059
 33
0.0
  0
SOLID
  5
F8B
  8
LOGO
 62
     5
 10
56.483620158731412
 20
36.572231950443317
 30
0.0
 11
59.764759115156266
 21
48.60307479067059
 31
0.0
 12
72.097315882409703
 22
65.197340777191073
 32
0.0
 13
68.816176925984408
 23
65.197340777191073
 33
0.0
  0
SOLID
  5
F8C
  8
LOGO
 62
     5
 10
72.097315882409703
 20
62.708200879211972
 30
0.0
 11
68.816176925984408
 21
50.6773580389847
 31
0.0
 12
72.097315882409703
 22
34.08309205246529
 32
0.0
 13
68.816176925984408
 23
34.08309205246529
 33
0.0
  0
SOLID
  5
F8D
  8
LOGO
 62
     2
 10
72.097315882409703
 20
65.197340777191073
 30
0.0
 11
73.45502855403501
 21
65.197340777188913
 31
0.0
 12
72.097315882409703
 22
34.08309205246529
 32
0.0
 13
73.45502855403501
 23
34.08309205246529
 33
0.0
  0
SOLID
  5
F8E
  8
LOGO
 62
     5
 10
51.84476853068108
 20
34.08309205246637
 30
0.0
 11
55.12590748710609
 21
34.08309205246637
 31
0.0
 12
51.84476853068108
 22
50.6773580389847
 32
0.0
 13
55.12590748710609
 23
62.708200879211972
 33
0.0
  0
SOLID
  5
F8F
  8
LOGO
 62
     2
 10
55.12590748710609
 20
65.197340777188913
 30
0.0
 11
56.483620158731412
 21
65.197340777188913
 31
0.0
 12
55.12590748710609
 22
34.08309205246637
 32
0.0
 13
56.483620158731412
 23
34.08309205246637
 33
0.0
  0
SOLID
  5
F90
  8
LOGO
 62
     5
 10
56.483620158731412
 20
34.08309205246637
 30
0.0
 11
59.764759115156266
 21
34.08309205246637
 31
0.0
 12
72.097315882409703
 22
62.708200879211972
 32
0.0
 13
68.816176925984408
 23
50.6773580389847
 33
0.0
  0
SOLID
  5
F91
  8
LOGO
 62
     2
 10
55.12590748710609
 20
34.08309205246637
 30
0.0
 11
56.483620158731412
 21
34.08309205246637
 31
0.0
 12
72.097315882409703
 22
65.197340777191073
 32
0.0
 13
73.45502855403501
 23
65.197340777188913
 33
0.0
  0
POLYLINE
  5
F92
  8
LOGO
 62
     5
 66
     1
 10
0.0
 20
0.0
 30
0.0
 40
1.13324041101122
 41
1.13324041101122
  0
VERTEX
  5
2132
  8
LOGO
 62
     5
 10
59.955974668053983
 20
26.163101467990849
 30
0.0
 42
1.0
  0
VERTEX
  5
2133
  8
LOGO
 62
     5
 10
56.556253435020182
 20
26.163101467990849
 30
0.0
 42
1.0
  0
SEQEND
  5
2134
  8
LOGO
 62
     5
  0
POLYLINE
  5
F93
  8
LOGO
 62
     5
 66
     1
 10
0.0
 20
0.0
 30
0.0
 40
1.13324041101122
 41
1.13324041101122
  0
VERTEX
  5
2135
  8
LOGO
 62
     5
 10
47.133057340897217
 20
26.163101467990849
 30
0.0
 42
1.0
  0
VERTEX
  5
2136
  8
LOGO
 62
     5
 10
43.733336107863437
 20
26.163101467990849
 30
0.0
 42
1.0
  0
SEQEND
  5
2137
  8
LOGO
 62
     5
  0
SOLID
  5
F94
  8
LOGO
 62
     5
 10
40.718878900332562
 20
29.217954979145169
 30
0.0
 11
41.850306126688352
 21
29.217954979145169
 31
0.0
 12
40.718878900332562
 22
30.123096760229149
 32
0.0
 13
41.850306126688352
 23
30.123096760229149
 33
0.0
  0
POLYLINE
  5
F95
  8
LOGO
 62
     5
 66
     1
 10
0.0
 20
0.0
 30
0.0
 70
     1
  0
VERTEX
  5
2138
  8
LOGO
 62
     5
 10
66.364826697367121
 20
25.59738785481456
 30
0.0
 42
1.0000000573306349
  0
VERTEX
  5
2139
  8
LOGO
 62
     5
 10
69.759108376428486
 20
25.59738785481456
 30
0.0
 42
1.0000000573306349
  0
SEQEND
  5
213A
  8
LOGO
 62
     5
  0
CIRCLE
  5
F96
  8
LOGO
 62
     5
 10
68.06196753689774
 20
25.59738785481456
 30
0.0
 40
1.697140839530404
  0
POLYLINE
  5
F97
  8
LOGO
 62
     5
 66
     1
 10
0.0
 20
0.0
 30
0.0
 40
1.13324041101122
 41
1.13324041101122
  0
VERTEX
  5
213B
  8
LOGO
 62
     5
 10
63.350256347113891
 20
26.163101467990849
 30
0.0
 42
1.0
  0
VERTEX
  5
213C
  8
LOGO
 62
     5
 10
59.950535114080111
 20
26.163101467990849
 30
0.0
 42
1.0
  0
SEQEND
  5
213D
  8
LOGO
 62
     5
  0
LINE
  5
F98
  8
LOGO
 62
     1
 10
143.35950648775921
 20
21.468019200442029
 30
0.0
 11
143.35950648775921
 21
67.0
 31
0.0
  0
CIRCLE
  5
F99
  8
LOGO
  6
CONTINUOUS
 62
     6
 10
157.4108660711783
 20
44.25024180690847
 30
0.0
 40
4.4061566257070393
  0
CIRCLE
  5
F9A
  8
LOGO
  6
CONTINUOUS
 62
     6
 10
157.4108660711783
 20
44.25024180690847
 30
0.0
 40
2.5816177276870351
  0
LINE
  5
F9B
  8
LOGO
 62
     6
 10
171.2866174797829
 20
41.668624079221452
 30
0.0
 11
171.28661747978279
 21
46.83185953459553
 31
0.0
  0
TEXT
  5
F9C
  8
LOGO
  6
CONTINUOUS
 62
     6
 10
316.63845052855987
 20
0.5991946673112994
 30
0.0
 40
6.3238862221608292
  1
Model
  7
CHINESET
 72
     4
 11
328.68394809458061
 21
3.761137778391713
 31
0.0
  0
TEXT
  5
F9D
  8
LOGO
  6
CONTINUOUS
 62
     7
 10
228.16795385897399
 20
50.132503273257129
 30
0.0
 40
8.4337483633714374
  1

  7
CHINESET
 72
     1
 11
228.16795385897399
 21
54.349377454942839
 31
0.0
 73
     2
  0
LINE
  5
F9E
  8
LOGO
 62
     6
 10
359.03860196095258
 20
59.41133653340701
 30
0.0
 11
298.32929422820871
 21
59.41133653340701
 31
0.0
  0
LINE
  5
F9F
  8
LOGO
 62
     6
 10
359.03860196095258
 20
36.645346133628017
 30
0.0
 11
298.32929422820871
 21
36.645346133628017
 31
0.0
  0
LINE
  5
FA0
  8
LOGO
 62
     6
 10
353.97949298322391
 20
25.262350933738531
 30
0.0
 11
303.38840320593732
 21
25.262350933738531
 31
0.0
  0
LINE
  5
FA1
  8
LOGO
 62
     6
 10
353.97949298322391
 20
-2.562748443769137
 30
0.0
 11
303.38840320593732
 21
-2.5627484437691939
 31
0.0
  0
TEXT
  5
FA2
  8
LOGO
 62
     7
 10
200.16228826118169
 20
47.999712551812493
 30
0.0
 40
15.177326933185981
  1
訂購代號:
  7
CHINESET
  0
TEXT
  5
FA3
  8
LOGO
 62
     7
 10
198.3469962857146
 20
33.7553566742884
 30
0.0
 40
10.11821795545732
  1
Order example:
 41
0.8
  7
CHINESET
  0
LINE
  5
FA4
  8
LOGO
 62
     1
 10
193.9505962650457
 20
-8.8866346659299467
 30
0.0
 11
193.9505962650457
 21
67.0
 31
0.0
  0
LINE
  5
FA5
  8
LOGO
 62
     6
 10
185.09966557591611
 20
39.84408518120145
 30
0.0
 11
185.09966557591611
 21
48.656398432615518
 31
0.0
  0
LINE
  5
FA6
  8
LOGO
 62
     6
 10
303.38840320593732
 20
25.262350933738531
 30
0.0
 11
303.38840320593732
 21
-2.5627484437691939
 31
0.0
  0
LINE
  5
FA7
  8
LOGO
 62
     6
 10
298.32929422820871
 20
59.41133653340701
 30
0.0
 11
298.32929422820871
 21
36.645346133628017
 31
0.0
  0
TEXT
  5
FA8
  8
LOGO
  6
CONTINUOUS
 62
     7
 10
388.54395403502588
 20
41.561028574866917
 30
0.0
 40
12.647772444321649
  1
25
  7
CHINESET
 72
     1
 11
398.78262696614343
 21
47.884914797027761
 31
0.0
 73
     2
  0
LINE
  5
FA9
  8
LOGO
 62
     6
 10
417.90867752992119
 20
-2.5627484437689811
 30
0.0
 11
377.29565822785918
 21
-2.562748443769038
 31
0.0
  0
LINE
  5
FAA
  8
LOGO
 62
     6
 10
417.90867752992119
 20
36.645346133628173
 30
0.0
 11
377.29565822785918
 21
36.645346133628173
 31
0.0
  0
LINE
  5
FAB
  8
LOGO
 62
     6
 10
417.90867752992119
 20
25.262350933738659
 30
0.0
 11
377.29565822785918
 21
25.262350933738659
 31
0.0
  0
LINE
  5
FAC
  8
LOGO
 62
     6
 10
417.90867752992119
 20
59.411336533407272
 30
0.0
 11
377.29565822785918
 21
59.411336533407152
 31
0.0
  0
LINE
  5
FAD
  8
LOGO
 62
     6
 10
377.29565822785918
 20
25.262350933738659
 30
0.0
 11
377.29565822785918
 21
-2.5627484437689811
 31
0.0
  0
LINE
  5
FAE
  8
LOGO
 62
     6
 10
353.97949298322402
 20
25.262350933738531
 30
0.0
 11
353.97949298322402
 21
-2.562748443769109
 31
0.0
  0
TEXT
  5
FAF
  8
LOGO
 62
     6
 10
318.56573013912322
 20
11.608732019435379
 30
0.0
 40
10.11821795545732
  1
型式
  7
CHINESET
 72
     4
 11
328.68394809458061
 21
16.408910222713359
 31
0.0
  0
LINE
  5
FB0
  8
LOGO
 62
     6
 10
328.68394809458061
 20
36.645346133628017
 30
0.0
 11
328.68394809458061
 21
25.262350933738531
 31
0.0
  0
LINE
  5
FB1
  8
LOGO
 62
     6
 10
377.29565822785918
 20
59.411336533407152
 30
0.0
 11
377.29565822785918
 21
36.645346133628173
 31
0.0
  0
LINE
  5
FB2
  8
LOGO
 62
     6
 10
359.03860196095258
 20
59.41133653340701
 30
0.0
 11
359.03860196095258
 21
36.645346133628017
 31
0.0
  0
LINE
  5
FB3
  8
LOGO
  6
CONTINUOUS
 62
     7
 10
363.3060011308209
 20
47.947700597644712
 30
0.0
 11
373.35863179728551
 21
47.947700597644712
 31
0.0
  0
LINE
  5
FB4
  8
LOGO
 62
     6
 10
430.76146365655461
 20
25.262350933738531
 30
0.0
 11
430.76146365655461
 21
-2.5627484437691939
 31
0.0
  0
LINE
  5
FB5
  8
LOGO
 62
     6
 10
417.90867752992119
 20
25.262350933738659
 30
0.0
 11
417.90867752992119
 21
-2.5627484437688959
 31
0.0
  0
TEXT
  5
FB6
  8
LOGO
  6
CONTINUOUS
 62
     6
 10
389.77259446097679
 20
0.5991946673113709
 30
0.0
 40
6.3238862221608292
  1
Bore
 41
0.8
  7
CHINESET
 72
     4
 11
397.60216787889021
 21
3.7611377783917841
 31
0.0
  0
TEXT
  5
FB7
  8
LOGO
 62
     6
 10
387.92662195898407
 20
11.34980124498478
 30
0.0
 40
10.11821795545732
  1
內徑
 41
0.9
  7
CHINESET
 72
     4
 11
397.60216787889021
 21
16.408910222713441
 31
0.0
  0
LINE
  5
FB8
  8
LOGO
  6
CONTINUOUS
 62
     7
 10
421.83091553724512
 20
47.947700597644847
 30
0.0
 11
431.88354620370978
 21
47.947700597644847
 31
0.0
  0
LINE
  5
FB9
  8
LOGO
 62
     6
 10
417.90867752992119
 20
59.411336533407272
 30
0.0
 11
417.90867752992119
 21
36.645346133628173
 31
0.0
  0
LINE
  5
FBA
  8
LOGO
 62
     6
 10
397.60216729561421
 20
36.645346133628173
 30
0.0
 11
397.60216729561421
 21
25.262350933738659
 31
0.0
  0
LINE
  5
FBB
  8
LOGO
 62
     6
 10
435.82057263428328
 20
59.41133653340701
 30
0.0
 11
435.82057263428322
 21
36.645346133628017
 31
0.0
  0
LINE
  5
FBC
  8
LOGO
 62
     6
 10
457.42549752367341
 20
36.645346133628017
 30
0.0
 11
457.42549752367341
 21
25.262350933738531
 31
0.0
  0
TEXT
  5
FBD
  8
LOGO
 62
     6
 10
518.92633962303034
 20
11.34980124498485
 30
0.0
 40
10.11821795545732
  1
配件
 41
0.9
  7
CHINESET
 72
     4
 11
528.12759407627436
 21
16.408910222713509
 31
0.0
  0
LINE
  5
FBE
  8
LOGO
 62
     6
 10
565.12232847591531
 20
-2.5627484437688959
 30
0.0
 11
491.13285967663359
 21
-2.5627484437689811
 31
0.0
  0
LINE
  5
FBF
  8
LOGO
 62
     6
 10
565.12232847591531
 20
25.262350933738659
 30
0.0
 11
491.13285967663359
 21
25.262350933738659
 31
0.0
  0
TEXT
  5
FC0
  8
LOGO
  6
CONTINUOUS
 62
     6
 10
509.45707284894252
 20
1.65317570433824
 30
0.0
 40
6.3238862221608292
  1
Accessory
 41
0.8
  7
CHINESET
 72
     4
 11
528.12759407627436
 21
3.761137778391848
 31
0.0
  0
LINE
  5
FC1
  8
LOGO
 62
     6
 10
491.13285967663359
 20
25.262350933738659
 30
0.0
 11
491.13285967663359
 21
-2.5627484437689811
 31
0.0
  0
LINE
  5
FC2
  8
LOGO
 62
     6
 10
483.01805804528351
 20
25.262350933738531
 30
0.0
 11
483.01805804528351
 21
-2.667667518634516
 31
0.0
  0
LINE
  5
FC3
  8
LOGO
 62
     6
 10
477.95894906755478
 20
59.41133653340701
 30
0.0
 11
477.95894906755461
 21
36.645346133628003
 31
0.0
  0
LINE
  5
FC4
  8
LOGO
  6
CONTINUOUS
 62
     7
 10
482.44039059667148
 20
47.947700597644712
 30
0.0
 11
492.4930212631362
 21
47.947700597644712
 31
0.0
  0
TEXT
  5
FC5
  8
LOGO
  6
CONTINUOUS
 62
     7
 10
497.52283564907123
 20
41.561028574866789
 30
0.0
 40
12.647772444321649
  1
RP
  7
CHINESET
 72
     1
 11
508.0626460193393
 21
47.884914797027619
 31
0.0
 73
     2
  0
LINE
  5
FC6
  8
LOGO
 62
     6
 10
519.26922319391213
 20
59.411336533407152
 30
0.0
 11
519.26922319391213
 21
36.645346133628017
 31
0.0
  0
LINE
  5
FC7
  8
LOGO
 62
     6
 10
496.23489435407288
 20
59.411336533407152
 30
0.0
 11
496.23489435407288
 21
36.645346133628017
 31
0.0
  0
LINE
  5
FC8
  8
LOGO
 62
     6
 10
519.26922319391213
 20
36.645346133628017
 30
0.0
 11
496.23489435407288
 21
36.645346133628017
 31
0.0
  0
LINE
  5
FC9
  8
LOGO
 62
     6
 10
507.7520587739923
 20
36.645346133628017
 30
0.0
 11
507.7520587739923
 21
25.262350933738659
 31
0.0
  0
LINE
  5
FCA
  8
LOGO
 62
     6
 10
519.26922319391213
 20
59.411336533407152
 30
0.0
 11
496.23489435407288
 21
59.411336533407152
 31
0.0
  0
LINE
  5
FCB
  8
LOGO
 62
     6
 10
565.12232847591531
 20
25.262350933738659
 30
0.0
 11
565.12232847591531
 21
-2.5627484437688959
 31
0.0
  0
LINE
  5
FCC
  8
LOGO
 62
     1
 10
601.20886897220316
 20
-8.8866346659299467
 30
0.0
 11
601.20886897220316
 21
67.0
 31
0.0
  0
TEXT
  5
FD0
  8
DIM
  6
CONTINUOUS
 10
473.71574149017903
 20
320.9057187066997
 30
0.0
 40
12.647772444321649
  1
RP 配件
  7
CHINESET
 72
     1
 11
504.60115009305377
 21
327.22960492886051
 31
0.0
 73
     2
  0
LINE
  5
1A8C
  8
0
  6
CONTINUOUS
 10
217.80465132422481
 20
99.60124338590299
 30
0.0
 11
233.80465132422481
 21
99.60124338590299
 31
0.0
  0
LINE
  5
1A8D
  8
0
  6
CONTINUOUS
 10
233.30465132422481
 20
106.5628949705919
 30
0.0
 11
218.30465132422469
 21
106.5628949705919
 31
0.0
  0
LINE
  5
1A8E
  8
0
  6
CONTINUOUS
 10
233.30465132422481
 20
119.639591801214
 30
0.0
 11
218.30465132422469
 21
119.6395918012138
 31
0.0
  0
LINE
  5
1A8F
  8
0
  6
CONTINUOUS
 10
217.80465132422481
 20
126.601243385903
 30
0.0
 11
233.80465132422481
 21
126.6012433859029
 31
0.0
  0
LINE
  5
1A90
  8
0
  6
CONTINUOUS
 10
218.80465132422481
 20
128.1012433859029
 30
0.0
 11
232.80465132422481
 21
128.1012433859029
 31
0.0
  0
LINE
  5
1A91
  8
0
  6
CONTINUOUS
 10
214.30465132422449
 20
108.1012433859029
 30
0.0
 11
233.80465132422441
 21
108.1012433859029
 31
0.0
  0
LINE
  5
1A92
  8
0
  6
CONTINUOUS
 10
214.30465132422449
 20
118.1012433859029
 30
0.0
 11
233.80465132422441
 21
118.1012433859029
 31
0.0
  0
TEXT
  5
1A93
  8
DIM
  6
CONTINUOUS
 10
224.49031614038881
 20
149.13795226097
 30
0.0
 40
3.0
  1
%%c10.5
  7
ROMANSS
 72
     1
 11
230.1331732832459
 21
150.63795226097
 31
0.0
 73
     2
  0
TEXT
  5
1A94
  8
DIM
  6
CONTINUOUS
 10
225.36392826010621
 20
141.13795226097
 30
0.0
 40
3.0
  1
%%c6.5
  7
ROMANSS
 72
     1
 11
229.86392826010621
 21
142.63795226097
 31
0.0
 73
     2
  0
LINE
  5
1A95
  8
DIM
  6
CONTINUOUS
 10
224.14629749486591
 20
147.63795226097
 30
0.0
 11
247.55465132422481
 21
147.63795226097
 31
0.0
  0
LINE
  5
1A96
  8
DIM
  6
CONTINUOUS
 10
252.24635374725901
 20
139.63795226097
 30
0.0
 11
225.3122753903528
 21
139.63795226097
 31
0.0
  0
LINE
  5
1A97
  8
0
  6
CONTINUOUS
 10
217.80465132422469
 20
346.63934761011171
 30
0.0
 11
233.80465132422469
 21
346.63934761011171
 31
0.0
  0
LINE
  5
1A98
  8
0
  6
CONTINUOUS
 10
233.30465132422469
 20
339.67769602542268
 30
0.0
 11
218.30465132422469
 21
339.67769602542279
 31
0.0
  0
LINE
  5
1A99
  8
0
  6
CONTINUOUS
 10
233.30465132422469
 20
326.60099919480058
 30
0.0
 11
218.30465132422469
 21
326.60099919480081
 31
0.0
  0
LINE
  5
1A9A
  8
0
  6
CONTINUOUS
 10
217.80465132422469
 20
319.6393476101116
 30
0.0
 11
233.80465132422469
 21
319.63934761011171
 31
0.0
  0
LINE
  5
1A9B
  8
0
  6
CONTINUOUS
 10
218.80465132422469
 20
318.13934761011171
 30
0.0
 11
232.80465132422469
 21
318.13934761011171
 31
0.0
  0
LINE
  5
1A9C
  8
0
  6
CONTINUOUS
 10
214.30465132422441
 20
338.13934761011171
 30
0.0
 11
233.8046513242243
 21
338.13934761011171
 31
0.0
  0
LINE
  5
1A9D
  8
0
  6
CONTINUOUS
 10
214.30465132422441
 20
328.13934761011171
 30
0.0
 11
233.8046513242243
 21
328.13934761011171
 31
0.0
  0
LINE
  5
1A9E
  8
0
  6
CONTINUOUS
 10
214.30465132422449
 20
197.51733672795021
 30
0.0
 11
233.80465132422441
 21
197.51733672795021
 31
0.0
  0
LINE
  5
1A9F
  8
0
  6
CONTINUOUS
 10
214.30465132422449
 20
207.51733672795029
 30
0.0
 11
233.80465132422441
 21
207.51733672795029
 31
0.0
  0
LINE
  5
1AA0
  8
CENTER
  6
CENTER
 10
210.80465132422449
 20
202.51733672795021
 30
0.0
 11
301.11756794031629
 21
202.51733672795021
 31
0.0
  0
LINE
  5
1AA1
  8
DIM
  6
CONTINUOUS
 10
225.7719689718478
 20
280.51733672795029
 30
0.0
 11
268.30465132422449
 21
280.51733672795029
 31
0.0
  0
LINE
  5
1AA2
  8
DIM
  6
CONTINUOUS
 10
298.80465132422438
 20
174.41338891868691
 30
0.0
 11
213.80465132422441
 21
174.41338891868691
 31
0.0
  0
TEXT
  5
1AA3
  8
DIM
  6
CONTINUOUS
 10
227.70366483356719
 20
282.01733672795029
 30
0.0
 40
3.0
  1
5
  7
ROMANSS
 72
     1
 11
228.70366483356719
 21
283.51733672795029
 31
0.0
 73
     2
  0
LINE
  5
1AA4
  8
0
  6
CONTINUOUS
 10
233.30465132422449
 20
238.51733672795029
 30
0.0
 11
218.30465132422449
 21
238.51733672795029
 31
0.0
  0
LINE
  5
1AA5
  8
0
  6
CONTINUOUS
 10
217.80465132422441
 20
245.01733672795029
 30
0.0
 11
233.80465132422441
 21
245.01733672795029
 31
0.0
  0
LINE
  5
1AA6
  8
0
  6
CONTINUOUS
 10
214.30465132422449
 20
265.51733672795029
 30
0.0
 11
233.80465132422441
 21
265.51733672795029
 31
0.0
  0
LINE
  5
1AA7
  8
0
  6
CONTINUOUS
 10
214.30465132422449
 20
255.51733672795029
 30
0.0
 11
233.80465132422441
 21
255.51733672795029
 31
0.0
  0
LINE
  5
1AA8
  8
0
  6
CONTINUOUS
 10
217.80465132422461
 20
218.01733672795021
 30
0.0
 11
233.80465132422441
 21
218.01733672795021
 31
0.0
  0
LINE
  5
1AA9
  8
0
  6
CONTINUOUS
 10
233.30465132422449
 20
224.51733672795029
 30
0.0
 11
218.30465132422449
 21
224.51733672795029
 31
0.0
  0
CIRCLE
  5
1AAA
  8
0
  6
CONTINUOUS
 10
224.80465132422449
 20
231.51733672795029
 30
0.0
 40
4.2999999999999536
  0
ARC
  5
1AAB
  8
0
  6
CONTINUOUS
 62
     2
 10
224.80465132422449
 20
231.51733672795029
 30
0.0
 40
4.849999999999965
 50
70.020007650834756
 51
21.826702679995648
  0
LINE
  5
1AAC
  8
DIM
  6
CONTINUOUS
 10
298.80465132422438
 20
158.51733672795021
 30
0.0
 11
147.80465132422449
 21
158.51733672795029
 31
0.0
  0
LINE
  5
1AAD
  8
DIM
  6
CONTINUOUS
 10
295.80465132422449
 20
166.51733672795029
 30
0.0
 11
147.80465132422449
 21
166.51733672795029
 31
0.0
  0
LINE
  5
1AAE
  8
CENTER
  6
CENTER
 10
144.80465132422461
 20
333.13934761011171
 30
0.0
 11
301.80465132422449
 21
333.13934761011171
 31
0.0
  0
LINE
  5
1AAF
  8
CENTER
  6
CENTER
 10
144.80465132422461
 20
231.51733672795021
 30
0.0
 11
301.80465132422449
 21
231.51733672795029
 31
0.0
  0
LINE
  5
1AB0
  8
DIM
  6
CONTINUOUS
 10
255.17862996990061
 20
182.51733672795029
 30
0.0
 11
226.56446642230509
 21
182.51733672795029
 31
0.0
  0
TEXT
  5
1AB1
  8
DIM
  6
CONTINUOUS
 10
213.20318858907419
 20
160.01733672795021
 30
0.0
 40
3.0
  1
151+Stroke
  7
ROMANSS
 72
     1
 11
225.56033144621699
 21
161.51733672795029
 31
0.0
 73
     2
  0
LINE
  5
1AB2
  8
CENTER
  6
CENTER
 10
210.80465132422449
 20
260.51733672795029
 30
0.0
 11
301.11756794031629
 21
260.51733672795029
 31
0.0
  0
LINE
  5
1AB3
  8
CENTER
  6
CENTER
 10
143.33332869858731
 20
113.101243385903
 30
0.0
 11
301.80465132422449
 21
113.101243385903
 31
0.0
  0
LINE
  5
1AB4
  8
0
  6
CONTINUOUS
 10
214.30465132422449
 20
197.51733672795021
 30
0.0
 11
214.30465132422449
 21
207.51733672795029
 31
0.0
  0
LINE
  5
1AB5
  8
0
  6
CONTINUOUS
 10
213.80465132422441
 20
198.01733672795029
 30
0.0
 11
213.80465132422441
 21
207.01733672795021
 31
0.0
  0
TEXT
  5
1AB6
  8
DIM
  6
CONTINUOUS
 10
204.30465132422441
 20
198.81344458418781
 30
0.0
 40
3.0
  1
%%c10
 50
90.0
  7
ROMANSS
 72
     1
 11
202.80465132422441
 21
202.31344458418781
 31
0.0
 73
     2
  0
LINE
  5
1AB7
  8
DIM
  6
CONTINUOUS
 10
205.80465132422441
 20
197.51733672795021
 30
0.0
 11
205.80465132422441
 21
207.51733672795021
 31
0.0
  0
LINE
  5
1AB8
  8
DIM
  6
CONTINUOUS
 10
147.80465132422449
 20
222.52667018120701
 30
0.0
 11
147.80465132422449
 21
157.26080117855679
 31
0.0
  0
CIRCLE
  5
1AB9
  8
0
  6
CONTINUOUS
 10
94.913310023008236
 20
202.51733672795021
 30
0.0
 40
10.0
  0
CIRCLE
  5
1ABA
  8
0
  6
CONTINUOUS
 10
94.913310023008236
 20
202.51733672795021
 30
0.0
 40
5.0
  0
LINE
  5
1ABB
  8
CENTER
  6
CENTER
 10
94.913310023008236
 20
274.6509588067384
 30
0.0
 11
94.913310023008236
 21
187.40602962332929
 31
0.0
  0
LINE
  5
1ABC
  8
0
  6
CONTINUOUS
 10
113.91331002300819
 20
272.51733672795029
 30
0.0
 11
113.91331002300819
 21
190.51733672795029
 31
0.0
  0
LINE
  5
1ABD
  8
0
  6
CONTINUOUS
 10
75.913310023008222
 20
272.51733672795029
 30
0.0
 11
75.913310023008222
 21
190.51733672795029
 31
0.0
  0
LINE
  5
1ABE
  8
CENTER
  6
CENTER
 10
81.913310023008222
 20
202.51733672795021
 30
0.0
 11
107.91331002300819
 21
202.51733672795021
 31
0.0
  0
LINE
  5
1ABF
  8
0
  6
CONTINUOUS
 10
75.913310023008222
 20
190.51733672795029
 30
0.0
 11
113.91331002300819
 21
190.51733672795029
 31
0.0
  0
LINE
  5
1AC0
  8
0
  6
CONTINUOUS
 62
     4
 10
185.30465132422421
 20
119.6395918012138
 30
0.0
 11
170.30465132422461
 21
106.5628949705919
 31
0.0
  0
LINE
  5
1AC1
  8
0
  6
CONTINUOUS
 10
185.80465132422461
 20
99.60124338590299
 30
0.0
 11
169.80465132422461
 21
99.60124338590299
 31
0.0
  0
LINE
  5
1AC2
  8
0
  6
CONTINUOUS
 10
170.30465132422461
 20
106.5628949705919
 30
0.0
 11
185.30465132422461
 21
106.5628949705919
 31
0.0
  0
LINE
  5
1AC3
  8
0
  6
CONTINUOUS
 62
     4
 10
185.30465132422401
 20
106.5628949705919
 30
0.0
 11
170.30465132422461
 21
119.639591801214
 31
0.0
  0
LINE
  5
1AC4
  8
0
  6
CONTINUOUS
 10
170.30465132422461
 20
119.639591801214
 30
0.0
 11
185.30465132422461
 21
119.6395918012138
 31
0.0
  0
LINE
  5
1AC5
  8
0
  6
CONTINUOUS
 10
185.80465132422461
 20
126.601243385903
 30
0.0
 11
169.80465132422461
 21
126.6012433859029
 31
0.0
  0
LINE
  5
1AC6
  8
0
  6
CONTINUOUS
 10
184.80465132422461
 20
128.1012433859029
 30
0.0
 11
170.80465132422461
 21
128.1012433859029
 31
0.0
  0
LINE
  5
1AC7
  8
0
  6
CONTINUOUS
 10
170.30465132422461
 20
106.5628949705919
 30
0.0
 11
170.30465132422461
 21
99.601243385902876
 31
0.0
  0
LINE
  5
1AC8
  8
0
  6
CONTINUOUS
 10
169.80465132422461
 20
126.6012433859029
 30
0.0
 11
169.80465132422461
 21
99.60124338590299
 31
0.0
  0
LINE
  5
1AC9
  8
0
  6
CONTINUOUS
 10
167.80465132422461
 20
102.1012433859029
 30
0.0
 11
167.80465132422461
 21
105.55140895063209
 31
0.0
  0
LINE
  5
1ACA
  8
0
  6
CONTINUOUS
 10
165.80465132422461
 20
102.1012433859029
 30
0.0
 11
165.80465132422461
 21
105.55140895063209
 31
0.0
  0
LINE
  5
1ACB
  8
0
  6
CONTINUOUS
 10
149.80465132422461
 20
102.1012433859029
 30
0.0
 11
149.80465132422461
 21
105.55140895063209
 31
0.0
  0
LINE
  5
1ACC
  8
0
  6
CONTINUOUS
 10
148.80465132422449
 20
103.1012433859029
 30
0.0
 11
148.80465132422469
 21
107.1012433859029
 31
0.0
  0
LINE
  5
1ACD
  8
0
  6
CONTINUOUS
 10
147.80465132422461
 20
103.1012433859029
 30
0.0
 11
147.80465132422461
 21
123.1012433859029
 31
0.0
  0
LINE
  5
1ACE
  8
0
  6
CONTINUOUS
 10
149.80465132422461
 20
102.1012433859029
 30
0.0
 11
165.80465132422461
 21
102.1012433859029
 31
0.0
  0
LINE
  5
1ACF
  8
0
  6
CONTINUOUS
 62
     2
 10
149.0046513242246
 20
102.9012433859029
 30
0.0
 11
166.20465132422919
 21
102.9012433859029
 31
0.0
  0
LINE
  5
1AD0
  8
0
  6
CONTINUOUS
 10
147.80465132422461
 20
103.1012433859029
 30
0.0
 11
148.80465132422469
 21
103.1012433859029
 31
0.0
  0
LINE
  5
1AD1
  8
0
  6
CONTINUOUS
 10
149.80465132422461
 20
102.1012433859029
 30
0.0
 11
148.80465132422449
 21
103.1012433859029
 31
0.0
  0
LINE
  5
1AD2
  8
0
  6
CONTINUOUS
 10
167.80465132422461
 20
102.1012433859029
 30
0.0
 11
169.80465132422461
 21
102.1012433859029
 31
0.0
  0
ARC
  5
1AD3
  8
0
  6
CONTINUOUS
 10
166.80465132422461
 20
102.1012433859029
 30
0.0
 40
1.0
 50
0.0
 51
180.0
  0
CIRCLE
  5
1AD4
  8
0
  6
CONTINUOUS
 10
157.80465132422461
 20
113.1012433859029
 30
0.0
 40
4.5
  0
CIRCLE
  5
1AD5
  8
0
  6
CONTINUOUS
 10
157.80465132422461
 20
113.1012433859029
 30
0.0
 40
4.0
  0
LINE
  5
1AD6
  8
0
  6
CONTINUOUS
 10
149.80465132422461
 20
124.1012433859029
 30
0.0
 11
165.80465132422461
 21
124.1012433859029
 31
0.0
  0
LINE
  5
1AD7
  8
0
  6
CONTINUOUS
 62
     2
 10
149.0046513242246
 20
123.30124338590301
 30
0.0
 11
166.20465132422481
 21
123.30124338590301
 31
0.0
  0
LINE
  5
1AD8
  8
0
  6
CONTINUOUS
 10
149.80465132422461
 20
120.6510778211737
 30
0.0
 11
169.80465132422461
 21
120.6510778211737
 31
0.0
  0
LINE
  5
1AD9
  8
0
  6
CONTINUOUS
 10
149.80465132422461
 20
105.55140895063209
 30
0.0
 11
169.80465132422461
 21
105.55140895063209
 31
0.0
  0
LINE
  5
1ADA
  8
0
  6
CONTINUOUS
 10
148.80465132422449
 20
119.1012433859029
 30
0.0
 11
148.80465132422449
 21
123.1012433859029
 31
0.0
  0
LINE
  5
1ADB
  8
0
  6
CONTINUOUS
 10
148.80465132422449
 20
119.1012433859029
 30
0.0
 11
149.80465132422461
 21
120.6510778211737
 31
0.0
  0
LINE
  5
1ADC
  8
CENTER
  6
CENTER
 10
157.80465132422461
 20
105.6012433859029
 30
0.0
 11
157.80465132422461
 21
120.6012433859029
 31
0.0
  0
LINE
  5
1ADD
  8
0
  6
CONTINUOUS
 62
     4
 10
153.90380421285201
 20
110.85772119664411
 30
0.0
 11
147.80465132422461
 21
107.1012433859029
 31
0.0
  0
LINE
  5
1ADE
  8
0
  6
CONTINUOUS
 10
147.80465132422461
 20
107.1012433859029
 30
0.0
 11
148.80465132422469
 21
107.1012433859029
 31
0.0
  0
LINE
  5
1ADF
  8
0
  6
CONTINUOUS
 10
149.80465132422461
 20
105.55140895063209
 30
0.0
 11
148.80465132422469
 21
107.1012433859029
 31
0.0
  0
LINE
  5
1AE0
  8
0
  6
CONTINUOUS
 62
     4
 10
153.90380421285201
 20
115.3447655751617
 30
0.0
 11
147.80465132422461
 21
119.1012433859029
 31
0.0
  0
LINE
  5
1AE1
  8
0
  6
CONTINUOUS
 10
147.80465132422461
 20
119.1012433859029
 30
0.0
 11
148.80465132422449
 21
119.1012433859029
 31
0.0
  0
LINE
  5
1AE2
  8
0
  6
CONTINUOUS
 10
149.80465132422461
 20
120.6510778211737
 30
0.0
 11
149.80465132422461
 21
124.1012433859029
 31
0.0
  0
LINE
  5
1AE3
  8
0
  6
CONTINUOUS
 10
147.80465132422461
 20
123.1012433859029
 30
0.0
 11
148.80465132422449
 21
123.1012433859029
 31
0.0
  0
LINE
  5
1AE4
  8
0
  6
CONTINUOUS
 10
148.80465132422449
 20
123.1012433859029
 30
0.0
 11
149.80465132422461
 21
124.1012433859029
 31
0.0
  0
LINE
  5
1AE5
  8
CENTER
  6
CENTER
 10
178.80465132422461
 20
131.1012433859029
 30
0.0
 11
178.80465132422461
 21
117.4553572752157
 31
0.0
  0
LINE
  5
1AE6
  8
0
  6
CONTINUOUS
 10
170.30465132422461
 20
127.6012433859029
 30
0.0
 11
170.30465132422461
 21
119.639591801214
 31
0.0
  0
LINE
  5
1AE7
  8
0
  6
CONTINUOUS
 62
     4
 10
169.80465132422461
 20
120.6510778211737
 30
0.0
 11
161.56349086266289
 21
115.5753341935073
 31
0.0
  0
LINE
  5
1AE8
  8
0
  6
CONTINUOUS
 62
     4
 10
169.80465132422461
 20
105.55140895063209
 30
0.0
 11
161.56349086266289
 21
110.62715257829851
 31
0.0
  0
LINE
  5
1AE9
  8
0
  6
CONTINUOUS
 10
170.30465132422461
 20
106.5628949705919
 30
0.0
 11
169.80465132422461
 21
107.8097407637737
 31
0.0
  0
LINE
  5
1AEA
  8
0
  6
CONTINUOUS
 10
170.30465132422461
 20
119.639591801214
 30
0.0
 11
169.80465132422461
 21
118.3927460080322
 31
0.0
  0
LINE
  5
1AEB
  8
0
  6
CONTINUOUS
 10
167.80465132422461
 20
124.1012433859029
 30
0.0
 11
169.80465132422461
 21
124.1012433859029
 31
0.0
  0
LINE
  5
1AEC
  8
0
  6
CONTINUOUS
 10
167.80465132422461
 20
120.6510778211737
 30
0.0
 11
167.80465132422461
 21
124.1012433859029
 31
0.0
  0
LINE
  5
1AED
  8
0
  6
CONTINUOUS
 10
165.80465132422461
 20
120.6510778211737
 30
0.0
 11
165.80465132422461
 21
124.1012433859029
 31
0.0
  0
ARC
  5
1AEE
  8
0
  6
CONTINUOUS
 10
166.80465132422461
 20
124.1012433859029
 30
0.0
 40
1.0
 50
180.0
 51
0.0
  0
LINE
  5
1AEF
  8
0
  6
CONTINUOUS
 10
170.80465132422461
 20
128.1012433859029
 30
0.0
 11
170.30465132422461
 21
127.6012433859029
 31
0.0
  0
LINE
  5
1AF0
  8
HIDDEN
  6
HIDDEN
 10
174.5046513242246
 20
128.1012433859029
 30
0.0
 11
174.89215132422461
 21
121.901243385903
 31
0.0
  0
LINE
  5
1AF1
  8
HIDDEN
  6
HIDDEN
 10
173.95465132422461
 20
128.1012433859029
 30
0.0
 11
174.30340132422461
 21
122.52124338590301
 31
0.0
  0
LINE
  5
1AF2
  8
0
  6
CONTINUOUS
 10
216.70465132422461
 20
99.801243385902865
 30
0.0
 11
216.7046513242247
 21
108.1012433859029
 31
0.0
  0
LINE
  5
1AF3
  8
0
  6
CONTINUOUS
 10
217.20465132422481
 20
99.801243385902865
 30
0.0
 11
217.20465132422481
 21
108.1012433859029
 31
0.0
  0
LINE
  5
1AF4
  8
0
  6
CONTINUOUS
 10
217.80465132422481
 20
108.1012433859029
 30
0.0
 11
217.80465132422481
 21
99.60124338590299
 31
0.0
  0
LINE
  5
1AF5
  8
0
  6
CONTINUOUS
 10
218.30465132422481
 20
106.5628949705919
 30
0.0
 11
218.30465132422481
 21
99.601243385902876
 31
0.0
  0
LINE
  5
1AF6
  8
0
  6
CONTINUOUS
 10
186.40465132422449
 20
99.801243385902808
 30
0.0
 11
186.40465132422449
 21
126.4012433859028
 31
0.0
  0
LINE
  5
1AF7
  8
0
  6
CONTINUOUS
 10
186.9046513242246
 20
99.801243385902808
 30
0.0
 11
186.90465132422449
 21
126.4012433859028
 31
0.0
  0
LINE
  5
1AF8
  8
0
  6
CONTINUOUS
 10
185.30465132422461
 20
106.5628949705919
 30
0.0
 11
185.30465132422461
 21
99.601243385902876
 31
0.0
  0
LINE
  5
1AF9
  8
0
  6
CONTINUOUS
 10
185.80465132422461
 20
126.601243385903
 30
0.0
 11
185.80465132422461
 21
99.60124338590299
 31
0.0
  0
LINE
  5
1AFA
  8
0
 10
186.40465132422449
 20
99.801243385902808
 30
0.0
 11
217.20465132422461
 21
99.801243385902865
 31
0.0
  0
LINE
  5
1AFB
  8
0
  6
CONTINUOUS
 10
186.40465132422449
 20
99.801243385902808
 30
0.0
 11
185.80465132422461
 21
100.4012433859027
 31
0.0
  0
LINE
  5
1AFC
  8
0
  6
CONTINUOUS
 10
217.20465132422461
 20
99.801243385902865
 30
0.0
 11
217.80465132422469
 21
100.4012433859027
 31
0.0
  0
LINE
  5
1AFD
  8
0
 10
186.40465132422469
 20
126.4012433859028
 30
0.0
 11
217.20465132422461
 21
126.4012433859028
 31
0.0
  0
LINE
  5
1AFE
  8
0
  6
CONTINUOUS
 10
185.30465132422461
 20
127.6012433859029
 30
0.0
 11
185.30465132422461
 21
119.639591801214
 31
0.0
  0
LINE
  5
1AFF
  8
0
  6
CONTINUOUS
 10
185.30465132422461
 20
106.5628949705919
 30
0.0
 11
185.80465132422461
 21
107.8097407637737
 31
0.0
  0
LINE
  5
1B00
  8
0
  6
CONTINUOUS
 10
185.30465132422461
 20
119.639591801214
 30
0.0
 11
185.80465132422461
 21
118.3927460080322
 31
0.0
  0
LINE
  5
1B01
  8
0
  6
CONTINUOUS
 10
186.40465132422469
 20
126.4012433859028
 30
0.0
 11
185.80465132422461
 21
125.80124338590279
 31
0.0
  0
LINE
  5
1B02
  8
0
  6
CONTINUOUS
 10
184.80465132422461
 20
128.1012433859029
 30
0.0
 11
185.30465132422461
 21
127.6012433859029
 31
0.0
  0
LINE
  5
1B03
  8
HIDDEN
  6
HIDDEN
 10
182.7171513242246
 20
121.901243385903
 30
0.0
 11
183.1046513242247
 21
128.1012433859029
 31
0.0
  0
LINE
  5
1B04
  8
HIDDEN
  6
HIDDEN
 10
183.6546513242246
 20
128.1012433859029
 30
0.0
 11
183.30590132422461
 21
122.52124338590301
 31
0.0
  0
LINE
  5
1B05
  8
0
  6
CONTINUOUS
 10
216.7046513242247
 20
118.1012433859029
 30
0.0
 11
216.70465132422461
 21
126.4012433859028
 31
0.0
  0
LINE
  5
1B06
  8
0
  6
CONTINUOUS
 10
217.20465132422481
 20
118.1012433859029
 30
0.0
 11
217.20465132422481
 21
126.4012433859028
 31
0.0
  0
LINE
  5
1B07
  8
0
  6
CONTINUOUS
 10
217.80465132422481
 20
126.601243385903
 30
0.0
 11
217.80465132422481
 21
118.1012433859029
 31
0.0
  0
LINE
  5
1B08
  8
0
  6
CONTINUOUS
 10
218.30465132422481
 20
127.6012433859029
 30
0.0
 11
218.30465132422481
 21
119.639591801214
 31
0.0
  0
LINE
  5
1B09
  8
CENTER
  6
CENTER
 10
224.80465132422481
 20
131.1012433859029
 30
0.0
 11
224.80465132422481
 21
117.4553572752157
 31
0.0
  0
LINE
  5
1B0A
  8
0
  6
CONTINUOUS
 10
214.30465132422449
 20
108.1012433859029
 30
0.0
 11
214.30465132422449
 21
118.1012433859029
 31
0.0
  0
LINE
  5
1B0B
  8
0
  6
CONTINUOUS
 10
213.80465132422441
 20
108.601243385903
 30
0.0
 11
213.80465132422441
 21
117.6012433859029
 31
0.0
  0
LINE
  5
1B0C
  8
0
  6
CONTINUOUS
 10
214.30465132422449
 20
108.1012433859029
 30
0.0
 11
213.80465132422441
 21
108.601243385903
 31
0.0
  0
LINE
  5
1B0D
  8
0
  6
CONTINUOUS
 10
213.80465132422441
 20
117.6012433859029
 30
0.0
 11
214.30465132422449
 21
118.1012433859029
 31
0.0
  0
LINE
  5
1B0E
  8
0
  6
CONTINUOUS
 62
     4
 10
218.3046513242254
 20
106.5628949705919
 30
0.0
 11
220.06925797746121
 21
108.1012433859029
 31
0.0
  0
LINE
  5
1B0F
  8
0
  6
CONTINUOUS
 10
218.30465132422481
 20
106.5628949705919
 30
0.0
 11
217.80465132422481
 21
107.8097407637737
 31
0.0
  0
LINE
  5
1B10
  8
0
  6
CONTINUOUS
 62
     4
 10
218.30465132422509
 20
119.6395918012138
 30
0.0
 11
220.06925797746081
 21
118.1012433859029
 31
0.0
  0
LINE
  5
1B11
  8
0
  6
CONTINUOUS
 10
218.30465132422481
 20
119.639591801214
 30
0.0
 11
217.80465132422481
 21
118.3927460080322
 31
0.0
  0
LINE
  5
1B12
  8
0
  6
CONTINUOUS
 10
218.80465132422481
 20
128.1012433859029
 30
0.0
 11
218.30465132422481
 21
127.6012433859029
 31
0.0
  0
LINE
  5
1B13
  8
HIDDEN
  6
HIDDEN
 10
220.89215132422481
 20
121.901243385903
 30
0.0
 11
220.50465132422471
 21
128.1012433859029
 31
0.0
  0
LINE
  5
1B14
  8
HIDDEN
  6
HIDDEN
 10
219.95465132422481
 20
128.1012433859029
 30
0.0
 11
220.30340132422481
 21
122.52124338590301
 31
0.0
  0
LINE
  5
1B15
  8
0
  6
CONTINUOUS
 10
217.20465132422461
 20
126.4012433859028
 30
0.0
 11
217.80465132422461
 21
125.80124338590279
 31
0.0
  0
TEXT
  5
1B16
  8
DIM
  6
CONTINUOUS
 10
180.07037692784081
 20
168.01733672795021
 30
0.0
 40
3.0
  1
86+Stroke
  7
ROMANSS
 72
     1
 11
191.57037692784081
 21
169.51733672795029
 31
0.0
 73
     2
  0
SOLID
  5
1B17
  8
DIM
  6
CONTINUOUS
 10
150.80465132422449
 20
159.01733672795021
 30
0.0
 11
150.80465132422449
 21
158.01733672795029
 31
0.0
 12
147.80465132422449
 22
158.51733672795021
 32
0.0
 13
147.80465132422449
 23
158.51733672795021
 33
0.0
  0
SOLID
  5
1B18
  8
DIM
  6
CONTINUOUS
 10
150.80465132422449
 20
167.01733672795021
 30
0.0
 11
150.80465132422449
 21
166.01733672795021
 31
0.0
 12
147.80465132422449
 22
166.51733672795029
 32
0.0
 13
147.80465132422449
 23
166.51733672795029
 33
0.0
  0
LINE
  5
1B19
  8
DIM
  6
CONTINUOUS
 10
213.80465132422441
 20
196.51733672795029
 30
0.0
 11
213.80465132422441
 21
173.41338891868691
 31
0.0
  0
SOLID
  5
1B1A
  8
DIM
  6
CONTINUOUS
 10
216.80465132422441
 20
174.91338891868691
 30
0.0
 11
216.80465132422441
 21
173.91338891868691
 31
0.0
 12
213.80465132422441
 22
174.41338891868691
 32
0.0
 13
213.80465132422441
 23
174.41338891868691
 33
0.0
  0
LINE
  5
1B1B
  8
DIM
  6
CONTINUOUS
 10
205.80465132422441
 20
194.51733672795021
 30
0.0
 11
205.80465132422441
 21
191.51733672795021
 31
0.0
  0
LINE
  5
1B1C
  8
DIM
  6
CONTINUOUS
 10
212.32911485999909
 20
197.51733672795021
 30
0.0
 11
204.981124459603
 21
197.51733672795021
 31
0.0
  0
SOLID
  5
1B1D
  8
DIM
  6
CONTINUOUS
 10
205.30465132422441
 20
194.51733672795021
 30
0.0
 11
206.30465132422441
 21
194.51733672795021
 31
0.0
 12
205.80465132422441
 22
197.51733672795021
 32
0.0
 13
205.80465132422441
 23
197.51733672795021
 33
0.0
  0
LINE
  5
1B1E
  8
0
  6
CONTINUOUS
 10
214.30465132422449
 20
197.51733672795021
 30
0.0
 11
213.80465132422441
 21
198.01733672795029
 31
0.0
  0
TEXT
  5
1B1F
  8
DIM
  6
CONTINUOUS
 10
35.274424119018349
 20
211.8972158757218
 30
0.0
 40
3.0
  1
2-%%c6H7x6L
  7
ROMANSS
 72
     2
 11
60.417281261875502
 21
213.3972158757218
 31
0.0
 73
     2
  0
LINE
  5
1B20
  8
DIM
  6
CONTINUOUS
 10
61.417281261875502
 20
210.3972158757218
 30
0.0
 11
38.292281261875502
 21
210.3972158757218
 31
0.0
  0
LINE
  5
1B21
  8
0
  6
CONTINUOUS
 10
186.40465132422449
 20
346.43934761011178
 30
0.0
 11
186.40465132422449
 21
319.83934761011182
 31
0.0
  0
LINE
  5
1B22
  8
0
  6
CONTINUOUS
 10
186.90465132422449
 20
346.43934761011178
 30
0.0
 11
186.9046513242244
 21
319.83934761011182
 31
0.0
  0
LINE
  5
1B23
  8
0
  6
CONTINUOUS
 10
185.80465132422449
 20
319.6393476101116
 30
0.0
 11
185.80465132422449
 21
346.63934761011171
 31
0.0
  0
LINE
  5
1B24
  8
0
  6
CONTINUOUS
 10
214.30465132422441
 20
338.13934761011171
 30
0.0
 11
214.30465132422441
 21
328.13934761011171
 31
0.0
  0
LINE
  5
1B25
  8
0
  6
CONTINUOUS
 10
213.80465132422441
 20
337.63934761011171
 30
0.0
 11
213.80465132422441
 21
328.63934761011171
 31
0.0
  0
CIRCLE
  5
1B26
  8
0
  6
CONTINUOUS
 10
157.80465132422449
 20
333.13934761011171
 30
0.0
 40
4.5
  0
CIRCLE
  5
1B27
  8
0
  6
CONTINUOUS
 10
157.80465132422449
 20
333.13934761011171
 30
0.0
 40
4.0
  0
LINE
  5
1B28
  8
0
  6
CONTINUOUS
 62
     4
 10
185.3046513242241
 20
326.60099919480081
 30
0.0
 11
170.30465132422449
 21
339.67769602542268
 31
0.0
  0
LINE
  5
1B29
  8
0
  6
CONTINUOUS
 62
     4
 10
185.3046513242239
 20
339.67769602542279
 30
0.0
 11
170.30465132422449
 21
326.60099919480058
 31
0.0
  0
LINE
  5
1B2A
  8
0
  6
CONTINUOUS
 10
169.80465132422449
 20
319.63934761011171
 30
0.0
 11
169.80465132422449
 21
346.63934761011171
 31
0.0
  0
LINE
  5
1B2B
  8
0
  6
CONTINUOUS
 10
147.80465132422449
 20
323.13934761011171
 30
0.0
 11
147.80465132422449
 21
343.13934761011171
 31
0.0
  0
LINE
  5
1B2C
  8
CENTER
  6
CENTER
 10
157.80465132422449
 20
325.63934761011171
 30
0.0
 11
157.80465132422449
 21
340.63934761011171
 31
0.0
  0
CIRCLE
  5
1B2D
  8
0
  6
CONTINUOUS
 10
94.913310023008236
 20
260.51733672795029
 30
0.0
 40
10.0
  0
LINE
  5
1B2E
  8
0
  6
CONTINUOUS
 10
87.36347558773744
 20
239.51733672795029
 30
0.0
 11
102.4631444582789
 21
239.51733672795029
 31
0.0
  0
LINE
  5
1B2F
  8
0
  6
CONTINUOUS
 10
88.374961607697202
 20
245.01733672795029
 30
0.0
 11
101.4516584383192
 21
245.01733672795029
 31
0.0
  0
LINE
  5
1B30
  8
CENTER
  6
CENTER
 10
81.913310023008222
 20
260.51733672795029
 30
0.0
 11
107.91331002300819
 21
260.51733672795029
 31
0.0
  0
ARC
  5
1B31
  8
0
  6
CONTINUOUS
 10
94.913310023008236
 20
231.51733672795029
 30
0.0
 40
14.5
 50
111.4033496394062
 51
158.59665036059391
  0
LINE
  5
1B32
  8
0
  6
CONTINUOUS
 10
88.374961607697202
 20
218.01733672795029
 30
0.0
 11
101.4516584383192
 21
218.01733672795029
 31
0.0
  0
LINE
  5
1B33
  8
0
  6
CONTINUOUS
 10
87.36347558773744
 20
223.51733672795029
 30
0.0
 11
102.4631444582789
 21
223.51733672795029
 31
0.0
  0
ARC
  5
1B34
  8
0
  6
CONTINUOUS
 10
94.913310023008236
 20
231.51733672795029
 30
0.0
 40
14.5
 50
201.403349639406
 51
248.59665036059371
  0
LINE
  5
1B35
  8
CENTER
  6
CENTER
 10
72.913310023008222
 20
231.51733672795029
 30
0.0
 11
116.91331002300819
 21
231.51733672795029
 31
0.0
  0
ARC
  5
1B36
  8
0
  6
CONTINUOUS
 10
94.913310023008236
 20
231.51733672795029
 30
0.0
 40
10.0
 50
126.869897645843
 51
233.13010235415661
  0
ARC
  5
1B37
  8
0
  6
CONTINUOUS
 62
     2
 10
94.913310023008236
 20
231.51733672795029
 30
0.0
 40
10.199999999999999
 50
128.34274926046771
 51
231.65725073953229
  0
ARC
  5
1B38
  8
0
  6
CONTINUOUS
 10
94.913310023008236
 20
231.51733672795029
 30
0.0
 40
11.0
 50
133.34175822722199
 51
226.65824177277801
  0
LINE
  5
1B39
  8
0
  6
CONTINUOUS
 10
81.413310023008208
 20
238.0556851432612
 30
0.0
 11
81.413310023008208
 21
224.9789883126393
 31
0.0
  0
LINE
  5
1B3A
  8
DIM
  6
CONTINUOUS
 10
67.913310023008222
 20
225.01733672795029
 30
0.0
 11
67.913310023008222
 21
238.01733672795029
 31
0.0
  0
LINE
  5
1B3B
  8
DIM
  6
CONTINUOUS
 10
73.803407750081604
 20
219.88465944371359
 30
0.0
 11
64.417281261875502
 21
210.3972158757218
 31
0.0
  0
TEXT
  5
1B3C
  8
DIM
  6
CONTINUOUS
 10
66.413310023008222
 20
229.44590815652171
 30
0.0
 40
3.0
  1
19
 50
90.0
  7
ROMANSS
 72
     1
 11
64.913310023008222
 21
231.51733672795029
 31
0.0
 73
     2
  0
LINE
  5
1B3D
  8
DIM
  6
CONTINUOUS
 10
64.417281261875502
 20
210.3972158757218
 30
0.0
 11
61.417281261875502
 21
210.3972158757218
 31
0.0
  0
ARC
  5
1B3E
  8
0
  6
CONTINUOUS
 10
94.913310023008236
 20
231.51733672795029
 30
0.0
 40
15.0
 50
205.84193276316671
 51
244.1580672368394
  0
LINE
  5
1B3F
  8
HIDDEN
  6
HIDDEN
 10
75.913310023008222
 20
219.01733672795029
 30
0.0
 11
81.913310023008222
 21
219.01733672795029
 31
0.0
  0
LINE
  5
1B40
  8
CENTER
  6
CENTER
 10
72.999911094413989
 20
222.01733672795029
 30
0.0
 11
86.050163112656548
 21
222.01733672795029
 31
0.0
  0
LINE
  5
1B41
  8
HIDDEN
  6
HIDDEN
 10
75.913310023008222
 20
225.01733672795029
 30
0.0
 11
81.913310023008222
 21
225.01733672795029
 31
0.0
  0
LINE
  5
1B42
  8
DIM
  6
CONTINUOUS
 10
71.999911094413974
 20
222.01733672795029
 30
0.0
 11
66.913310023008222
 21
222.01733672795029
 31
0.0
  0
SOLID
  5
1B43
  8
DIM
  6
CONTINUOUS
 10
67.413310023008222
 20
225.01733672795029
 30
0.0
 11
68.413310023008222
 21
225.01733672795029
 31
0.0
 12
67.913310023008222
 22
222.01733672795029
 32
0.0
 13
67.913310023008222
 23
222.01733672795029
 33
0.0
  0
SOLID
  5
1B44
  8
DIM
  6
CONTINUOUS
 10
73.447961536042186
 20
220.23630982253471
 30
0.0
 11
74.15885396412105
 21
219.5330090648925
 31
0.0
 12
75.913310023008222
 22
222.01733672795029
 32
0.0
 13
75.913310023008222
 23
222.01733672795029
 33
0.0
  0
LINE
  5
1B45
  8
HIDDEN
  6
HIDDEN
 10
81.913310023008222
 20
219.01733672795029
 30
0.0
 11
83.645360830577175
 21
222.01733672795029
 31
0.0
  0
LINE
  5
1B46
  8
HIDDEN
  6
HIDDEN
 10
81.913310023008222
 20
225.01733672795029
 30
0.0
 11
83.645360830577175
 21
222.01733672795029
 31
0.0
  0
LINE
  5
1B47
  8
HIDDEN
  6
HIDDEN
 10
81.913310023008222
 20
225.01733672795021
 30
0.0
 11
81.913310023008222
 21
219.01733672795029
 31
0.0
  0
LINE
  5
1B48
  8
CENTER
  6
CENTER
 10
73.087637456809745
 20
241.01733672795029
 30
0.0
 11
86.050163112656548
 21
241.01733672795029
 31
0.0
  0
LINE
  5
1B49
  8
HIDDEN
  6
HIDDEN
 10
75.913310023008222
 20
238.01733672795029
 30
0.0
 11
81.913310023008222
 21
238.01733672795029
 31
0.0
  0
LINE
  5
1B4A
  8
HIDDEN
  6
HIDDEN
 10
75.913310023008222
 20
244.01733672795029
 30
0.0
 11
81.913310023008222
 21
244.01733672795029
 31
0.0
  0
LINE
  5
1B4B
  8
DIM
  6
CONTINUOUS
 10
72.087637456809745
 20
241.01733672795029
 30
0.0
 11
66.913310023008222
 21
241.01733672795029
 31
0.0
  0
SOLID
  5
1B4C
  8
DIM
  6
CONTINUOUS
 10
67.413310023008222
 20
238.01733672795029
 30
0.0
 11
68.413310023008222
 21
238.01733672795029
 31
0.0
 12
67.913310023008222
 22
241.01733672795029
 32
0.0
 13
67.913310023008222
 23
241.01733672795029
 33
0.0
  0
LINE
  5
1B4D
  8
HIDDEN
  6
HIDDEN
 10
81.913310023008222
 20
244.01733672795029
 30
0.0
 11
83.645360830577175
 21
241.01733672795029
 31
0.0
  0
LINE
  5
1B4E
  8
HIDDEN
  6
HIDDEN
 10
81.913310023008222
 20
244.01733672795029
 30
0.0
 11
81.913310023008222
 21
238.01733672795029
 31
0.0
  0
ARC
  5
1B4F
  8
0
  6
CONTINUOUS
 10
94.913310023008236
 20
231.51733672795029
 30
0.0
 40
15.0
 50
115.8419327631605
 51
154.15806723683329
  0
LINE
  5
1B50
  8
HIDDEN
  6
HIDDEN
 10
81.913310023008222
 20
238.01733672795029
 30
0.0
 11
83.645360830577175
 21
241.01733672795029
 31
0.0
  0
LINE
  5
1B51
  8
HIDDEN
  6
HIDDEN
 10
90.913310023008222
 20
224.01733672795029
 30
0.0
 11
90.913310023008222
 21
239.01733672795041
 31
0.0
  0
ARC
  5
1B52
  8
0
  6
CONTINUOUS
 10
60.663310023008108
 20
231.51733672795029
 30
0.0
 40
49.250000000000199
 50
351.82876644005
 51
8.1712335599499522
  0
LINE
  5
1B53
  8
0
  6
CONTINUOUS
 10
109.41331002300819
 20
238.51733672795029
 30
0.0
 11
109.41331002300819
 21
224.51733672795029
 31
0.0
  0
LINE
  5
1B54
  8
0
  6
CONTINUOUS
 10
109.91331002300819
 20
238.51733672795029
 30
0.0
 11
109.91331002300819
 21
224.51733672795029
 31
0.0
  0
LINE
  5
1B55
  8
0
  6
CONTINUOUS
 10
108.41331002300819
 20
238.0556851432614
 30
0.0
 11
108.41331002300819
 21
224.9789883126393
 31
0.0
  0
ARC
  5
1B56
  8
0
  6
CONTINUOUS
 10
94.913310023008236
 20
231.51733672795029
 30
0.0
 40
10.0
 50
306.86989764584303
 51
53.130102354156641
  0
LINE
  5
1B57
  8
HIDDEN
  6
HIDDEN
 10
98.913310023008236
 20
224.01733672795029
 30
0.0
 11
98.913310023008236
 21
239.01733672795041
 31
0.0
  0
ARC
  5
1B58
  8
0
  6
CONTINUOUS
 10
94.913310023008236
 20
231.51733672795029
 30
0.0
 40
11.0
 50
313.34175822722187
 51
46.658241772777977
  0
ARC
  5
1B59
  8
0
  6
CONTINUOUS
 62
     2
 10
94.913310023008236
 20
231.51733672795029
 30
0.0
 40
10.199999999999999
 50
308.34274926046771
 51
51.657250739532287
  0
ARC
  5
1B5A
  8
0
  6
CONTINUOUS
 10
94.913310023008236
 20
231.51733672795029
 30
0.0
 40
14.5
 50
291.4033496394062
 51
338.5966503605938
  0
ARC
  5
1B5B
  8
0
  6
CONTINUOUS
 10
94.913310023008236
 20
231.51733672795029
 30
0.0
 40
15.0
 50
295.84193276316051
 51
334.15806723683318
  0
LINE
  5
1B5C
  8
HIDDEN
  6
HIDDEN
 10
98.913310023008236
 20
224.01733672795029
 30
0.0
 11
90.913310023008222
 21
224.01733672795029
 31
0.0
  0
LINE
  5
1B5D
  8
HIDDEN
  6
HIDDEN
 10
90.913310023008222
 20
224.01733672795029
 30
0.0
 11
90.413310023008336
 21
223.51733672795029
 31
0.0
  0
LINE
  5
1B5E
  8
HIDDEN
  6
HIDDEN
 10
98.913310023008236
 20
224.01733672795029
 30
0.0
 11
99.413310023008336
 21
223.51733672795029
 31
0.0
  0
LINE
  5
1B5F
  8
0
  6
CONTINUOUS
 10
108.1798091844298
 20
224.51733672795029
 30
0.0
 11
109.91331002300819
 21
224.51733672795029
 31
0.0
  0
LINE
  5
1B60
  8
HIDDEN
  6
HIDDEN
 10
98.913310023008236
 20
239.01733672795041
 30
0.0
 11
90.913310023008222
 21
239.01733672795041
 31
0.0
  0
LINE
  5
1B61
  8
HIDDEN
  6
HIDDEN
 10
90.913310023008222
 20
239.01733672795041
 30
0.0
 11
90.413310023008336
 21
239.51733672795029
 31
0.0
  0
LINE
  5
1B62
  8
HIDDEN
  6
HIDDEN
 10
98.913310023008236
 20
239.01733672795041
 30
0.0
 11
99.413310023008336
 21
239.51733672795029
 31
0.0
  0
ARC
  5
1B63
  8
0
  6
CONTINUOUS
 10
94.913310023008236
 20
231.51733672795029
 30
0.0
 40
15.0
 50
25.841932763166721
 51
64.158067236839457
  0
ARC
  5
1B64
  8
0
  6
CONTINUOUS
 10
94.913310023008236
 20
231.51733672795029
 30
0.0
 40
14.5
 50
21.40334963940608
 51
68.59665036059377
  0
LINE
  5
1B65
  8
0
  6
CONTINUOUS
 10
108.1798091844298
 20
238.51733672795029
 30
0.0
 11
109.91331002300819
 21
238.51733672795029
 31
0.0
  0
CIRCLE
  5
1B66
  8
0
  6
CONTINUOUS
 10
94.913310023008236
 20
260.51733672795029
 30
0.0
 40
5.0
  0
LINE
  5
1B67
  8
0
  6
CONTINUOUS
 10
75.913310023008222
 20
272.51733672795029
 30
0.0
 11
113.91331002300819
 21
272.51733672795029
 31
0.0
  0
LINE
  5
1B68
  8
0
  6
CONTINUOUS
 10
185.80465132422449
 20
245.01733672795029
 30
0.0
 11
169.80465132422449
 21
245.01733672795029
 31
0.0
  0
LINE
  5
1B69
  8
0
  6
CONTINUOUS
 10
170.30465132422449
 20
238.51733672795029
 30
0.0
 11
185.30465132422449
 21
238.51733672795029
 31
0.0
  0
LINE
  5
1B6A
  8
0
  6
CONTINUOUS
 10
185.80465132422449
 20
218.01733672795021
 30
0.0
 11
169.80465132422449
 21
218.01733672795021
 31
0.0
  0
LINE
  5
1B6B
  8
0
  6
CONTINUOUS
 10
170.30465132422449
 20
224.51733672795029
 30
0.0
 11
185.30465132422449
 21
224.51733672795029
 31
0.0
  0
CIRCLE
  5
1B6C
  8
0
  6
CONTINUOUS
 10
178.80465132422449
 20
231.51733672795029
 30
0.0
 40
4.2999999999999536
  0
ARC
  5
1B6D
  8
0
  6
CONTINUOUS
 62
     2
 10
178.80465132422449
 20
231.51733672795021
 30
0.0
 40
4.849999999999965
 50
338.17329732000428
 51
289.97999234916449
  0
SOLID
  5
1B6E
  8
DIM
  6
CONTINUOUS
 10
173.8076275509799
 20
237.6931008515314
 30
0.0
 11
173.06428067960709
 21
237.02419470802519
 31
0.0
 12
175.44267254581189
 22
235.1286071656599
 32
0.0
 13
175.44267254581189
 23
235.1286071656599
 33
0.0
  0
LINE
  5
1B6F
  8
0
  6
CONTINUOUS
 62
     4
 10
170.80465132422449
 20
238.51733672795029
 30
0.0
 11
175.30548477333079
 21
234.016503278844
 31
0.0
  0
LINE
  5
1B70
  8
0
  6
CONTINUOUS
 10
147.80465132422449
 20
239.51733672795029
 30
0.0
 11
147.80465132422449
 21
223.51733672795029
 31
0.0
  0
LINE
  5
1B71
  8
0
  6
CONTINUOUS
 10
148.80465132422449
 20
239.51733672795029
 30
0.0
 11
148.80465132422449
 21
223.51733672795029
 31
0.0
  0
LINE
  5
1B72
  8
0
  6
CONTINUOUS
 10
149.80465132422449
 20
239.51733672795029
 30
0.0
 11
149.80465132422449
 21
223.51733672795029
 31
0.0
  0
LINE
  5
1B73
  8
0
  6
CONTINUOUS
 10
169.80465132422449
 20
245.01733672795029
 30
0.0
 11
169.80465132422449
 21
218.01733672795021
 31
0.0
  0
LINE
  5
1B74
  8
CENTER
  6
CENTER
 10
157.80465132422449
 20
242.51733672795029
 30
0.0
 11
157.80465132422449
 21
220.51733672795029
 31
0.0
  0
ARC
  5
1B75
  8
0
  6
CONTINUOUS
 10
219.55465132422341
 20
231.51733672795041
 30
0.0
 40
49.249999999998948
 50
171.82876644005
 51
188.17123355994991
  0
LINE
  5
1B76
  8
0
  6
CONTINUOUS
 10
167.80465132422449
 20
239.51733672795021
 30
0.0
 11
167.80465132422449
 21
223.51733672795021
 31
0.0
  0
LINE
  5
1B77
  8
0
  6
CONTINUOUS
 10
165.80465132422449
 20
239.51733672795021
 30
0.0
 11
165.80465132422449
 21
223.51733672795021
 31
0.0
  0
LINE
  5
1B78
  8
HIDDEN
  6
HIDDEN
 10
161.80465132422449
 20
224.01733672795029
 30
0.0
 11
161.80465132422449
 21
239.01733672795041
 31
0.0
  0
LINE
  5
1B79
  8
HIDDEN
  6
HIDDEN
 10
153.80465132422449
 20
224.01733672795029
 30
0.0
 11
153.80465132422449
 21
239.01733672795041
 31
0.0
  0
LINE
  5
1B7A
  8
CENTER
  6
CENTER
 10
178.80465132422449
 20
238.51733672795029
 30
0.0
 11
178.80465132422449
 21
224.51733672795029
 31
0.0
  0
LINE
  5
1B7B
  8
HIDDEN
  6
HIDDEN
 10
153.80465132422449
 20
224.01733672795029
 30
0.0
 11
161.80465132422449
 21
224.01733672795029
 31
0.0
  0
LINE
  5
1B7C
  8
0
  6
CONTINUOUS
 10
147.80465132422449
 20
223.51733672795029
 30
0.0
 11
169.80465132422449
 21
223.51733672795021
 31
0.0
  0
LINE
  5
1B7D
  8
HIDDEN
  6
HIDDEN
 10
153.80465132422449
 20
224.01733672795021
 30
0.0
 11
153.30465132422441
 21
223.51733672795021
 31
0.0
  0
LINE
  5
1B7E
  8
0
  6
CONTINUOUS
 10
170.30465132422449
 20
224.51733672795029
 30
0.0
 11
170.30465132422449
 21
218.01733672795021
 31
0.0
  0
LINE
  5
1B7F
  8
HIDDEN
  6
HIDDEN
 10
161.80465132422449
 20
224.01733672795021
 30
0.0
 11
162.30465132422441
 21
223.51733672795021
 31
0.0
  0
LINE
  5
1B80
  8
0
  6
CONTINUOUS
 62
     4
 10
170.80465132422449
 20
224.51733672795029
 30
0.0
 11
174.9118280161226
 21
228.62451341984831
 31
0.0
  0
LINE
  5
1B81
  8
HIDDEN
  6
HIDDEN
 10
153.80465132422449
 20
239.01733672795029
 30
0.0
 11
161.80465132422449
 21
239.01733672795029
 31
0.0
  0
LINE
  5
1B82
  8
0
  6
CONTINUOUS
 10
147.80465132422449
 20
239.51733672795029
 30
0.0
 11
169.80465132422449
 21
239.51733672795021
 31
0.0
  0
LINE
  5
1B83
  8
DIM
  6
CONTINUOUS
 10
163.01282505507729
 20
248.94173825075981
 30
0.0
 11
139.49465942414011
 21
248.9417382507599
 31
0.0
  0
TEXT
  5
1B84
  8
DIM
  6
CONTINUOUS
 10
137.6467908438608
 20
250.4417382507599
 30
0.0
 40
3.0
  1
2-PT1/8
  7
ROMANSS
 72
     2
 11
157.2182194152893
 21
251.9417382507599
 31
0.0
 73
     2
  0
LINE
  5
1B85
  8
HIDDEN
  6
HIDDEN
 10
153.80465132422449
 20
239.01733672795029
 30
0.0
 11
153.30465132422441
 21
239.51733672795029
 31
0.0
  0
LINE
  5
1B86
  8
DIM
  6
CONTINUOUS
 10
173.4359541152935
 20
237.35864777977829
 30
0.0
 11
163.01282505507729
 21
248.94173825075981
 31
0.0
  0
LINE
  5
1B87
  8
HIDDEN
  6
HIDDEN
 10
161.80465132422449
 20
239.01733672795029
 30
0.0
 11
162.30465132422441
 21
239.51733672795029
 31
0.0
  0
LINE
  5
1B88
  8
0
  6
CONTINUOUS
 10
170.30465132422449
 20
245.01733672795029
 30
0.0
 11
170.30465132422449
 21
238.51733672795029
 31
0.0
  0
LINE
  5
1B89
  8
0
  6
CONTINUOUS
 10
216.70465132422461
 20
244.81733672795031
 30
0.0
 11
216.70465132422461
 21
218.21733672795031
 31
0.0
  0
LINE
  5
1B8A
  8
0
  6
CONTINUOUS
 10
217.20465132422461
 20
244.81733672795031
 30
0.0
 11
217.20465132422461
 21
218.21733672795031
 31
0.0
  0
LINE
  5
1B8B
  8
0
  6
CONTINUOUS
 10
217.80465132422441
 20
245.01733672795029
 30
0.0
 11
217.80465132422461
 21
218.01733672795021
 31
0.0
  0
LINE
  5
1B8C
  8
0
  6
CONTINUOUS
 10
186.40465132422449
 20
244.81733672795031
 30
0.0
 11
186.40465132422449
 21
218.2173367279502
 31
0.0
  0
LINE
  5
1B8D
  8
0
  6
CONTINUOUS
 10
186.90465132422449
 20
244.81733672795031
 30
0.0
 11
186.9046513242244
 21
218.2173367279502
 31
0.0
  0
LINE
  5
1B8E
  8
0
  6
CONTINUOUS
 10
185.80465132422449
 20
245.01733672795029
 30
0.0
 11
185.80465132422449
 21
218.01733672795021
 31
0.0
  0
ARC
  5
1B8F
  8
0
  6
CONTINUOUS
 10
267.55465132422341
 20
231.51733672795041
 30
0.0
 40
49.249999999998948
 50
171.82876644005
 51
188.17123355994991
  0
LINE
  5
1B90
  8
CENTER
  6
CENTER
 10
224.80465132422449
 20
238.51733672795029
 30
0.0
 11
224.80465132422449
 21
224.51733672795029
 31
0.0
  0
ARC
  5
1B91
  8
0
  6
CONTINUOUS
 10
136.0546513242256
 20
231.51733672795041
 30
0.0
 40
49.249999999998948
 50
351.82876644005
 51
8.1712335599499522
  0
LINE
  5
1B92
  8
0
 10
186.4046513242246
 20
218.2173367279502
 30
0.0
 11
217.2046513242245
 21
218.2173367279502
 31
0.0
  0
LINE
  5
1B93
  8
0
  6
CONTINUOUS
 10
185.30465132422449
 20
224.51733672795029
 30
0.0
 11
185.30465132422449
 21
218.01733672795029
 31
0.0
  0
LINE
  5
1B94
  8
0
  6
CONTINUOUS
 10
186.4046513242246
 20
218.2173367279502
 30
0.0
 11
185.80465132422449
 21
218.81733672795031
 31
0.0
  0
LINE
  5
1B95
  8
0
  6
CONTINUOUS
 62
     4
 10
181.69747463232639
 20
227.62451341984831
 30
0.0
 11
184.80465132422449
 21
224.51733672795029
 31
0.0
  0
LINE
  5
1B96
  8
0
  6
CONTINUOUS
 10
218.30465132422449
 20
224.51733672795029
 30
0.0
 11
218.30465132422449
 21
218.01733672795029
 31
0.0
  0
LINE
  5
1B97
  8
DIM
  6
CONTINUOUS
 10
205.80465132422441
 20
210.51733672795021
 30
0.0
 11
205.80465132422441
 21
213.51733672795021
 31
0.0
  0
LINE
  5
1B98
  8
DIM
  6
CONTINUOUS
 10
212.32911485999909
 20
207.51733672795029
 30
0.0
 11
204.981124459603
 21
207.51733672795029
 31
0.0
  0
SOLID
  5
1B99
  8
DIM
  6
CONTINUOUS
 10
205.30465132422441
 20
210.51733672795021
 30
0.0
 11
206.30465132422441
 21
210.51733672795021
 31
0.0
 12
205.80465132422441
 22
207.51733672795021
 32
0.0
 13
205.80465132422441
 23
207.51733672795021
 33
0.0
  0
LINE
  5
1B9A
  8
0
  6
CONTINUOUS
 10
213.80465132422441
 20
207.01733672795021
 30
0.0
 11
214.30465132422449
 21
207.51733672795029
 31
0.0
  0
LINE
  5
1B9B
  8
0
  6
CONTINUOUS
 10
217.2046513242245
 20
218.2173367279502
 30
0.0
 11
217.80465132422441
 21
218.81733672795031
 31
0.0
  0
LINE
  5
1B9C
  8
0
  6
CONTINUOUS
 62
     4
 10
221.91182801612251
 20
227.62451341984831
 30
0.0
 11
218.80465132422449
 21
224.51733672795029
 31
0.0
  0
LINE
  5
1B9D
  8
0
 10
186.40465132422449
 20
244.81733672795031
 30
0.0
 11
217.2046513242245
 21
244.81733672795031
 31
0.0
  0
LINE
  5
1B9E
  8
0
  6
CONTINUOUS
 10
185.30465132422449
 20
245.01733672795029
 30
0.0
 11
185.30465132422449
 21
238.51733672795029
 31
0.0
  0
LINE
  5
1B9F
  8
0
  6
CONTINUOUS
 62
     4
 10
181.69747463232639
 20
235.41016003605219
 30
0.0
 11
184.80465132422449
 21
238.51733672795029
 31
0.0
  0
LINE
  5
1BA0
  8
0
  6
CONTINUOUS
 10
186.40465132422449
 20
244.81733672795031
 30
0.0
 11
185.80465132422449
 21
244.2173367279504
 31
0.0
  0
LINE
  5
1BA1
  8
0
  6
CONTINUOUS
 10
218.30465132422449
 20
245.01733672795029
 30
0.0
 11
218.30465132422449
 21
238.51733672795029
 31
0.0
  0
LINE
  5
1BA2
  8
0
  6
CONTINUOUS
 62
     4
 10
221.91182801612251
 20
235.41016003605219
 30
0.0
 11
218.80465132422449
 21
238.51733672795029
 31
0.0
  0
LINE
  5
1BA3
  8
0
  6
CONTINUOUS
 10
217.2046513242245
 20
244.81733672795031
 30
0.0
 11
217.80465132422461
 21
244.2173367279504
 31
0.0
  0
LINE
  5
1BA4
  8
0
  6
CONTINUOUS
 10
214.30465132422449
 20
265.51733672795029
 30
0.0
 11
214.30465132422449
 21
255.51733672795029
 31
0.0
  0
LINE
  5
1BA5
  8
0
  6
CONTINUOUS
 10
213.80465132422441
 20
265.01733672795029
 30
0.0
 11
213.80465132422441
 21
256.01733672795029
 31
0.0
  0
LINE
  5
1BA6
  8
0
  6
CONTINUOUS
 10
213.80465132422441
 20
256.01733672795029
 30
0.0
 11
214.30465132422449
 21
255.51733672795029
 31
0.0
  0
LINE
  5
1BA7
  8
0
  6
CONTINUOUS
 10
214.30465132422449
 20
265.51733672795029
 30
0.0
 11
213.80465132422441
 21
265.01733672795029
 31
0.0
  0
LINE
  5
1BA8
  8
0
  6
CONTINUOUS
 10
170.30465132422449
 20
326.60099919480058
 30
0.0
 11
185.30465132422461
 21
326.60099919480081
 31
0.0
  0
LINE
  5
1BA9
  8
0
  6
CONTINUOUS
 10
185.80465132422449
 20
319.6393476101116
 30
0.0
 11
169.80465132422449
 21
319.63934761011171
 31
0.0
  0
LINE
  5
1BAA
  8
0
  6
CONTINUOUS
 10
184.80465132422449
 20
318.13934761011171
 30
0.0
 11
170.80465132422449
 21
318.13934761011171
 31
0.0
  0
LINE
  5
1BAB
  8
0
  6
CONTINUOUS
 10
149.80465132422449
 20
322.13934761011171
 30
0.0
 11
165.80465132422449
 21
322.13934761011171
 31
0.0
  0
LINE
  5
1BAC
  8
0
  6
CONTINUOUS
 62
     2
 10
149.0046513242246
 20
322.93934761011161
 30
0.0
 11
166.2046513242291
 21
322.93934761011161
 31
0.0
  0
LINE
  5
1BAD
  8
0
  6
CONTINUOUS
 10
149.80465132422449
 20
325.58951317484087
 30
0.0
 11
169.80465132422449
 21
325.58951317484087
 31
0.0
  0
LINE
  5
1BAE
  8
0
  6
CONTINUOUS
 10
148.80465132422449
 20
323.13934761011171
 30
0.0
 11
148.80465132422461
 21
327.13934761011171
 31
0.0
  0
LINE
  5
1BAF
  8
0
  6
CONTINUOUS
 10
149.80465132422449
 20
325.58951317484087
 30
0.0
 11
148.80465132422461
 21
327.13934761011171
 31
0.0
  0
LINE
  5
1BB0
  8
0
  6
CONTINUOUS
 10
149.80465132422449
 20
322.13934761011171
 30
0.0
 11
149.80465132422449
 21
325.58951317484087
 31
0.0
  0
LINE
  5
1BB1
  8
0
  6
CONTINUOUS
 10
147.80465132422449
 20
323.13934761011171
 30
0.0
 11
148.80465132422461
 21
323.13934761011171
 31
0.0
  0
LINE
  5
1BB2
  8
0
  6
CONTINUOUS
 10
149.80465132422449
 20
322.13934761011171
 30
0.0
 11
148.80465132422449
 21
323.13934761011171
 31
0.0
  0
LINE
  5
1BB3
  8
0
  6
CONTINUOUS
 62
     4
 10
153.90380421285201
 20
330.89582542085287
 30
0.0
 11
147.80465132422449
 21
327.13934761011171
 31
0.0
  0
LINE
  5
1BB4
  8
0
  6
CONTINUOUS
 10
147.80465132422449
 20
327.13934761011171
 30
0.0
 11
148.80465132422461
 21
327.13934761011171
 31
0.0
  0
LINE
  5
1BB5
  8
CENTER
  6
CENTER
 10
178.80465132422449
 20
315.13934761011171
 30
0.0
 11
178.80465132422449
 21
328.78523372079889
 31
0.0
  0
LINE
  5
1BB6
  8
0
  6
CONTINUOUS
 62
     4
 10
169.80465132422449
 20
325.58951317484087
 30
0.0
 11
161.5634908626628
 21
330.6652568025072
 31
0.0
  0
LINE
  5
1BB7
  8
0
  6
CONTINUOUS
 10
167.80465132422449
 20
322.13934761011171
 30
0.0
 11
169.80465132422449
 21
322.13934761011171
 31
0.0
  0
LINE
  5
1BB8
  8
0
  6
CONTINUOUS
 10
167.80465132422449
 20
322.13934761011171
 30
0.0
 11
167.80465132422449
 21
325.58951317484087
 31
0.0
  0
LINE
  5
1BB9
  8
0
  6
CONTINUOUS
 10
165.80465132422449
 20
322.13934761011171
 30
0.0
 11
165.80465132422449
 21
325.58951317484087
 31
0.0
  0
ARC
  5
1BBA
  8
0
  6
CONTINUOUS
 10
166.80465132422449
 20
322.13934761011171
 30
0.0
 40
1.0
 50
0.0
 51
180.0
  0
LINE
  5
1BBB
  8
0
  6
CONTINUOUS
 10
170.30465132422449
 20
318.63934761011171
 30
0.0
 11
170.30465132422449
 21
326.60099919480058
 31
0.0
  0
LINE
  5
1BBC
  8
0
  6
CONTINUOUS
 10
170.80465132422449
 20
318.13934761011171
 30
0.0
 11
170.30465132422449
 21
318.63934761011171
 31
0.0
  0
LINE
  5
1BBD
  8
HIDDEN
  6
HIDDEN
 10
174.5046513242246
 20
318.13934761011171
 30
0.0
 11
174.8921513242245
 21
324.33934761011159
 31
0.0
  0
LINE
  5
1BBE
  8
HIDDEN
  6
HIDDEN
 10
173.95465132422461
 20
318.13934761011171
 30
0.0
 11
174.30340132422461
 21
323.71934761011158
 31
0.0
  0
LINE
  5
1BBF
  8
0
  6
CONTINUOUS
 10
170.30465132422449
 20
326.60099919480058
 30
0.0
 11
169.80465132422449
 21
327.84784498798251
 31
0.0
  0
LINE
  5
1BC0
  8
0
 10
186.4046513242246
 20
319.83934761011182
 30
0.0
 11
217.20465132422461
 21
319.83934761011182
 31
0.0
  0
LINE
  5
1BC1
  8
0
  6
CONTINUOUS
 10
185.30465132422449
 20
318.63934761011171
 30
0.0
 11
185.30465132422449
 21
326.60099919480058
 31
0.0
  0
LINE
  5
1BC2
  8
0
  6
CONTINUOUS
 10
186.4046513242246
 20
319.83934761011182
 30
0.0
 11
185.80465132422461
 21
320.43934761011178
 31
0.0
  0
LINE
  5
1BC3
  8
0
  6
CONTINUOUS
 10
184.80465132422449
 20
318.13934761011171
 30
0.0
 11
185.30465132422449
 21
318.63934761011171
 31
0.0
  0
LINE
  5
1BC4
  8
HIDDEN
  6
HIDDEN
 10
182.7171513242246
 20
324.33934761011159
 30
0.0
 11
183.10465132422459
 21
318.13934761011171
 31
0.0
  0
LINE
  5
1BC5
  8
HIDDEN
  6
HIDDEN
 10
183.6546513242246
 20
318.13934761011171
 30
0.0
 11
183.30590132422461
 21
323.71934761011158
 31
0.0
  0
LINE
  5
1BC6
  8
0
  6
CONTINUOUS
 10
185.30465132422449
 20
326.60099919480058
 30
0.0
 11
185.80465132422449
 21
327.84784498798251
 31
0.0
  0
LINE
  5
1BC7
  8
CENTER
  6
CENTER
 10
224.80465132422469
 20
315.13934761011171
 30
0.0
 11
224.80465132422469
 21
328.78523372079889
 31
0.0
  0
LINE
  5
1BC8
  8
0
  6
CONTINUOUS
 10
213.80465132422441
 20
328.63934761011171
 30
0.0
 11
214.30465132422441
 21
328.13934761011171
 31
0.0
  0
LINE
  5
1BC9
  8
0
  6
CONTINUOUS
 10
216.70465132422461
 20
328.13934761011171
 30
0.0
 11
216.70465132422461
 21
319.83934761011182
 31
0.0
  0
LINE
  5
1BCA
  8
0
  6
CONTINUOUS
 10
217.2046513242247
 20
328.13934761011171
 30
0.0
 11
217.2046513242247
 21
319.83934761011182
 31
0.0
  0
LINE
  5
1BCB
  8
0
  6
CONTINUOUS
 10
217.80465132422469
 20
319.6393476101116
 30
0.0
 11
217.80465132422469
 21
328.13934761011171
 31
0.0
  0
LINE
  5
1BCC
  8
0
  6
CONTINUOUS
 10
218.30465132422469
 20
318.63934761011171
 30
0.0
 11
218.30465132422469
 21
326.60099919480058
 31
0.0
  0
LINE
  5
1BCD
  8
0
  6
CONTINUOUS
 10
218.80465132422469
 20
318.13934761011171
 30
0.0
 11
218.30465132422469
 21
318.63934761011171
 31
0.0
  0
LINE
  5
1BCE
  8
HIDDEN
  6
HIDDEN
 10
220.8921513242247
 20
324.33934761011159
 30
0.0
 11
220.50465132422471
 21
318.13934761011171
 31
0.0
  0
LINE
  5
1BCF
  8
HIDDEN
  6
HIDDEN
 10
219.9546513242247
 20
318.13934761011171
 30
0.0
 11
220.30340132422469
 21
323.71934761011158
 31
0.0
  0
LINE
  5
1BD0
  8
0
  6
CONTINUOUS
 10
217.20465132422461
 20
319.83934761011182
 30
0.0
 11
217.80465132422449
 21
320.43934761011178
 31
0.0
  0
LINE
  5
1BD1
  8
0
  6
CONTINUOUS
 62
     4
 10
218.30465132422509
 20
326.60099919480081
 30
0.0
 11
220.06925797746081
 21
328.13934761011171
 31
0.0
  0
LINE
  5
1BD2
  8
0
  6
CONTINUOUS
 10
218.30465132422469
 20
326.60099919480058
 30
0.0
 11
217.80465132422469
 21
327.84784498798251
 31
0.0
  0
LINE
  5
1BD3
  8
0
  6
CONTINUOUS
 10
185.80465132422449
 20
346.63934761011171
 30
0.0
 11
169.80465132422449
 21
346.63934761011171
 31
0.0
  0
LINE
  5
1BD4
  8
0
  6
CONTINUOUS
 10
170.30465132422449
 20
339.67769602542268
 30
0.0
 11
185.30465132422461
 21
339.67769602542279
 31
0.0
  0
LINE
  5
1BD5
  8
0
  6
CONTINUOUS
 10
149.80465132422449
 20
344.13934761011171
 30
0.0
 11
165.80465132422449
 21
344.13934761011171
 31
0.0
  0
LINE
  5
1BD6
  8
0
  6
CONTINUOUS
 62
     2
 10
149.0046513242246
 20
343.3393476101117
 30
0.0
 11
166.2046513242247
 21
343.3393476101117
 31
0.0
  0
LINE
  5
1BD7
  8
0
  6
CONTINUOUS
 10
149.80465132422449
 20
340.68918204538249
 30
0.0
 11
169.80465132422449
 21
340.68918204538249
 31
0.0
  0
LINE
  5
1BD8
  8
0
  6
CONTINUOUS
 10
149.80465132422449
 20
340.68918204538249
 30
0.0
 11
149.80465132422449
 21
344.13934761011171
 31
0.0
  0
LINE
  5
1BD9
  8
0
  6
CONTINUOUS
 10
148.80465132422449
 20
339.13934761011171
 30
0.0
 11
148.80465132422449
 21
343.13934761011171
 31
0.0
  0
LINE
  5
1BDA
  8
0
  6
CONTINUOUS
 62
     4
 10
153.90380421285201
 20
335.3828697993705
 30
0.0
 11
147.80465132422449
 21
339.13934761011171
 31
0.0
  0
LINE
  5
1BDB
  8
0
  6
CONTINUOUS
 10
147.80465132422449
 20
339.13934761011171
 30
0.0
 11
148.80465132422449
 21
339.13934761011171
 31
0.0
  0
LINE
  5
1BDC
  8
0
  6
CONTINUOUS
 10
148.80465132422449
 20
339.13934761011171
 30
0.0
 11
149.80465132422449
 21
340.68918204538249
 31
0.0
  0
LINE
  5
1BDD
  8
0
  6
CONTINUOUS
 10
147.80465132422449
 20
343.13934761011171
 30
0.0
 11
148.80465132422449
 21
343.13934761011171
 31
0.0
  0
LINE
  5
1BDE
  8
0
  6
CONTINUOUS
 10
148.80465132422449
 20
343.13934761011171
 30
0.0
 11
149.80465132422449
 21
344.13934761011171
 31
0.0
  0
LINE
  5
1BDF
  8
0
  6
CONTINUOUS
 62
     4
 10
169.80465132422449
 20
340.68918204538249
 30
0.0
 11
161.56349086266289
 21
335.61343841771611
 31
0.0
  0
LINE
  5
1BE0
  8
0
  6
CONTINUOUS
 10
167.80465132422449
 20
344.13934761011171
 30
0.0
 11
169.80465132422449
 21
344.13934761011171
 31
0.0
  0
LINE
  5
1BE1
  8
0
  6
CONTINUOUS
 10
167.80465132422449
 20
340.68918204538249
 30
0.0
 11
167.80465132422449
 21
344.13934761011171
 31
0.0
  0
LINE
  5
1BE2
  8
0
  6
CONTINUOUS
 10
165.80465132422449
 20
340.68918204538249
 30
0.0
 11
165.80465132422449
 21
344.13934761011171
 31
0.0
  0
ARC
  5
1BE3
  8
0
  6
CONTINUOUS
 10
166.80465132422449
 20
344.13934761011171
 30
0.0
 40
1.0
 50
180.0
 51
0.0
  0
LINE
  5
1BE4
  8
0
  6
CONTINUOUS
 10
170.30465132422449
 20
339.67769602542268
 30
0.0
 11
170.30465132422449
 21
346.63934761011183
 31
0.0
  0
LINE
  5
1BE5
  8
0
  6
CONTINUOUS
 10
170.30465132422449
 20
339.67769602542268
 30
0.0
 11
169.80465132422449
 21
338.43085023224091
 31
0.0
  0
LINE
  5
1BE6
  8
0
 10
186.40465132422449
 20
346.43934761011178
 30
0.0
 11
217.20465132422461
 21
346.43934761011178
 31
0.0
  0
LINE
  5
1BE7
  8
0
  6
CONTINUOUS
 10
185.30465132422449
 20
339.67769602542268
 30
0.0
 11
185.30465132422449
 21
346.63934761011183
 31
0.0
  0
LINE
  5
1BE8
  8
0
  6
CONTINUOUS
 10
185.30465132422449
 20
339.67769602542268
 30
0.0
 11
185.80465132422449
 21
338.43085023224091
 31
0.0
  0
LINE
  5
1BE9
  8
0
  6
CONTINUOUS
 10
186.40465132422449
 20
346.43934761011178
 30
0.0
 11
185.80465132422449
 21
345.83934761011187
 31
0.0
  0
LINE
  5
1BEA
  8
0
  6
CONTINUOUS
 10
214.30465132422441
 20
338.13934761011171
 30
0.0
 11
213.80465132422441
 21
337.63934761011171
 31
0.0
  0
LINE
  5
1BEB
  8
0
  6
CONTINUOUS
 10
216.70465132422461
 20
346.43934761011178
 30
0.0
 11
216.70465132422461
 21
338.13934761011171
 31
0.0
  0
LINE
  5
1BEC
  8
0
  6
CONTINUOUS
 10
217.2046513242247
 20
346.43934761011178
 30
0.0
 11
217.2046513242247
 21
338.13934761011171
 31
0.0
  0
LINE
  5
1BED
  8
0
  6
CONTINUOUS
 10
217.80465132422469
 20
338.13934761011171
 30
0.0
 11
217.80465132422469
 21
346.63934761011171
 31
0.0
  0
LINE
  5
1BEE
  8
0
  6
CONTINUOUS
 10
218.30465132422469
 20
339.67769602542268
 30
0.0
 11
218.30465132422469
 21
346.63934761011183
 31
0.0
  0
LINE
  5
1BEF
  8
0
  6
CONTINUOUS
 62
     4
 10
218.30465132422529
 20
339.67769602542279
 30
0.0
 11
220.06925797746121
 21
338.13934761011171
 31
0.0
  0
LINE
  5
1BF0
  8
0
  6
CONTINUOUS
 10
218.30465132422469
 20
339.67769602542268
 30
0.0
 11
217.80465132422469
 21
338.43085023224091
 31
0.0
  0
LINE
  5
1BF1
  8
0
  6
CONTINUOUS
 10
217.20465132422461
 20
346.43934761011178
 30
0.0
 11
217.80465132422461
 21
345.83934761011187
 31
0.0
  0
LINE
  5
1BF2
  8
CENTER
  6
CENTER
 10
271.30465132422438
 20
188.6342532871069
 30
0.0
 11
271.30465132422438
 21
207.51733672795029
 31
0.0
  0
LINE
  5
1BF3
  8
HIDDEN
  6
HIDDEN
 10
268.80465132422449
 20
190.51733672795029
 30
0.0
 11
268.80465132422449
 21
204.51733672795021
 31
0.0
  0
LINE
  5
1BF4
  8
HIDDEN
  6
HIDDEN
 10
273.80465132422438
 20
190.51733672795029
 30
0.0
 11
273.80465132422438
 21
204.51733672795021
 31
0.0
  0
LINE
  5
1BF5
  8
HIDDEN
  6
HIDDEN
 10
236.30465132422441
 20
190.51733672795029
 30
0.0
 11
236.30465132422441
 21
204.51733672795021
 31
0.0
  0
LINE
  5
1BF6
  8
CENTER
  6
CENTER
 10
238.80465132422441
 20
188.6342532871069
 30
0.0
 11
238.80465132422441
 21
207.51733672795029
 31
0.0
  0
LINE
  5
1BF7
  8
HIDDEN
  6
HIDDEN
 10
241.30465132422449
 20
190.51733672795029
 30
0.0
 11
241.30465132422449
 21
204.51733672795021
 31
0.0
  0
POLYLINE
  5
1BF8
  8
0
  6
CONTINUOUS
 66
     1
 10
0.0
 20
0.0
 30
0.0
 70
     1
  0
VERTEX
  5
2167
  8
0
  6
CONTINUOUS
 10
373.06964676828181
 20
204.51733672795021
 30
0.0
  0
VERTEX
  5
2168
  8
0
  6
CONTINUOUS
 10
371.91494622990359
 20
202.51733672795021
 30
0.0
  0
VERTEX
  5
2169
  8
0
  6
CONTINUOUS
 10
373.06964676828181
 20
200.51733672795021
 30
0.0
  0
VERTEX
  5
216A
  8
0
  6
CONTINUOUS
 10
375.37904784504173
 20
200.51733672795021
 30
0.0
  0
VERTEX
  5
216B
  8
0
  6
CONTINUOUS
 10
376.53374838341989
 20
202.51733672795021
 30
0.0
  0
VERTEX
  5
216C
  8
0
  6
CONTINUOUS
 10
375.37904784504173
 20
204.51733672795021
 30
0.0
  0
SEQEND
  5
216D
  8
0
  6
CONTINUOUS
  0
CIRCLE
  5
1BF9
  8
0
  6
CONTINUOUS
 10
374.2243473066618
 20
202.51733672795021
 30
0.0
 40
3.9035796766743651
  0
CIRCLE
  5
1BFA
  8
0
  6
CONTINUOUS
 10
374.2243473066618
 20
202.51733672795021
 30
0.0
 40
4.25
  0
SOLID
  5
1BFB
  8
DIM
  6
CONTINUOUS
 10
330.30465132422432
 20
205.51733672795029
 30
0.0
 11
331.30465132422432
 21
205.51733672795029
 31
0.0
 12
330.80465132422432
 22
202.51733672795021
 32
0.0
 13
330.80465132422432
 23
202.51733672795021
 33
0.0
  0
LINE
  5
1BFC
  8
0
  6
CONTINUOUS
 10
283.80465132422449
 20
214.51733672795029
 30
0.0
 11
283.80465132422449
 21
190.51733672795029
 31
0.0
  0
LINE
  5
1BFD
  8
DIM
  6
CONTINUOUS
 10
242.30465132422449
 20
202.9961078382062
 30
0.0
 11
242.30465132422441
 21
181.51733672795021
 31
0.0
  0
LINE
  5
1BFE
  8
DIM
  6
CONTINUOUS
 10
338.80465132422421
 20
195.51733672795029
 30
0.0
 11
338.80465132422421
 21
267.51733672795029
 31
0.0
  0
LINE
  5
1BFF
  8
CENTER
  6
CENTER
 10
364.22434730666168
 20
270.51733672795041
 30
0.0
 11
364.22434730666191
 21
192.51733672795029
 31
0.0
  0
LINE
  5
1C00
  8
0
  6
CONTINUOUS
 10
286.80465132422438
 20
270.51733672795029
 30
0.0
 11
286.80465132422438
 21
192.51733672795029
 31
0.0
  0
LINE
  5
1C01
  8
0
  6
CONTINUOUS
 10
355.2243473066618
 20
272.51733672795029
 30
0.0
 11
355.2243473066618
 21
190.51733672795029
 31
0.0
  0
LINE
  5
1C02
  8
0
  6
CONTINUOUS
 10
357.2243473066618
 20
270.51733672795029
 30
0.0
 11
357.2243473066618
 21
192.51733672795029
 31
0.0
  0
LINE
  5
1C03
  8
0
  6
CONTINUOUS
 10
298.80465132422438
 20
270.51733672795029
 30
0.0
 11
298.80465132422438
 21
192.51733672795029
 31
0.0
  0
LINE
  5
1C04
  8
DIM
  6
CONTINUOUS
 10
409.22434730666163
 20
200.51733672795021
 30
0.0
 11
409.22434730666163
 21
262.51733672795029
 31
0.0
  0
LINE
  5
1C05
  8
DIM
  6
CONTINUOUS
 10
417.22434730666163
 20
193.51733672795029
 30
0.0
 11
417.22434730666163
 21
269.51733672795029
 31
0.0
  0
LINE
  5
1C06
  8
CENTER
  6
CENTER
 10
384.2243473066618
 20
270.51733672795041
 30
0.0
 11
384.2243473066618
 21
192.51733672795029
 31
0.0
  0
LINE
  5
1C07
  8
0
  6
CONTINUOUS
 10
393.2243473066618
 20
272.51733672795029
 30
0.0
 11
393.2243473066618
 21
190.51733672795029
 31
0.0
  0
LINE
  5
1C08
  8
CENTER
  6
CENTER
 10
374.2243473066618
 20
275.51733672795029
 30
0.0
 11
374.2243473066618
 21
187.51733672795029
 31
0.0
  0
LINE
  5
1C09
  8
0
  6
CONTINUOUS
 10
391.2243473066618
 20
270.51733672795029
 30
0.0
 11
391.2243473066618
 21
192.51733672795029
 31
0.0
  0
POLYLINE
  5
1C0A
  8
0
  6
CONTINUOUS
 66
     1
 10
0.0
 20
0.0
 30
0.0
 70
     1
 40
1.0
 41
1.0
  0
VERTEX
  5
216E
  8
0
  6
CONTINUOUS
 10
259.30465132422438
 20
202.51733672795029
 30
0.0
 42
1.0
  0
VERTEX
  5
216F
  8
0
  6
CONTINUOUS
 10
258.30465132422449
 20
202.51733672795029
 30
0.0
 42
1.0
  0
SEQEND
  5
2170
  8
0
  6
CONTINUOUS
  0
LINE
  5
1C0B
  8
0
  6
CONTINUOUS
 10
233.80465132422441
 20
272.51733672795029
 30
0.0
 11
233.80465132422441
 21
190.51733672795029
 31
0.0
  0
CIRCLE
  5
1C0C
  8
0
  6
CONTINUOUS
 10
258.80465132422438
 20
202.51733672795029
 30
0.0
 40
4.0
  0
LINE
  5
1C0D
  8
DIM
  6
CONTINUOUS
 10
394.69490375016647
 20
190.51733672795029
 30
0.0
 11
418.22434730666163
 21
190.51733672795029
 31
0.0
  0
LINE
  5
1C0E
  8
DIM
  6
CONTINUOUS
 10
302.80465132422438
 20
202.51733672795021
 30
0.0
 11
331.80465132422432
 21
202.51733672795021
 31
0.0
  0
LINE
  5
1C0F
  8
DIM
  6
CONTINUOUS
 10
299.80465132422449
 20
192.51733672795029
 30
0.0
 11
339.80465132422421
 21
192.51733672795029
 31
0.0
  0
TEXT
  5
1C10
  8
DIM
  6
CONTINUOUS
 10
256.84238684240859
 20
135.45838624304571
 30
0.0
 40
3.0
  1
6.5
 50
90.0
  7
ROMANSS
 72
     1
 11
255.34238684240859
 21
138.60124338590279
 31
0.0
 73
     2
  0
LINE
  5
1C11
  8
DIM
  6
CONTINUOUS
 10
258.34238684240859
 20
119.1838200285591
 30
0.0
 11
258.3423868424087
 21
141.5478740066778
 31
0.0
  0
LINE
  5
1C12
  8
DIM
  6
CONTINUOUS
 10
237.0546513242243
 20
133.57059434503199
 30
0.0
 11
237.0546513242243
 21
148.63795226097
 31
0.0
  0
LINE
  5
1C13
  8
DIM
  6
CONTINUOUS
 10
245.55465132422449
 20
126.73417623730499
 30
0.0
 11
245.55465132422449
 21
140.63795226097
 31
0.0
  0
LINE
  5
1C14
  8
DIM
  6
CONTINUOUS
 10
247.55465132422469
 20
133.57059434503199
 30
0.0
 11
247.55465132422469
 21
148.63795226097
 31
0.0
  0
LINE
  5
1C15
  8
DIM
  6
CONTINUOUS
 10
239.05465132422461
 20
126.73417623730499
 30
0.0
 11
239.05465132422461
 21
140.63795226097
 31
0.0
  0
LINE
  5
1C16
  8
0
  6
CONTINUOUS
 10
233.80465132422449
 20
94.101243385903004
 30
0.0
 11
283.80465132422461
 21
94.101243385903018
 31
0.0
  0
LINE
  5
1C17
  8
0
  6
CONTINUOUS
 10
233.80465132422449
 20
132.1012433859029
 30
0.0
 11
283.80465132422461
 21
132.1012433859029
 31
0.0
  0
ARC
  5
1C18
  8
0
 62
     2
 10
271.30465132422449
 20
126.1012433859029
 30
0.0
 40
3.0000000000000031
 50
255.00000000000551
 51
194.9999999999944
  0
ARC
  5
1C19
  8
0
 62
     2
 10
271.30465132422449
 20
100.1012433859029
 30
0.0
 40
3.0000000000000031
 50
255.00000000000551
 51
194.9999999999944
  0
LINE
  5
1C1A
  8
CENTER
  6
CENTER
 10
265.30465132422449
 20
126.1012433859029
 30
0.0
 11
277.30465132422449
 21
126.1012433859029
 31
0.0
  0
LINE
  5
1C1B
  8
CENTER
  6
CENTER
 10
265.30465132422449
 20
100.1012433859029
 30
0.0
 11
277.30465132422449
 21
100.1012433859029
 31
0.0
  0
SOLID
  5
1C1C
  8
DIM
  6
CONTINUOUS
 10
275.1108309609225
 20
95.425474337986401
 30
0.0
 11
275.81822275108851
 21
96.132295995270255
 31
0.0
 12
273.34406188415369
 22
97.901060537126753
 32
0.0
 13
273.34406188415369
 23
97.901060537126753
 33
0.0
  0
LINE
  5
1C1D
  8
0
  6
CONTINUOUS
 10
233.30465132422481
 20
106.5628949705919
 30
0.0
 11
233.30465132422481
 21
99.601243385902876
 31
0.0
  0
LINE
  5
1C1E
  8
0
  6
CONTINUOUS
 10
233.80465132422441
 20
132.1012433859029
 30
0.0
 11
233.80465132422441
 21
94.101243385902961
 31
0.0
  0
LINE
  5
1C1F
  8
CENTER
  6
CENTER
 10
271.30465132422449
 20
106.1012433859029
 30
0.0
 11
271.30465132422449
 21
94.101243385902833
 31
0.0
  0
LINE
  5
1C20
  8
CENTER
  6
CENTER
 10
238.80465132422449
 20
106.1012433859029
 30
0.0
 11
238.80465132422449
 21
94.101243385902961
 31
0.0
  0
LINE
  5
1C21
  8
HIDDEN
  6
HIDDEN
 10
245.55465132422461
 20
125.6012433859029
 30
0.0
 11
245.55465132422461
 21
94.101243385903032
 31
0.0
  0
LINE
  5
1C22
  8
HIDDEN
  6
HIDDEN
 10
239.05465132422461
 20
125.6012433859029
 30
0.0
 11
239.05465132422461
 21
94.101243385903032
 31
0.0
  0
LINE
  5
1C23
  8
CENTER
  6
CENTER
 10
242.30465132422441
 20
91.27012925915453
 30
0.0
 11
242.30465132422449
 21
135.44566229066879
 31
0.0
  0
ARC
  5
1C24
  8
0
 62
     2
 10
238.80465132422449
 20
100.1012433859029
 30
0.0
 40
3.0000000000000031
 50
255.00000000000551
 51
194.9999999999944
  0
CIRCLE
  5
1C25
  8
0
 10
238.80465132422449
 20
100.1012433859029
 30
0.0
 40
2.5
  0
LINE
  5
1C26
  8
CENTER
  6
CENTER
 10
232.80465132422449
 20
100.1012433859029
 30
0.0
 11
244.80465132422449
 21
100.1012433859029
 31
0.0
  0
CIRCLE
  5
1C27
  8
0
 10
271.30465132422449
 20
100.1012433859029
 30
0.0
 40
2.5
  0
LINE
  5
1C28
  8
DIM
  6
CONTINUOUS
 10
259.7870667372095
 20
125.6012433859029
 30
0.0
 11
248.7529259546391
 21
125.6012433859029
 31
0.0
  0
LINE
  5
1C29
  8
0
  6
CONTINUOUS
 10
233.30465132422481
 20
127.6012433859029
 30
0.0
 11
233.30465132422481
 21
119.639591801214
 31
0.0
  0
LINE
  5
1C2A
  8
0
  6
CONTINUOUS
 10
233.30465132422481
 20
106.5628949705919
 30
0.0
 11
233.80465132422481
 21
107.8097407637737
 31
0.0
  0
LINE
  5
1C2B
  8
0
  6
CONTINUOUS
 62
     4
 10
231.54004467098881
 20
108.1012433859029
 30
0.0
 11
233.30465132422481
 21
106.5628949705919
 31
0.0
  0
LINE
  5
1C2C
  8
0
  6
CONTINUOUS
 10
233.30465132422481
 20
119.639591801214
 30
0.0
 11
233.80465132422481
 21
118.3927460080322
 31
0.0
  0
LINE
  5
1C2D
  8
0
  6
CONTINUOUS
 62
     4
 10
231.54004467098889
 20
118.1012433859029
 30
0.0
 11
233.30465132422481
 21
119.639591801214
 31
0.0
  0
ARC
  5
1C2E
  8
0
 62
     2
 10
238.80465132422449
 20
126.1012433859029
 30
0.0
 40
3.0000000000000031
 50
255.00000000000551
 51
194.9999999999944
  0
CIRCLE
  5
1C2F
  8
0
 10
238.80465132422449
 20
126.1012433859029
 30
0.0
 40
2.5
  0
LINE
  5
1C30
  8
CENTER
  6
CENTER
 10
232.80465132422449
 20
126.1012433859029
 30
0.0
 11
244.80465132422449
 21
126.1012433859029
 31
0.0
  0
LINE
  5
1C31
  8
HIDDEN
  6
HIDDEN
 10
237.05465132422449
 20
125.6012433859029
 30
0.0
 11
247.55465132422461
 21
125.6012433859029
 31
0.0
  0
LINE
  5
1C32
  8
HIDDEN
  6
HIDDEN
 10
237.05465132422449
 20
132.1012433859029
 30
0.0
 11
237.05465132422449
 21
125.6012433859029
 31
0.0
  0
LINE
  5
1C33
  8
0
  6
CONTINUOUS
 10
232.80465132422481
 20
128.1012433859029
 30
0.0
 11
233.30465132422481
 21
127.6012433859029
 31
0.0
  0
LINE
  5
1C34
  8
HIDDEN
  6
HIDDEN
 10
229.1046513242247
 20
128.1012433859029
 30
0.0
 11
228.7171513242248
 21
121.901243385903
 31
0.0
  0
LINE
  5
1C35
  8
HIDDEN
  6
HIDDEN
 10
229.65465132422469
 20
128.1012433859029
 30
0.0
 11
229.30590132422469
 21
122.52124338590301
 31
0.0
  0
LINE
  5
1C36
  8
HIDDEN
  6
HIDDEN
 10
247.55465132422469
 20
132.1012433859029
 30
0.0
 11
247.55465132422461
 21
125.6012433859029
 31
0.0
  0
LINE
  5
1C37
  8
CENTER
  6
CENTER
 10
271.30465132422449
 20
132.1012433859029
 30
0.0
 11
271.30465132422449
 21
120.1012433859029
 31
0.0
  0
SOLID
  5
1C38
  8
DIM
  6
CONTINUOUS
 10
258.84238684240859
 20
122.60124338590281
 30
0.0
 11
257.84238684240859
 21
122.60124338590281
 31
0.0
 12
258.34238684240859
 22
125.60124338590281
 32
0.0
 13
258.34238684240859
 23
125.60124338590281
 33
0.0
  0
SOLID
  5
1C39
  8
DIM
  6
CONTINUOUS
 10
258.84238684240859
 20
135.10124338590299
 30
0.0
 11
257.84238684240859
 21
135.10124338590299
 31
0.0
 12
258.34238684240859
 22
132.10124338590299
 32
0.0
 13
258.34238684240859
 23
132.10124338590299
 33
0.0
  0
CIRCLE
  5
1C3A
  8
0
 10
271.30465132422449
 20
126.1012433859029
 30
0.0
 40
2.5
  0
LINE
  5
1C3B
  8
HIDDEN
  6
HIDDEN
 10
292.20465132422441
 20
107.85124338590281
 30
0.0
 11
292.20465132422441
 21
98.351243385902833
 31
0.0
  0
LINE
  5
1C3C
  8
0
  6
CONTINUOUS
 10
298.80465132422438
 20
130.1012433859029
 30
0.0
 11
298.80465132422438
 21
96.101243385903032
 31
0.0
  0
LINE
  5
1C3D
  8
0
  6
CONTINUOUS
 10
286.80465132422438
 20
130.1012433859029
 30
0.0
 11
286.80465132422461
 21
96.101243385903032
 31
0.0
  0
LINE
  5
1C3E
  8
0
  6
CONTINUOUS
 10
283.80465132422449
 20
132.1012433859029
 30
0.0
 11
283.80465132422449
 21
94.101243385903018
 31
0.0
  0
LINE
  5
1C3F
  8
DIM
  6
CONTINUOUS
 10
306.80465132422438
 20
103.101243385903
 30
0.0
 11
306.80465132422438
 21
123.101243385903
 31
0.0
  0
LINE
  5
1C40
  8
HIDDEN
  6
HIDDEN
 10
286.80465132422438
 20
101.10124338590281
 30
0.0
 11
298.80465132422438
 21
101.10124338590281
 31
0.0
  0
LINE
  5
1C41
  8
HIDDEN
  6
HIDDEN
 10
286.80465132422438
 20
100.60124338590281
 30
0.0
 11
298.80465132422438
 21
100.6012433859029
 31
0.0
  0
LINE
  5
1C42
  8
HIDDEN
  6
HIDDEN
 10
298.80465132422449
 20
100.3512433859029
 30
0.0
 11
292.20465132422441
 21
100.3512433859029
 31
0.0
  0
LINE
  5
1C43
  8
CENTER
  6
CENTER
 10
283.80465132422461
 20
103.10124338590281
 30
0.0
 11
301.80465132422449
 21
103.10124338590281
 31
0.0
  0
LINE
  5
1C44
  8
0
  6
CONTINUOUS
 10
286.80465132422438
 20
96.101243385903032
 30
0.0
 11
298.80465132422438
 21
96.101243385903032
 31
0.0
  0
LINE
  5
1C45
  8
DIM
  6
CONTINUOUS
 10
278.38204768614492
 20
100.101243385903
 30
0.0
 11
307.80465132422432
 21
100.101243385903
 31
0.0
  0
TEXT
  5
1C46
  8
DIM
  6
CONTINUOUS
 10
290.16493546905059
 20
86.569845444532405
 30
0.0
 40
3.0
  1
4-M6x11L
  7
ROMANSS
 11
290.16493546905059
 21
88.069845444532405
 31
0.0
 73
     2
  0
LINE
  5
1C47
  8
DIM
  6
CONTINUOUS
 10
286.16493546905048
 20
85.069845444532419
 30
0.0
 11
311.08426145306692
 21
85.069845444532419
 31
0.0
  0
LINE
  5
1C48
  8
DIM
  6
CONTINUOUS
 10
275.46452685600542
 20
95.778885166628314
 30
0.0
 11
286.16493546905059
 21
85.069845444532419
 31
0.0
  0
LINE
  5
1C49
  8
0
  6
CONTINUOUS
 10
283.80465132422449
 20
96.601243385903018
 30
0.0
 11
286.80465132422461
 21
96.601243385903018
 31
0.0
  0
LINE
  5
1C4A
  8
HIDDEN
  6
HIDDEN
 10
292.20465132422441
 20
98.351243385902876
 30
0.0
 11
286.80465132422438
 21
98.351243385902876
 31
0.0
  0
SOLID
  5
1C4B
  8
DIM
  6
CONTINUOUS
 10
306.30465132422432
 20
103.101243385903
 30
0.0
 11
307.30465132422432
 21
103.101243385903
 31
0.0
 12
306.80465132422438
 22
100.101243385903
 32
0.0
 13
306.80465132422438
 23
100.101243385903
 33
0.0
  0
LINE
  5
1C4C
  8
HIDDEN
  6
HIDDEN
 10
286.80465132422438
 20
121.101243385903
 30
0.0
 11
298.80465132422438
 21
121.101243385903
 31
0.0
  0
LINE
  5
1C4D
  8
HIDDEN
  6
HIDDEN
 10
286.80465132422438
 20
120.601243385903
 30
0.0
 11
298.80465132422438
 21
120.6012433859031
 31
0.0
  0
LINE
  5
1C4E
  8
HIDDEN
  6
HIDDEN
 10
286.80465132422438
 20
125.601243385903
 30
0.0
 11
298.80465132422438
 21
125.601243385903
 31
0.0
  0
LINE
  5
1C4F
  8
HIDDEN
  6
HIDDEN
 10
286.80465132422438
 20
125.101243385903
 30
0.0
 11
298.80465132422438
 21
125.101243385903
 31
0.0
  0
LINE
  5
1C50
  8
HIDDEN
  6
HIDDEN
 10
286.80465132422438
 20
105.60124338590281
 30
0.0
 11
298.80465132422438
 21
105.60124338590281
 31
0.0
  0
LINE
  5
1C51
  8
HIDDEN
  6
HIDDEN
 10
286.80465132422438
 20
105.10124338590281
 30
0.0
 11
298.80465132422438
 21
105.10124338590281
 31
0.0
  0
LINE
  5
1C52
  8
HIDDEN
  6
HIDDEN
 10
298.80465132422449
 20
120.3512433859031
 30
0.0
 11
292.20465132422441
 21
120.3512433859031
 31
0.0
  0
LINE
  5
1C53
  8
HIDDEN
  6
HIDDEN
 10
298.80465132422449
 20
125.8512433859029
 30
0.0
 11
292.20465132422441
 21
125.851243385903
 31
0.0
  0
LINE
  5
1C54
  8
HIDDEN
  6
HIDDEN
 10
298.80465132422449
 20
105.85124338590271
 30
0.0
 11
292.20465132422441
 21
105.85124338590281
 31
0.0
  0
LINE
  5
1C55
  8
CENTER
  6
CENTER
 10
283.80465132422449
 20
123.101243385903
 30
0.0
 11
301.80465132422449
 21
123.101243385903
 31
0.0
  0
LINE
  5
1C56
  8
0
  6
CONTINUOUS
 10
286.80465132422438
 20
130.1012433859029
 30
0.0
 11
298.80465132422438
 21
130.1012433859029
 31
0.0
  0
LINE
  5
1C57
  8
DIM
  6
CONTINUOUS
 10
278.3820476861448
 20
126.101243385903
 30
0.0
 11
307.80465132422432
 21
126.1012433859029
 31
0.0
  0
LINE
  5
1C58
  8
HIDDEN
  6
HIDDEN
 10
292.20465132422441
 20
127.851243385903
 30
0.0
 11
292.20465132422441
 21
118.3512433859029
 31
0.0
  0
LINE
  5
1C59
  8
0
  6
CONTINUOUS
 10
283.80465132422449
 20
118.1012433859029
 30
0.0
 11
286.80465132422438
 21
118.1012433859029
 31
0.0
  0
LINE
  5
1C5A
  8
0
  6
CONTINUOUS
 10
283.80465132422449
 20
108.101243385903
 30
0.0
 11
286.80465132422438
 21
108.101243385903
 31
0.0
  0
LINE
  5
1C5B
  8
HIDDEN
  6
HIDDEN
 10
292.20465132422441
 20
107.85124338590281
 30
0.0
 11
286.80465132422438
 21
107.85124338590281
 31
0.0
  0
LINE
  5
1C5C
  8
HIDDEN
  6
HIDDEN
 10
292.20465132422441
 20
118.351243385903
 30
0.0
 11
286.80465132422438
 21
118.351243385903
 31
0.0
  0
LINE
  5
1C5D
  8
0
  6
CONTINUOUS
 10
283.80465132422449
 20
129.6012433859029
 30
0.0
 11
286.80465132422461
 21
129.6012433859029
 31
0.0
  0
LINE
  5
1C5E
  8
HIDDEN
  6
HIDDEN
 10
292.20465132422441
 20
127.851243385903
 30
0.0
 11
286.80465132422438
 21
127.851243385903
 31
0.0
  0
TEXT
  5
1C5F
  8
DIM
  6
CONTINUOUS
 10
305.30465132422432
 20
110.7441005287601
 30
0.0
 40
3.0
  1
26
 50
90.0
  7
ROMANSS
 72
     1
 11
303.80465132422432
 21
113.101243385903
 31
0.0
 73
     2
  0
SOLID
  5
1C60
  8
DIM
  6
CONTINUOUS
 10
306.30465132422432
 20
123.101243385903
 30
0.0
 11
307.30465132422432
 21
123.101243385903
 31
0.0
 12
306.80465132422438
 22
126.1012433859029
 32
0.0
 13
306.80465132422438
 23
126.1012433859029
 33
0.0
  0
LINE
  5
1C61
  8
HIDDEN
  6
HIDDEN
 10
274.30465132422449
 20
201.51733672795029
 30
0.0
 11
268.30465132422449
 21
201.51733672795029
 31
0.0
  0
LINE
  5
1C62
  8
0
  6
CONTINUOUS
 10
233.80465132422441
 20
190.51733672795029
 30
0.0
 11
283.80465132422449
 21
190.51733672795029
 31
0.0
  0
TEXT
  5
1C63
  8
DIM
  6
CONTINUOUS
 10
263.87607989565299
 20
168.01733672795021
 30
0.0
 40
3.0
  1
65
  7
ROMANSS
 72
     1
 11
266.30465132422449
 21
169.51733672795029
 31
0.0
 73
     2
  0
LINE
  5
1C64
  8
DIM
  6
CONTINUOUS
 10
233.80465132422441
 20
173.1213927285325
 30
0.0
 11
233.80465132422441
 21
165.51733672795029
 31
0.0
  0
SOLID
  5
1C65
  8
DIM
  6
CONTINUOUS
 10
240.0546513242243
 20
148.13795226097
 30
0.0
 11
240.0546513242243
 21
147.13795226097
 31
0.0
 12
237.0546513242243
 22
147.63795226097
 32
0.0
 13
237.0546513242243
 23
147.63795226097
 33
0.0
  0
SOLID
  5
1C66
  8
DIM
  6
CONTINUOUS
 10
236.05465132422461
 20
140.13795226097
 30
0.0
 11
236.05465132422461
 21
139.13795226097
 31
0.0
 12
239.05465132422461
 22
139.63795226097
 32
0.0
 13
239.05465132422461
 23
139.63795226097
 33
0.0
  0
SOLID
  5
1C67
  8
DIM
  6
CONTINUOUS
 10
248.55465132422441
 20
140.13795226097
 30
0.0
 11
248.55465132422441
 21
139.13795226097
 31
0.0
 12
245.55465132422449
 22
139.63795226097
 32
0.0
 13
245.55465132422449
 23
139.63795226097
 33
0.0
  0
SOLID
  5
1C68
  8
DIM
  6
CONTINUOUS
 10
244.55465132422481
 20
148.13795226097
 30
0.0
 11
244.55465132422481
 21
147.13795226097
 31
0.0
 12
247.55465132422469
 22
147.63795226097
 32
0.0
 13
247.55465132422469
 23
147.63795226097
 33
0.0
  0
SOLID
  5
1C69
  8
DIM
  6
CONTINUOUS
 10
230.80465132422449
 20
167.01733672795021
 30
0.0
 11
230.80465132422449
 21
166.01733672795021
 31
0.0
 12
233.80465132422441
 22
166.51733672795029
 32
0.0
 13
233.80465132422441
 23
166.51733672795029
 33
0.0
  0
SOLID
  5
1C6A
  8
DIM
  6
CONTINUOUS
 10
236.80465132422441
 20
167.01733672795021
 30
0.0
 11
236.80465132422441
 21
166.01733672795021
 31
0.0
 12
233.80465132422441
 22
166.51733672795029
 32
0.0
 13
233.80465132422441
 23
166.51733672795029
 33
0.0
  0
TEXT
  5
1C6B
  8
DIM
  6
CONTINUOUS
 10
248.8463292279416
 20
184.01733672795021
 30
0.0
 40
3.0
  1
8.5
  7
ROMANSS
 72
     1
 11
251.98918637079879
 21
185.51733672795029
 31
0.0
 73
     2
  0
TEXT
  5
1C6C
  8
DIM
  6
CONTINUOUS
 10
243.54490348475611
 20
175.91338891868699
 30
0.0
 40
3.0
  1
85+Stroke
  7
ROMANSS
 72
     1
 11
255.04490348475611
 21
177.41338891868691
 31
0.0
 73
     2
  0
LINE
  5
1C6D
  8
DIM
  6
CONTINUOUS
 10
233.80465132422441
 20
189.5059672487879
 30
0.0
 11
233.80465132422441
 21
180.09259634811491
 31
0.0
  0
SOLID
  5
1C6E
  8
DIM
  6
CONTINUOUS
 10
230.80465132422449
 20
183.01733672795029
 30
0.0
 11
230.80465132422449
 21
182.01733672795029
 31
0.0
 12
233.80465132422441
 22
182.51733672795029
 32
0.0
 13
233.80465132422441
 23
182.51733672795029
 33
0.0
  0
SOLID
  5
1C6F
  8
DIM
  6
CONTINUOUS
 10
245.30465132422449
 20
183.01733672795029
 30
0.0
 11
245.30465132422449
 21
182.01733672795029
 31
0.0
 12
242.30465132422441
 22
182.51733672795029
 32
0.0
 13
242.30465132422441
 23
182.51733672795029
 33
0.0
  0
LINE
  5
1C70
  8
HIDDEN
  6
HIDDEN
 10
235.80465132422449
 20
201.51733672795029
 30
0.0
 11
241.80465132422449
 21
201.51733672795029
 31
0.0
  0
LINE
  5
1C71
  8
HIDDEN
  6
HIDDEN
 10
235.80465132422449
 20
190.51733672795029
 30
0.0
 11
235.80465132422449
 21
201.51733672795029
 31
0.0
  0
LINE
  5
1C72
  8
HIDDEN
  6
HIDDEN
 10
241.80465132422449
 20
190.51733672795029
 30
0.0
 11
241.80465132422449
 21
201.51733672795029
 31
0.0
  0
LINE
  5
1C73
  8
HIDDEN
  6
HIDDEN
 10
268.30465132422449
 20
190.51733672795029
 30
0.0
 11
268.30465132422449
 21
201.51733672795029
 31
0.0
  0
LINE
  5
1C74
  8
DIM
  6
CONTINUOUS
 10
298.80465132422438
 20
191.51733672795029
 30
0.0
 11
298.80465132422438
 21
157.51733672795029
 31
0.0
  0
SOLID
  5
1C75
  8
DIM
  6
CONTINUOUS
 10
295.80465132422449
 20
159.01733672795021
 30
0.0
 11
295.80465132422449
 21
158.01733672795029
 31
0.0
 12
298.80465132422438
 22
158.51733672795021
 32
0.0
 13
298.80465132422438
 23
158.51733672795021
 33
0.0
  0
SOLID
  5
1C76
  8
DIM
  6
CONTINUOUS
 10
295.80465132422449
 20
167.01733672795021
 30
0.0
 11
295.80465132422449
 21
166.01733672795021
 31
0.0
 12
298.80465132422438
 22
166.51733672795029
 32
0.0
 13
298.80465132422438
 23
166.51733672795029
 33
0.0
  0
LINE
  5
1C77
  8
HIDDEN
  6
HIDDEN
 10
286.80465132422438
 20
199.51733672795021
 30
0.0
 11
298.80465132422438
 21
199.51733672795021
 31
0.0
  0
LINE
  5
1C78
  8
HIDDEN
  6
HIDDEN
 10
286.80465132422438
 20
200.01733672795029
 30
0.0
 11
298.80465132422438
 21
200.01733672795021
 31
0.0
  0
LINE
  5
1C79
  8
HIDDEN
  6
HIDDEN
 10
286.80465132422438
 20
195.01733672795029
 30
0.0
 11
298.80465132422438
 21
195.01733672795029
 31
0.0
  0
LINE
  5
1C7A
  8
HIDDEN
  6
HIDDEN
 10
286.80465132422438
 20
195.51733672795029
 30
0.0
 11
298.80465132422438
 21
195.51733672795029
 31
0.0
  0
LINE
  5
1C7B
  8
CENTER
  6
CENTER
 10
286.80465132422438
 20
197.51733672795021
 30
0.0
 11
303.25279988344209
 21
197.51733672795021
 31
0.0
  0
LINE
  5
1C7C
  8
0
  6
CONTINUOUS
 10
286.80465132422438
 20
192.51733672795029
 30
0.0
 11
298.80465132422438
 21
192.51733672795029
 31
0.0
  0
SOLID
  5
1C7D
  8
DIM
  6
CONTINUOUS
 10
295.80465132422449
 20
174.91338891868691
 30
0.0
 11
295.80465132422449
 21
173.91338891868691
 31
0.0
 12
298.80465132422438
 22
174.41338891868691
 32
0.0
 13
298.80465132422438
 23
174.41338891868691
 33
0.0
  0
SOLID
  5
1C7E
  8
DIM
  6
CONTINUOUS
 10
295.80465132422449
 20
183.01733672795029
 30
0.0
 11
295.80465132422449
 21
182.01733672795029
 31
0.0
 12
298.80465132422438
 22
182.51733672795029
 32
0.0
 13
298.80465132422438
 23
182.51733672795029
 33
0.0
  0
TEXT
  5
1C7F
  8
DIM
  6
CONTINUOUS
 10
290.66179418136733
 20
184.01733672795021
 30
0.0
 40
3.0
  1
12
  7
ROMANSS
 72
     1
 11
292.80465132422438
 21
185.51733672795029
 31
0.0
 73
     2
  0
LINE
  5
1C80
  8
DIM
  6
CONTINUOUS
 10
286.80465132422438
 20
191.51733672795029
 30
0.0
 11
286.80465132422438
 21
181.51733672795021
 31
0.0
  0
LINE
  5
1C81
  8
DIM
  6
CONTINUOUS
 10
295.80465132422449
 20
182.51733672795029
 30
0.0
 11
289.80465132422449
 21
182.51733672795029
 31
0.0
  0
SOLID
  5
1C82
  8
DIM
  6
CONTINUOUS
 10
289.80465132422449
 20
183.01733672795029
 30
0.0
 11
289.80465132422449
 21
182.01733672795029
 31
0.0
 12
286.80465132422438
 22
182.51733672795029
 32
0.0
 13
286.80465132422438
 23
182.51733672795029
 33
0.0
  0
LINE
  5
1C83
  8
0
  6
CONTINUOUS
 10
283.80465132422449
 20
197.51733672795021
 30
0.0
 11
286.80465132422438
 21
197.51733672795021
 31
0.0
  0
LINE
  5
1C84
  8
HIDDEN
  6
HIDDEN
 10
274.30465132422449
 20
190.51733672795029
 30
0.0
 11
274.30465132422449
 21
201.51733672795029
 31
0.0
  0
LINE
  5
1C85
  8
DIM
  6
CONTINUOUS
 10
360.22434730666168
 20
174.51733672795021
 30
0.0
 11
388.2243473066618
 21
174.51733672795021
 31
0.0
  0
SOLID
  5
1C86
  8
DIM
  6
CONTINUOUS
 10
367.22434730666191
 20
183.01733672795029
 30
0.0
 11
367.22434730666191
 21
182.01733672795029
 31
0.0
 12
364.22434730666191
 22
182.51733672795029
 32
0.0
 13
364.22434730666191
 23
182.51733672795029
 33
0.0
  0
LINE
  5
1C87
  8
CENTER
  6
CENTER
 10
358.22434730666168
 20
197.51733672795021
 30
0.0
 11
370.2243473066618
 21
197.51733672795021
 31
0.0
  0
LINE
  5
1C88
  8
0
  6
CONTINUOUS
 10
357.2243473066618
 20
192.51733672795029
 30
0.0
 11
391.2243473066618
 21
192.51733672795029
 31
0.0
  0
LINE
  5
1C89
  8
0
  6
CONTINUOUS
 10
355.2243473066618
 20
190.51733672795029
 30
0.0
 11
393.2243473066618
 21
190.51733672795029
 31
0.0
  0
LINE
  5
1C8A
  8
DIM
  6
CONTINUOUS
 10
358.22434730666168
 20
166.51733672795029
 30
0.0
 11
390.2243473066618
 21
166.51733672795029
 31
0.0
  0
LINE
  5
1C8B
  8
DIM
  6
CONTINUOUS
 10
355.2243473066618
 20
189.51733672795021
 30
0.0
 11
355.2243473066618
 21
165.51733672795029
 31
0.0
  0
SOLID
  5
1C8C
  8
DIM
  6
CONTINUOUS
 10
358.22434730666168
 20
167.01733672795021
 30
0.0
 11
358.22434730666168
 21
166.01733672795021
 31
0.0
 12
355.2243473066618
 22
166.51733672795029
 32
0.0
 13
355.2243473066618
 23
166.51733672795029
 33
0.0
  0
SOLID
  5
1C8D
  8
DIM
  6
CONTINUOUS
 10
338.30465132422421
 20
195.51733672795029
 30
0.0
 11
339.30465132422421
 21
195.51733672795029
 31
0.0
 12
338.80465132422421
 22
192.51733672795029
 32
0.0
 13
338.80465132422421
 23
192.51733672795029
 33
0.0
  0
LINE
  5
1C8E
  8
DIM
  6
CONTINUOUS
 10
357.2243473066618
 20
191.51733672795029
 30
0.0
 11
357.2243473066618
 21
173.51733672795021
 31
0.0
  0
LINE
  5
1C8F
  8
DIM
  6
CONTINUOUS
 10
364.22434730666191
 20
191.51733672795029
 30
0.0
 11
364.22434730666191
 21
181.51733672795021
 31
0.0
  0
SOLID
  5
1C90
  8
DIM
  6
CONTINUOUS
 10
360.22434730666168
 20
175.01733672795029
 30
0.0
 11
360.22434730666168
 21
174.01733672795029
 31
0.0
 12
357.2243473066618
 22
174.51733672795021
 32
0.0
 13
357.2243473066618
 23
174.51733672795021
 33
0.0
  0
ARC
  5
1C91
  8
0
  6
CONTINUOUS
 62
     2
 10
364.22434730666168
 20
197.51733672795021
 30
0.0
 40
2.4999999999991238
 50
255.0000000000004
 51
194.9999999999994
  0
CIRCLE
  5
1C92
  8
0
  6
CONTINUOUS
 10
364.22434730666168
 20
197.51733672795021
 30
0.0
 40
2.1000000000000001
  0
TEXT
  5
1C93
  8
DIM
  6
CONTINUOUS
 10
371.7957758780903
 20
168.01733672795021
 30
0.0
 40
3.0
  1
38
  7
ROMANSS
 72
     1
 11
374.2243473066618
 21
169.51733672795029
 31
0.0
 73
     2
  0
LINE
  5
1C94
  8
DIM
  6
CONTINUOUS
 10
393.2243473066618
 20
189.51733672795029
 30
0.0
 11
393.2243473066618
 21
165.51733672795029
 31
0.0
  0
SOLID
  5
1C95
  8
DIM
  6
CONTINUOUS
 10
390.2243473066618
 20
167.01733672795021
 30
0.0
 11
390.2243473066618
 21
166.01733672795021
 31
0.0
 12
393.2243473066618
 22
166.51733672795029
 32
0.0
 13
393.2243473066618
 23
166.51733672795029
 33
0.0
  0
LINE
  5
1C96
  8
CENTER
  6
CENTER
 10
378.2243473066618
 20
197.51733672795021
 30
0.0
 11
390.2243473066618
 21
197.51733672795021
 31
0.0
  0
SOLID
  5
1C97
  8
DIM
  6
CONTINUOUS
 10
388.2243473066618
 20
175.01733672795029
 30
0.0
 11
388.2243473066618
 21
174.01733672795029
 31
0.0
 12
391.2243473066618
 22
174.51733672795021
 32
0.0
 13
391.2243473066618
 23
174.51733672795021
 33
0.0
  0
TEXT
  5
1C98
  8
DIM
  6
CONTINUOUS
 10
371.7957758780903
 20
184.01733672795021
 30
0.0
 40
3.0
  1
20
  7
ROMANSS
 72
     1
 11
374.2243473066618
 21
185.51733672795029
 31
0.0
 73
     2
  0
LINE
  5
1C99
  8
DIM
  6
CONTINUOUS
 10
384.2243473066618
 20
191.51733672795029
 30
0.0
 11
384.2243473066618
 21
181.51733672795021
 31
0.0
  0
LINE
  5
1C9A
  8
DIM
  6
CONTINUOUS
 10
367.22434730666191
 20
182.51733672795029
 30
0.0
 11
381.22434730666168
 21
182.51733672795029
 31
0.0
  0
TEXT
  5
1C9B
  8
DIM
  6
CONTINUOUS
 10
371.7243473066618
 20
176.01733672795021
 30
0.0
 40
3.0
  1
34
  7
ROMANSS
 72
     1
 11
374.2243473066618
 21
177.51733672795021
 31
0.0
 73
     2
  0
SOLID
  5
1C9C
  8
DIM
  6
CONTINUOUS
 10
381.22434730666168
 20
183.01733672795029
 30
0.0
 11
381.22434730666168
 21
182.01733672795029
 31
0.0
 12
384.2243473066618
 22
182.51733672795029
 32
0.0
 13
384.2243473066618
 23
182.51733672795029
 33
0.0
  0
LINE
  5
1C9D
  8
CENTER
  6
CENTER
 10
367.2243473066618
 20
202.51733672795021
 30
0.0
 11
381.22434730666168
 21
202.51733672795021
 31
0.0
  0
ARC
  5
1C9E
  8
0
  6
CONTINUOUS
 62
     2
 10
384.2243473066618
 20
197.51733672795021
 30
0.0
 40
2.4999999999991238
 50
255.0000000000004
 51
194.9999999999994
  0
CIRCLE
  5
1C9F
  8
0
  6
CONTINUOUS
 10
384.2243473066618
 20
197.51733672795021
 30
0.0
 40
2.1000000000000001
  0
LINE
  5
1CA0
  8
DIM
  6
CONTINUOUS
 10
391.2243473066618
 20
191.51733672795029
 30
0.0
 11
391.2243473066618
 21
173.51733672795021
 31
0.0
  0
LINE
  5
1CA1
  8
DIM
  6
CONTINUOUS
 10
391.2243473066618
 20
197.51733672795021
 30
0.0
 11
410.22434730666163
 21
197.51733672795021
 31
0.0
  0
SOLID
  5
1CA2
  8
DIM
  6
CONTINUOUS
 10
408.72434730666163
 20
200.51733672795021
 30
0.0
 11
409.72434730666163
 21
200.51733672795021
 31
0.0
 12
409.22434730666163
 22
197.51733672795021
 32
0.0
 13
409.22434730666163
 23
197.51733672795021
 33
0.0
  0
SOLID
  5
1CA3
  8
DIM
  6
CONTINUOUS
 10
416.72434730666168
 20
193.51733672795029
 30
0.0
 11
417.72434730666163
 21
193.51733672795029
 31
0.0
 12
417.22434730666163
 22
190.51733672795029
 32
0.0
 13
417.22434730666163
 23
190.51733672795029
 33
0.0
  0
LINE
  5
1CA4
  8
DIM
  6
CONTINUOUS
 10
394.69490375016647
 20
272.51733672795029
 30
0.0
 11
418.22434730666163
 21
272.51733672795029
 31
0.0
  0
LINE
  5
1CA5
  8
DIM
  6
CONTINUOUS
 10
389.00713694113068
 20
227.8946879917294
 30
0.0
 11
422.56466279278811
 21
202.7977182021053
 31
0.0
  0
TEXT
  5
1CA6
  8
DIM
  6
CONTINUOUS
 10
415.72434730666168
 20
229.08876529937891
 30
0.0
 40
3.0
  1
82
 50
90.0
  7
ROMANSS
 72
     1
 11
414.22434730666163
 21
231.51733672795029
 31
0.0
 73
     2
  0
LINE
  5
1CA7
  8
0
  6
CONTINUOUS
 10
233.80465132422441
 20
352.13934761011171
 30
0.0
 11
233.80465132422441
 21
314.13934761011171
 31
0.0
  0
LINE
  5
1CA8
  8
HIDDEN
  6
HIDDEN
 10
245.55465132422449
 20
320.63934761011171
 30
0.0
 11
245.55465132422449
 21
352.1393476101116
 31
0.0
  0
LINE
  5
1CA9
  8
HIDDEN
  6
HIDDEN
 10
239.05465132422449
 20
320.63934761011171
 30
0.0
 11
239.05465132422449
 21
352.1393476101116
 31
0.0
  0
LINE
  5
1CAA
  8
CENTER
  6
CENTER
 10
242.30465132422441
 20
354.9704617368601
 30
0.0
 11
242.30465132422441
 21
310.79492870534568
 31
0.0
  0
TEXT
  5
1CAB
  8
DIM
  6
CONTINUOUS
 10
305.30465132422432
 20
330.78220475296882
 30
0.0
 40
3.0
  1
26
 50
90.0
  7
ROMANSS
 72
     1
 11
303.80465132422432
 21
333.13934761011171
 31
0.0
 73
     2
  0
LINE
  5
1CAC
  8
DIM
  6
CONTINUOUS
 10
306.80465132422438
 20
323.13934761011171
 30
0.0
 11
306.80465132422438
 21
343.13934761011171
 31
0.0
  0
LINE
  5
1CAD
  8
0
  6
CONTINUOUS
 10
283.80465132422449
 20
352.13934761011171
 30
0.0
 11
283.80465132422449
 21
314.13934761011171
 31
0.0
  0
LINE
  5
1CAE
  8
0
  6
CONTINUOUS
 10
286.80465132422438
 20
350.13934761011171
 30
0.0
 11
286.80465132422461
 21
316.13934761011171
 31
0.0
  0
LINE
  5
1CAF
  8
0
  6
CONTINUOUS
 10
298.80465132422438
 20
350.13934761011171
 30
0.0
 11
298.80465132422438
 21
316.13934761011171
 31
0.0
  0
LINE
  5
1CB0
  8
DIM
  6
CONTINUOUS
 10
316.3227217336771
 20
250.51733672795029
 30
0.0
 11
323.91206053343518
 21
250.51733672795029
 31
0.0
  0
LINE
  5
1CB1
  8
DIM
  6
CONTINUOUS
 10
299.80465132422449
 20
270.51733672795029
 30
0.0
 11
339.80465132422421
 21
270.51733672795029
 31
0.0
  0
LINE
  5
1CB2
  8
DIM
  6
CONTINUOUS
 10
315.94214792122398
 20
260.51733672795029
 30
0.0
 11
331.80465132422432
 21
260.51733672795029
 31
0.0
  0
LINE
  5
1CB3
  8
DIM
  6
CONTINUOUS
 10
251.55465132422449
 20
212.51733672795029
 30
0.0
 11
323.91206053343518
 21
212.51733672795029
 31
0.0
  0
TEXT
  5
1CB4
  8
DIM
  6
CONTINUOUS
 10
321.30465132422421
 20
229.08876529937879
 30
0.0
 40
3.0
  1
38
 50
90.0
  7
ROMANSS
 72
     1
 11
319.80465132422421
 21
231.51733672795029
 31
0.0
 73
     2
  0
LINE
  5
1CB5
  8
CENTER
  6
CENTER
 10
271.30465132422438
 20
274.40042016879369
 30
0.0
 11
271.30465132422438
 21
255.51733672795029
 31
0.0
  0
LINE
  5
1CB6
  8
HIDDEN
  6
HIDDEN
 10
268.30465132422449
 20
272.51733672795029
 30
0.0
 11
268.30465132422449
 21
261.51733672795029
 31
0.0
  0
LINE
  5
1CB7
  8
HIDDEN
  6
HIDDEN
 10
268.80465132422449
 20
272.51733672795029
 30
0.0
 11
268.80465132422449
 21
258.51733672795029
 31
0.0
  0
LINE
  5
1CB8
  8
HIDDEN
  6
HIDDEN
 10
273.80465132422438
 20
272.51733672795029
 30
0.0
 11
273.80465132422438
 21
258.51733672795029
 31
0.0
  0
LINE
  5
1CB9
  8
HIDDEN
  6
HIDDEN
 10
274.30465132422449
 20
272.51733672795029
 30
0.0
 11
274.30465132422449
 21
261.51733672795029
 31
0.0
  0
LINE
  5
1CBA
  8
DIM
  6
CONTINUOUS
 10
314.80465132422421
 20
268.94531601387979
 30
0.0
 11
314.80465132422421
 21
248.76733672795041
 31
0.0
  0
LINE
  5
1CBB
  8
DIM
  6
CONTINUOUS
 10
292.20465132422441
 20
281.93015296458259
 30
0.0
 11
292.20465132422441
 21
257.2793878737038
 31
0.0
  0
LINE
  5
1CBC
  8
0
  6
CONTINUOUS
 10
283.80465132422449
 20
272.51733672795029
 30
0.0
 11
283.80465132422449
 21
248.51733672795029
 31
0.0
  0
LINE
  5
1CBD
  8
HIDDEN
  6
HIDDEN
 10
236.30465132422441
 20
272.51733672795029
 30
0.0
 11
236.30465132422441
 21
258.51733672795029
 31
0.0
  0
LINE
  5
1CBE
  8
HIDDEN
  6
HIDDEN
 10
235.80465132422449
 20
272.51733672795029
 30
0.0
 11
235.80465132422449
 21
261.51733672795029
 31
0.0
  0
LINE
  5
1CBF
  8
CENTER
  6
CENTER
 10
238.80465132422441
 20
274.40042016879369
 30
0.0
 11
238.80465132422441
 21
255.51733672795029
 31
0.0
  0
LINE
  5
1CC0
  8
HIDDEN
  6
HIDDEN
 10
241.30465132422449
 20
272.51733672795029
 30
0.0
 11
241.30465132422449
 21
258.51733672795029
 31
0.0
  0
LINE
  5
1CC1
  8
HIDDEN
  6
HIDDEN
 10
241.80465132422449
 20
272.51733672795029
 30
0.0
 11
241.80465132422449
 21
261.51733672795029
 31
0.0
  0
LINE
  5
1CC2
  8
HIDDEN
  6
HIDDEN
 10
274.30465132422449
 20
261.51733672795029
 30
0.0
 11
268.30465132422449
 21
261.51733672795029
 31
0.0
  0
LINE
  5
1CC3
  8
DIM
  6
CONTINUOUS
 10
251.55465132422449
 20
222.01733672795029
 30
0.0
 11
307.85363666676511
 21
222.01733672795029
 31
0.0
  0
LINE
  5
1CC4
  8
DIM
  6
CONTINUOUS
 10
251.55465132422449
 20
241.01733672795029
 30
0.0
 11
307.85363666676511
 21
241.01733672795029
 31
0.0
  0
LINE
  5
1CC5
  8
0
  6
CONTINUOUS
 10
275.80465132422438
 20
234.01733672795029
 30
0.0
 11
269.80465132422438
 21
234.01733672795029
 31
0.0
  0
LINE
  5
1CC6
  8
0
  6
CONTINUOUS
 10
269.80465132422438
 20
237.51733672795029
 30
0.0
 11
275.80465132422438
 21
237.51733672795029
 31
0.0
  0
LINE
  5
1CC7
  8
DIM
  6
CONTINUOUS
 10
251.55465132422449
 20
250.51733672795029
 30
0.0
 11
305.28608117253953
 21
250.51733672795029
 31
0.0
  0
LINE
  5
1CC8
  8
0
  6
CONTINUOUS
 10
250.80465132422441
 20
248.51733672795029
 30
0.0
 11
283.80465132422449
 21
248.51733672795029
 31
0.0
  0
LINE
  5
1CC9
  8
0
  6
CONTINUOUS
 10
275.80465132422438
 20
229.01733672795021
 30
0.0
 11
269.80465132422438
 21
229.01733672795021
 31
0.0
  0
LINE
  5
1CCA
  8
0
  6
CONTINUOUS
 10
269.80465132422438
 20
225.51733672795029
 30
0.0
 11
275.80465132422438
 21
225.51733672795029
 31
0.0
  0
LINE
  5
1CCB
  8
0
  6
CONTINUOUS
 10
250.80465132422441
 20
214.51733672795029
 30
0.0
 11
283.80465132422449
 21
214.51733672795029
 31
0.0
  0
LINE
  5
1CCC
  8
0
  6
CONTINUOUS
 62
     4
 10
269.80465132422438
 20
229.01733672795021
 30
0.0
 11
275.80465132422438
 21
234.01733672795029
 31
0.0
  0
LINE
  5
1CCD
  8
0
  6
CONTINUOUS
 62
     4
 10
269.80465132422438
 20
234.01733672795029
 30
0.0
 11
275.80465132422438
 21
229.01733672795021
 31
0.0
  0
LINE
  5
1CCE
  8
CENTER
  6
CENTER
 10
242.30465132422441
 20
258.76733672795029
 30
0.0
 11
242.30465132422441
 21
235.01733672795029
 31
0.0
  0
LINE
  5
1CCF
  8
0
  6
CONTINUOUS
 10
256.80465132422438
 20
243.20867967904019
 30
0.0
 11
256.80465132422438
 21
219.82599377686029
 31
0.0
  0
LINE
  5
1CD0
  8
0
  6
CONTINUOUS
 10
250.80465132422441
 20
248.51733672795029
 30
0.0
 11
250.80465132422441
 21
214.51733672795029
 31
0.0
  0
INSERT
  5
1CD1
  8
0
  6
CONTINUOUS
  2
HB_T2-M10
 10
269.80465132422438
 20
231.51733672795029
 30
0.0
  0
LINE
  5
1CD2
  8
0
  6
CONTINUOUS
 10
262.80465132422449
 20
236.51733672795029
 30
0.0
 11
262.80465132422449
 21
226.51733672795029
 31
0.0
  0
LINE
  5
1CD3
  8
0
  6
CONTINUOUS
 10
261.30465132422461
 20
236.01733672795029
 30
0.0
 11
261.30465132422461
 21
227.01733672795029
 31
0.0
  0
LINE
  5
1CD4
  8
0
  6
CONTINUOUS
 10
261.80465132422461
 20
236.01733672795029
 30
0.0
 11
261.80465132422461
 21
227.01733672795029
 31
0.0
  0
ARC
  5
1CD5
  8
0
  6
CONTINUOUS
 10
225.92965132422341
 20
231.5173367279501
 30
0.0
 40
30.875000000000981
 50
345.3777786112318
 51
14.62222138876896
  0
LINE
  5
1CD6
  8
0
  6
CONTINUOUS
 62
     4
 10
232.80465132422461
 20
238.51733672795029
 30
0.0
 11
228.3038178751182
 21
234.016503278844
 31
0.0
  0
LINE
  5
1CD7
  8
0
  6
CONTINUOUS
 10
233.80465132422441
 20
245.01733672795029
 30
0.0
 11
233.80465132422441
 21
218.01733672795021
 31
0.0
  0
ARC
  5
1CD8
  8
0
  6
CONTINUOUS
 10
184.05465132422549
 20
231.51733672795041
 30
0.0
 40
49.249999999998948
 50
351.82876644005
 51
8.1712335599499522
  0
LINE
  5
1CD9
  8
0
  6
CONTINUOUS
 10
255.80465132422449
 20
215.9288794598304
 30
0.0
 11
250.80465132422441
 21
215.9288794598304
 31
0.0
  0
LINE
  5
1CDA
  8
0
  6
CONTINUOUS
 10
255.80465132422449
 20
223.72310809389029
 30
0.0
 11
250.80465132422441
 21
223.72310809389029
 31
0.0
  0
LINE
  5
1CDB
  8
CENTER
  6
CENTER
 10
242.30465132422441
 20
228.01733672795029
 30
0.0
 11
242.30465132422441
 21
204.26733672795021
 31
0.0
  0
LINE
  5
1CDC
  8
0
  6
CONTINUOUS
 10
233.30465132422449
 20
224.51733672795029
 30
0.0
 11
233.30465132422449
 21
218.01733672795021
 31
0.0
  0
LINE
  5
1CDD
  8
HIDDEN
  6
HIDDEN
 10
241.30465132422449
 20
204.51733672795021
 30
0.0
 11
238.80465132422441
 21
205.96071240092431
 31
0.0
  0
LINE
  5
1CDE
  8
HIDDEN
  6
HIDDEN
 10
236.30465132422441
 20
204.51733672795021
 30
0.0
 11
241.30465132422449
 21
204.51733672795021
 31
0.0
  0
CIRCLE
  5
1CDF
  8
0
  6
CONTINUOUS
 10
242.30465132422441
 20
212.51733672795029
 30
0.0
 40
3.25
  0
CIRCLE
  5
1CE0
  8
0
  6
CONTINUOUS
 10
242.30465132422441
 20
212.51733672795029
 30
0.0
 40
5.25
  0
LINE
  5
1CE1
  8
CENTER
  6
CENTER
 10
234.05465132422441
 20
212.51733672795029
 30
0.0
 11
250.55465132422441
 21
212.51733672795029
 31
0.0
  0
LINE
  5
1CE2
  8
HIDDEN
  6
HIDDEN
 10
236.30465132422441
 20
204.51733672795021
 30
0.0
 11
238.80465132422441
 21
205.96071240092431
 31
0.0
  0
CIRCLE
  5
1CE3
  8
HIDDEN
  6
HIDDEN
 10
242.30465132422441
 20
222.01733672795029
 30
0.0
 40
3.0
  0
LINE
  5
1CE4
  8
CENTER
  6
CENTER
 10
236.30465132422441
 20
222.01733672795029
 30
0.0
 11
248.30465132422449
 21
222.01733672795029
 31
0.0
  0
LINE
  5
1CE5
  8
0
  6
CONTINUOUS
 62
     4
 10
232.80465132422449
 20
224.51733672795029
 30
0.0
 11
228.6974746323265
 21
228.62451341984831
 31
0.0
  0
ARC
  5
1CE6
  8
0
  6
CONTINUOUS
 10
248.71090132422441
 20
219.82599377686029
 30
0.0
 40
8.09375
 50
331.21679720615782
 51
28.783202793842172
  0
LINE
  5
1CE7
  8
HIDDEN
  6
HIDDEN
 10
273.80465132422438
 20
204.51733672795021
 30
0.0
 11
271.30465132422438
 21
205.96071240092431
 31
0.0
  0
LINE
  5
1CE8
  8
HIDDEN
  6
HIDDEN
 10
273.80465132422438
 20
204.51733672795021
 30
0.0
 11
268.80465132422449
 21
204.51733672795021
 31
0.0
  0
LINE
  5
1CE9
  8
HIDDEN
  6
HIDDEN
 10
268.80465132422449
 20
204.51733672795021
 30
0.0
 11
271.30465132422438
 21
205.96071240092431
 31
0.0
  0
LINE
  5
1CEA
  8
0
  6
CONTINUOUS
 10
261.80465132422461
 20
227.21733672795031
 30
0.0
 11
262.80465132422449
 21
227.21733672795031
 31
0.0
  0
LINE
  5
1CEB
  8
0
  6
CONTINUOUS
 10
256.80465132422461
 20
227.01733672795029
 30
0.0
 11
261.80465132422461
 21
227.01733672795029
 31
0.0
  0
LINE
  5
1CEC
  8
0
  6
CONTINUOUS
 10
255.80465132422449
 20
247.10579399607019
 30
0.0
 11
250.80465132422441
 21
247.10579399607019
 31
0.0
  0
LINE
  5
1CED
  8
0
  6
CONTINUOUS
 10
255.80465132422449
 20
239.31156536201021
 30
0.0
 11
250.80465132422441
 21
239.31156536201021
 31
0.0
  0
CIRCLE
  5
1CEE
  8
0
  6
CONTINUOUS
 10
242.30465132422441
 20
250.51733672795029
 30
0.0
 40
5.25
  0
CIRCLE
  5
1CEF
  8
0
  6
CONTINUOUS
 10
242.30465132422441
 20
250.51733672795029
 30
0.0
 40
3.25
  0
CIRCLE
  5
1CF0
  8
HIDDEN
  6
HIDDEN
 10
242.30465132422441
 20
241.01733672795029
 30
0.0
 40
3.0
  0
LINE
  5
1CF1
  8
CENTER
  6
CENTER
 10
236.30465132422441
 20
241.01733672795029
 30
0.0
 11
248.30465132422449
 21
241.01733672795041
 31
0.0
  0
LINE
  5
1CF2
  8
CENTER
  6
CENTER
 10
234.05465132422441
 20
250.51733672795029
 30
0.0
 11
250.55465132422441
 21
250.51733672795029
 31
0.0
  0
LINE
  5
1CF3
  8
0
  6
CONTINUOUS
 10
233.30465132422449
 20
245.01733672795029
 30
0.0
 11
233.30465132422449
 21
238.51733672795029
 31
0.0
  0
LINE
  5
1CF4
  8
HIDDEN
  6
HIDDEN
 10
241.30465132422449
 20
258.51733672795029
 30
0.0
 11
238.80465132422441
 21
257.07396105497622
 31
0.0
  0
LINE
  5
1CF5
  8
HIDDEN
  6
HIDDEN
 10
236.30465132422441
 20
258.51733672795029
 30
0.0
 11
241.30465132422449
 21
258.51733672795029
 31
0.0
  0
LINE
  5
1CF6
  8
HIDDEN
  6
HIDDEN
 10
235.80465132422449
 20
261.51733672795029
 30
0.0
 11
241.80465132422449
 21
261.51733672795029
 31
0.0
  0
LINE
  5
1CF7
  8
HIDDEN
  6
HIDDEN
 10
236.30465132422441
 20
258.51733672795029
 30
0.0
 11
238.80465132422441
 21
257.07396105497622
 31
0.0
  0
LINE
  5
1CF8
  8
0
  6
CONTINUOUS
 10
261.80465132422461
 20
235.81733672795031
 30
0.0
 11
262.80465132422449
 21
235.81733672795031
 31
0.0
  0
ARC
  5
1CF9
  8
0
  6
CONTINUOUS
 10
248.71090132422441
 20
243.20867967904019
 30
0.0
 40
8.09375
 50
331.21679720615782
 51
28.783202793842172
  0
LINE
  5
1CFA
  8
0
  6
CONTINUOUS
 10
256.80465132422438
 20
236.01733672795029
 30
0.0
 11
261.80465132422461
 21
236.01733672795029
 31
0.0
  0
CIRCLE
  5
1CFB
  8
0
  6
CONTINUOUS
 10
258.80465132422438
 20
260.51733672795029
 30
0.0
 40
4.0
  0
POLYLINE
  5
1CFC
  8
0
  6
CONTINUOUS
 66
     1
 10
0.0
 20
0.0
 30
0.0
 70
     1
 40
1.0
 41
1.0
  0
VERTEX
  5
2171
  8
0
  6
CONTINUOUS
 10
259.30465132422438
 20
260.51733672795029
 30
0.0
 42
1.0
  0
VERTEX
  5
2172
  8
0
  6
CONTINUOUS
 10
258.30465132422449
 20
260.51733672795029
 30
0.0
 42
1.0
  0
SEQEND
  5
2173
  8
0
  6
CONTINUOUS
  0
LINE
  5
1CFD
  8
HIDDEN
  6
HIDDEN
 10
273.80465132422438
 20
258.51733672795029
 30
0.0
 11
271.30465132422438
 21
257.07396105497622
 31
0.0
  0
LINE
  5
1CFE
  8
HIDDEN
  6
HIDDEN
 10
273.80465132422438
 20
258.51733672795029
 30
0.0
 11
268.80465132422449
 21
258.51733672795029
 31
0.0
  0
LINE
  5
1CFF
  8
HIDDEN
  6
HIDDEN
 10
268.80465132422449
 20
258.51733672795029
 30
0.0
 11
271.30465132422438
 21
257.07396105497622
 31
0.0
  0
LINE
  5
1D00
  8
DIM
  6
CONTINUOUS
 10
306.80465132422438
 20
222.01733672795029
 30
0.0
 11
306.80465132422438
 21
241.01733672795029
 31
0.0
  0
LINE
  5
1D01
  8
0
  6
CONTINUOUS
 10
277.80465132422438
 20
248.01733672795021
 30
0.0
 11
277.80465132422438
 21
215.01733672795029
 31
0.0
  0
LINE
  5
1D02
  8
HIDDEN
  6
HIDDEN
 10
298.80465132422449
 20
214.2673367279501
 30
0.0
 11
292.20465132422441
 21
214.26733672795021
 31
0.0
  0
LINE
  5
1D03
  8
HIDDEN
  6
HIDDEN
 10
298.80465132422449
 20
208.76733672795041
 30
0.0
 11
292.20465132422441
 21
208.76733672795021
 31
0.0
  0
LINE
  5
1D04
  8
CENTER
  6
CENTER
 10
282.43358098876888
 20
211.51733672795021
 30
0.0
 11
304.29398817385521
 21
211.51733672795021
 31
0.0
  0
LINE
  5
1D05
  8
0
  6
CONTINUOUS
 10
283.80465132422449
 20
207.51733672795029
 30
0.0
 11
286.80465132422438
 21
207.51733672795029
 31
0.0
  0
LINE
  5
1D06
  8
0
  6
CONTINUOUS
 10
277.80465132422438
 20
215.01733672795029
 30
0.0
 11
286.80465132422438
 21
215.01733672795029
 31
0.0
  0
LINE
  5
1D07
  8
HIDDEN
  6
HIDDEN
 10
292.20465132422441
 20
206.76733672795021
 30
0.0
 11
292.20465132422441
 21
216.26733672795029
 31
0.0
  0
LINE
  5
1D08
  8
HIDDEN
  6
HIDDEN
 10
292.20465132422441
 20
206.76733672795021
 30
0.0
 11
286.80465132422438
 21
206.76733672795021
 31
0.0
  0
LINE
  5
1D09
  8
HIDDEN
  6
HIDDEN
 10
292.20465132422441
 20
216.26733672795029
 30
0.0
 11
286.80465132422438
 21
216.26733672795029
 31
0.0
  0
LINE
  5
1D0A
  8
0
  6
CONTINUOUS
 10
276.30465132422438
 20
225.01733672795029
 30
0.0
 11
275.80465132422438
 21
225.51733672795029
 31
0.0
  0
LINE
  5
1D0B
  8
0
  6
CONTINUOUS
 10
276.30465132422438
 20
225.01733672795029
 30
0.0
 11
277.80465132422438
 21
225.01733672795029
 31
0.0
  0
ARC
  5
1D0C
  8
0
  6
CONTINUOUS
 10
269.80465132422432
 20
231.51733672795029
 30
0.0
 40
6.500000000000111
 50
337.38013505195943
 51
22.619864948039702
  0
LINE
  5
1D0D
  8
0
  6
CONTINUOUS
 10
275.80465132422438
 20
234.01733672795029
 30
0.0
 11
275.80465132422438
 21
229.01733672795021
 31
0.0
  0
SOLID
  5
1D0E
  8
DIM
  6
CONTINUOUS
 10
306.30465132422432
 20
225.01733672795029
 30
0.0
 11
307.30465132422432
 21
225.01733672795029
 31
0.0
 12
306.80465132422438
 22
222.01733672795029
 32
0.0
 13
306.80465132422438
 23
222.01733672795029
 33
0.0
  0
TEXT
  5
1D0F
  8
DIM
  6
CONTINUOUS
 10
305.30465132422432
 20
229.44590815652171
 30
0.0
 40
3.0
  1
19
 50
90.0
  7
ROMANSS
 72
     1
 11
303.80465132422432
 21
231.51733672795029
 31
0.0
 73
     2
  0
LINE
  5
1D10
  8
DIM
  6
CONTINUOUS
 10
293.26823305847267
 20
256.26733672795029
 30
0.0
 11
315.80465132422421
 21
256.26733672795029
 31
0.0
  0
LINE
  5
1D11
  8
DIM
  6
CONTINUOUS
 10
293.26823305847267
 20
246.76733672795041
 30
0.0
 11
315.80465132422421
 21
246.76733672795041
 31
0.0
  0
LINE
  5
1D12
  8
HIDDEN
  6
HIDDEN
 10
286.80465132422438
 20
263.51733672795029
 30
0.0
 11
298.80465132422438
 21
263.51733672795029
 31
0.0
  0
LINE
  5
1D13
  8
HIDDEN
  6
HIDDEN
 10
286.80465132422438
 20
263.01733672795029
 30
0.0
 11
298.80465132422438
 21
263.01733672795041
 31
0.0
  0
LINE
  5
1D14
  8
HIDDEN
  6
HIDDEN
 10
286.80465132422438
 20
268.01733672795029
 30
0.0
 11
298.80465132422438
 21
268.01733672795029
 31
0.0
  0
LINE
  5
1D15
  8
HIDDEN
  6
HIDDEN
 10
286.80465132422438
 20
267.51733672795029
 30
0.0
 11
298.80465132422438
 21
267.51733672795029
 31
0.0
  0
LINE
  5
1D16
  8
HIDDEN
  6
HIDDEN
 10
298.80465132422449
 20
248.76733672795041
 30
0.0
 11
292.20465132422441
 21
248.76733672795041
 31
0.0
  0
LINE
  5
1D17
  8
HIDDEN
  6
HIDDEN
 10
298.80465132422449
 20
254.26733672795021
 30
0.0
 11
292.20465132422441
 21
254.26733672795029
 31
0.0
  0
LINE
  5
1D18
  8
CENTER
  6
CENTER
 10
286.80465132422438
 20
265.51733672795029
 30
0.0
 11
301.3078548465428
 21
265.51733672795029
 31
0.0
  0
LINE
  5
1D19
  8
CENTER
  6
CENTER
 10
282.43358098876888
 20
251.51733672795029
 30
0.0
 11
302.06900247144881
 21
251.51733672795029
 31
0.0
  0
LINE
  5
1D1A
  8
HIDDEN
  6
HIDDEN
 10
292.20465132422441
 20
256.26733672795029
 30
0.0
 11
292.20465132422441
 21
246.76733672795029
 31
0.0
  0
LINE
  5
1D1B
  8
0
  6
CONTINUOUS
 10
277.80465132422438
 20
248.01733672795029
 30
0.0
 11
286.80465132422438
 21
248.01733672795029
 31
0.0
  0
LINE
  5
1D1C
  8
0
  6
CONTINUOUS
 10
276.30465132422438
 20
238.01733672795029
 30
0.0
 11
275.80465132422438
 21
237.51733672795029
 31
0.0
  0
LINE
  5
1D1D
  8
0
  6
CONTINUOUS
 10
276.30465132422438
 20
238.01733672795029
 30
0.0
 11
277.80465132422438
 21
238.01733672795029
 31
0.0
  0
LINE
  5
1D1E
  8
HIDDEN
  6
HIDDEN
 10
292.20465132422441
 20
246.76733672795029
 30
0.0
 11
286.80465132422438
 21
246.76733672795029
 31
0.0
  0
LINE
  5
1D1F
  8
0
  6
CONTINUOUS
 10
283.80465132422449
 20
265.51733672795029
 30
0.0
 11
286.80465132422438
 21
265.51733672795029
 31
0.0
  0
LINE
  5
1D20
  8
0
  6
CONTINUOUS
 10
283.80465132422449
 20
255.51733672795029
 30
0.0
 11
286.80465132422438
 21
255.51733672795029
 31
0.0
  0
LINE
  5
1D21
  8
HIDDEN
  6
HIDDEN
 10
292.20465132422441
 20
256.26733672795029
 30
0.0
 11
286.80465132422438
 21
256.26733672795029
 31
0.0
  0
LINE
  5
1D22
  8
DIM
  6
CONTINUOUS
 10
306.80465132422432
 20
243.26599713372519
 30
0.0
 11
306.80465132422432
 21
266.87653532885139
 31
0.0
  0
SOLID
  5
1D23
  8
DIM
  6
CONTINUOUS
 10
306.30465132422432
 20
238.01733672795029
 30
0.0
 11
307.30465132422432
 21
238.01733672795029
 31
0.0
 12
306.80465132422438
 22
241.01733672795029
 32
0.0
 13
306.80465132422438
 23
241.01733672795029
 33
0.0
  0
LINE
  5
1D24
  8
DIM
  6
CONTINUOUS
 10
299.73798787017409
 20
248.76733672795041
 30
0.0
 11
307.80465132422421
 21
248.76733672795041
 31
0.0
  0
SOLID
  5
1D25
  8
DIM
  6
CONTINUOUS
 10
306.30465132422432
 20
245.76733672795041
 30
0.0
 11
307.30465132422432
 21
245.76733672795041
 31
0.0
 12
306.80465132422438
 22
248.76733672795041
 32
0.0
 13
306.80465132422438
 23
248.76733672795041
 33
0.0
  0
SOLID
  5
1D26
  8
DIM
  6
CONTINUOUS
 10
315.30465132422421
 20
249.76733672795029
 30
0.0
 11
314.30465132422421
 21
249.76733672795029
 31
0.0
 12
314.80465132422421
 22
246.76733672795041
 32
0.0
 13
314.80465132422421
 23
246.76733672795041
 33
0.0
  0
TEXT
  5
1D27
  8
DIM
  6
CONTINUOUS
 10
305.30465132422432
 20
257.6155348539715
 30
0.0
 40
3.0
  1
%%c5.5
 50
90.0
  7
ROMANSS
 72
     1
 11
303.80465132422432
 21
262.1155348539715
 31
0.0
 73
     2
  0
LINE
  5
1D28
  8
DIM
  6
CONTINUOUS
 10
299.73798787017409
 20
254.26733672795021
 30
0.0
 11
307.80465132422421
 21
254.26733672795021
 31
0.0
  0
SOLID
  5
1D29
  8
DIM
  6
CONTINUOUS
 10
306.30465132422432
 20
257.26733672795018
 30
0.0
 11
307.30465132422432
 21
257.26733672795018
 31
0.0
 12
306.80465132422438
 22
254.26733672795021
 32
0.0
 13
306.80465132422438
 23
254.26733672795021
 33
0.0
  0
TEXT
  5
1D2A
  8
DIM
  6
CONTINUOUS
 10
313.30465132422438
 20
258.90045037270198
 30
0.0
 40
3.0
  1
%%c9.5
 50
90.0
  7
ROMANSS
 72
     1
 11
311.80465132422432
 21
263.40045037270198
 31
0.0
 73
     2
  0
SOLID
  5
1D2B
  8
DIM
  6
CONTINUOUS
 10
315.30465132422421
 20
253.26733672795029
 30
0.0
 11
314.30465132422421
 21
253.26733672795029
 31
0.0
 12
314.80465132422421
 22
256.26733672795029
 32
0.0
 13
314.80465132422421
 23
256.26733672795029
 33
0.0
  0
LINE
  5
1D2C
  8
0
  6
CONTINUOUS
 10
233.80465132422441
 20
314.13934761011171
 30
0.0
 11
283.80465132422461
 21
314.13934761011171
 31
0.0
  0
LINE
  5
1D2D
  8
0
  6
CONTINUOUS
 10
233.80465132422441
 20
272.51733672795029
 30
0.0
 11
283.80465132422449
 21
272.51733672795029
 31
0.0
  0
ARC
  5
1D2E
  8
0
 62
     2
 10
271.30465132422438
 20
320.13934761011171
 30
0.0
 40
3.0000000000000031
 50
255.00000000000551
 51
194.9999999999944
  0
LINE
  5
1D2F
  8
CENTER
  6
CENTER
 10
265.30465132422438
 20
320.13934761011171
 30
0.0
 11
277.30465132422449
 21
320.13934761011171
 31
0.0
  0
SOLID
  5
1D30
  8
DIM
  6
CONTINUOUS
 10
275.11083096092239
 20
315.4635785621951
 30
0.0
 11
275.81822275108851
 21
316.17040021947889
 31
0.0
 12
273.34406188415369
 22
317.93916476133552
 32
0.0
 13
273.34406188415369
 23
317.93916476133552
 33
0.0
  0
SOLID
  5
1D31
  8
DIM
  6
CONTINUOUS
 10
241.80465132422449
 20
281.01733672795029
 30
0.0
 11
241.80465132422449
 21
280.01733672795029
 31
0.0
 12
238.80465132422441
 22
280.51733672795029
 32
0.0
 13
238.80465132422441
 23
280.51733672795029
 33
0.0
  0
LINE
  5
1D32
  8
DIM
  6
CONTINUOUS
 10
238.80465132422441
 20
275.40042016879369
 30
0.0
 11
238.80465132422441
 21
281.69307801995961
 31
0.0
  0
LINE
  5
1D33
  8
DIM
  6
CONTINUOUS
 10
233.80465132422441
 20
273.6635053499117
 30
0.0
 11
233.80465132422441
 21
281.51733672795029
 31
0.0
  0
SOLID
  5
1D34
  8
DIM
  6
CONTINUOUS
 10
230.80465132422449
 20
281.01733672795029
 30
0.0
 11
230.80465132422449
 21
280.01733672795029
 31
0.0
 12
233.80465132422441
 22
280.51733672795029
 32
0.0
 13
233.80465132422441
 23
280.51733672795029
 33
0.0
  0
TEXT
  5
1D35
  8
DIM
  6
CONTINUOUS
 10
251.28630277195001
 20
282.01733672795029
 30
0.0
 40
3.0
  1
32.5
  7
ROMANSS
 72
     1
 11
255.85773134337859
 21
283.51733672795029
 31
0.0
 73
     2
  0
LINE
  5
1D36
  8
DIM
  6
CONTINUOUS
 10
271.30465132422438
 20
275.40042016879369
 30
0.0
 11
271.30465132422438
 21
281.69921141257089
 31
0.0
  0
SOLID
  5
1D37
  8
DIM
  6
CONTINUOUS
 10
268.30465132422449
 20
281.01733672795029
 30
0.0
 11
268.30465132422449
 21
280.01733672795029
 31
0.0
 12
271.30465132422438
 22
280.51733672795029
 32
0.0
 13
271.30465132422438
 23
280.51733672795029
 33
0.0
  0
LINE
  5
1D38
  8
HIDDEN
  6
HIDDEN
 10
247.55465132422461
 20
314.13934761011171
 30
0.0
 11
247.55465132422461
 21
320.63934761011171
 31
0.0
  0
LINE
  5
1D39
  8
HIDDEN
  6
HIDDEN
 10
237.05465132422441
 20
314.13934761011171
 30
0.0
 11
237.05465132422449
 21
320.63934761011171
 31
0.0
  0
ARC
  5
1D3A
  8
0
 62
     2
 10
238.80465132422441
 20
320.13934761011171
 30
0.0
 40
3.0000000000000031
 50
255.00000000000551
 51
194.9999999999944
  0
LINE
  5
1D3B
  8
CENTER
  6
CENTER
 10
238.80465132422441
 20
326.13934761011171
 30
0.0
 11
238.80465132422441
 21
314.13934761011171
 31
0.0
  0
LINE
  5
1D3C
  8
HIDDEN
  6
HIDDEN
 10
237.05465132422449
 20
320.63934761011171
 30
0.0
 11
247.55465132422461
 21
320.63934761011183
 31
0.0
  0
CIRCLE
  5
1D3D
  8
0
 10
238.80465132422441
 20
320.13934761011171
 30
0.0
 40
2.5
  0
LINE
  5
1D3E
  8
CENTER
  6
CENTER
 10
232.80465132422441
 20
320.13934761011171
 30
0.0
 11
244.80465132422441
 21
320.13934761011171
 31
0.0
  0
LINE
  5
1D3F
  8
0
  6
CONTINUOUS
 10
233.30465132422469
 20
318.63934761011171
 30
0.0
 11
233.30465132422469
 21
326.60099919480058
 31
0.0
  0
LINE
  5
1D40
  8
0
  6
CONTINUOUS
 10
232.80465132422469
 20
318.13934761011171
 30
0.0
 11
233.30465132422469
 21
318.63934761011171
 31
0.0
  0
LINE
  5
1D41
  8
HIDDEN
  6
HIDDEN
 10
229.1046513242247
 20
318.13934761011171
 30
0.0
 11
228.7171513242248
 21
324.33934761011159
 31
0.0
  0
LINE
  5
1D42
  8
HIDDEN
  6
HIDDEN
 10
229.65465132422469
 20
318.13934761011171
 30
0.0
 11
229.30590132422461
 21
323.71934761011158
 31
0.0
  0
LINE
  5
1D43
  8
0
  6
CONTINUOUS
 10
233.30465132422469
 20
326.60099919480058
 30
0.0
 11
233.80465132422469
 21
327.84784498798251
 31
0.0
  0
LINE
  5
1D44
  8
0
  6
CONTINUOUS
 62
     4
 10
231.54004467098881
 20
328.13934761011171
 30
0.0
 11
233.30465132422469
 21
326.60099919480058
 31
0.0
  0
LINE
  5
1D45
  8
CENTER
  6
CENTER
 10
271.30465132422438
 20
326.13934761011171
 30
0.0
 11
271.30465132422438
 21
314.1393476101116
 31
0.0
  0
CIRCLE
  5
1D46
  8
0
 10
271.30465132422438
 20
320.13934761011171
 30
0.0
 40
2.5
  0
TEXT
  5
1D47
  8
DIM
  6
CONTINUOUS
 10
296.59036560993871
 20
282.01733672795029
 30
0.0
 40
3.0
  1
5.4
  7
ROMANSS
 72
     1
 11
299.80465132422449
 21
283.51733672795029
 31
0.0
 73
     2
  0
LINE
  5
1D48
  8
DIM
  6
CONTINUOUS
 10
280.38722796688069
 20
280.51733672795029
 30
0.0
 11
302.7512819449995
 21
280.51733672795041
 31
0.0
  0
LINE
  5
1D49
  8
0
  6
CONTINUOUS
 10
286.80465132422438
 20
270.51733672795029
 30
0.0
 11
298.80465132422438
 21
270.51733672795029
 31
0.0
  0
SOLID
  5
1D4A
  8
DIM
  6
CONTINUOUS
 10
283.80465132422449
 20
281.01733672795029
 30
0.0
 11
283.80465132422449
 21
280.01733672795029
 31
0.0
 12
286.80465132422438
 22
280.51733672795029
 32
0.0
 13
286.80465132422438
 23
280.51733672795029
 33
0.0
  0
LINE
  5
1D4B
  8
DIM
  6
CONTINUOUS
 10
286.80465132422438
 20
281.93015296458259
 30
0.0
 11
286.80465132422438
 21
271.44914285053488
 31
0.0
  0
SOLID
  5
1D4C
  8
DIM
  6
CONTINUOUS
 10
296.30465132422461
 20
281.01733672795029
 30
0.0
 11
296.30465132422461
 21
280.01733672795029
 31
0.0
 12
293.30465132422461
 22
280.51733672795029
 32
0.0
 13
293.30465132422461
 23
280.51733672795029
 33
0.0
  0
LINE
  5
1D4D
  8
HIDDEN
  6
HIDDEN
 10
286.80465132422438
 20
321.13934761011149
 30
0.0
 11
298.80465132422438
 21
321.13934761011149
 31
0.0
  0
LINE
  5
1D4E
  8
HIDDEN
  6
HIDDEN
 10
286.80465132422438
 20
320.63934761011149
 30
0.0
 11
298.80465132422438
 21
320.6393476101116
 31
0.0
  0
LINE
  5
1D4F
  8
HIDDEN
  6
HIDDEN
 10
286.80465132422438
 20
325.63934761011149
 30
0.0
 11
298.80465132422438
 21
325.63934761011149
 31
0.0
  0
LINE
  5
1D50
  8
HIDDEN
  6
HIDDEN
 10
286.80465132422438
 20
325.13934761011149
 30
0.0
 11
298.80465132422438
 21
325.13934761011149
 31
0.0
  0
LINE
  5
1D51
  8
HIDDEN
  6
HIDDEN
 10
298.80465132422449
 20
320.3893476101116
 30
0.0
 11
292.20465132422441
 21
320.3893476101116
 31
0.0
  0
LINE
  5
1D52
  8
HIDDEN
  6
HIDDEN
 10
298.80465132422449
 20
325.88934761011137
 30
0.0
 11
292.20465132422441
 21
325.88934761011149
 31
0.0
  0
LINE
  5
1D53
  8
CENTER
  6
CENTER
 10
283.80465132422461
 20
323.1393476101116
 30
0.0
 11
301.80465132422449
 21
323.1393476101116
 31
0.0
  0
LINE
  5
1D54
  8
0
  6
CONTINUOUS
 10
286.80465132422438
 20
316.13934761011171
 30
0.0
 11
298.80465132422438
 21
316.13934761011171
 31
0.0
  0
TEXT
  5
1D55
  8
DIM
  6
CONTINUOUS
 10
290.16493546905048
 20
306.60794966874113
 30
0.0
 40
3.0
  1
4-M6x11L
  7
ROMANSS
 11
290.16493546905048
 21
308.10794966874113
 31
0.0
 73
     2
  0
LINE
  5
1D56
  8
DIM
  6
CONTINUOUS
 10
286.16493546905048
 20
305.10794966874118
 30
0.0
 11
310.85699075840557
 21
305.10794966874113
 31
0.0
  0
LINE
  5
1D57
  8
DIM
  6
CONTINUOUS
 10
278.73571570577178
 20
320.13934761011171
 30
0.0
 11
307.80465132422432
 21
320.13934761011171
 31
0.0
  0
LINE
  5
1D58
  8
0
  6
CONTINUOUS
 10
283.80465132422449
 20
316.6393476101116
 30
0.0
 11
286.80465132422461
 21
316.6393476101116
 31
0.0
  0
LINE
  5
1D59
  8
DIM
  6
CONTINUOUS
 10
275.46452685600542
 20
315.81698939083702
 30
0.0
 11
286.16493546905048
 21
305.10794966874113
 31
0.0
  0
LINE
  5
1D5A
  8
0
  6
CONTINUOUS
 10
283.80465132422449
 20
328.13934761011171
 30
0.0
 11
286.80465132422438
 21
328.13934761011171
 31
0.0
  0
LINE
  5
1D5B
  8
HIDDEN
  6
HIDDEN
 10
292.20465132422441
 20
327.88934761011149
 30
0.0
 11
292.20465132422441
 21
318.38934761011137
 31
0.0
  0
LINE
  5
1D5C
  8
HIDDEN
  6
HIDDEN
 10
292.20465132422441
 20
318.38934761011149
 30
0.0
 11
286.80465132422438
 21
318.38934761011149
 31
0.0
  0
LINE
  5
1D5D
  8
HIDDEN
  6
HIDDEN
 10
292.20465132422441
 20
327.88934761011149
 30
0.0
 11
286.80465132422438
 21
327.88934761011149
 31
0.0
  0
SOLID
  5
1D5E
  8
DIM
  6
CONTINUOUS
 10
306.30465132422432
 20
323.13934761011171
 30
0.0
 11
307.30465132422432
 21
323.13934761011171
 31
0.0
 12
306.80465132422438
 22
320.13934761011171
 32
0.0
 13
306.80465132422438
 23
320.13934761011171
 33
0.0
  0
SOLID
  5
1D5F
  8
DIM
  6
CONTINUOUS
 10
381.72564236835763
 20
270.4523297954297
 30
0.0
 11
380.88903994903347
 21
269.90451925155429
 31
0.0
 12
382.95077279032142
 22
267.66861726551952
 32
0.0
 13
382.95077279032142
 23
267.66861726551952
 33
0.0
  0
SOLID
  5
1D60
  8
DIM
  6
CONTINUOUS
 10
338.30465132422421
 20
267.51733672795029
 30
0.0
 11
339.30465132422421
 21
267.51733672795029
 31
0.0
 12
338.80465132422421
 22
270.51733672795029
 32
0.0
 13
338.80465132422421
 23
270.51733672795029
 33
0.0
  0
LINE
  5
1D61
  8
CENTER
  6
CENTER
 10
358.22434730666168
 20
265.51733672795029
 30
0.0
 11
370.2243473066618
 21
265.51733672795029
 31
0.0
  0
CIRCLE
  5
1D62
  8
HIDDEN
  6
HIDDEN
 10
364.22434730666168
 20
251.51733672795029
 30
0.0
 40
4.75
  0
LINE
  5
1D63
  8
CENTER
  6
CENTER
 10
356.47434730666168
 20
251.51733672795029
 30
0.0
 11
391.97434730666168
 21
251.51733672795029
 31
0.0
  0
CIRCLE
  5
1D64
  8
HIDDEN
  6
HIDDEN
 10
364.22434730666168
 20
211.51733672795029
 30
0.0
 40
4.75
  0
LINE
  5
1D65
  8
CENTER
  6
CENTER
 10
356.47434730666168
 20
211.51733672795029
 30
0.0
 11
391.97434730666168
 21
211.51733672795029
 31
0.0
  0
LINE
  5
1D66
  8
CENTER
  6
CENTER
 10
352.22434730666168
 20
231.51733672795029
 30
0.0
 11
396.2243473066618
 21
231.51733672795029
 31
0.0
  0
CIRCLE
  5
1D67
  8
0
  6
CONTINUOUS
 10
364.22434730666168
 20
231.51733672795029
 30
0.0
 40
3.0
  0
LINE
  5
1D68
  8
DIM
  6
CONTINUOUS
 10
330.80465132422432
 20
205.51733672795029
 30
0.0
 11
330.80465132422432
 21
257.51733672795029
 31
0.0
  0
LINE
  5
1D69
  8
DIM
  6
CONTINUOUS
 10
322.80465132422421
 20
215.51733672795029
 30
0.0
 11
322.80465132422421
 21
247.51733672795029
 31
0.0
  0
SOLID
  5
1D6A
  8
DIM
  6
CONTINUOUS
 10
322.30465132422421
 20
215.51733672795029
 30
0.0
 11
323.30465132422421
 21
215.51733672795029
 31
0.0
 12
322.80465132422421
 22
212.51733672795029
 32
0.0
 13
322.80465132422421
 23
212.51733672795029
 33
0.0
  0
TEXT
  5
1D6B
  8
DIM
  6
CONTINUOUS
 10
329.30465132422432
 20
229.08876529937879
 30
0.0
 40
3.0
  1
58
 50
90.0
  7
ROMANSS
 72
     1
 11
327.80465132422432
 21
231.51733672795029
 31
0.0
 73
     2
  0
TEXT
  5
1D6C
  8
DIM
  6
CONTINUOUS
 10
337.30465132422421
 20
229.08876529937891
 30
0.0
 40
3.0
  1
78
 50
90.0
  7
ROMANSS
 72
     1
 11
335.80465132422421
 21
231.51733672795029
 31
0.0
 73
     2
  0
CIRCLE
  5
1D6D
  8
0
  6
CONTINUOUS
 10
364.22434730666168
 20
211.51733672795029
 30
0.0
 40
2.75
  0
SOLID
  5
1D6E
  8
DIM
  6
CONTINUOUS
 10
322.30465132422421
 20
247.51733672795029
 30
0.0
 11
323.30465132422421
 21
247.51733672795029
 31
0.0
 12
322.80465132422421
 22
250.51733672795029
 32
0.0
 13
322.80465132422421
 23
250.51733672795029
 33
0.0
  0
SOLID
  5
1D6F
  8
DIM
  6
CONTINUOUS
 10
330.30465132422432
 20
257.51733672795029
 30
0.0
 11
331.30465132422432
 21
257.51733672795029
 31
0.0
 12
330.80465132422432
 22
260.51733672795029
 32
0.0
 13
330.80465132422432
 23
260.51733672795029
 33
0.0
  0
CIRCLE
  5
1D70
  8
0
  6
CONTINUOUS
 10
364.22434730666168
 20
251.51733672795029
 30
0.0
 40
2.75
  0
ARC
  5
1D71
  8
0
  6
CONTINUOUS
 62
     2
 10
364.22434730666168
 20
265.51733672795029
 30
0.0
 40
2.4999999999991238
 50
255.0000000000004
 51
194.9999999999994
  0
CIRCLE
  5
1D72
  8
0
  6
CONTINUOUS
 10
364.22434730666168
 20
265.51733672795029
 30
0.0
 40
2.1000000000000001
  0
LINE
  5
1D73
  8
DIM
  6
CONTINUOUS
 10
401.22434730666163
 20
214.51733672795029
 30
0.0
 11
401.22434730666163
 21
248.51733672795029
 31
0.0
  0
POLYLINE
  5
1D74
  8
0
  6
CONTINUOUS
 66
     1
 10
0.0
 20
0.0
 30
0.0
 70
     1
  0
VERTEX
  5
2174
  8
0
  6
CONTINUOUS
 10
373.06964676828181
 20
220.51733672795029
 30
0.0
  0
VERTEX
  5
2175
  8
0
  6
CONTINUOUS
 10
371.91494622990359
 20
218.51733672795029
 30
0.0
  0
VERTEX
  5
2176
  8
0
  6
CONTINUOUS
 10
373.06964676828181
 20
216.51733672795029
 30
0.0
  0
VERTEX
  5
2177
  8
0
  6
CONTINUOUS
 10
375.37904784504173
 20
216.51733672795029
 30
0.0
  0
VERTEX
  5
2178
  8
0
  6
CONTINUOUS
 10
376.53374838341989
 20
218.51733672795029
 30
0.0
  0
VERTEX
  5
2179
  8
0
  6
CONTINUOUS
 10
375.37904784504173
 20
220.51733672795029
 30
0.0
  0
SEQEND
  5
217A
  8
0
  6
CONTINUOUS
  0
CIRCLE
  5
1D75
  8
0
  6
CONTINUOUS
 10
374.2243473066618
 20
218.51733672795029
 30
0.0
 40
3.9035796766743651
  0
CIRCLE
  5
1D76
  8
0
  6
CONTINUOUS
 10
374.2243473066618
 20
218.51733672795029
 30
0.0
 40
4.25
  0
LINE
  5
1D77
  8
CENTER
  6
CENTER
 10
367.2243473066618
 20
218.51733672795029
 30
0.0
 11
381.22434730666168
 21
218.51733672795029
 31
0.0
  0
CIRCLE
  5
1D78
  8
0
  6
CONTINUOUS
 10
384.2243473066618
 20
211.51733672795029
 30
0.0
 40
2.75
  0
CIRCLE
  5
1D79
  8
HIDDEN
  6
HIDDEN
 10
384.2243473066618
 20
211.51733672795029
 30
0.0
 40
4.75
  0
POLYLINE
  5
1D7A
  8
0
 66
     1
 10
0.0
 20
0.0
 30
0.0
 70
     1
  0
VERTEX
  5
217B
  8
0
 10
373.35832190287772
 20
233.01733672795029
 30
0.0
  0
VERTEX
  5
217C
  8
0
 10
372.49229649909358
 20
231.51733672795029
 30
0.0
  0
VERTEX
  5
217D
  8
0
 10
373.35832190287772
 20
230.01733672795029
 30
0.0
  0
VERTEX
  5
217E
  8
0
 10
375.09037271044582
 20
230.01733672795029
 30
0.0
  0
VERTEX
  5
217F
  8
0
 10
375.9563981142299
 20
231.51733672795029
 30
0.0
  0
VERTEX
  5
2180
  8
0
 10
375.09037271044582
 20
233.01733672795029
 30
0.0
  0
SEQEND
  5
2181
  8
0
  0
CIRCLE
  5
1D7B
  8
0
 10
374.2243473066618
 20
231.51733672795029
 30
0.0
 40
2.5
  0
CIRCLE
  5
1D7C
  8
0
 10
374.2243473066618
 20
231.51733672795029
 30
0.0
 40
3.0
  0
CIRCLE
  5
1D7D
  8
0
  6
CONTINUOUS
 10
384.2243473066618
 20
231.51733672795029
 30
0.0
 40
3.0
  0
SOLID
  5
1D7E
  8
DIM
  6
CONTINUOUS
 10
388.70768073995703
 20
227.4942807195942
 30
0.0
 11
389.30659314230422
 21
228.29509526386451
 31
0.0
 12
386.60469330831978
 22
229.69142519877079
 32
0.0
 13
386.60469330831978
 23
229.69142519877079
 33
0.0
  0
LINE
  5
1D7F
  8
DIM
  6
CONTINUOUS
 10
392.9743473066618
 20
211.51733672795029
 30
0.0
 11
402.22434730666163
 21
211.51733672795029
 31
0.0
  0
SOLID
  5
1D80
  8
DIM
  6
CONTINUOUS
 10
400.72434730666163
 20
214.51733672795029
 30
0.0
 11
401.72434730666163
 21
214.51733672795029
 31
0.0
 12
401.22434730666163
 22
211.51733672795029
 32
0.0
 13
401.22434730666163
 23
211.51733672795029
 33
0.0
  0
TEXT
  5
1D81
  8
DIM
  6
CONTINUOUS
 10
399.72434730666168
 20
229.08876529937879
 30
0.0
 40
3.0
  1
40
 50
90.0
  7
ROMANSS
 72
     1
 11
398.22434730666168
 21
231.51733672795029
 31
0.0
 73
     2
  0
TEXT
  5
1D82
  8
DIM
  6
CONTINUOUS
 10
407.72434730666168
 20
229.08876529937879
 30
0.0
 40
3.0
  1
68
 50
90.0
  7
ROMANSS
 72
     1
 11
406.22434730666163
 21
231.51733672795029
 31
0.0
 73
     2
  0
LINE
  5
1D83
  8
CENTER
  6
CENTER
 10
378.2243473066618
 20
265.51733672795029
 30
0.0
 11
390.2243473066618
 21
265.51733672795029
 31
0.0
  0
CIRCLE
  5
1D84
  8
0
  6
CONTINUOUS
 10
384.2243473066618
 20
251.51733672795029
 30
0.0
 40
2.75
  0
CIRCLE
  5
1D85
  8
HIDDEN
  6
HIDDEN
 10
384.2243473066618
 20
251.51733672795029
 30
0.0
 40
4.75
  0
LINE
  5
1D86
  8
CENTER
  6
CENTER
 10
367.2243473066618
 20
244.51733672795029
 30
0.0
 11
381.22434730666168
 21
244.51733672795029
 31
0.0
  0
POLYLINE
  5
1D87
  8
0
  6
CONTINUOUS
 66
     1
 10
0.0
 20
0.0
 30
0.0
 70
     1
  0
VERTEX
  5
2182
  8
0
  6
CONTINUOUS
 10
373.06964676828181
 20
246.51733672795029
 30
0.0
  0
VERTEX
  5
2183
  8
0
  6
CONTINUOUS
 10
371.91494622990359
 20
244.51733672795029
 30
0.0
  0
VERTEX
  5
2184
  8
0
  6
CONTINUOUS
 10
373.06964676828181
 20
242.51733672795029
 30
0.0
  0
VERTEX
  5
2185
  8
0
  6
CONTINUOUS
 10
375.37904784504173
 20
242.51733672795029
 30
0.0
  0
VERTEX
  5
2186
  8
0
  6
CONTINUOUS
 10
376.53374838341989
 20
244.51733672795029
 30
0.0
  0
VERTEX
  5
2187
  8
0
  6
CONTINUOUS
 10
375.37904784504173
 20
246.51733672795029
 30
0.0
  0
SEQEND
  5
2188
  8
0
  6
CONTINUOUS
  0
CIRCLE
  5
1D88
  8
0
  6
CONTINUOUS
 10
374.2243473066618
 20
244.51733672795029
 30
0.0
 40
3.9035796766743651
  0
CIRCLE
  5
1D89
  8
0
  6
CONTINUOUS
 10
374.2243473066618
 20
244.51733672795029
 30
0.0
 40
4.25
  0
LINE
  5
1D8A
  8
CENTER
  6
CENTER
 10
367.2243473066618
 20
260.51733672795029
 30
0.0
 11
381.22434730666168
 21
260.51733672795029
 31
0.0
  0
POLYLINE
  5
1D8B
  8
0
  6
CONTINUOUS
 66
     1
 10
0.0
 20
0.0
 30
0.0
 70
     1
  0
VERTEX
  5
2189
  8
0
  6
CONTINUOUS
 10
373.06964676828181
 20
262.51733672795029
 30
0.0
  0
VERTEX
  5
218A
  8
0
  6
CONTINUOUS
 10
371.91494622990359
 20
260.51733672795029
 30
0.0
  0
VERTEX
  5
218B
  8
0
  6
CONTINUOUS
 10
373.06964676828181
 20
258.51733672795029
 30
0.0
  0
VERTEX
  5
218C
  8
0
  6
CONTINUOUS
 10
375.37904784504173
 20
258.51733672795029
 30
0.0
  0
VERTEX
  5
218D
  8
0
  6
CONTINUOUS
 10
376.53374838341989
 20
260.51733672795029
 30
0.0
  0
VERTEX
  5
218E
  8
0
  6
CONTINUOUS
 10
375.37904784504173
 20
262.51733672795029
 30
0.0
  0
SEQEND
  5
218F
  8
0
  6
CONTINUOUS
  0
CIRCLE
  5
1D8C
  8
0
  6
CONTINUOUS
 10
374.2243473066618
 20
260.51733672795029
 30
0.0
 40
3.9035796766743651
  0
CIRCLE
  5
1D8D
  8
0
  6
CONTINUOUS
 10
374.2243473066618
 20
260.51733672795029
 30
0.0
 40
4.25
  0
ARC
  5
1D8E
  8
0
  6
CONTINUOUS
 62
     2
 10
384.2243473066618
 20
265.51733672795029
 30
0.0
 40
2.4999999999991238
 50
255.0000000000004
 51
194.9999999999994
  0
CIRCLE
  5
1D8F
  8
0
  6
CONTINUOUS
 10
384.2243473066618
 20
265.51733672795029
 30
0.0
 40
2.1000000000000001
  0
LINE
  5
1D90
  8
DIM
  6
CONTINUOUS
 10
392.9743473066618
 20
251.51733672795029
 30
0.0
 11
402.22434730666163
 21
251.51733672795029
 31
0.0
  0
SOLID
  5
1D91
  8
DIM
  6
CONTINUOUS
 10
400.72434730666163
 20
248.51733672795029
 30
0.0
 11
401.72434730666163
 21
248.51733672795029
 31
0.0
 12
401.22434730666163
 22
251.51733672795029
 32
0.0
 13
401.22434730666163
 23
251.51733672795029
 33
0.0
  0
LINE
  5
1D92
  8
DIM
  6
CONTINUOUS
 10
391.2243473066618
 20
265.51733672795029
 30
0.0
 11
410.22434730666163
 21
265.51733672795029
 31
0.0
  0
SOLID
  5
1D93
  8
DIM
  6
CONTINUOUS
 10
408.72434730666163
 20
262.51733672795029
 30
0.0
 11
409.72434730666163
 21
262.51733672795029
 31
0.0
 12
409.22434730666163
 22
265.51733672795029
 32
0.0
 13
409.22434730666163
 23
265.51733672795029
 33
0.0
  0
TEXT
  5
1D94
  8
DIM
  6
CONTINUOUS
 10
358.74016036675908
 20
281.70765707496349
 30
0.0
 40
3.0
  1
4-M5
  7
ROMANSS
 72
     2
 11
370.74016036675908
 21
283.20765707496349
 31
0.0
 73
     2
  0
LINE
  5
1D95
  8
DIM
  6
CONTINUOUS
 10
371.74016036675908
 20
280.20765707496349
 30
0.0
 11
360.24016036675908
 21
280.20765707496349
 31
0.0
  0
LINE
  5
1D96
  8
0
  6
CONTINUOUS
 10
357.2243473066618
 20
270.51733672795029
 30
0.0
 11
391.2243473066618
 21
270.51733672795029
 31
0.0
  0
LINE
  5
1D97
  8
0
  6
CONTINUOUS
 10
355.2243473066618
 20
272.51733672795029
 30
0.0
 11
393.2243473066618
 21
272.51733672795029
 31
0.0
  0
LINE
  5
1D98
  8
DIM
  6
CONTINUOUS
 10
381.30734115869558
 20
270.17842452349203
 30
0.0
 11
374.74016036675908
 21
280.20765707496349
 31
0.0
  0
LINE
  5
1D99
  8
DIM
  6
CONTINUOUS
 10
374.74016036675908
 20
280.20765707496349
 30
0.0
 11
371.74016036675908
 21
280.20765707496349
 31
0.0
  0
LINE
  5
1D9A
  8
0
  6
CONTINUOUS
 10
233.80465132422441
 20
352.1393476101116
 30
0.0
 11
283.80465132422461
 21
352.13934761011171
 31
0.0
  0
ARC
  5
1D9B
  8
0
 62
     2
 10
271.30465132422438
 20
346.13934761011171
 30
0.0
 40
3.0000000000000031
 50
255.00000000000551
 51
194.9999999999944
  0
LINE
  5
1D9C
  8
CENTER
  6
CENTER
 10
265.30465132422438
 20
346.13934761011171
 30
0.0
 11
277.30465132422449
 21
346.13934761011171
 31
0.0
  0
LINE
  5
1D9D
  8
CENTER
  6
CENTER
 10
238.80465132422441
 20
352.13934761011171
 30
0.0
 11
238.80465132422441
 21
340.13934761011171
 31
0.0
  0
ARC
  5
1D9E
  8
0
 62
     2
 10
238.80465132422441
 20
346.13934761011171
 30
0.0
 40
3.0000000000000031
 50
255.00000000000551
 51
194.9999999999944
  0
CIRCLE
  5
1D9F
  8
0
 10
238.80465132422441
 20
346.13934761011171
 30
0.0
 40
2.5
  0
LINE
  5
1DA0
  8
CENTER
  6
CENTER
 10
232.80465132422449
 20
346.13934761011171
 30
0.0
 11
244.80465132422441
 21
346.13934761011171
 31
0.0
  0
LINE
  5
1DA1
  8
0
  6
CONTINUOUS
 10
233.30465132422469
 20
339.67769602542268
 30
0.0
 11
233.30465132422469
 21
346.63934761011183
 31
0.0
  0
LINE
  5
1DA2
  8
0
  6
CONTINUOUS
 10
233.30465132422469
 20
339.67769602542268
 30
0.0
 11
233.80465132422469
 21
338.43085023224091
 31
0.0
  0
LINE
  5
1DA3
  8
0
  6
CONTINUOUS
 62
     4
 10
231.54004467098881
 20
338.13934761011171
 30
0.0
 11
233.30465132422469
 21
339.67769602542268
 31
0.0
  0
LINE
  5
1DA4
  8
CENTER
  6
CENTER
 10
271.30465132422438
 20
352.13934761011171
 30
0.0
 11
271.30465132422438
 21
340.13934761011171
 31
0.0
  0
CIRCLE
  5
1DA5
  8
0
 10
271.30465132422438
 20
346.13934761011171
 30
0.0
 40
2.5
  0
LINE
  5
1DA6
  8
HIDDEN
  6
HIDDEN
 10
286.80465132422438
 20
341.13934761011171
 30
0.0
 11
298.80465132422438
 21
341.13934761011171
 31
0.0
  0
LINE
  5
1DA7
  8
HIDDEN
  6
HIDDEN
 10
286.80465132422438
 20
340.63934761011171
 30
0.0
 11
298.80465132422438
 21
340.63934761011171
 31
0.0
  0
LINE
  5
1DA8
  8
HIDDEN
  6
HIDDEN
 10
286.80465132422438
 20
345.63934761011171
 30
0.0
 11
298.80465132422438
 21
345.63934761011171
 31
0.0
  0
LINE
  5
1DA9
  8
HIDDEN
  6
HIDDEN
 10
286.80465132422438
 20
345.13934761011171
 30
0.0
 11
298.80465132422438
 21
345.13934761011171
 31
0.0
  0
LINE
  5
1DAA
  8
HIDDEN
  6
HIDDEN
 10
298.80465132422449
 20
340.38934761011183
 30
0.0
 11
292.20465132422441
 21
340.38934761011171
 31
0.0
  0
LINE
  5
1DAB
  8
HIDDEN
  6
HIDDEN
 10
298.80465132422449
 20
345.8893476101116
 30
0.0
 11
292.20465132422441
 21
345.88934761011171
 31
0.0
  0
LINE
  5
1DAC
  8
CENTER
  6
CENTER
 10
283.80465132422449
 20
343.13934761011171
 30
0.0
 11
301.80465132422449
 21
343.13934761011171
 31
0.0
  0
LINE
  5
1DAD
  8
0
  6
CONTINUOUS
 10
286.80465132422438
 20
350.13934761011171
 30
0.0
 11
298.80465132422438
 21
350.13934761011171
 31
0.0
  0
LINE
  5
1DAE
  8
DIM
  6
CONTINUOUS
 10
278.49493110661439
 20
346.13934761011171
 30
0.0
 11
307.80465132422432
 21
346.13934761011171
 31
0.0
  0
LINE
  5
1DAF
  8
0
  6
CONTINUOUS
 10
283.80465132422449
 20
349.63934761011171
 30
0.0
 11
286.80465132422461
 21
349.63934761011171
 31
0.0
  0
LINE
  5
1DB0
  8
0
  6
CONTINUOUS
 10
283.80465132422449
 20
338.13934761011171
 30
0.0
 11
286.80465132422438
 21
338.13934761011171
 31
0.0
  0
LINE
  5
1DB1
  8
HIDDEN
  6
HIDDEN
 10
292.20465132422441
 20
347.8893476101116
 30
0.0
 11
292.20465132422441
 21
338.3893476101116
 31
0.0
  0
LINE
  5
1DB2
  8
HIDDEN
  6
HIDDEN
 10
292.20465132422441
 20
338.38934761011171
 30
0.0
 11
286.80465132422438
 21
338.38934761011171
 31
0.0
  0
LINE
  5
1DB3
  8
HIDDEN
  6
HIDDEN
 10
292.20465132422441
 20
347.8893476101116
 30
0.0
 11
286.80465132422438
 21
347.8893476101116
 31
0.0
  0
SOLID
  5
1DB4
  8
DIM
  6
CONTINUOUS
 10
306.30465132422432
 20
343.13934761011171
 30
0.0
 11
307.30465132422432
 21
343.13934761011171
 31
0.0
 12
306.80465132422438
 22
346.13934761011171
 32
0.0
 13
306.80465132422438
 23
346.13934761011171
 33
0.0
  0
TEXT
  5
1DB5
  8
DIM
  6
CONTINUOUS
 10
423.8284555788382
 20
204.2977182021053
 30
0.0
 40
3.0
  1
2-%%c6H7
  7
ROMANSS
 72
     2
 11
441.11416986455248
 21
205.7977182021053
 31
0.0
 73
     2
  0
LINE
  5
1DB6
  8
DIM
  6
CONTINUOUS
 10
442.11416986455248
 20
202.7977182021053
 30
0.0
 11
422.56466279278811
 21
202.7977182021053
 31
0.0
  0
SOLID
  5
1DB7
  8
DIM
  6
CONTINUOUS
 10
416.72434730666168
 20
269.51733672795029
 30
0.0
 11
417.72434730666163
 21
269.51733672795029
 31
0.0
 12
417.22434730666163
 22
272.51733672795029
 32
0.0
 13
417.22434730666163
 23
272.51733672795029
 33
0.0
  0
TEXT
  5
1DB9
  8
LOGO
  6
CONTINUOUS
 62
     7
 10
305.49636527999098
 20
41.70445511135668
 30
0.0
 40
12.647772444321649
  1
MGTK
  7
CHINESET
 72
     1
 11
328.68394809458073
 21
48.02834133351751
 31
0.0
 73
     2
  0
ENDSEC
  0
EOF
