  0
SECTION
  2
HEADER
  9
$ACADVER
  1
AC1012
  9
$DWGCODEPAGE
  3
big5
  9
$INSBASE
 10
0.0
 20
0.0
 30
0.0
  9
$EXTMIN
 10
-0.0456737787123984
 20
-52.88296100167269
 30
-0.000000000000013
  9
$EXTMAX
 10
717.9537103096842
 20
370.0044302465416
 30
0.0000000000000023
  9
$LIMMIN
 10
0.0
 20
0.0
  9
$LIMMAX
 10
420.0
 20
297.0
  9
$ORTHOMODE
 70
     0
  9
$REGENMODE
 70
     1
  9
$FILLMODE
 70
     1
  9
$QTEXTMODE
 70
     0
  9
$MIRRTEXT
 70
     1
  9
$DRAGMODE
 70
     2
  9
$LTSCALE
 40
1.0
  9
$OSMODE
 70
    55
  9
$ATTMODE
 70
     1
  9
$TEXTSIZE
 40
2.5
  9
$TRACEWID
 40
1.0
  9
$TEXTSTYLE
  7
STANDARD
  9
$CLAYER
  8
0
  9
$CELTYPE
  6
BYLAYER
  9
$CECOLOR
 62
   256
  9
$CELTSCALE
 40
1.0
  9
$DELOBJ
 70
     1
  9
$DISPSILH
 70
     0
  9
$DIMSCALE
 40
1.0
  9
$DIMASZ
 40
2.5
  9
$DIMEXO
 40
0.625
  9
$DIMDLI
 40
3.75
  9
$DIMRND
 40
0.0
  9
$DIMDLE
 40
0.0
  9
$DIMEXE
 40
1.25
  9
$DIMTP
 40
0.0
  9
$DIMTM
 40
0.0
  9
$DIMTXT
 40
2.5
  9
$DIMCEN
 40
2.5
  9
$DIMTSZ
 40
0.0
  9
$DIMTOL
 70
     0
  9
$DIMLIM
 70
     0
  9
$DIMTIH
 70
     0
  9
$DIMTOH
 70
     0
  9
$DIMSE1
 70
     0
  9
$DIMSE2
 70
     0
  9
$DIMTAD
 70
     1
  9
$DIMZIN
 70
     8
  9
$DIMBLK
  1

  9
$DIMASO
 70
     1
  9
$DIMSHO
 70
     1
  9
$DIMPOST
  1

  9
$DIMAPOST
  1

  9
$DIMALT
 70
     0
  9
$DIMALTD
 70
     3
  9
$DIMALTF
 40
0.03937007874016
  9
$DIMLFAC
 40
1.0
  9
$DIMTOFL
 70
     1
  9
$DIMTVP
 40
0.0
  9
$DIMTIX
 70
     0
  9
$DIMSOXD
 70
     0
  9
$DIMSAH
 70
     0
  9
$DIMBLK1
  1

  9
$DIMBLK2
  1

  9
$DIMSTYLE
  2
ISO-25
  9
$DIMCLRD
 70
     0
  9
$DIMCLRE
 70
     0
  9
$DIMCLRT
 70
     0
  9
$DIMTFAC
 40
1.0
  9
$DIMGAP
 40
0.625
  9
$DIMJUST
 70
     0
  9
$DIMSD1
 70
     0
  9
$DIMSD2
 70
     0
  9
$DIMTOLJ
 70
     0
  9
$DIMTZIN
 70
     8
  9
$DIMALTZ
 70
     0
  9
$DIMALTTZ
 70
     0
  9
$DIMFIT
 70
     3
  9
$DIMUPT
 70
     0
  9
$DIMUNIT
 70
     2
  9
$DIMDEC
 70
     2
  9
$DIMTDEC
 70
     8
  9
$DIMALTU
 70
     2
  9
$DIMALTTD
 70
     3
  9
$DIMTXSTY
  7
STANDARD
  9
$DIMAUNIT
 70
     0
  9
$LUNITS
 70
     2
  9
$LUPREC
 70
     4
  9
$SKETCHINC
 40
1.0
  9
$FILLETRAD
 40
10.0
  9
$AUNITS
 70
     0
  9
$AUPREC
 70
     0
  9
$MENU
  1
.
  9
$ELEVATION
 40
0.0
  9
$PELEVATION
 40
0.0
  9
$THICKNESS
 40
0.0
  9
$LIMCHECK
 70
     0
  9
$BLIPMODE
 70
     0
  9
$CHAMFERA
 40
10.0
  9
$CHAMFERB
 40
10.0
  9
$CHAMFERC
 40
20.0
  9
$CHAMFERD
 40
0.0
  9
$SKPOLY
 70
     0
  9
$TDCREATE
 40
2451928.441684502
  9
$TDUPDATE
 40
2453335.497649120
  9
$TDINDWG
 40
0.0329513194
  9
$TDUSRTIMER
 40
0.0329512037
  9
$USRTIMER
 70
     1
  9
$ANGBASE
 50
0.0
  9
$ANGDIR
 70
     0
  9
$PDMODE
 70
     0
  9
$PDSIZE
 40
0.0
  9
$PLINEWID
 40
0.0
  9
$COORDS
 70
     1
  9
$SPLFRAME
 70
     0
  9
$SPLINETYPE
 70
     6
  9
$SPLINESEGS
 70
     8
  9
$ATTDIA
 70
     1
  9
$ATTREQ
 70
     1
  9
$HANDLING
 70
 22529
  9
$HANDSEED
  5
15A4
  9
$SURFTAB1
 70
     6
  9
$SURFTAB2
 70
     6
  9
$SURFTYPE
 70
     6
  9
$SURFU
 70
     6
  9
$SURFV
 70
     6
  9
$UCSNAME
  2

  9
$UCSORG
 10
0.0
 20
0.0
 30
0.0
  9
$UCSXDIR
 10
1.0
 20
0.0
 30
0.0
  9
$UCSYDIR
 10
0.0
 20
1.0
 30
0.0
  9
$PUCSNAME
  2

  9
$PUCSORG
 10
0.0
 20
0.0
 30
0.0
  9
$PUCSXDIR
 10
1.0
 20
0.0
 30
0.0
  9
$PUCSYDIR
 10
0.0
 20
1.0
 30
0.0
  9
$USERI1
 70
     0
  9
$USERI2
 70
     0
  9
$USERI3
 70
     0
  9
$USERI4
 70
     0
  9
$USERI5
 70
     0
  9
$USERR1
 40
0.0
  9
$USERR2
 40
0.0
  9
$USERR3
 40
0.0
  9
$USERR4
 40
0.0
  9
$USERR5
 40
0.0
  9
$WORLDVIEW
 70
     1
  9
$SHADEDGE
 70
     3
  9
$SHADEDIF
 70
    70
  9
$TILEMODE
 70
     1
  9
$MAXACTVP
 70
    48
  9
$PINSBASE
 10
0.0
 20
0.0
 30
0.0
  9
$PLIMCHECK
 70
     0
  9
$PEXTMIN
 10
1.000000000000000E+20
 20
1.000000000000000E+20
 30
1.000000000000000E+20
  9
$PEXTMAX
 10
-1.000000000000000E+20
 20
-1.000000000000000E+20
 30
-1.000000000000000E+20
  9
$PLIMMIN
 10
0.0
 20
0.0
  9
$PLIMMAX
 10
420.0
 20
297.0
  9
$UNITMODE
 70
     0
  9
$VISRETAIN
 70
     1
  9
$PLINEGEN
 70
     0
  9
$PSLTSCALE
 70
     1
  9
$TREEDEPTH
 70
  3020
  9
$PICKSTYLE
 70
     1
  9
$CMLSTYLE
  2
STANDARD
  9
$CMLJUST
 70
     0
  9
$CMLSCALE
 40
20.0
  9
$SAVEIMAGES
 70
     1
  0
ENDSEC
  0
SECTION
  2
CLASSES
  0
CLASS
  1
ACDBDICTIONARYWDFLT
  2
AcDbDictionaryWithDefault
  3
AutoCAD 2000
 90
    32768
280
     0
281
     0
  0
CLASS
  1
ACDBPLACEHOLDER
  2
AcDbPlaceHolder
  3
AutoCAD 2000
 90
    32768
280
     0
281
     0
  0
CLASS
  1
LAYOUT
  2
AcDbLayout
  3
AutoCAD 2000
 90
    32768
280
     0
281
     0
  0
CLASS
  1
LONG_TRANSACTION
  2
AcDbLongTransaction
  3
AutoCAD 2000
 90
    32768
280
     0
281
     0
  0
CLASS
  1
LWPOLYLINE
  2
AcDbPolyline
  3
AutoCAD 2000
 90
    32768
280
     0
281
     1
  0
CLASS
  1
HATCH
  2
AcDbHatch
  3
AutoCAD 2000
 90
    32768
280
     0
281
     1
  0
CLASS
  1
XRECORD
  2
AcDbXrecord
  3
AutoCAD 2000
 90
    32768
280
     0
281
     0
  0
CLASS
  1
LONG_TRANSACTION
  2
AcDbLongTransaction
  3
AutoCAD 2000
 90
    32768
280
     0
281
     0
  0
CLASS
  1
LWPOLYLINE
  2
AcDbPolyline
  3
AutoCAD 2000
 90
    32768
280
     0
281
     1
  0
CLASS
  1
HATCH
  2
AcDbHatch
  3
AutoCAD 2000
 90
    32768
280
     0
281
     1
  0
CLASS
  1
XRECORD
  2
AcDbXrecord
  3
AutoCAD 2000
 90
    32768
280
     0
281
     0
  0
CLASS
  1
ACME_DOCUMENT
  2
AcMeDbDoc
  3
AcMeServices
 90
    32768
280
     0
281
     0
  0
CLASS
  1
AMGSETTINGSOBJ
  2
AmgSettingsObj
  3
"AcadM|Product Description: AutoCAD Mechanical 2000|Company: Autodesk"
 90
    32768
280
     0
281
     0
  0
CLASS
  1
ACMESCOPE
  2
AcMeScope
  3
AcMeServices
 90
    32768
280
     0
281
     0
  0
CLASS
  1
ACMECOMMANDHISTORY
  2
AcMeCommandHistory
  3
AcMeServices
 90
    32768
280
     0
281
     0
  0
CLASS
  1
ACIMSYSVARMAN
  2
AcImSysVarManager
  3
AcMeServices
 90
    32768
280
     0
281
     0
  0
CLASS
  1
ACIMREALSYSVAR
  2
AcImRealSysVar
  3
AcMeServices
 90
    32768
280
     0
281
     0
  0
CLASS
  1
ACIMINTSYSVAR
  2
AcImIntSysVar
  3
AcMeServices
 90
    32768
280
     0
281
     0
  0
CLASS
  1
ACMEDRAWINGMAN
  2
AcMeDrawingMan
  3
AcMeServices
 90
    32768
280
     0
281
     0
  0
CLASS
  1
ACMEVIEW
  2
AcMeView
  3
AcMeServices
 90
    32768
280
     0
281
     0
  0
CLASS
  1
ACDBENTITYCACHE
  2
AcMeEntityCache
  3
AcMeServices
 90
    32768
280
     0
281
     0
  0
CLASS
  1
GSMANAGER
  2
AcMeGSManager
  3
AcMeServices
 90
    32768
280
     0
281
     0
  0
CLASS
  1
AMDTINTERNALREACTOR
  2
AmdtInternalReactor
  3
AcMeServices
 90
    32768
280
     0
281
     0
  0
CLASS
  1
ACMESTATEMGR
  2
AcMeStateMgr
  3
AcMeServices
 90
    32768
280
     0
281
     0
  0
CLASS
  1
ACGREFMASTER
  2
AcGrefMaster
  3
AcAttribServices
 90
    32768
280
     0
281
     0
  0
CLASS
  1
ACME_DATABASE
  2
AcMeDbDatabase
  3
AcMeServices
 90
    32768
280
     0
281
     0
  0
CLASS
  1
ACRFINSADJUSTERMGR
  2
AcRfInsAdjusterMgr
  3
AcMeServices
 90
    32768
280
     0
281
     0
  0
CLASS
  1
ACGREFACADMASTER
  2
AcGrefacadMaster
  3
AcGrefServices
 90
    32768
280
     0
281
     0
  0
CLASS
  1
AMIMASTER
  2
AmiMaster
  3
AmiServices
 90
    32768
280
     0
281
     0
  0
CLASS
  1
ACMDATADICTIONARY
  2
AcmDataDictionary
  3
"AcmSymBB|Product Description: AutoCAD Mechanical 2000|Company: Autodesk"
 90
    32768
280
     0
281
     0
  0
CLASS
  1
ACMDATAENTRYBLOCK
  2
AcmDataEntryBlock
  3
"AcmSymBB|Product Description: AutoCAD Mechanical 2000|Company: Autodesk"
 90
    32768
280
     0
281
     0
  0
CLASS
  1
ACIMSTRSYSVAR
  2
AcImStrSysVar
  3
AcMeServices
 90
    32768
280
     0
281
     0
  0
CLASS
  1
ACMSTANDARDISO
  2
AcmStandardISO
  3
"Amdt_StdImp|Product Description: AutoCAD Mechanical 2000|Company: Autodesk"
 90
    32768
280
     0
281
     0
  0
CLASS
  1
AMGOBJPROPCFG
  2
AmgObjPropCfg
  3
"AmgLay|Product Description: AutoCAD Mechanical 2000|Company: Autodesk"
 90
    32769
280
     0
281
     0
  0
CLASS
  1
AMDTEDGESTANDARDISO
  2
AmdtEdgeStdISO
  3
"Amdt_StdImp|Product Description: AutoCAD Mechanical 2000|Company: Autodesk"
 90
    32768
280
     0
281
     0
  0
CLASS
  1
ACMSURFSTANDARDISO
  2
AcmSurfTextStdISO
  3
"Amdt_StdImp|Product Description: AutoCAD Mechanical 2000|Company: Autodesk"
 90
    32768
280
     0
281
     0
  0
CLASS
  1
ACMFCFSTANDARDISO
  2
AcmFCFStdISO
  3
"Amdt_StdImp|Product Description: AutoCAD Mechanical 2000|Company: Autodesk"
 90
    32768
280
     0
281
     0
  0
CLASS
  1
ACMWELDSTANDARDISO
  2
AcmWeldingStdISO
  3
"Amdt_StdImp|Product Description: AutoCAD Mechanical 2000|Company: Autodesk"
 90
    32768
280
     0
281
     0
  0
CLASS
  1
ACMIDSTANDARDISO
  2
AcmIdStdISO
  3
"Amdt_StdImp|Product Description: AutoCAD Mechanical 2000|Company: Autodesk"
 90
    32768
280
     0
281
     0
  0
CLASS
  1
ACMDATUMSTANDARDISO
  2
AcmDatumStdISO
  3
"Amdt_StdImp|Product Description: AutoCAD Mechanical 2000|Company: Autodesk"
 90
    32768
280
     0
281
     0
  0
CLASS
  1
ACMBOMSTANDARDISO
  2
AcmBOMStdISO
  3
"Amdt_StdImp|Product Description: AutoCAD Mechanical 2000|Company: Autodesk"
 90
    32768
280
     0
281
     0
  0
CLASS
  1
ACMDETAILSTANDARDISO
  2
AmdtDetailSymStdISO
  3
"Amdt_StdImp|Product Description: AutoCAD Mechanical 2000|Company: Autodesk"
 90
    32768
280
     0
281
     0
  0
CLASS
  1
ACMSECTIONSTANDARDISO
  2
AmdtSectionSymStdISO
  3
"Amdt_StdImp|Product Description: AutoCAD Mechanical 2000|Company: Autodesk"
 90
    32768
280
     0
281
     0
  0
CLASS
  1
ACMCENTERLINESTANDARDISO
  2
AmdtCenterLineStdISO
  3
"Amdt_StdImp|Product Description: AutoCAD Mechanical 2000|Company: Autodesk"
 90
    32768
280
     0
281
     0
  0
CLASS
  1
ACMNOTESTANDARDISO
  2
AmdtNoteStdISO
  3
"Amdt_StdImp|Product Description: AutoCAD Mechanical 2000|Company: Autodesk"
 90
    32768
280
     0
281
     0
  0
CLASS
  1
ACAMGLAYSTD
  2
AcAmgLayStd
  3
"AcAmgLayStd|Product Description: AutoCAD Mechanical 2000|Company: Autodesk"
 90
    32768
280
     0
281
     0
  0
CLASS
  1
ACAMGDIMSTD
  2
AcAmgDimStd
  3
"AcAmgDimStd|Product Description: AutoCAD Mechanical 2000|Company: Autodesk"
 90
    32768
280
     0
281
     0
  0
CLASS
  1
ACAMGHOLECHARTSTDISO
  2
AcAmgHoleChartStdISO
  3
ACMSYMBB_MODULE_NAME
 90
    32768
280
     0
281
     0
  0
CLASS
  1
ACAMGTITLESTD
  2
AcAmgTitleStd
  3
"TITLEAPP"
 90
    32768
280
     0
281
     0
  0
CLASS
  1
ACAMGFILTERDAT
  2
AcAmgFilterDat
  3
"AcadM|Product Description: AutoCAD Mechanical 2000|Company: Autodesk"
 90
    32768
280
     0
281
     0
  0
CLASS
  1
AMDTFORMULAUPDATEDISPATCHER
  2
AmdtFormulaUpdateDispatcher
  3
AcMeServices
 90
    32768
280
     0
281
     0
  0
CLASS
  1
LAYER_INDEX
  2
AcDbLayerIndex
  3
AutoCAD 2000
 90
    32768
280
     0
281
     0
  0
CLASS
  1
IDBUFFER
  2
AcDbIdBuffer
  3
AutoCAD 2000
 90
    32768
280
     0
281
     0
  0
CLASS
  1
DICTIONARYVAR
  2
AcDbDictionaryVar
  3
AutoCAD 2000
 90
    32768
280
     0
281
     0
  0
CLASS
  1
LONG_TRANSACTION
  2
AcDbLongTransaction
  3
AutoCAD 2000
 90
    32768
280
     0
281
     0
  0
CLASS
  1
LWPOLYLINE
  2
AcDbPolyline
  3
AutoCAD 2000
 90
    32768
280
     0
281
     1
  0
CLASS
  1
HATCH
  2
AcDbHatch
  3
AutoCAD 2000
 90
    32768
280
     0
281
     1
  0
CLASS
  1
XRECORD
  2
AcDbXrecord
  3
AutoCAD 2000
 90
    32768
280
     0
281
     0
  0
ENDSEC
  0
SECTION
  2
TABLES
  0
TABLE
  2
VPORT
  5
8
330
0
100
AcDbSymbolTable
 70
     7
  0
VPORT
  5
15A0
330
8
100
AcDbSymbolTableRecord
100
AcDbViewportTableRecord
  2
*ACTIVE
 70
     0
 10
0.0
 20
0.0
 11
1.0
 21
1.0
 12
358.9540182654859
 22
158.5607346224344
 13
0.0
 23
0.0
 14
10.0
 24
10.0
 15
10.0
 25
10.0
 16
0.0
 26
0.0
 36
1.0
 17
0.0
 27
0.0
 37
0.0
 40
427.63005357997
 41
1.756554307116104
 42
50.0
 43
0.0
 44
0.0
 50
0.0
 51
0.0
 71
     0
 72
   100
 73
     1
 74
     3
 75
     0
 76
     0
 77
     0
 78
     0
  0
ENDTAB
  0
TABLE
  2
LTYPE
  5
5
330
0
100
AcDbSymbolTable
 70
    13
  0
LTYPE
  5
14
330
5
100
AcDbSymbolTableRecord
100
AcDbLinetypeTableRecord
  2
BYBLOCK
 70
     0
  3

 72
    65
 73
     0
 40
0.0
  0
LTYPE
  5
15
330
5
100
AcDbSymbolTableRecord
100
AcDbLinetypeTableRecord
  2
BYLAYER
 70
     0
  3

 72
    65
 73
     0
 40
0.0
  0
LTYPE
  5
16
330
5
100
AcDbSymbolTableRecord
100
AcDbLinetypeTableRecord
  2
CONTINUOUS
 70
     0
  3
Solid line
 72
    65
 73
     0
 40
0.0
  0
LTYPE
  5
2B
330
5
100
AcDbSymbolTableRecord
100
AcDbLinetypeTableRecord
  2
CENTER
 70
     0
  3
_______________ _ _______________ _ ___________
 72
    65
 73
     4
 40
18.0
 49
15.0
 74
     0
 49
-1.0
 74
     0
 49
1.0
 74
     0
 49
-1.0
 74
     0
  0
LTYPE
  5
2C
330
5
100
AcDbSymbolTableRecord
100
AcDbLinetypeTableRecord
  2
HIDDEN
 70
     0
  3
___ ___ ___ ___ ___ ___ ___ ___ ___ ___ 
 72
    65
 73
     2
 40
4.0
 49
3.0
 74
     0
 49
-1.0
 74
     0
  0
LTYPE
  5
14D6
330
5
100
AcDbSymbolTableRecord
100
AcDbLinetypeTableRecord
  2
AM_ISO02W050
 70
     0
  3
__ __ __ __ __ __ __ __ __ __ __ __ __ __ __
 72
    65
 73
     2
 40
7.5
 49
6.0
 74
     0
 49
-1.5
 74
     0
  0
LTYPE
  5
14D7
330
5
100
AcDbSymbolTableRecord
100
AcDbLinetypeTableRecord
  2
AM_ISO08W050
 70
     0
  3
____ . ____ . ____ . ____ . ____ . ____ . ____
 72
    65
 73
     4
 40
18.0
 49
12.0
 74
     0
 49
-1.5
 74
     0
 49
3.0
 74
     0
 49
-1.5
 74
     0
  0
LTYPE
  5
14D8
330
5
100
AcDbSymbolTableRecord
100
AcDbLinetypeTableRecord
  2
AM_ISO09W050
 70
     0
  3
_____ . . _____ . . _____ . . ____ .. ____
 72
    65
 73
     6
 40
22.5
 49
12.0
 74
     0
 49
-1.5
 74
     0
 49
3.0
 74
     0
 49
-1.5
 74
     0
 49
3.0
 74
     0
 49
-1.5
 74
     0
  0
LTYPE
  5
14D9
330
5
100
AcDbSymbolTableRecord
100
AcDbLinetypeTableRecord
  2
AMCONSTR
 70
     0
  3
_______________________
 72
    65
 73
     2
 40
9999.0
 49
9999.0
 74
     0
 49
0.0
 74
     0
  0
LTYPE
  5
14DA
330
5
100
AcDbSymbolTableRecord
100
AcDbLinetypeTableRecord
  2
AM_ISO08W050X2
 70
     0
  3
__ . __ . __ . __ . __ . __
 72
    65
 73
     4
 40
9.0
 49
6.0
 74
     0
 49
-0.75
 74
     0
 49
1.5
 74
     0
 49
-0.75
 74
     0
  0
LTYPE
  5
14DB
330
5
100
AcDbSymbolTableRecord
100
AcDbLinetypeTableRecord
  2
AM_ISO02W050X2
 70
     0
  3
 _ _ _ _ _ _ _ _ _ _ _ _
 72
    65
 73
     2
 40
3.75
 49
3.0
 74
     0
 49
-0.75
 74
     0
  0
LTYPE
  5
14DE
330
5
100
AcDbSymbolTableRecord
100
AcDbLinetypeTableRecord
  2
AMZIGZAG
 70
     0
  3
/\/-/\/-/\/-/\/-/\/-/\/
 72
    65
 73
     2
 40
11.00009999999999
 49
0.0001
 74
     4
 75
   135
340
14DD
 46
0.04
 50
0.0
 44
0.0
 45
0.0
 49
-11.0
 74
     0
  0
LTYPE
  5
14EC
330
5
100
AcDbSymbolTableRecord
100
AcDbLinetypeTableRecord
  2
ACISOWELD
 70
     0
  3
_ _ _ _ _
 72
    65
 73
     2
 40
2.0
 49
2.0
 74
     0
 49
-1.0
 74
     0
  0
LTYPE
  5
14ED
330
5
100
AcDbSymbolTableRecord
100
AcDbLinetypeTableRecord
  2
ACISOTGB
 70
     0
  3
__ . . __ . .
 72
    65
 73
     6
 40
9.0
 49
4.0
 74
     0
 49
-1.0
 74
     0
 49
1.0
 74
     0
 49
-1.0
 74
     0
 49
1.0
 74
     0
 49
-1.0
 74
     0
  0
LTYPE
  5
14EE
330
5
100
AcDbSymbolTableRecord
100
AcDbLinetypeTableRecord
  2
ACISOTGL
 70
     0
  3
_ _ _ _ _
 72
    65
 73
     2
 40
3.0
 49
2.0
 74
     0
 49
-1.0
 74
     0
  0
ENDTAB
  0
TABLE
  2
LAYER
  5
2
330
0
100
AcDbSymbolTable
 70
     9
  0
LAYER
  5
10
330
2
100
AcDbSymbolTableRecord
100
AcDbLayerTableRecord
  2
0
 70
     0
 62
     7
  6
CONTINUOUS
  0
LAYER
  5
2D
330
2
100
AcDbSymbolTableRecord
100
AcDbLayerTableRecord
  2
DIM
 70
     0
 62
     5
  6
CONTINUOUS
  0
LAYER
  5
2E
330
2
100
AcDbSymbolTableRecord
100
AcDbLayerTableRecord
  2
HIDDEN
 70
     0
 62
     6
  6
HIDDEN
  0
LAYER
  5
2F
330
2
100
AcDbSymbolTableRecord
100
AcDbLayerTableRecord
  2
CENTER
 70
     0
 62
     1
  6
CENTER
  0
LAYER
  5
7CF
330
2
100
AcDbSymbolTableRecord
100
AcDbLayerTableRecord
  2
LOGO
 70
     0
 62
     7
  6
CONTINUOUS
  0
LAYER
  5
C76
330
2
100
AcDbSymbolTableRecord
100
AcDbLayerTableRecord
  2
UMCBOR
 70
     0
 62
     7
  6
CONTINUOUS
  0
LAYER
  5
C77
330
2
100
AcDbSymbolTableRecord
100
AcDbLayerTableRecord
  2
UMCL1
 70
     0
 62
     7
  6
CONTINUOUS
  0
LAYER
  5
C78
330
2
100
AcDbSymbolTableRecord
100
AcDbLayerTableRecord
  2
UMCL2
 70
     0
 62
     2
  6
CONTINUOUS
  0
LAYER
  5
150A
330
2
100
AcDbSymbolTableRecord
100
AcDbLayerTableRecord
  2
AM_VIS
 70
     0
 62
     7
  6
CONTINUOUS
  0
ENDTAB
  0
TABLE
  2
STYLE
  5
3
330
0
100
AcDbSymbolTable
 70
    10
  0
STYLE
  5
11
330
3
100
AcDbSymbolTableRecord
100
AcDbTextStyleTableRecord
  2
STANDARD
 70
     0
 40
0.0
 41
1.0
 50
0.0
 71
     0
 42
2.5
  3
txt
  4

  0
STYLE
  5
31
330
3
100
AcDbSymbolTableRecord
100
AcDbTextStyleTableRecord
  2
ROMANS
 70
     0
 40
0.0
 41
1.0
 50
0.0
 71
     0
 42
3.0
  3
ROMANS.SHX
  4
LMP
  0
STYLE
  5
32
330
3
100
AcDbSymbolTableRecord
100
AcDbTextStyleTableRecord
  2
ROMANS1
 70
     0
 40
0.0
 41
1.0
 50
0.0
 71
     0
 42
3.0
  3
ROMANS.SHX
  4

  0
STYLE
  5
33
330
3
100
AcDbSymbolTableRecord
100
AcDbTextStyleTableRecord
  2
ROMANSS
 70
     0
 40
0.0
 41
1.0
 50
0.0
 71
     0
 42
3.0
  3
ROMANSS.SHX
  4
LMP
  0
STYLE
  5
7D0
330
3
100
AcDbSymbolTableRecord
100
AcDbTextStyleTableRecord
  2
CHINESET
 70
     0
 40
0.0
 41
1.0
 50
0.0
 71
     0
 42
4.0
  3
C:\r13\com\fonts\simplex.shx
  4
C:\r13\com\fonts\chineset.shx
  0
STYLE
  5
7D1
330
3
100
AcDbSymbolTableRecord
100
AcDbTextStyleTableRecord
  2
LOGO
 70
     0
 40
0.0
 41
1.0
 50
0.0
 71
     0
 42
5.0
  3
LEI00DP.TTF
  4

1001
ACAD
1000
文鼎中粗隸
1071
    34865
  0
STYLE
  5
C79
330
3
100
AcDbSymbolTableRecord
100
AcDbTextStyleTableRecord
  2
ITALICT
 70
     0
 40
0.0
 41
1.0
 50
0.0
 71
     0
 42
3.0
  3
ITALICT.SHX
  4

  0
STYLE
  5
14DD
330
3
100
AcDbSymbolTableRecord
100
AcDbTextStyleTableRecord
  2

 70
     1
 40
0.0
 41
1.0
 50
0.0
 71
     0
 42
2.5
  3
ltypeshp.shx
  4

  0
STYLE
  5
14DF
330
3
100
AcDbSymbolTableRecord
100
AcDbTextStyleTableRecord
  2
ACISOTS
 70
     0
 40
1.0
 41
1.0
 50
0.0
 71
     0
 42
2.5
  3
isocp.shx
  4
chineset.shx
  0
STYLE
  5
14EB
330
3
100
AcDbSymbolTableRecord
100
AcDbTextStyleTableRecord
  2
ACISOGDT
 70
     0
 40
0.0
 41
1.0
 50
0.0
 71
     0
 42
2.5
  3
amgdt.shx
  4

  0
ENDTAB
  0
TABLE
  2
VIEW
  5
6
330
0
100
AcDbSymbolTable
 70
     0
  0
ENDTAB
  0
TABLE
  2
UCS
  5
7
330
0
100
AcDbSymbolTable
 70
     0
  0
ENDTAB
  0
TABLE
  2
APPID
  5
9
330
0
100
AcDbSymbolTable
 70
     4
  0
APPID
  5
12
330
9
100
AcDbSymbolTableRecord
100
AcDbRegAppTableRecord
  2
ACAD
 70
     0
  0
APPID
  5
14B8
330
9
100
AcDbSymbolTableRecord
100
AcDbRegAppTableRecord
  2
MCAD_NO_VIS
 70
     0
  0
APPID
  5
14B9
330
9
100
AcDbSymbolTableRecord
100
AcDbRegAppTableRecord
  2
ACAD_TEMP_GRAPHIC
 70
     0
  0
APPID
  5
14CA
330
9
100
AcDbSymbolTableRecord
100
AcDbRegAppTableRecord
  2
ACATTRIBSERVICES
 70
     0
  0
ENDTAB
  0
TABLE
  2
DIMSTYLE
  5
A
330
0
100
AcDbSymbolTable
 70
     9
  0
DIMSTYLE
105
27
330
A
100
AcDbSymbolTableRecord
100
AcDbDimStyleTableRecord
  2
ISO-25
 70
     0
  3

  4

  5

  6

  7

 40
1.0
 41
2.5
 42
0.625
 43
3.75
 44
1.25
 45
0.0
 46
0.0
 47
0.0
 48
0.0
140
2.5
141
2.5
142
0.0
143
0.03937007874016
144
1.0
145
0.0
146
1.0
147
0.625
 71
     0
 72
     0
 73
     0
 74
     0
 75
     0
 76
     0
 77
     1
 78
     8
170
     0
171
     3
172
     1
173
     0
174
     0
175
     0
176
     0
177
     0
178
     0
270
     2
271
     2
272
     2
273
     2
274
     3
340
11
275
     0
280
     0
281
     0
282
     0
283
     0
284
     8
285
     0
286
     0
287
     3
288
     0
  0
DIMSTYLE
105
C7A
330
A
100
AcDbSymbolTableRecord
100
AcDbDimStyleTableRecord
  2
STANDARD
 70
     0
  3

  4

  5

  6

  7

 40
1.0
 41
0.18
 42
0.0625
 43
0.38
 44
0.18
 45
0.0
 46
0.0
 47
0.0
 48
0.0
140
0.18
141
0.09
142
0.0
143
25.4
144
1.0
145
0.0
146
1.0
147
0.09
 71
     0
 72
     0
 73
     1
 74
     1
 75
     0
 76
     0
 77
     0
 78
     0
170
     0
171
     2
172
     0
173
     0
174
     0
175
     0
176
     0
177
     0
178
     0
270
     2
271
     4
272
     4
273
     2
274
     2
340
11
275
     0
280
     0
281
     0
282
     0
283
     1
284
     0
285
     0
286
     0
287
     3
288
     0
  0
DIMSTYLE
105
14F3
330
A
100
AcDbSymbolTableRecord
100
AcDbDimStyleTableRecord
  2
AM_ISO
 70
     0
  3

  4
"
  5

  6

  7

 40
1.0
 41
2.5
 42
1.0
 43
10.0
 44
1.0
 45
0.0
 46
0.0
 47
0.1
 48
0.1
140
3.5
141
0.0
142
0.0
143
0.0393701
144
1.0
145
0.0
146
0.71
147
1.5
 71
     0
 72
     0
 73
     0
 74
     0
 75
     0
 76
     0
 77
     1
 78
     8
170
     0
171
     2
172
     1
173
     0
174
     0
175
     0
176
   256
177
   256
178
     2
270
     2
271
     2
272
     3
273
     2
274
     4
340
11
275
     0
280
     0
281
     0
282
     0
283
     0
284
     8
285
     0
286
     0
287
     3
288
     0
  0
DIMSTYLE
105
14F4
330
A
100
AcDbSymbolTableRecord
100
AcDbDimStyleTableRecord
  2
AM_ISO$3
 70
     0
  3

  4
"
  5

  6

  7

 40
1.0
 41
2.5
 42
1.0
 43
10.0
 44
1.0
 45
0.0
 46
0.0
 47
0.1
 48
0.1
140
3.5
141
0.0
142
0.0
143
0.0393701
144
1.0
145
0.0
146
0.71
147
1.5
 71
     0
 72
     0
 73
     0
 74
     1
 75
     0
 76
     0
 77
     1
 78
     8
170
     0
171
     2
172
     0
173
     0
174
     0
175
     0
176
   256
177
   256
178
     2
270
     2
271
     2
272
     3
273
     2
274
     4
340
11
275
     0
280
     0
281
     0
282
     0
283
     0
284
     8
285
     0
286
     0
287
     0
288
     1
  0
DIMSTYLE
105
14F5
330
A
100
AcDbSymbolTableRecord
100
AcDbDimStyleTableRecord
  2
AM_ISO$4
 70
     0
  3

  4
"
  5

  6

  7

 40
1.0
 41
2.5
 42
1.0
 43
10.0
 44
1.0
 45
0.0
 46
0.0
 47
0.1
 48
0.1
140
3.5
141
0.0
142
0.0
143
0.0393701
144
1.0
145
0.0
146
0.71
147
1.5
 71
     0
 72
     0
 73
     0
 74
     1
 75
     0
 76
     0
 77
     1
 78
     8
170
     0
171
     2
172
     0
173
     0
174
     0
175
     0
176
   256
177
   256
178
     2
270
     2
271
     2
272
     3
273
     2
274
     4
340
11
275
     0
280
     0
281
     0
282
     0
283
     0
284
     8
285
     0
286
     0
287
     0
288
     1
  0
DIMSTYLE
105
14F6
330
A
100
AcDbSymbolTableRecord
100
AcDbDimStyleTableRecord
  2
AM_ISO$6
 70
     0
  3

  4
"
  5

  6

  7

 40
1.0
 41
2.5
 42
1.0
 43
10.0
 44
1.0
 45
0.0
 46
0.0
 47
0.1
 48
0.1
140
3.5
141
0.0
142
0.0
143
0.0393701
144
1.0
145
0.0
146
0.71
147
1.5
 71
     0
 72
     0
 73
     0
 74
     0
 75
     0
 76
     0
 77
     0
 78
     8
170
     0
171
     2
172
     1
173
     0
174
     0
175
     0
176
   256
177
   256
178
     2
270
     2
271
     2
272
     3
273
     2
274
     4
340
11
275
     0
280
     0
281
     0
282
     0
283
     0
284
     8
285
     0
286
     0
287
     3
288
     0
  0
DIMSTYLE
105
14F7
330
A
100
AcDbSymbolTableRecord
100
AcDbDimStyleTableRecord
  2
AM_ISO$7
 70
     0
  3

  4
"
  5

  6

  7

 40
1.0
 41
2.5
 42
1.0
 43
10.0
 44
1.0
 45
0.0
 46
0.0
 47
0.1
 48
0.1
140
5.0
141
0.0
142
0.0
143
0.0393701
144
1.0
145
0.0
146
0.71
147
1.5
 71
     0
 72
     0
 73
     0
 74
     0
 75
     0
 76
     0
 77
     1
 78
     8
170
     0
171
     2
172
     1
173
     0
174
     0
175
     0
176
   256
177
   256
178
     2
270
     2
271
     2
272
     3
273
     2
274
     4
340
11
275
     0
280
     0
281
     0
282
     0
283
     0
284
     8
285
     0
286
     0
287
     3
288
     0
  0
DIMSTYLE
105
14F8
330
A
100
AcDbSymbolTableRecord
100
AcDbDimStyleTableRecord
  2
AM_ISO$SF
 70
     0
  3

  4
"
  5

  6

  7

 40
1.0
 41
2.5
 42
1.0
 43
10.0
 44
1.0
 45
0.0
 46
0.0
 47
0.1
 48
0.1
140
3.5
141
0.0
142
0.0
143
0.0393701
144
1.0
145
0.0
146
0.71
147
1.5
 71
     0
 72
     0
 73
     0
 74
     0
 75
     1
 76
     1
 77
     1
 78
     8
170
     0
171
     2
172
     1
173
     0
174
     0
175
     0
176
   256
177
   256
178
     2
270
     2
271
     2
272
     3
273
     2
274
     4
340
11
275
     0
280
     0
281
     0
282
     0
283
     0
284
     8
285
     0
286
     0
287
     3
288
     0
  0
DIMSTYLE
105
14FD
330
A
100
AcDbSymbolTableRecord
100
AcDbDimStyleTableRecord
  2
AM_ISO$SH
 70
     0
  3

  4
"
  5

  6
GENAXEH
  7

 40
1.0
 41
2.5
 42
1.0
 43
10.0
 44
1.0
 45
0.0
 46
0.0
 47
0.1
 48
0.1
140
3.5
141
0.0
142
0.0
143
0.0393701
144
2.0
145
0.0
146
0.71
147
1.5
 71
     0
 72
     0
 73
     0
 74
     0
 75
     1
 76
     1
 77
     1
 78
     8
170
     0
171
     2
172
     1
173
     1
174
     0
175
     0
176
   256
177
   256
178
     2
270
     2
271
     2
272
     3
273
     2
274
     4
340
11
275
     0
280
     0
281
     0
282
     0
283
     0
284
     8
285
     0
286
     0
287
     3
288
     0
  0
ENDTAB
  0
TABLE
  2
BLOCK_RECORD
  5
1
330
0
100
AcDbSymbolTable
 70
     3
  0
BLOCK_RECORD
  5
1F
102
{ACAD_XDICTIONARY
360
B48
102
}
330
1
100
AcDbSymbolTableRecord
100
AcDbBlockTableRecord
  2
*MODEL_SPACE
  0
BLOCK_RECORD
  5
1B
102
{ACAD_XDICTIONARY
360
B4A
102
}
330
1
100
AcDbSymbolTableRecord
100
AcDbBlockTableRecord
  2
*PAPER_SPACE
  0
BLOCK_RECORD
  5
C70
330
1
100
AcDbSymbolTableRecord
100
AcDbBlockTableRecord
  2
SB_T-M4
  0
BLOCK_RECORD
  5
14F9
330
1
100
AcDbSymbolTableRecord
100
AcDbBlockTableRecord
  2
GENAXEH
  0
ENDTAB
  0
ENDSEC
  0
SECTION
  2
BLOCKS
  0
BLOCK
  5
20
330
1F
100
AcDbEntity
  8
0
100
AcDbBlockBegin
  2
*MODEL_SPACE
 70
     0
 10
0.0
 20
0.0
 30
0.0
  3
*MODEL_SPACE
  1

  0
ENDBLK
  5
21
330
1F
100
AcDbEntity
  8
0
100
AcDbBlockEnd
  0
BLOCK
  5
1C
330
1B
100
AcDbEntity
 67
     1
  8
0
100
AcDbBlockBegin
  2
*PAPER_SPACE
 70
     0
 10
0.0
 20
0.0
 30
0.0
  3
*PAPER_SPACE
  1

  0
ENDBLK
  5
1D
330
1B
100
AcDbEntity
 67
     1
  8
0
100
AcDbBlockEnd
  0
BLOCK
  5
C74
330
C70
100
AcDbEntity
  8
0
100
AcDbBlockBegin
  2
SB_T-M4
 70
     0
 10
0.0
 20
0.0
 30
0.0
  3
SB_T-M4
  1

  0
CIRCLE
  5
C71
330
C70
100
AcDbEntity
  8
UMCBOR
  6
CONTINUOUS
100
AcDbCircle
 10
0.0
 20
0.0
 30
0.0
 40
3.5
  0
CIRCLE
  5
C72
330
C70
100
AcDbEntity
  8
UMCBOR
  6
CONTINUOUS
100
AcDbCircle
 10
0.0
 20
0.0
 30
0.0
 40
3.153579676674365
  0
POLYLINE
  5
C73
330
C70
100
AcDbEntity
  8
UMCBOR
  6
CONTINUOUS
100
AcDb2dPolyline
 66
     1
 10
0.0
 20
0.0
 30
0.0
 70
     1
  0
VERTEX
  5
13E8
330
C73
100
AcDbEntity
  8
UMCBOR
  6
CONTINUOUS
100
AcDbVertex
100
AcDb2dVertex
 10
-0.8660254037840786
 20
1.5
 30
0.0
  0
VERTEX
  5
13E9
330
C73
100
AcDbEntity
  8
UMCBOR
  6
CONTINUOUS
100
AcDbVertex
100
AcDb2dVertex
 10
-1.732050807568157
 20
0.0
 30
0.0
  0
VERTEX
  5
13EA
330
C73
100
AcDbEntity
  8
UMCBOR
  6
CONTINUOUS
100
AcDbVertex
100
AcDb2dVertex
 10
-0.8660254037840786
 20
-1.5
 30
0.0
  0
VERTEX
  5
13EB
330
C73
100
AcDbEntity
  8
UMCBOR
  6
CONTINUOUS
100
AcDbVertex
100
AcDb2dVertex
 10
0.8660254037840786
 20
-1.5
 30
0.0
  0
VERTEX
  5
13EC
330
C73
100
AcDbEntity
  8
UMCBOR
  6
CONTINUOUS
100
AcDbVertex
100
AcDb2dVertex
 10
1.732050807568157
 20
0.0
 30
0.0
  0
VERTEX
  5
13ED
330
C73
100
AcDbEntity
  8
UMCBOR
  6
CONTINUOUS
100
AcDbVertex
100
AcDb2dVertex
 10
0.8660254037840786
 20
1.5
 30
0.0
  0
SEQEND
  5
13EE
330
C73
100
AcDbEntity
  8
UMCBOR
  6
CONTINUOUS
  0
ENDBLK
  5
C75
330
C70
100
AcDbEntity
  8
0
100
AcDbBlockEnd
  0
BLOCK
  5
14FB
330
14F9
100
AcDbEntity
  8
0
100
AcDbBlockBegin
  2
GENAXEH
 70
     0
 10
0.0
 20
0.0
 30
0.0
  3
GENAXEH
  1

  0
LINE
  5
14FA
330
14F9
100
AcDbEntity
  8
0
100
AcDbLine
 10
-1.0
 20
0.0
 30
0.0
 11
1.0
 21
0.0
 31
0.0
  0
ENDBLK
  5
14FC
330
14F9
100
AcDbEntity
  8
0
100
AcDbBlockEnd
  0
ENDSEC
  0
SECTION
  2
ENTITIES
  0
LINE
  5
3C3
330
1F
100
AcDbEntity
  8
0
 62
     4
100
AcDbLine
 10
-0.0000004524015367
 20
370.0000002634812
 30
0.0
 11
717.9116775945956
 21
370.0000002634812
 31
0.0
  0
LINE
  5
3C4
330
1F
100
AcDbEntity
  8
0
 62
     4
100
AcDbLine
 10
717.9116775945956
 20
42.00000026348118
 30
0.0
 11
-0.0000004524015367
 21
42.00000026348118
 31
0.0
  0
LINE
  5
3E2
330
1F
100
AcDbEntity
  8
0
 62
     4
100
AcDbLine
 10
-0.0000004524015367
 20
42.00000026348118
 30
0.0
 11
-0.0000004524015367
 21
370.0000002634812
 31
0.0
  0
LINE
  5
586
330
1F
100
AcDbEntity
  8
0
 62
     4
100
AcDbLine
 10
539.9999995475984
 20
370.0000002634812
 30
0.0
 11
539.9999995475984
 21
42.00000026348118
 31
0.0
  0
LINE
  5
766
330
1F
100
AcDbEntity
  8
DIM
100
AcDbLine
 10
567.9600068201813
 20
134.8939412024366
 30
0.0
 11
641.9600068201812
 21
134.8939412024366
 31
0.0
  0
LINE
  5
767
330
1F
100
AcDbEntity
  8
DIM
100
AcDbLine
 10
557.4600068201812
 20
126.8939412024365
 30
0.0
 11
652.4600068201812
 21
126.8939412024365
 31
0.0
  0
LINE
  5
768
330
1F
100
AcDbEntity
  8
CENTER
  6
CENTER
100
AcDbLine
 10
555.4600068201813
 20
238.5500445386383
 30
0.0
 11
652.9600068201813
 21
238.5500445386384
 31
0.0
  0
ARC
  5
769
330
1F
100
AcDbEntity
  8
0
100
AcDbCircle
 10
622.4600068201811
 20
171.8939412024366
 30
0.0
 40
7.0
100
AcDbArc
 50
270.0
 51
0.0
  0
LINE
  5
76A
330
1F
100
AcDbEntity
  8
CENTER
  6
CENTER
100
AcDbLine
 10
626.7568558453635
 20
204.1439412024365
 30
0.0
 11
654.4600068201812
 21
204.1439412024365
 31
0.0
  0
LINE
  5
76B
330
1F
100
AcDbEntity
  8
CENTER
  6
CENTER
100
AcDbLine
 10
554.347902177903
 20
189.8939412024365
 30
0.0
 11
654.4600068201812
 21
189.8939412024365
 31
0.0
  0
LINE
  5
76C
330
1F
100
AcDbEntity
  8
0
100
AcDbLine
 10
559.4600068201812
 20
142.8939412024366
 30
0.0
 11
650.4600068201812
 21
142.8939412024365
 31
0.0
  0
LINE
  5
76D
330
1F
100
AcDbEntity
  8
0
100
AcDbLine
 10
629.4600068201812
 20
211.3939412024365
 30
0.0
 11
630.4600068201811
 21
212.3939412024365
 31
0.0
  0
LINE
  5
76E
330
1F
100
AcDbEntity
  8
0
100
AcDbLine
 10
557.9600068201812
 20
246.0500445386384
 30
0.0
 11
651.9600068201813
 21
246.0500445386383
 31
0.0
  0
LINE
  5
76F
330
1F
100
AcDbEntity
  8
0
100
AcDbLine
 10
557.9600068201812
 20
231.0500445386384
 30
0.0
 11
651.9600068201813
 21
231.0500445386383
 31
0.0
  0
LINE
  5
770
330
1F
100
AcDbEntity
  8
DIM
100
AcDbLine
 10
567.9600068201811
 20
179.6149308285331
 30
0.0
 11
567.9600068201813
 21
133.8939412024366
 31
0.0
  0
LINE
  5
771
330
1F
100
AcDbEntity
  8
0
100
AcDbLine
 10
629.4600068201813
 20
171.8939412024366
 30
0.0
 11
629.4600068201812
 21
211.3939412024365
 31
0.0
  0
LINE
  5
772
330
1F
100
AcDbEntity
  8
0
100
AcDbLine
 10
580.4600068201811
 20
171.8939412024366
 30
0.0
 11
580.4600068201811
 21
211.3939412024365
 31
0.0
  0
LINE
  5
773
330
1F
100
AcDbEntity
  8
CENTER
  6
CENTER
100
AcDbLine
 10
604.9600068201812
 20
140.1490009675366
 30
0.0
 11
604.9600068201812
 21
213.7198564954011
 31
0.0
  0
LINE
  5
774
330
1F
100
AcDbEntity
  8
0
100
AcDbLine
 10
557.4600068201813
 20
144.8939412024366
 30
0.0
 11
557.4600068201812
 21
211.8939412024365
 31
0.0
  0
ARC
  5
775
330
1F
100
AcDbEntity
  8
0
100
AcDbCircle
 10
587.4600068201812
 20
171.8939412024365
 30
0.0
 40
7.0
100
AcDbArc
 50
180.0
 51
270.0
  0
LINE
  5
776
330
1F
100
AcDbEntity
  8
0
100
AcDbLine
 10
559.4600068201812
 20
142.8939412024366
 30
0.0
 11
557.4600068201813
 21
144.8939412024366
 31
0.0
  0
SOLID
  5
777
330
1F
100
AcDbEntity
  8
DIM
100
AcDbTrace
 10
560.4600068201811
 20
127.3939412024365
 30
0.0
 11
560.4600068201811
 21
126.3939412024365
 31
0.0
 12
557.4600068201812
 22
126.8939412024365
 32
0.0
 13
557.4600068201812
 23
126.8939412024365
 33
0.0
  0
LINE
  5
778
330
1F
100
AcDbEntity
  8
DIM
100
AcDbLine
 10
557.4600068201812
 20
142.1504123633703
 30
0.0
 11
557.4600068201812
 21
125.8939412024365
 31
0.0
  0
SOLID
  5
779
330
1F
100
AcDbEntity
  8
DIM
100
AcDbTrace
 10
570.9600068201813
 20
135.3939412024366
 30
0.0
 11
570.9600068201813
 21
134.3939412024366
 31
0.0
 12
567.9600068201813
 22
134.8939412024366
 32
0.0
 13
567.9600068201813
 23
134.8939412024366
 33
0.0
  0
TEXT
  5
77A
330
1F
100
AcDbEntity
  8
DIM
100
AcDbText
 10
602.1028639630383
 20
128.0939412024366
 30
0.0
 40
3.0
  1
95
  7
ROMANS
 72
     1
 11
604.9600068201812
 21
129.5939412024366
 31
0.0
100
AcDbText
 73
     2
  0
TEXT
  5
77B
330
1F
100
AcDbEntity
  8
DIM
100
AcDbText
 10
602.4127897707646
 20
136.160377341784
 30
0.0
 40
3.0
  1
74
  7
ROMANS
 72
     1
 11
605.3413611993361
 21
137.660377341784
 31
0.0
100
AcDbText
 73
     2
  0
LINE
  5
77C
330
1F
100
AcDbEntity
  8
0
100
AcDbLine
 10
587.4600068201812
 20
164.8939412024366
 30
0.0
 11
622.4600068201811
 21
164.8939412024365
 31
0.0
  0
LINE
  5
77D
330
1F
100
AcDbEntity
  8
0
100
AcDbLine
 10
568.7100068201814
 20
231.0500445386383
 30
0.0
 11
568.7100068201814
 21
246.0500445386383
 31
0.0
  0
LINE
  5
77E
330
1F
100
AcDbEntity
  8
0
100
AcDbLine
 10
567.2100068201814
 20
231.0500445386383
 30
0.0
 11
567.2100068201814
 21
246.0500445386383
 31
0.0
  0
LINE
  5
77F
330
1F
100
AcDbEntity
  8
0
100
AcDbLine
 10
629.4600068201812
 20
231.0500445386384
 30
0.0
 11
629.4600068201812
 21
246.0500445386383
 31
0.0
  0
LINE
  5
780
330
1F
100
AcDbEntity
  8
0
100
AcDbLine
 10
580.4600068201813
 20
231.0500445386384
 30
0.0
 11
580.4600068201813
 21
246.0500445386383
 31
0.0
  0
LINE
  5
781
330
1F
100
AcDbEntity
  8
CENTER
  6
CENTER
100
AcDbLine
 10
567.9600068201814
 20
229.0500445386384
 30
0.0
 11
567.9600068201814
 21
248.0500445386384
 31
0.0
  0
LINE
  5
782
330
1F
100
AcDbEntity
  8
CENTER
  6
CENTER
100
AcDbLine
 10
604.9600068201812
 20
229.0500445386383
 30
0.0
 11
604.9600068201812
 21
248.6759718342732
 31
0.0
  0
LINE
  5
783
330
1F
100
AcDbEntity
  8
0
100
AcDbLine
 10
557.4600068201812
 20
231.5500445386384
 30
0.0
 11
557.4600068201812
 21
245.5500445386384
 31
0.0
  0
LINE
  5
784
330
1F
100
AcDbEntity
  8
0
100
AcDbLine
 10
568.7100068201812
 20
195.8468816523319
 30
0.0
 11
568.7100068201813
 21
212.3939412024365
 31
0.0
  0
LINE
  5
785
330
1F
100
AcDbEntity
  8
0
100
AcDbLine
 10
567.2100068201812
 20
195.8468816523318
 30
0.0
 11
567.2100068201813
 21
212.3939412024365
 31
0.0
  0
LINE
  5
786
330
1F
100
AcDbEntity
  8
CENTER
  6
CENTER
100
AcDbLine
 10
567.9600068201811
 20
180.8939412024365
 30
0.0
 11
567.9600068201813
 21
213.4413752371764
 31
0.0
  0
LINE
  5
787
330
1F
100
AcDbEntity
  8
CENTER
  6
CENTER
100
AcDbLine
 10
555.4600068201811
 20
204.1439412024365
 30
0.0
 11
582.8012710188698
 21
204.1439412024365
 31
0.0
  0
ARC
  5
788
330
1F
100
AcDbEntity
  8
0
100
AcDbCircle
 10
567.9600068201811
 20
189.8939412024365
 30
0.0
 40
6.0
100
AcDbArc
 50
97.18075578145825
 51
82.81924421854176
  0
LINE
  5
789
330
1F
100
AcDbEntity
  8
0
100
AcDbLine
 10
567.2100068201813
 20
201.1439412024365
 30
0.0
 11
568.7100068201813
 21
201.1439412024365
 31
0.0
  0
LINE
  5
78A
330
1F
100
AcDbEntity
  8
0
100
AcDbLine
 10
567.2100068201813
 20
207.1439412024365
 30
0.0
 11
568.7100068201813
 21
207.1439412024365
 31
0.0
  0
LINE
  5
78B
330
1F
100
AcDbEntity
  8
0
100
AcDbLine
 10
557.9600068201812
 20
212.3939412024365
 30
0.0
 11
567.2100068201813
 21
212.3939412024365
 31
0.0
  0
LINE
  5
78C
330
1F
100
AcDbEntity
  8
0
100
AcDbLine
 10
557.4600068201812
 20
211.8939412024365
 30
0.0
 11
557.9600068201812
 21
212.3939412024365
 31
0.0
  0
LINE
  5
78D
330
1F
100
AcDbEntity
  8
0
100
AcDbLine
 10
557.4600068201812
 20
231.5500445386384
 30
0.0
 11
557.9600068201812
 21
231.0500445386384
 31
0.0
  0
LINE
  5
78E
330
1F
100
AcDbEntity
  8
0
100
AcDbLine
 10
568.7100068201813
 20
212.3939412024365
 30
0.0
 11
579.4600068201812
 21
212.3939412024365
 31
0.0
  0
LINE
  5
78F
330
1F
100
AcDbEntity
  8
0
100
AcDbLine
 10
579.4600068201812
 20
212.3939412024365
 30
0.0
 11
580.4600068201811
 21
211.3939412024365
 31
0.0
  0
LINE
  5
790
330
1F
100
AcDbEntity
  8
0
100
AcDbLine
 10
567.2100068201814
 20
235.5500445386383
 30
0.0
 11
568.7100068201814
 21
235.5500445386383
 31
0.0
  0
LINE
  5
791
330
1F
100
AcDbEntity
  8
0
100
AcDbLine
 10
567.2100068201814
 20
241.5500445386384
 30
0.0
 11
568.7100068201814
 21
241.5500445386383
 31
0.0
  0
LINE
  5
792
330
1F
100
AcDbEntity
  8
0
100
AcDbLine
 10
557.4600068201812
 20
245.5500445386384
 30
0.0
 11
557.9600068201812
 21
246.0500445386384
 31
0.0
  0
LINE
  5
793
330
1F
100
AcDbEntity
  8
DIM
100
AcDbLine
 10
641.9600068201811
 20
179.5509917562118
 30
0.0
 11
641.9600068201812
 21
133.8939412024366
 31
0.0
  0
LINE
  5
794
330
1F
100
AcDbEntity
  8
CENTER
  6
CENTER
100
AcDbLine
 10
697.9089503817887
 20
214.3939412024365
 30
0.0
 11
697.9089503817887
 21
140.5528360967209
 31
0.0
  0
LINE
  5
795
330
1F
100
AcDbEntity
  8
0
100
AcDbLine
 10
705.4089503817887
 20
211.8939412024365
 30
0.0
 11
705.4089503817887
 21
143.3939412024366
 31
0.0
  0
LINE
  5
796
330
1F
100
AcDbEntity
  8
0
100
AcDbLine
 10
690.4089503817886
 20
211.8939412024365
 30
0.0
 11
690.4089503817886
 21
143.3939412024366
 31
0.0
  0
TEXT
  5
797
330
1F
100
AcDbEntity
  8
DIM
100
AcDbText
 10
667.5600068201812
 20
175.822512631008
 30
0.0
 40
3.0
  1
69.5
 50
90.0
  7
ROMANS
 72
     1
 11
666.0600068201812
 21
180.8939412024366
 31
0.0
100
AcDbText
 73
     2
  0
LINE
  5
798
330
1F
100
AcDbEntity
  8
DIM
100
AcDbLine
 10
668.4600068201811
 20
142.8939412024366
 30
0.0
 11
668.4600068201811
 21
212.3939412024365
 31
0.0
  0
LINE
  5
799
330
1F
100
AcDbEntity
  8
0
100
AcDbLine
 10
652.4600068201812
 20
144.8939412024366
 30
0.0
 11
652.4600068201812
 21
211.8939412024365
 31
0.0
  0
LINE
  5
79A
330
1F
100
AcDbEntity
  8
DIM
100
AcDbLine
 10
660.4600068201814
 20
142.8939412024366
 30
0.0
 11
660.4600068201811
 21
212.3939412024365
 31
0.0
  0
SOLID
  5
79B
330
1F
100
AcDbEntity
  8
DIM
100
AcDbTrace
 10
660.876673486848
 20
145.3939412024367
 30
0.0
 11
660.0433401535148
 21
145.3939412024367
 31
0.0
 12
660.4600068201814
 22
142.8939412024367
 32
0.0
 13
660.4600068201814
 23
142.8939412024367
 33
0.0
  0
SOLID
  5
79C
330
1F
100
AcDbEntity
  8
DIM
100
AcDbTrace
 10
668.876673486848
 20
145.3939412024366
 30
0.0
 11
668.0433401535146
 21
145.3939412024366
 31
0.0
 12
668.4600068201811
 22
142.8939412024366
 32
0.0
 13
668.4600068201811
 23
142.8939412024366
 33
0.0
  0
LINE
  5
79D
330
1F
100
AcDbEntity
  8
0
100
AcDbLine
 10
652.4600068201812
 20
144.8939412024365
 30
0.0
 11
650.4600068201812
 21
142.8939412024365
 31
0.0
  0
LINE
  5
79E
330
1F
100
AcDbEntity
  8
DIM
100
AcDbLine
 10
652.4559859509411
 20
142.8939412024366
 30
0.0
 11
669.4600068201812
 21
142.8939412024366
 31
0.0
  0
LINE
  5
79F
330
1F
100
AcDbEntity
  8
DIM
100
AcDbLine
 10
652.4600068201812
 20
142.2662548544009
 30
0.0
 11
652.4600068201812
 21
125.8939412024365
 31
0.0
  0
SOLID
  5
7A0
330
1F
100
AcDbEntity
  8
DIM
100
AcDbTrace
 10
649.4600068201812
 20
127.3939412024365
 30
0.0
 11
649.4600068201812
 21
126.3939412024365
 31
0.0
 12
652.4600068201812
 22
126.8939412024365
 32
0.0
 13
652.4600068201812
 23
126.8939412024365
 33
0.0
  0
SOLID
  5
7A1
330
1F
100
AcDbEntity
  8
DIM
100
AcDbTrace
 10
638.9600068201811
 20
135.3939412024366
 30
0.0
 11
638.9600068201811
 21
134.3939412024366
 31
0.0
 12
641.9600068201812
 22
134.8939412024366
 32
0.0
 13
641.9600068201812
 23
134.8939412024366
 33
0.0
  0
TEXT
  5
7A2
330
1F
100
AcDbEntity
  8
DIM
100
AcDbText
 10
659.5600068201814
 20
164.4705203040648
 30
0.0
 40
3.0
  1
47
 50
90.0
  7
ROMANS
 72
     1
 11
658.0600068201814
 21
167.3276631612077
 31
0.0
100
AcDbText
 73
     2
  0
TEXT
  5
7A3
330
1F
100
AcDbEntity
  8
DIM
100
AcDbText
 10
694.9920107062951
 20
136.0939412024367
 30
0.0
 40
3.0
  1
15
  7
ROMANS1
 72
     1
 11
698.0634392777236
 21
137.5939412024367
 31
0.0
100
AcDbText
 73
     2
  0
LINE
  5
7A4
330
1F
100
AcDbEntity
  8
DIM
100
AcDbLine
 10
693.4089503817887
 20
134.8939412024367
 30
0.0
 11
702.4089503817886
 21
134.8939412024367
 31
0.0
  0
LINE
  5
7A5
330
1F
100
AcDbEntity
  8
0
100
AcDbLine
 10
690.9089503817887
 20
142.8939412024366
 30
0.0
 11
704.9089503817887
 21
142.8939412024366
 31
0.0
  0
LINE
  5
7A6
330
1F
100
AcDbEntity
  8
DIM
100
AcDbLine
 10
690.4089503817886
 20
142.3939412024366
 30
0.0
 11
690.4089503817886
 21
133.8939412024367
 31
0.0
  0
SOLID
  5
7A7
330
1F
100
AcDbEntity
  8
DIM
100
AcDbTrace
 10
693.4089503817887
 20
134.3939412024367
 30
0.0
 11
693.4089503817887
 21
135.3939412024367
 31
0.0
 12
690.4089503817886
 22
134.8939412024367
 32
0.0
 13
690.4089503817886
 23
134.8939412024367
 33
0.0
  0
LINE
  5
7A8
330
1F
100
AcDbEntity
  8
0
100
AcDbLine
 10
690.4089503817886
 20
143.3939412024366
 30
0.0
 11
690.9089503817887
 21
142.8939412024366
 31
0.0
  0
LINE
  5
7A9
330
1F
100
AcDbEntity
  8
DIM
100
AcDbLine
 10
705.4089503817887
 20
142.3939412024366
 30
0.0
 11
705.4089503817887
 21
133.8939412024367
 31
0.0
  0
SOLID
  5
7AA
330
1F
100
AcDbEntity
  8
DIM
100
AcDbTrace
 10
702.4089503817886
 20
134.3939412024367
 30
0.0
 11
702.4089503817886
 21
135.3939412024367
 31
0.0
 12
705.4089503817887
 22
134.8939412024367
 32
0.0
 13
705.4089503817887
 23
134.8939412024367
 33
0.0
  0
LINE
  5
7AB
330
1F
100
AcDbEntity
  8
0
100
AcDbLine
 10
705.4089503817887
 20
143.3939412024366
 30
0.0
 11
704.9089503817887
 21
142.8939412024366
 31
0.0
  0
LINE
  5
7AC
330
1F
100
AcDbEntity
  8
HIDDEN
  6
HIDDEN
100
AcDbLine
 10
690.4089503817886
 20
164.8939412024365
 30
0.0
 11
705.4089503817887
 21
164.8939412024365
 31
0.0
  0
LINE
  5
7AD
330
1F
100
AcDbEntity
  8
0
100
AcDbLine
 10
642.7100068201813
 20
231.0500445386383
 30
0.0
 11
642.7100068201813
 21
246.0500445386383
 31
0.0
  0
LINE
  5
7AE
330
1F
100
AcDbEntity
  8
0
100
AcDbLine
 10
641.2100068201813
 20
231.0500445386383
 30
0.0
 11
641.2100068201813
 21
246.0500445386383
 31
0.0
  0
LINE
  5
7AF
330
1F
100
AcDbEntity
  8
CENTER
  6
CENTER
100
AcDbLine
 10
641.9600068201813
 20
229.0500445386383
 30
0.0
 11
641.9600068201813
 21
248.0500445386383
 31
0.0
  0
LINE
  5
7B0
330
1F
100
AcDbEntity
  8
0
100
AcDbLine
 10
652.4600068201813
 20
231.5500445386383
 30
0.0
 11
652.4600068201813
 21
245.5500445386384
 31
0.0
  0
LINE
  5
7B1
330
1F
100
AcDbEntity
  8
0
100
AcDbLine
 10
641.2100068201811
 20
195.8468816523319
 30
0.0
 11
641.2100068201811
 21
212.3939412024365
 31
0.0
  0
LINE
  5
7B2
330
1F
100
AcDbEntity
  8
0
100
AcDbLine
 10
642.7100068201812
 20
195.8468816523318
 30
0.0
 11
642.7100068201812
 21
212.3939412024365
 31
0.0
  0
LINE
  5
7B3
330
1F
100
AcDbEntity
  8
CENTER
  6
CENTER
100
AcDbLine
 10
641.9600068201812
 20
180.8939412024365
 30
0.0
 11
641.9600068201812
 21
213.4598374483438
 31
0.0
  0
ARC
  5
7B4
330
1F
100
AcDbEntity
  8
0
100
AcDbCircle
 10
641.9600068201812
 20
189.8939412024365
 30
0.0
 40
6.0
100
AcDbArc
 50
97.18075578145825
 51
82.81924421854176
  0
LINE
  5
7B5
330
1F
100
AcDbEntity
  8
0
100
AcDbLine
 10
642.7100068201812
 20
201.1439412024365
 30
0.0
 11
641.2100068201811
 21
201.1439412024365
 31
0.0
  0
LINE
  5
7B6
330
1F
100
AcDbEntity
  8
0
100
AcDbLine
 10
642.7100068201812
 20
207.1439412024365
 30
0.0
 11
641.2100068201811
 21
207.1439412024365
 31
0.0
  0
LINE
  5
7B7
330
1F
100
AcDbEntity
  8
DIM
100
AcDbLine
 10
655.4607680405112
 20
189.8939412024365
 30
0.0
 11
661.4600068201812
 21
189.8939412024365
 31
0.0
  0
SOLID
  5
7B8
330
1F
100
AcDbEntity
  8
DIM
100
AcDbTrace
 10
660.0433401535147
 20
187.393941202436
 30
0.0
 11
660.876673486848
 21
187.393941202436
 31
0.0
 12
660.4600068201814
 22
189.893941202436
 32
0.0
 13
660.4600068201814
 23
189.893941202436
 33
0.0
  0
SOLID
  5
7B9
330
1F
100
AcDbEntity
  8
DIM
100
AcDbTrace
 10
660.0433401535146
 20
192.3939412024365
 30
0.0
 11
660.8766734868479
 21
192.3939412024365
 31
0.0
 12
660.4600068201811
 22
189.8939412024365
 32
0.0
 13
660.4600068201811
 23
189.8939412024365
 33
0.0
  0
TEXT
  5
7BA
330
1F
100
AcDbEntity
  8
DIM
100
AcDbText
 10
659.5600068201813
 20
195.8190837808933
 30
0.0
 40
3.0
  1
22.5
 50
90.0
  7
ROMANS
 72
     1
 11
658.0600068201813
 21
200.8190837808933
 31
0.0
100
AcDbText
 73
     2
  0
LINE
  5
7BB
330
1F
100
AcDbEntity
  8
0
100
AcDbLine
 10
630.4600068201811
 20
212.3939412024365
 30
0.0
 11
641.2100068201811
 21
212.3939412024365
 31
0.0
  0
LINE
  5
7BC
330
1F
100
AcDbEntity
  8
0
100
AcDbLine
 10
642.7100068201812
 20
212.3939412024365
 30
0.0
 11
651.9600068201811
 21
212.3939412024365
 31
0.0
  0
LINE
  5
7BD
330
1F
100
AcDbEntity
  8
0
100
AcDbLine
 10
652.4600068201813
 20
211.8939412024365
 30
0.0
 11
651.9600068201813
 21
212.3939412024365
 31
0.0
  0
LINE
  5
7BE
330
1F
100
AcDbEntity
  8
0
100
AcDbLine
 10
641.2100068201813
 20
235.5500445386383
 30
0.0
 11
642.7100068201813
 21
235.5500445386383
 31
0.0
  0
LINE
  5
7BF
330
1F
100
AcDbEntity
  8
0
100
AcDbLine
 10
641.2100068201813
 20
241.5500445386384
 30
0.0
 11
642.7100068201813
 21
241.5500445386384
 31
0.0
  0
LINE
  5
7C0
330
1F
100
AcDbEntity
  8
0
100
AcDbLine
 10
651.9600068201813
 20
231.0500445386383
 30
0.0
 11
652.4600068201813
 21
231.5500445386383
 31
0.0
  0
LINE
  5
7C1
330
1F
100
AcDbEntity
  8
DIM
100
AcDbLine
 10
652.9600068201813
 20
212.3939412024365
 30
0.0
 11
669.4600068201812
 21
212.3939412024365
 31
0.0
  0
SOLID
  5
7C2
330
1F
100
AcDbEntity
  8
DIM
100
AcDbTrace
 10
660.0433401535146
 20
209.8939412024365
 30
0.0
 11
660.8766734868479
 21
209.8939412024365
 31
0.0
 12
660.4600068201811
 22
212.3939412024365
 32
0.0
 13
660.4600068201811
 23
212.3939412024365
 33
0.0
  0
SOLID
  5
7C3
330
1F
100
AcDbEntity
  8
DIM
100
AcDbTrace
 10
668.876673486848
 20
209.8939412024365
 30
0.0
 11
668.0433401535146
 21
209.8939412024365
 31
0.0
 12
668.4600068201811
 22
212.3939412024365
 32
0.0
 13
668.4600068201811
 23
212.3939412024365
 33
0.0
  0
CIRCLE
  5
7C4
330
1F
100
AcDbEntity
  8
0
100
AcDbCircle
 10
697.9089503817887
 20
204.1439412024365
 30
0.0
 40
5.5
  0
CIRCLE
  5
7C5
330
1F
100
AcDbEntity
  8
0
100
AcDbCircle
 10
697.9089503817887
 20
204.1439412024365
 30
0.0
 40
4.5
  0
POLYLINE
  5
7C6
330
1F
100
AcDbEntity
  8
0
100
AcDb2dPolyline
 66
     1
 10
0.0
 20
0.0
 30
0.0
 70
     1
  0
VERTEX
  5
13CC
330
7C6
100
AcDbEntity
  8
0
100
AcDbVertex
100
AcDb2dVertex
 10
700.4089503817887
 20
202.7005655294625
 30
0.0
  0
VERTEX
  5
13CD
330
7C6
100
AcDbEntity
  8
0
100
AcDbVertex
100
AcDb2dVertex
 10
700.4089503817887
 20
205.5873168754106
 30
0.0
  0
VERTEX
  5
13CE
330
7C6
100
AcDbEntity
  8
0
100
AcDbVertex
100
AcDb2dVertex
 10
697.9089503817887
 20
207.0306925483846
 30
0.0
  0
VERTEX
  5
13CF
330
7C6
100
AcDbEntity
  8
0
100
AcDbVertex
100
AcDb2dVertex
 10
695.4089503817887
 20
205.5873168754106
 30
0.0
  0
VERTEX
  5
13D0
330
7C6
100
AcDbEntity
  8
0
100
AcDbVertex
100
AcDb2dVertex
 10
695.4089503817887
 20
202.7005655294625
 30
0.0
  0
VERTEX
  5
13D1
330
7C6
100
AcDbEntity
  8
0
100
AcDbVertex
100
AcDb2dVertex
 10
697.9089503817887
 20
201.2571898564884
 30
0.0
  0
SEQEND
  5
13D2
330
7C6
100
AcDbEntity
  8
0
  0
CIRCLE
  5
7C7
330
1F
100
AcDbEntity
  8
0
100
AcDbCircle
 10
697.9089503817887
 20
204.1439412024365
 30
0.0
 40
5.0
  0
LINE
  5
7C8
330
1F
100
AcDbEntity
  8
CENTER
  6
CENTER
100
AcDbLine
 10
688.4089503817888
 20
204.1439412024365
 30
0.0
 11
707.4089503817888
 21
204.1439412024365
 31
0.0
  0
LINE
  5
7C9
330
1F
100
AcDbEntity
  8
CENTER
  6
CENTER
100
AcDbLine
 10
688.4089503817887
 20
189.8939412024365
 30
0.0
 11
708.0348776774235
 21
189.8939412024365
 31
0.0
  0
LINE
  5
7CA
330
1F
100
AcDbEntity
  8
0
100
AcDbLine
 10
690.9089503817887
 20
212.3939412024365
 30
0.0
 11
704.9089503817887
 21
212.3939412024365
 31
0.0
  0
LINE
  5
7CB
330
1F
100
AcDbEntity
  8
0
100
AcDbLine
 10
690.9089503817887
 20
212.3939412024365
 30
0.0
 11
690.4089503817886
 21
211.8939412024365
 31
0.0
  0
LINE
  5
7CC
330
1F
100
AcDbEntity
  8
0
100
AcDbLine
 10
704.9089503817887
 20
212.3939412024365
 30
0.0
 11
705.4089503817887
 21
211.8939412024365
 31
0.0
  0
LINE
  5
7CD
330
1F
100
AcDbEntity
  8
0
100
AcDbLine
 10
651.9600068201813
 20
246.0500445386383
 30
0.0
 11
652.4600068201813
 21
245.5500445386384
 31
0.0
  0
LINE
  5
7CE
330
1F
100
AcDbEntity
  8
0
 62
     4
100
AcDbLine
 10
717.9116775945956
 20
370.0000002634812
 30
0.0
 11
717.9116775945956
 21
42.00000026348118
 31
0.0
  0
TEXT
  5
7D2
330
1F
100
AcDbEntity
  8
LOGO
 62
     6
100
AcDbText
 10
526.0895599201086
 20
-27.57734298336444
 30
0.0
 40
12.650426044881
  1
行程
 41
0.9
  7
CHINESET
 72
     4
 11
537.4749433605016
 21
-21.25212996092393
 31
0.0
100
AcDbText
  0
LINE
  5
7D3
330
1F
100
AcDbEntity
  8
LOGO
 62
     6
100
AcDbLine
 10
570.1421672522051
 20
-44.97167879507571
 30
0.0
 11
504.8077194687979
 21
-44.97167879507583
 31
0.0
  0
LINE
  5
7D4
330
1F
100
AcDbEntity
  8
LOGO
 62
     6
100
AcDbLine
 10
570.1421672522051
 20
-10.18300717165296
 30
0.0
 11
504.8077194687979
 21
-10.18300717165296
 31
0.0
  0
TEXT
  5
7D5
330
1F
100
AcDbEntity
  8
LOGO
  6
CONTINUOUS
 62
     6
100
AcDbText
 10
523.1679139049814
 20
-41.01842065605051
 30
0.0
 40
7.906516278050629
  1
Stroke
 41
0.8
  7
CHINESET
 72
     4
 11
537.4749433605016
 21
-37.0651625170252
 31
0.0
100
AcDbText
  0
TEXT
  5
7D6
330
1F
100
AcDbEntity
  8
LOGO
  6
CONTINUOUS
 62
     7
100
AcDbText
 10
533.6798159543515
 20
10.19461436566936
 30
0.0
 40
15.81303255610126
  1
0
  7
CHINESET
 72
     1
 11
538.9508268063853
 21
18.10113064371999
 31
0.0
100
AcDbText
 73
     2
  0
LINE
  5
7D7
330
1F
100
AcDbEntity
  8
LOGO
 62
     6
100
AcDbLine
 10
563.8169542297646
 20
32.51218072982043
 30
0.0
 11
511.1329324912385
 21
32.51218072982043
 31
0.0
  0
LINE
  5
7D8
330
1F
100
AcDbEntity
  8
LOGO
 62
     6
100
AcDbLine
 10
563.8169542297644
 20
4.048722128838143
 30
0.0
 11
511.1329324912385
 21
4.048722128838171
 31
0.0
  0
LINE
  5
7D9
330
1F
100
AcDbEntity
  8
LOGO
 62
     1
100
AcDbLine
 10
717.9116775945955
 20
42.00000026348118
 30
0.0
 11
-0.0000004524015367
 21
42.00000026348118
 31
0.0
  0
LINE
  5
7DA
330
1F
100
AcDbEntity
  8
LOGO
 62
     1
100
AcDbLine
 10
717.9116775945955
 20
-52.87819507312637
 30
0.0
 11
-0.0000004524015367
 21
-52.87819507312637
 31
0.0
  0
LINE
  5
7DB
330
1F
100
AcDbEntity
  8
LOGO
  6
CONTINUOUS
 62
     6
100
AcDbLine
 10
180.3961119588306
 20
16.78453539174828
 30
0.0
 11
197.666044684511
 21
19.06568751725292
 31
0.0
  0
LINE
  5
7DC
330
1F
100
AcDbEntity
  8
LOGO
  6
CONTINUOUS
 62
     6
100
AcDbLine
 10
180.3961119588306
 20
10.32913696407477
 30
0.0
 11
197.666044684511
 21
8.047984838570116
 31
0.0
  0
LINE
  5
7DD
330
1F
100
AcDbEntity
  8
LOGO
 62
     1
100
AcDbLine
 10
208.7320292881349
 20
23.02436119615967
 30
0.0
 11
69.57734279444402
 21
23.02436119615967
 31
0.0
  0
LINE
  5
7DE
330
1F
100
AcDbEntity
  8
LOGO
 62
     1
100
AcDbLine
 10
208.7320292881349
 20
4.048722128838171
 30
0.0
 11
69.57734279444402
 21
4.048722128838171
 31
0.0
  0
TEXT
  5
7DF
330
1F
100
AcDbEntity
  8
LOGO
 62
     6
100
AcDbText
 10
159.7131927798082
 20
27.76827096299006
 30
0.0
 40
9.487819533660752
  1
1 : 1
  7
CHINESET
 72
     1
 11
176.4298271962581
 21
32.51218072982043
 31
0.0
100
AcDbText
 73
     2
  0
TEXT
  5
7E0
330
1F
100
AcDbEntity
  8
LOGO
 62
     6
100
AcDbText
 10
159.7131927798082
 20
-10.18300717165296
 30
0.0
 40
9.487819533660752
  1
m/m
  7
CHINESET
 72
     1
 11
176.4298271962581
 21
-5.439097404822582
 31
0.0
100
AcDbText
 73
     2
  0
LINE
  5
7E1
330
1F
100
AcDbEntity
  8
LOGO
 62
     1
100
AcDbLine
 10
208.7320292881349
 20
-14.92691693848323
 30
0.0
 11
-0.00000045240163
 21
-14.92691693848323
 31
0.0
  0
TEXT
  5
7E2
330
1F
100
AcDbEntity
  8
LOGO
  6
CONTINUOUS
 62
     5
100
AcDbText
 10
3.105523074318071
 20
-34.23951678293102
 30
0.0
 40
14.23172930049113
  1
金器工業股份有限公司
 41
0.8
  7
LOGO
100
AcDbText
  0
TEXT
  5
7E3
330
1F
100
AcDbEntity
  8
LOGO
  6
CONTINUOUS
 62
     5
100
AcDbText
 10
7.180631969911038
 20
-48.47403438655438
 30
0.0
 40
9.487819533660752
  1
MINDMAN INDUSTRIAL CO.,LTD
 41
0.85
  7
CHINESET
100
AcDbText
  0
SOLID
  5
7E4
330
1F
100
AcDbEntity
  8
LOGO
 62
     5
100
AcDbTrace
 10
9.84376458169422
 20
0.8452325514618053
 30
0.0
 11
13.94604878766437
 21
0.845232551460441
 31
0.0
 12
31.06247599188676
 22
39.7462034701469
 32
0.0
 13
35.16476019785656
 23
39.7462034701442
 33
0.0
  0
SOLID
  5
7E5
330
1F
100
AcDbEntity
  8
LOGO
 62
     5
100
AcDbTrace
 10
15.64354570048219
 20
0.8452325514618053
 30
0.0
 11
19.74582990645199
 21
0.8452325514618053
 31
0.0
 12
35.16476019785656
 22
36.63412579665068
 32
0.0
 13
31.06247599188676
 23
21.5924170414253
 33
0.0
  0
SOLID
  5
7E6
330
1F
100
AcDbEntity
  8
LOGO
 62
     2
100
AcDbTrace
 10
13.94604878766437
 20
0.845232551460441
 30
0.0
 11
15.64354570048219
 21
0.8452325514618053
 31
0.0
 12
35.16476019785656
 22
39.7462034701442
 32
0.0
 13
36.86225711067312
 23
39.7462034701442
 33
0.0
  0
SOLID
  5
7E7
330
1F
100
AcDbEntity
  8
LOGO
 62
     5
100
AcDbTrace
 10
14.06309756605139
 20
-6.227671251935603
 30
0.0
 11
15.47767832672943
 21
-6.227671251935603
 31
0.0
 12
14.06309756605139
 22
-13.30057505533167
 32
0.0
 13
15.47767832672943
 23
-13.30057505533167
 33
0.0
  0
SOLID
  5
7E8
330
1F
100
AcDbEntity
  8
LOGO
 62
     5
100
AcDbTrace
 10
3.266796996208418
 20
-13.30057505533167
 30
0.0
 11
4.681377756889334
 21
-13.30057505533167
 31
0.0
 12
8.664947281129009
 22
-6.227671251935603
 32
0.0
 13
10.07952804180741
 23
-6.227671251935603
 33
0.0
  0
SOLID
  5
7E9
330
1F
100
AcDbEntity
  8
LOGO
 62
     5
100
AcDbTrace
 10
8.664947281129009
 20
-6.227671251935603
 30
0.0
 11
10.07952804180741
 21
-6.227671251935603
 31
0.0
 12
8.664947281129009
 22
-13.30057505533167
 32
0.0
 13
10.07952804180741
 23
-13.30057505533167
 33
0.0
  0
SOLID
  5
7EA
330
1F
100
AcDbEntity
  8
LOGO
 62
     5
100
AcDbTrace
 10
8.664947281129009
 20
-13.30057505533167
 30
0.0
 11
10.07952804180741
 21
-13.30057505533167
 31
0.0
 12
14.06309756605139
 22
-6.227671251935603
 32
0.0
 13
15.47767832672943
 23
-6.227671251935603
 33
0.0
  0
LINE
  5
7EB
330
1F
100
AcDbEntity
  8
LOGO
 62
     1
100
AcDbLine
 10
-0.0000004524015367
 20
-52.87819507312637
 30
0.0
 11
-0.0000004524015367
 21
42.00000026348118
 31
0.0
  0
TEXT
  5
7EC
330
1F
100
AcDbEntity
  8
LOGO
 62
     6
100
AcDbText
 10
77.40055827599373
 20
27.77294016551646
 30
0.0
 40
9.487819533660752
  1
比例 Scale:
 41
0.9
  7
CHINESET
 72
     4
 11
107.5286209290869
 21
32.51218072982043
 31
0.0
100
AcDbText
  0
TEXT
  5
7ED
330
1F
100
AcDbEntity
  8
LOGO
 62
     6
100
AcDbText
 10
80.7170594790546
 20
8.926093267881702
 30
0.0
 40
9.487819533660752
  1
投影 View:
 41
0.9
  7
CHINESET
 72
     4
 11
107.5286209290869
 21
13.53654166249891
 31
0.0
100
AcDbText
  0
TEXT
  5
7EE
330
1F
100
AcDbEntity
  8
LOGO
 62
     6
100
AcDbText
 10
81.64466326381877
 20
-10.18300717165296
 30
0.0
 40
9.487819533660752
  1
單位 Unit:
 41
0.9
  7
CHINESET
 72
     4
 11
107.5286209290869
 21
-5.439097404822582
 31
0.0
100
AcDbText
  0
POLYLINE
  5
7EF
330
1F
100
AcDbEntity
  8
LOGO
 62
     5
100
AcDb2dPolyline
 66
     1
 10
0.0
 20
0.0
 30
0.0
 70
     1
 40
1.416847717026672
 41
1.416847717026672
  0
VERTEX
  5
13D3
330
7EF
100
AcDbEntity
  8
LOGO
 62
     5
100
AcDbVertex
100
AcDb2dVertex
 10
48.50453243295511
 20
-9.76412315363434
 30
0.0
 42
1.0
  0
VERTEX
  5
13D4
330
7EF
100
AcDbEntity
  8
LOGO
 62
     5
100
AcDbVertex
100
AcDb2dVertex
 10
54.17192330106169
 20
-9.76412315363434
 30
0.0
 42
1.0
  0
SEQEND
  5
13D5
330
7EF
100
AcDbEntity
  8
LOGO
 62
     5
  0
LINE
  5
7F0
330
1F
100
AcDbEntity
  8
LOGO
 62
     5
100
AcDbLine
 10
62.18325272683385
 20
-13.30057505533167
 30
0.0
 11
62.18325272683385
 21
-9.056832773294615
 31
0.0
  0
SOLID
  5
7F1
330
1F
100
AcDbEntity
  8
LOGO
 62
     5
100
AcDbTrace
 10
53.4599575499547
 20
-6.227671251935603
 30
0.0
 11
54.87453831063292
 21
-6.227671251935603
 31
0.0
 12
53.4599575499547
 22
-13.30057505533167
 32
0.0
 13
54.87453831063292
 23
-13.30057505533167
 33
0.0
  0
SOLID
  5
7F2
330
1F
100
AcDbEntity
  8
LOGO
 62
     5
100
AcDbTrace
 10
56.52492968411594
 20
-13.30057505533167
 30
0.0
 11
57.93951044479667
 21
-13.30057505533167
 31
0.0
 12
56.52492968411594
 22
-6.227671251935603
 32
0.0
 13
57.93951044479667
 23
-6.227671251935603
 33
0.0
  0
SOLID
  5
7F3
330
1F
100
AcDbEntity
  8
LOGO
 62
     5
100
AcDbTrace
 10
60.76867196615579
 20
-9.056832773294615
 30
0.0
 11
62.18325272683385
 21
-9.0568327732948
 31
0.0
 12
60.76867196615579
 22
-13.30057505533167
 32
0.0
 13
62.18325272683385
 23
-13.30057505533167
 33
0.0
  0
SOLID
  5
7F4
330
1F
100
AcDbEntity
  8
LOGO
 62
     5
100
AcDbTrace
 10
33.18420567483078
 20
-4.105800110915723
 30
0.0
 11
34.59878643550883
 21
-4.105800110915723
 31
0.0
 12
33.18420567483078
 22
-13.30057505533167
 32
0.0
 13
34.59878643550883
 23
-13.30057505533167
 33
0.0
  0
SOLID
  5
7F5
330
1F
100
AcDbEntity
  8
LOGO
 62
     5
100
AcDbTrace
 10
36.24917780899597
 20
-6.227671251935603
 30
0.0
 11
37.66375856967421
 21
-6.227671251935603
 31
0.0
 12
36.24917780899597
 22
-13.30057505533167
 32
0.0
 13
37.66375856967421
 23
-13.30057505533167
 33
0.0
  0
SOLID
  5
7F6
330
1F
100
AcDbEntity
  8
LOGO
 62
     5
100
AcDbTrace
 10
40.49292009103314
 20
-9.056832773294615
 30
0.0
 11
41.90750085171138
 21
-9.056832773294615
 31
0.0
 12
40.49292009103314
 22
-13.30057505533167
 32
0.0
 13
41.90750085171138
 23
-13.30057505533167
 33
0.0
  0
SOLID
  5
7F7
330
1F
100
AcDbEntity
  8
LOGO
 62
     5
100
AcDbTrace
 10
44.7366623730705
 20
-9.056832773294615
 30
0.0
 11
46.15124313374854
 21
-9.056832773294615
 31
0.0
 12
44.7366623730705
 22
-13.30057505533438
 32
0.0
 13
46.15124313374854
 23
-13.30057505533438
 33
0.0
  0
LINE
  5
7F8
330
1F
100
AcDbEntity
  8
LOGO
 62
     1
100
AcDbLine
 10
69.57734279444402
 20
-14.92691693848333
 30
0.0
 11
69.57734279444402
 21
42.00000026348118
 31
0.0
  0
SOLID
  5
7F9
330
1F
100
AcDbEntity
  8
LOGO
 62
     5
100
AcDbTrace
 10
20.21716821591069
 20
-6.227671251935603
 30
0.0
 11
21.63174897658871
 21
-6.227671251935603
 31
0.0
 12
20.21716821591069
 22
-13.30057505533167
 32
0.0
 13
21.63174897658871
 23
-13.30057505533167
 33
0.0
  0
SOLID
  5
7FA
330
1F
100
AcDbEntity
  8
LOGO
 62
     5
100
AcDbTrace
 10
24.4609104979475
 20
-9.056832773294615
 30
0.0
 11
25.87549125862824
 21
-9.056832773294615
 31
0.0
 12
24.4609104979475
 22
-13.30057505533167
 32
0.0
 13
25.87549125862824
 23
-13.30057505533167
 33
0.0
  0
SOLID
  5
7FB
330
1F
100
AcDbEntity
  8
LOGO
 62
     5
100
AcDbTrace
 10
17.15219608174513
 20
-6.227671251935603
 30
0.0
 11
18.5667768424273
 21
-6.227671251935603
 31
0.0
 12
17.15219608174513
 22
-13.30057505533438
 32
0.0
 13
18.5667768424273
 23
-13.30057505533167
 33
0.0
  0
POLYLINE
  5
7FC
330
1F
100
AcDbEntity
  8
LOGO
 62
     5
100
AcDb2dPolyline
 66
     1
 10
0.0
 20
0.0
 30
0.0
 70
     1
 40
1.416847717026672
 41
1.416847717026672
  0
VERTEX
  5
13D6
330
7FC
100
AcDbEntity
  8
LOGO
 62
     5
100
AcDbVertex
100
AcDb2dVertex
 10
28.22878055783245
 20
-9.76412315363434
 30
0.0
 42
1.0
  0
VERTEX
  5
13D7
330
7FC
100
AcDbEntity
  8
LOGO
 62
     5
100
AcDbVertex
100
AcDb2dVertex
 10
33.89617142593924
 20
-9.76412315363434
 30
0.0
 42
1.0
  0
SEQEND
  5
13D8
330
7FC
100
AcDbEntity
  8
LOGO
 62
     5
  0
POLYLINE
  5
7FD
330
1F
100
AcDbEntity
  8
LOGO
 62
     5
100
AcDb2dPolyline
 66
     1
 10
0.0
 20
0.0
 30
0.0
 40
1.416847717026672
 41
1.416847717026672
  0
VERTEX
  5
13D9
330
7FD
100
AcDbEntity
  8
LOGO
 62
     5
100
AcDbVertex
100
AcDb2dVertex
 10
61.47936278101642
 20
-9.056832773294596
 30
0.0
 42
1.0
  0
VERTEX
  5
13DA
330
7FD
100
AcDbEntity
  8
LOGO
 62
     5
100
AcDbVertex
100
AcDb2dVertex
 10
57.22881962993622
 20
-9.056832773294596
 30
0.0
 42
1.0
  0
SEQEND
  5
13DB
330
7FD
100
AcDbEntity
  8
LOGO
 62
     5
  0
SOLID
  5
7FE
330
1F
100
AcDbEntity
  8
LOGO
 62
     5
100
AcDbTrace
 10
58.08096852086403
 20
0.845232551460441
 30
0.0
 11
62.18325272683385
 21
0.845232551460441
 31
0.0
 12
58.08096852086403
 22
39.7462034701442
 32
0.0
 13
62.18325272683385
 23
39.7462034701469
 33
0.0
  0
SOLID
  5
7FF
330
1F
100
AcDbEntity
  8
LOGO
 62
     5
100
AcDbTrace
 10
36.86225711067312
 20
39.7462034701442
 30
0.0
 11
40.96454131664274
 21
39.7462034701469
 31
0.0
 12
36.86225711067312
 22
3.957310224955328
 32
0.0
 13
40.96454131664274
 23
18.99901898018071
 33
0.0
  0
SOLID
  5
800
330
1F
100
AcDbEntity
  8
LOGO
 62
     5
100
AcDbTrace
 10
36.86225711067312
 20
3.957310224955328
 30
0.0
 11
40.96454131664274
 21
18.99901898018071
 31
0.0
 12
56.38347160804748
 22
39.7462034701469
 32
0.0
 13
52.28118740207732
 23
39.7462034701469
 33
0.0
  0
SOLID
  5
801
330
1F
100
AcDbEntity
  8
LOGO
 62
     5
100
AcDbTrace
 10
56.38347160804748
 20
36.63412579665068
 30
0.0
 11
52.28118740207732
 21
21.5924170414253
 31
0.0
 12
56.38347160804748
 22
0.845232551460441
 32
0.0
 13
52.28118740207732
 23
0.845232551460441
 33
0.0
  0
SOLID
  5
802
330
1F
100
AcDbEntity
  8
LOGO
 62
     2
100
AcDbTrace
 10
56.38347160804748
 20
39.7462034701469
 30
0.0
 11
58.08096852086403
 21
39.7462034701442
 31
0.0
 12
56.38347160804748
 22
0.845232551460441
 32
0.0
 13
58.08096852086403
 23
0.845232551460441
 33
0.0
  0
SOLID
  5
803
330
1F
100
AcDbEntity
  8
LOGO
 62
     5
100
AcDbTrace
 10
31.06247599188676
 20
0.8452325514618053
 30
0.0
 11
35.16476019785656
 21
0.8452325514618053
 31
0.0
 12
31.06247599188676
 22
21.5924170414253
 32
0.0
 13
35.16476019785656
 23
36.63412579665068
 33
0.0
  0
SOLID
  5
804
330
1F
100
AcDbEntity
  8
LOGO
 62
     2
100
AcDbTrace
 10
35.16476019785656
 20
39.7462034701442
 30
0.0
 11
36.86225711067312
 21
39.7462034701442
 31
0.0
 12
35.16476019785656
 22
0.8452325514618053
 32
0.0
 13
36.86225711067312
 23
0.8452325514618053
 33
0.0
  0
SOLID
  5
805
330
1F
100
AcDbEntity
  8
LOGO
 62
     5
100
AcDbTrace
 10
36.86225711067312
 20
0.8452325514618053
 30
0.0
 11
40.96454131664274
 21
0.8452325514618053
 31
0.0
 12
56.38347160804748
 22
36.63412579665068
 32
0.0
 13
52.28118740207732
 23
21.5924170414253
 33
0.0
  0
SOLID
  5
806
330
1F
100
AcDbEntity
  8
LOGO
 62
     2
100
AcDbTrace
 10
35.16476019785656
 20
0.8452325514618053
 30
0.0
 11
36.86225711067312
 21
0.8452325514618053
 31
0.0
 12
56.38347160804748
 22
39.7462034701469
 32
0.0
 13
58.08096852086403
 23
39.7462034701442
 33
0.0
  0
POLYLINE
  5
807
330
1F
100
AcDbEntity
  8
LOGO
 62
     5
100
AcDb2dPolyline
 66
     1
 10
0.0
 20
0.0
 30
0.0
 40
1.416847717026672
 41
1.416847717026672
  0
VERTEX
  5
13DC
330
807
100
AcDbEntity
  8
LOGO
 62
     5
100
AcDbVertex
100
AcDb2dVertex
 10
41.20361090589376
 20
-9.056832773294596
 30
0.0
 42
1.0
  0
VERTEX
  5
13DD
330
807
100
AcDbEntity
  8
LOGO
 62
     5
100
AcDbVertex
100
AcDb2dVertex
 10
36.95306775481357
 20
-9.056832773294596
 30
0.0
 42
1.0
  0
SEQEND
  5
13DE
330
807
100
AcDbEntity
  8
LOGO
 62
     5
  0
POLYLINE
  5
808
330
1F
100
AcDbEntity
  8
LOGO
 62
     5
100
AcDb2dPolyline
 66
     1
 10
0.0
 20
0.0
 30
0.0
 40
1.416847717026672
 41
1.416847717026672
  0
VERTEX
  5
13DF
330
808
100
AcDbEntity
  8
LOGO
 62
     5
100
AcDbVertex
100
AcDb2dVertex
 10
25.17160131280846
 20
-9.056832773294596
 30
0.0
 42
1.0
  0
VERTEX
  5
13E0
330
808
100
AcDbEntity
  8
LOGO
 62
     5
100
AcDbVertex
100
AcDb2dVertex
 10
20.92105816172829
 20
-9.056832773294596
 30
0.0
 42
1.0
  0
SEQEND
  5
13E1
330
808
100
AcDbEntity
  8
LOGO
 62
     5
  0
SOLID
  5
809
330
1F
100
AcDbEntity
  8
LOGO
 62
     5
100
AcDbTrace
 10
17.15219608174513
 20
-5.237464719460639
 30
0.0
 11
18.5667768424273
 21
-5.237464719460639
 31
0.0
 12
17.15219608174513
 22
-4.105800110915723
 32
0.0
 13
18.5667768424273
 23
-4.105800110915723
 33
0.0
  0
POLYLINE
  5
80A
330
1F
100
AcDbEntity
  8
LOGO
 62
     5
100
AcDb2dPolyline
 66
     1
 10
0.0
 20
0.0
 30
0.0
 70
     1
  0
VERTEX
  5
13E2
330
80A
100
AcDbEntity
  8
LOGO
 62
     5
100
AcDbVertex
100
AcDb2dVertex
 10
49.21635672598981
 20
-9.764123153633665
 30
0.0
 42
1.000000057330635
  0
VERTEX
  5
13E3
330
80A
100
AcDbEntity
  8
LOGO
 62
     5
100
AcDbVertex
100
AcDb2dVertex
 10
53.46009900802879
 20
-9.764123153633665
 30
0.0
 42
1.000000057330635
  0
SEQEND
  5
13E4
330
80A
100
AcDbEntity
  8
LOGO
 62
     5
  0
CIRCLE
  5
80B
330
1F
100
AcDbEntity
  8
LOGO
 62
     5
100
AcDbCircle
 10
51.33822786700922
 20
-9.764123153633661
 30
0.0
 40
2.121871141019145
  0
POLYLINE
  5
80C
330
1F
100
AcDbEntity
  8
LOGO
 62
     5
100
AcDb2dPolyline
 66
     1
 10
0.0
 20
0.0
 30
0.0
 40
1.416847717026672
 41
1.416847717026672
  0
VERTEX
  5
13E5
330
80C
100
AcDbEntity
  8
LOGO
 62
     5
100
AcDbVertex
100
AcDb2dVertex
 10
45.44735318793092
 20
-9.056832773294596
 30
0.0
 42
1.0
  0
VERTEX
  5
13E6
330
80C
100
AcDbEntity
  8
LOGO
 62
     5
100
AcDbVertex
100
AcDb2dVertex
 10
41.19681003685076
 20
-9.056832773294596
 30
0.0
 42
1.0
  0
SEQEND
  5
13E7
330
80C
100
AcDbEntity
  8
LOGO
 62
     5
  0
LINE
  5
80D
330
1F
100
AcDbEntity
  8
LOGO
 62
     1
100
AcDbLine
 10
145.47989906373
 20
-14.92691693848333
 30
0.0
 11
145.47989906373
 21
42.00000026348118
 31
0.0
  0
CIRCLE
  5
80E
330
1F
100
AcDbEntity
  8
LOGO
  6
CONTINUOUS
 62
     6
100
AcDbCircle
 10
163.047783648011
 20
13.5568361779115
 30
0.0
 40
5.508851339341404
  0
CIRCLE
  5
80F
330
1F
100
AcDbEntity
  8
LOGO
  6
CONTINUOUS
 62
     6
100
AcDbCircle
 10
163.047783648011
 20
13.5568361779115
 30
0.0
 40
3.227699213836758
  0
LINE
  5
810
330
1F
100
AcDbEntity
  8
LOGO
 62
     6
100
AcDbLine
 10
180.3961119588308
 20
10.32913696407475
 30
0.0
 11
180.3961119588306
 21
16.7845353917483
 31
0.0
  0
TEXT
  5
811
330
1F
100
AcDbEntity
  8
LOGO
  6
CONTINUOUS
 62
     6
100
AcDbText
 10
362.1240231943953
 20
-41.01842065605041
 30
0.0
 40
7.906516278050629
  1
Model
  7
CHINESET
 72
     4
 11
377.1840542002061
 21
-37.0651625170251
 31
0.0
100
AcDbText
  0
TEXT
  5
812
330
1F
100
AcDbEntity
  8
LOGO
  6
CONTINUOUS
 62
     7
100
AcDbText
 10
201.1679534065725
 20
25.13250353673831
 30
0.0
 40
8.433748363371437
  1

  7
CHINESET
 72
     1
 11
201.1679534065725
 21
29.34937771842403
 31
0.0
100
AcDbText
 73
     2
  0
LINE
  5
813
330
1F
100
AcDbEntity
  8
LOGO
 62
     6
100
AcDbLine
 10
415.1353323348492
 20
32.51218072982043
 30
0.0
 11
339.2327760655632
 21
32.51218072982043
 31
0.0
  0
LINE
  5
814
330
1F
100
AcDbEntity
  8
LOGO
 62
     6
100
AcDbLine
 10
415.1353323348492
 20
4.048722128838171
 30
0.0
 11
339.2327760655632
 21
4.048722128838171
 31
0.0
  0
LINE
  5
815
330
1F
100
AcDbEntity
  8
LOGO
 62
     6
100
AcDbLine
 10
408.8101193124087
 20
-10.18300717165296
 30
0.0
 11
345.5579890880037
 21
-10.18300717165296
 31
0.0
  0
LINE
  5
816
330
1F
100
AcDbEntity
  8
LOGO
 62
     6
100
AcDbLine
 10
408.8101193124087
 20
-44.97167879507576
 30
0.0
 11
345.5579890880037
 21
-44.97167879507583
 31
0.0
  0
TEXT
  5
817
330
1F
100
AcDbEntity
  8
LOGO
 62
     7
100
AcDbText
 10
216.4982733596331
 20
18.24465794402301
 30
0.0
 40
18.9756390673215
  1
訂購代號:
  7
CHINESET
100
AcDbText
  0
TEXT
  5
818
330
1F
100
AcDbEntity
  8
LOGO
 62
     7
100
AcDbText
 10
214.2286823124146
 20
0.4354773769653449
 30
0.0
 40
12.650426044881
  1
Order example:
 41
0.8
  7
CHINESET
100
AcDbText
  0
LINE
  5
819
330
1F
100
AcDbEntity
  8
LOGO
 62
     1
100
AcDbLine
 10
208.7320292881349
 20
-52.87819507312637
 30
0.0
 11
208.7320292881349
 21
42.00000026348118
 31
0.0
  0
LINE
  5
81A
330
1F
100
AcDbEntity
  8
LOGO
 62
     6
100
AcDbLine
 10
197.666044684511
 20
8.047984838570116
 30
0.0
 11
197.666044684511
 21
19.06568751725292
 31
0.0
  0
LINE
  5
81B
330
1F
100
AcDbEntity
  8
LOGO
 62
     6
100
AcDbLine
 10
345.5579890880037
 20
-10.18300717165296
 30
0.0
 11
345.5579890880037
 21
-44.97167879507583
 31
0.0
  0
LINE
  5
81C
330
1F
100
AcDbEntity
  8
LOGO
 62
     6
100
AcDbLine
 10
339.2327760655632
 20
32.51218072982043
 30
0.0
 11
339.2327760655632
 21
4.048722128838171
 31
0.0
  0
TEXT
  5
81D
330
1F
100
AcDbEntity
  8
LOGO
  6
CONTINUOUS
 62
     7
100
AcDbText
 10
452.0247604915063
 20
10.19461436566953
 30
0.0
 40
15.81303255610126
  1
32
  7
CHINESET
 72
     1
 11
464.8257868464454
 21
18.10113064372016
 31
0.0
100
AcDbText
 73
     2
  0
LINE
  5
81E
330
1F
100
AcDbEntity
  8
LOGO
 62
     6
100
AcDbLine
 10
488.7383660429852
 20
-44.97167879507556
 30
0.0
 11
437.9614407581376
 21
-44.97167879507563
 31
0.0
  0
LINE
  5
81F
330
1F
100
AcDbEntity
  8
LOGO
 62
     6
100
AcDbLine
 10
488.7383660429852
 20
4.048722128838356
 30
0.0
 11
437.9614407581376
 21
4.048722128838356
 31
0.0
  0
LINE
  5
820
330
1F
100
AcDbEntity
  8
LOGO
 62
     6
100
AcDbLine
 10
488.7383660429852
 20
-10.18300717165279
 30
0.0
 11
437.9614407581376
 21
-10.18300717165279
 31
0.0
  0
LINE
  5
821
330
1F
100
AcDbEntity
  8
LOGO
 62
     6
100
AcDbLine
 10
488.7383660429852
 20
32.51218072982078
 30
0.0
 11
437.9614407581376
 21
32.51218072982061
 31
0.0
  0
LINE
  5
822
330
1F
100
AcDbEntity
  8
LOGO
 62
     6
100
AcDbLine
 10
437.9614407581376
 20
-10.18300717165279
 30
0.0
 11
437.9614407581376
 21
-44.97167879507556
 31
0.0
  0
LINE
  5
823
330
1F
100
AcDbEntity
  8
LOGO
 62
     6
100
AcDbLine
 10
408.8101193124087
 20
-10.18300717165296
 30
0.0
 11
408.8101193124087
 21
-44.97167879507571
 31
0.0
  0
TEXT
  5
824
330
1F
100
AcDbEntity
  8
LOGO
 62
     6
100
AcDbText
 10
364.5336281553251
 20
-27.25361160820007
 30
0.0
 40
12.650426044881
  1
型式
  7
CHINESET
 72
     4
 11
377.1840542002061
 21
-21.25212996092385
 31
0.0
100
AcDbText
  0
LINE
  5
825
330
1F
100
AcDbEntity
  8
LOGO
 62
     6
100
AcDbLine
 10
377.1840542002061
 20
4.048722128838171
 30
0.0
 11
377.1840542002061
 21
-10.18300717165296
 31
0.0
  0
LINE
  5
826
330
1F
100
AcDbEntity
  8
LOGO
 62
     6
100
AcDbLine
 10
437.9614407581376
 20
32.51218072982061
 30
0.0
 11
437.9614407581376
 21
4.048722128838356
 31
0.0
  0
LINE
  5
827
330
1F
100
AcDbEntity
  8
LOGO
 62
     6
100
AcDbLine
 10
415.1353323348492
 20
32.51218072982043
 30
0.0
 11
415.1353323348492
 21
4.048722128838171
 31
0.0
  0
LINE
  5
828
330
1F
100
AcDbEntity
  8
LOGO
  6
CONTINUOUS
 62
     7
100
AcDbLine
 10
420.4707004639068
 20
18.17962936067505
 30
0.0
 11
433.0391251966458
 21
18.17962936067505
 31
0.0
  0
LINE
  5
829
330
1F
100
AcDbEntity
  8
LOGO
 62
     6
100
AcDbLine
 10
504.8077194687979
 20
-10.18300717165296
 30
0.0
 11
504.8077194687979
 21
-44.97167879507583
 31
0.0
  0
LINE
  5
82A
330
1F
100
AcDbEntity
  8
LOGO
 62
     6
100
AcDbLine
 10
488.7383660429852
 20
-10.18300717165279
 30
0.0
 11
488.7383660429852
 21
-44.97167879507546
 31
0.0
  0
TEXT
  5
82B
330
1F
100
AcDbEntity
  8
LOGO
  6
CONTINUOUS
 62
     6
100
AcDbText
 10
453.5608832467845
 20
-41.01842065605032
 30
0.0
 40
7.906516278050629
  1
Bore
 41
0.8
  7
CHINESET
 72
     4
 11
463.3499034005615
 21
-37.06516251702501
 31
0.0
100
AcDbText
  0
TEXT
  5
82C
330
1F
100
AcDbEntity
  8
LOGO
 62
     6
100
AcDbText
 10
451.252933495144
 20
-27.57734298336425
 30
0.0
 40
12.650426044881
  1
內徑
 41
0.9
  7
CHINESET
 72
     4
 11
463.3499034005615
 21
-21.25212996092375
 31
0.0
100
AcDbText
  0
LINE
  5
82D
330
1F
100
AcDbEntity
  8
LOGO
  6
CONTINUOUS
 62
     7
100
AcDbLine
 10
493.6421921970078
 20
18.17962936067523
 30
0.0
 11
506.2106169297469
 21
18.17962936067523
 31
0.0
  0
LINE
  5
82E
330
1F
100
AcDbEntity
  8
LOGO
 62
     6
100
AcDbLine
 10
488.7383660429852
 20
32.51218072982078
 30
0.0
 11
488.7383660429852
 21
4.048722128838356
 31
0.0
  0
LINE
  5
82F
330
1F
100
AcDbEntity
  8
LOGO
 62
     6
100
AcDbLine
 10
463.3499026713135
 20
4.048722128838356
 30
0.0
 11
463.3499026713135
 21
-10.18300717165279
 31
0.0
  0
LINE
  5
830
330
1F
100
AcDbEntity
  8
LOGO
 62
     6
100
AcDbLine
 10
511.1329324912386
 20
32.51218072982043
 30
0.0
 11
511.1329324912385
 21
4.048722128838171
 31
0.0
  0
LINE
  5
831
330
1F
100
AcDbEntity
  8
LOGO
 62
     6
100
AcDbLine
 10
538.1447547035706
 20
4.048722128838171
 30
0.0
 11
538.1447547035706
 21
-10.18300717165296
 31
0.0
  0
TEXT
  5
832
330
1F
100
AcDbEntity
  8
LOGO
 62
     6
100
AcDbText
 10
615.0369365186691
 20
-27.57734298336416
 30
0.0
 40
12.650426044881
  1
配件
 41
0.9
  7
CHINESET
 72
     4
 11
626.5409177032328
 21
-21.25212996092366
 31
0.0
100
AcDbText
  0
LINE
  5
833
330
1F
100
AcDbEntity
  8
LOGO
 62
     6
100
AcDbLine
 10
672.794037929829
 20
-44.97167879507546
 30
0.0
 11
580.2877974766366
 21
-44.97167879507556
 31
0.0
  0
LINE
  5
834
330
1F
100
AcDbEntity
  8
LOGO
 62
     6
100
AcDbLine
 10
672.794037929829
 20
-10.18300717165279
 30
0.0
 11
580.2877974766366
 21
-10.18300717165279
 31
0.0
  0
TEXT
  5
835
330
1F
100
AcDbEntity
  8
LOGO
  6
CONTINUOUS
 62
     6
100
AcDbText
 10
603.1978696442262
 20
-39.7006679430418
 30
0.0
 40
7.906516278050629
  1
Accessory
 41
0.8
  7
CHINESET
 72
     4
 11
626.5409177032328
 21
-37.06516251702493
 31
0.0
100
AcDbText
  0
LINE
  5
836
330
1F
100
AcDbEntity
  8
LOGO
 62
     6
100
AcDbLine
 10
580.2877974766366
 20
-10.18300717165279
 30
0.0
 11
580.2877974766366
 21
-44.97167879507556
 31
0.0
  0
LINE
  5
837
330
1F
100
AcDbEntity
  8
LOGO
 62
     6
100
AcDbLine
 10
570.1421672522051
 20
-10.18300717165296
 30
0.0
 11
570.1421672522051
 21
-45.10285515470002
 31
0.0
  0
LINE
  5
838
330
1F
100
AcDbEntity
  8
LOGO
 62
     6
100
AcDbLine
 10
563.8169542297646
 20
32.51218072982043
 30
0.0
 11
563.8169542297644
 21
4.048722128838143
 31
0.0
  0
LINE
  5
839
330
1F
100
AcDbEntity
  8
LOGO
  6
CONTINUOUS
 62
     7
100
AcDbLine
 10
569.4199314425624
 20
18.17962936067505
 30
0.0
 11
581.9883561753015
 21
18.17962936067505
 31
0.0
  0
TEXT
  5
83A
330
1F
100
AcDbEntity
  8
LOGO
  6
CONTINUOUS
 62
     7
100
AcDbText
 10
588.2769432752098
 20
10.19461436566936
 30
0.0
 40
15.81303255610126
  1
RP
  7
CHINESET
 72
     1
 11
601.4544704052942
 21
18.10113064371999
 31
0.0
100
AcDbText
 73
     2
  0
LINE
  5
83B
330
1F
100
AcDbEntity
  8
LOGO
 62
     6
100
AcDbLine
 10
615.4656309068053
 20
32.51218072982061
 30
0.0
 11
615.4656309068053
 21
4.048722128838171
 31
0.0
  0
LINE
  5
83C
330
1F
100
AcDbEntity
  8
LOGO
 62
     6
100
AcDbLine
 10
586.6666788813955
 20
32.51218072982061
 30
0.0
 11
586.6666788813955
 21
4.048722128838171
 31
0.0
  0
LINE
  5
83D
330
1F
100
AcDbEntity
  8
LOGO
 62
     6
100
AcDbLine
 10
615.4656309068053
 20
4.048722128838171
 30
0.0
 11
586.6666788813955
 21
4.048722128838171
 31
0.0
  0
LINE
  5
83E
330
1F
100
AcDbEntity
  8
LOGO
 62
     6
100
AcDbLine
 10
601.0661548941002
 20
4.048722128838171
 30
0.0
 11
601.0661548941002
 21
-10.18300717165279
 31
0.0
  0
LINE
  5
83F
330
1F
100
AcDbEntity
  8
LOGO
 62
     6
100
AcDbLine
 10
615.4656309068053
 20
32.51218072982061
 30
0.0
 11
586.6666788813955
 21
32.51218072982061
 31
0.0
  0
LINE
  5
840
330
1F
100
AcDbEntity
  8
LOGO
 62
     6
100
AcDbLine
 10
672.794037929829
 20
-10.18300717165279
 30
0.0
 11
672.794037929829
 21
-44.97167879507546
 31
0.0
  0
LINE
  5
841
330
1F
100
AcDbEntity
  8
LOGO
 62
     1
100
AcDbLine
 10
717.9116775945955
 20
-52.87819507312637
 30
0.0
 11
717.9116775945955
 21
42.00000026348118
 31
0.0
  0
TEXT
  5
845
330
1F
100
AcDbEntity
  8
LOGO
  6
CONTINUOUS
 62
     7
100
AcDbText
 10
564.9598508911769
 20
314.2917230555668
 30
0.0
 40
12.64777244432165
  1
RP 配件
  7
CHINESET
 72
     1
 11
595.8452594940517
 21
320.6156092777276
 31
0.0
100
AcDbText
 73
     2
  0
LINE
  5
F99
330
1F
100
AcDbEntity
  8
0
100
AcDbLine
 10
228.6605996608131
 20
352.6303002776833
 30
0.0
 11
254.6605996608132
 21
352.3803002776833
 31
0.0
  0
LINE
  5
F9A
330
1F
100
AcDbEntity
  8
0
100
AcDbLine
 10
229.160599660813
 20
318.6303002776832
 30
0.0
 11
254.6605996608131
 21
318.6303002776832
 31
0.0
  0
LINE
  5
F9B
330
1F
100
AcDbEntity
  8
0
100
AcDbLine
 10
229.160599660813
 20
339.6303002776833
 30
0.0
 11
254.6605996608131
 21
339.6303002776833
 31
0.0
  0
LINE
  5
F9C
330
1F
100
AcDbEntity
  8
0
100
AcDbLine
 10
228.6605996608131
 20
305.6303002776832
 30
0.0
 11
254.6605996608132
 21
305.8803002776832
 31
0.0
  0
LINE
  5
F9D
330
1F
100
AcDbEntity
  8
0
100
AcDbLine
 10
229.160599660813
 20
255.8503956936797
 30
0.0
 11
254.6605996608131
 21
255.8503956936797
 31
0.0
  0
LINE
  5
F9E
330
1F
100
AcDbEntity
  8
0
100
AcDbLine
 10
228.6605996608131
 20
231.8503956936797
 30
0.0
 11
254.6605996608132
 21
231.6003956936797
 31
0.0
  0
LINE
  5
F9F
330
1F
100
AcDbEntity
  8
0
100
AcDbLine
 10
229.160599660813
 20
234.8503956936796
 30
0.0
 11
254.6605996608131
 21
234.8503956936796
 31
0.0
  0
LINE
  5
FA0
330
1F
100
AcDbEntity
  8
0
100
AcDbLine
 10
228.6605996608131
 20
184.8503956936796
 30
0.0
 11
254.6605996608132
 21
185.1003956936796
 31
0.0
  0
LINE
  5
FA1
330
1F
100
AcDbEntity
  8
CENTER
  6
CENTER
100
AcDbLine
 10
235.6605996608131
 20
204.3503956936797
 30
0.0
 11
253.6605996608132
 21
204.3503956936797
 31
0.0
  0
LINE
  5
FA2
330
1F
100
AcDbEntity
  8
0
100
AcDbLine
 10
229.160599660813
 20
181.8503956936798
 30
0.0
 11
254.6605996608131
 21
181.8503956936798
 31
0.0
  0
LINE
  5
FA3
330
1F
100
AcDbEntity
  8
0
100
AcDbLine
 10
229.160599660813
 20
160.8503956936797
 30
0.0
 11
254.6605996608131
 21
160.8503956936797
 31
0.0
  0
SOLID
  5
FA4
330
1F
100
AcDbEntity
  8
DIM
100
AcDbTrace
 10
251.6605996608137
 20
135.8503956936796
 30
0.0
 11
251.6605996608137
 21
134.8503956936796
 31
0.0
 12
254.6605996608137
 22
135.3503956936796
 32
0.0
 13
254.6605996608137
 23
135.3503956936796
 33
0.0
  0
SOLID
  5
FA5
330
1F
100
AcDbEntity
  8
DIM
100
AcDbTrace
 10
251.6605996608132
 20
127.8503956936797
 30
0.0
 11
251.6605996608132
 21
126.8503956936797
 31
0.0
 12
254.6605996608132
 22
127.3503956936796
 32
0.0
 13
254.6605996608132
 23
127.3503956936796
 33
0.0
  0
LINE
  5
FA6
330
1F
100
AcDbEntity
  8
DIM
100
AcDbLine
 10
254.6605996608132
 20
135.3503956936796
 30
0.0
 11
229.1605996608129
 21
135.3503956936797
 31
0.0
  0
LINE
  5
FA7
330
1F
100
AcDbEntity
  8
0
100
AcDbLine
 10
229.160599660813
 20
100.1351161808482
 30
0.0
 11
254.6605996608131
 21
100.1351161808482
 31
0.0
  0
LINE
  5
FA8
330
1F
100
AcDbEntity
  8
0
100
AcDbLine
 10
228.6605996608131
 20
113.1351161808482
 30
0.0
 11
254.6605996608132
 21
112.8851161808482
 31
0.0
  0
LINE
  5
FA9
330
1F
100
AcDbEntity
  8
0
100
AcDbLine
 10
228.6605996608131
 20
66.13511618084811
 30
0.0
 11
254.6605996608132
 21
66.38511618084812
 31
0.0
  0
LINE
  5
FAA
330
1F
100
AcDbEntity
  8
0
100
AcDbLine
 10
229.160599660813
 20
79.13511618084817
 30
0.0
 11
254.6605996608131
 21
79.13511618084817
 31
0.0
  0
LINE
  5
FAB
330
1F
100
AcDbEntity
  8
CENTER
  6
CENTER
100
AcDbLine
 10
186.1605996608132
 20
245.3503956936796
 30
0.0
 11
327.6605996608132
 21
245.3503956936796
 31
0.0
  0
LINE
  5
FAC
330
1F
100
AcDbEntity
  8
CENTER
  6
CENTER
100
AcDbLine
 10
186.1605996608132
 20
171.3503956936797
 30
0.0
 11
327.6605996608132
 21
171.3503956936796
 31
0.0
  0
LINE
  5
FAD
330
1F
100
AcDbEntity
  8
CENTER
  6
CENTER
100
AcDbLine
 10
150.7140754057444
 20
208.3503956936797
 30
0.0
 11
327.6605996608132
 21
208.3503956936797
 31
0.0
  0
LINE
  5
FAE
330
1F
100
AcDbEntity
  8
CENTER
  6
CENTER
100
AcDbLine
 10
153.6605996608131
 20
329.1303002776833
 30
0.0
 11
329.6605996608132
 21
329.1303002776833
 31
0.0
  0
LINE
  5
FAF
330
1F
100
AcDbEntity
  8
DIM
100
AcDbLine
 10
324.6605996608132
 20
127.3503956936796
 30
0.0
 11
156.6605996608131
 21
127.3503956936796
 31
0.0
  0
LINE
  5
FB0
330
1F
100
AcDbEntity
  8
CENTER
  6
CENTER
100
AcDbLine
 10
251.660599660813
 20
266.3503956936796
 30
0.0
 11
272.660599660813
 21
266.3503956936796
 31
0.0
  0
LINE
  5
FB1
330
1F
100
AcDbEntity
  8
CENTER
  6
CENTER
100
AcDbLine
 10
251.660599660813
 20
150.3503956936797
 30
0.0
 11
272.660599660813
 21
150.3503956936797
 31
0.0
  0
LINE
  5
FB2
330
1F
100
AcDbEntity
  8
CENTER
  6
CENTER
100
AcDbLine
 10
251.6605996608129
 20
312.8803002776833
 30
0.0
 11
272.6605996608129
 21
312.8803002776833
 31
0.0
  0
LINE
  5
FB3
330
1F
100
AcDbEntity
  8
CENTER
  6
CENTER
100
AcDbLine
 10
251.660599660813
 20
345.3803002776833
 30
0.0
 11
272.660599660813
 21
345.3803002776833
 31
0.0
  0
LINE
  5
FB4
330
1F
100
AcDbEntity
  8
DIM
100
AcDbLine
 10
324.6605996608132
 20
281.3503956936796
 30
0.0
 11
189.1605996608132
 21
281.3503956936796
 31
0.0
  0
TEXT
  5
FB5
330
1F
100
AcDbEntity
  8
DIM
100
AcDbText
 10
245.1952654144448
 20
282.8503956936796
 30
0.0
 40
3.0
  1
135.5+Stroke
  7
ROMANSS
 72
     1
 11
259.9809797001591
 21
284.3503956936796
 31
0.0
100
AcDbText
 73
     2
  0
LINE
  5
FB6
330
1F
100
AcDbEntity
  8
CENTER
  6
CENTER
100
AcDbLine
 10
251.660599660813
 20
105.8851161808482
 30
0.0
 11
272.660599660813
 21
105.8851161808482
 31
0.0
  0
LINE
  5
FB7
330
1F
100
AcDbEntity
  8
CENTER
  6
CENTER
100
AcDbLine
 10
251.6605996608129
 20
73.38511618084822
 30
0.0
 11
272.6605996608129
 21
73.38511618084822
 31
0.0
  0
LINE
  5
FB8
330
1F
100
AcDbEntity
  8
CENTER
  6
CENTER
100
AcDbLine
 10
153.6605996608131
 20
89.63511618084822
 30
0.0
 11
329.6605996608132
 21
89.63511618084822
 31
0.0
  0
ARC
  5
FB9
330
1F
100
AcDbEntity
  8
0
100
AcDbCircle
 10
105.0836300182101
 20
192.1003956936797
 30
0.0
 40
7.25
100
AcDbArc
 50
270.0
 51
0.0
  0
ARC
  5
FBA
330
1F
100
AcDbEntity
  8
0
100
AcDbCircle
 10
105.0836300182101
 20
192.1003956936797
 30
0.0
 40
7.0
100
AcDbArc
 50
270.0
 51
0.0
  0
LINE
  5
FBB
330
1F
100
AcDbEntity
  8
DIM
100
AcDbLine
 10
156.6605996608131
 20
192.543207646736
 30
0.0
 11
156.6605996608131
 21
126.3503956936796
 31
0.0
  0
ARC
  5
FBC
330
1F
100
AcDbEntity
  8
0
100
AcDbCircle
 10
72.58363001821016
 20
192.1003956936797
 30
0.0
 40
7.0
100
AcDbArc
 50
180.0
 51
270.0
  0
ARC
  5
FBD
330
1F
100
AcDbEntity
  8
0
100
AcDbCircle
 10
72.58363001821016
 20
192.1003956936797
 30
0.0
 40
7.25
100
AcDbArc
 50
180.0
 51
270.0
  0
ARC
  5
FBE
330
1F
100
AcDbEntity
  8
0
100
AcDbCircle
 10
88.83363001821004
 20
171.3503956936797
 30
0.0
 40
20.99999999999997
100
AcDbArc
 50
139.99479911514
 51
40.00520088485994
  0
ARC
  5
FBF
330
1F
100
AcDbEntity
  8
CENTER
  6
CENTER
100
AcDbCircle
 10
88.83363001821004
 20
171.3503956936797
 30
0.0
 40
15.99999999999997
100
AcDbArc
 50
122.4617449672422
 51
57.53825503275774
  0
LINE
  5
FC0
330
1F
100
AcDbEntity
  8
CENTER
  6
CENTER
100
AcDbLine
 10
88.83363001821004
 20
140.3503956936796
 30
0.0
 11
88.83363001821004
 21
276.3503956936797
 31
0.0
  0
LINE
  5
FC1
330
1F
100
AcDbEntity
  8
0
100
AcDbLine
 10
113.8336300182101
 20
145.3503956936797
 30
0.0
 11
113.8336300182101
 21
271.3503956936796
 31
0.0
  0
LINE
  5
FC2
330
1F
100
AcDbEntity
  8
0
100
AcDbLine
 10
63.83363001821016
 20
145.3503956936795
 30
0.0
 11
63.83363001821004
 21
271.3503956936798
 31
0.0
  0
LINE
  5
FC3
330
1F
100
AcDbEntity
  8
CENTER
  6
CENTER
100
AcDbLine
 10
63.83363001821013
 20
171.3503956936797
 30
0.0
 11
113.8336300182101
 21
171.3503956936797
 31
0.0
  0
LINE
  5
FC4
330
1F
100
AcDbEntity
  8
0
  6
CONTINUOUS
100
AcDbLine
 10
65.83363001821004
 20
143.3503956936796
 30
0.0
 11
111.83363001821
 21
143.3503956936796
 31
0.0
  0
LINE
  5
FC5
330
1F
100
AcDbEntity
  8
CENTER
  6
CENTER
100
AcDbLine
 10
66.28363001820992
 20
150.3503956936796
 30
0.0
 11
78.88363001820994
 21
150.3503956936796
 31
0.0
  0
LINE
  5
FC6
330
1F
100
AcDbEntity
  8
0
  6
CONTINUOUS
100
AcDbLine
 10
63.83363001821004
 20
145.3503956936796
 30
0.0
 11
65.83363001821004
 21
143.3503956936796
 31
0.0
  0
LINE
  5
FC7
330
1F
100
AcDbEntity
  8
DIM
100
AcDbLine
 10
167.4785654186766
 20
135.3503956936797
 30
0.0
 11
149.6038753405943
 21
135.3503956936797
 31
0.0
  0
LINE
  5
FC8
330
1F
100
AcDbEntity
  8
0
100
AcDbLine
 10
160.6605996608131
 20
104.6351161808482
 30
0.0
 11
157.6605996608131
 21
104.6351161808482
 31
0.0
  0
LINE
  5
FC9
330
1F
100
AcDbEntity
  8
CENTER
  6
CENTER
100
AcDbLine
 10
188.1605996608131
 20
105.8851161808482
 30
0.0
 11
159.1605996608132
 21
105.8851161808482
 31
0.0
  0
LINE
  5
FCA
330
1F
100
AcDbEntity
  8
0
100
AcDbLine
 10
160.6605996608131
 20
74.63511618084822
 30
0.0
 11
157.6605996608131
 21
74.63511618084822
 31
0.0
  0
LINE
  5
FCB
330
1F
100
AcDbEntity
  8
CENTER
  6
CENTER
100
AcDbLine
 10
188.1605996608133
 20
73.38511618084822
 30
0.0
 11
159.1605996608132
 21
73.38511618084822
 31
0.0
  0
LINE
  5
FCC
330
1F
100
AcDbEntity
  8
0
100
AcDbLine
 10
156.6605996608131
 20
103.6351161808482
 30
0.0
 11
156.6605996608131
 21
75.63511618084823
 31
0.0
  0
ARC
  5
FCD
330
1F
100
AcDbEntity
  8
0
100
AcDbCircle
 10
157.6605996608131
 20
75.63511618084823
 30
0.0
 40
1.0
100
AcDbArc
 50
180.0
 51
270.0
  0
ARC
  5
FCE
330
1F
100
AcDbEntity
  8
0
100
AcDbCircle
 10
157.6605996608131
 20
103.6351161808482
 30
0.0
 40
1.0
100
AcDbArc
 50
90.0
 51
180.0
  0
LINE
  5
FCF
330
1F
100
AcDbEntity
  8
CENTER
  6
CENTER
100
AcDbLine
 10
105.0836300182101
 20
156.9777831793454
 30
0.0
 11
105.0836300182101
 21
143.9777831793453
 31
0.0
  0
CIRCLE
  5
FD0
330
1F
100
AcDbEntity
  8
0
  6
CONTINUOUS
100
AcDbCircle
 10
105.0836300182099
 20
150.3503956936796
 30
0.0
 40
3.299999999999999
  0
LINE
  5
FD1
330
1F
100
AcDbEntity
  8
CENTER
  6
CENTER
100
AcDbLine
 10
72.58363001821016
 20
156.9777831793454
 30
0.0
 11
72.58363001821016
 21
143.9777831793453
 31
0.0
  0
CIRCLE
  5
FD2
330
1F
100
AcDbEntity
  8
0
  6
CONTINUOUS
100
AcDbCircle
 10
72.58363001820993
 20
150.3503956936796
 30
0.0
 40
3.299999999999999
  0
LINE
  5
FD3
330
1F
100
AcDbEntity
  8
CENTER
  6
CENTER
100
AcDbLine
 10
98.78363001820998
 20
150.3503956936796
 30
0.0
 11
111.38363001821
 21
150.3503956936796
 31
0.0
  0
LINE
  5
FD4
330
1F
100
AcDbEntity
  8
0
  6
CONTINUOUS
100
AcDbLine
 10
113.83363001821
 20
145.3503956936796
 30
0.0
 11
111.83363001821
 21
143.3503956936796
 31
0.0
  0
CIRCLE
  5
FD5
330
1F
100
AcDbEntity
  8
0
100
AcDbCircle
 10
88.83363001821004
 20
171.3503956936797
 30
0.0
 40
5.999999999999971
  0
INSERT
  5
FD6
330
1F
100
AcDbEntity
  8
0
  6
CONTINUOUS
100
AcDbBlockReference
  2
SB_T-M4
 10
88.83363001821008
 20
155.3503956936797
 30
0.0
 41
-1.0
 50
180.0
  0
CIRCLE
  5
FD7
330
1F
100
AcDbEntity
  8
0
100
AcDbCircle
 10
88.83363001821004
 20
171.3503956936797
 30
0.0
 40
6.999999999999971
  0
CIRCLE
  5
FD8
330
1F
100
AcDbEntity
  8
0
100
AcDbCircle
 10
88.83363001821004
 20
171.3503956936797
 30
0.0
 40
10.5
  0
INSERT
  5
FD9
330
1F
100
AcDbEntity
  8
0
  6
CONTINUOUS
100
AcDbBlockReference
  2
SB_T-M4
 10
72.83363001821007
 20
171.3503956936797
 30
0.0
 41
-1.0
 50
180.0
  0
INSERT
  5
FDA
330
1F
100
AcDbEntity
  8
0
  6
CONTINUOUS
100
AcDbBlockReference
  2
SB_T-M4
 10
104.83363001821
 20
171.3503956936797
 30
0.0
 41
-1.0
 50
180.0
  0
SOLID
  5
FDB
330
1F
100
AcDbEntity
  8
DIM
100
AcDbTrace
 10
159.6605996608127
 20
127.8503956936797
 30
0.0
 11
159.6605996608127
 21
126.8503956936797
 31
0.0
 12
156.6605996608127
 22
127.3503956936796
 32
0.0
 13
156.6605996608127
 23
127.3503956936796
 33
0.0
  0
SOLID
  5
FDC
330
1F
100
AcDbEntity
  8
DIM
100
AcDbTrace
 10
153.6605996608132
 20
135.8503956936797
 30
0.0
 11
153.6605996608132
 21
134.8503956936797
 31
0.0
 12
156.6605996608132
 22
135.3503956936797
 32
0.0
 13
156.6605996608132
 23
135.3503956936797
 33
0.0
  0
TEXT
  5
FDD
330
1F
100
AcDbEntity
  8
DIM
100
AcDbText
 10
150.1828876403612
 20
136.8503956936797
 30
0.0
 40
3.0
  1
4
  7
ROMANSS
 72
     1
 11
151.2543162117898
 21
138.3503956936797
 31
0.0
100
AcDbText
 73
     2
  0
LINE
  5
FDE
330
1F
100
AcDbEntity
  8
0
100
AcDbLine
 10
190.1605996608132
 20
83.63511618084823
 30
0.0
 11
229.160599660813
 21
83.63511618084828
 31
0.0
  0
LINE
  5
FDF
330
1F
100
AcDbEntity
  8
0
100
AcDbLine
 10
190.1605996608132
 20
95.63511618084822
 30
0.0
 11
229.160599660813
 21
95.63511618084834
 31
0.0
  0
LINE
  5
FE0
330
1F
100
AcDbEntity
  8
0
  6
CONTINUOUS
100
AcDbLine
 10
228.6605996608131
 20
98.14339788806041
 30
0.0
 11
186.6605996608132
 21
98.14339788806041
 31
0.0
  0
LINE
  5
FE1
330
1F
100
AcDbEntity
  8
0
  6
CONTINUOUS
100
AcDbLine
 10
228.6605996608131
 20
111.0851161808481
 30
0.0
 11
186.6605996608132
 21
111.0851161808481
 31
0.0
  0
LINE
  5
FE2
330
1F
100
AcDbEntity
  8
0
  6
CONTINUOUS
100
AcDbLine
 10
228.6605996608131
 20
68.18511618084818
 30
0.0
 11
186.6605996608132
 21
68.18511618084818
 31
0.0
  0
LINE
  5
FE3
330
1F
100
AcDbEntity
  8
0
  6
CONTINUOUS
100
AcDbLine
 10
228.6605996608131
 20
81.12683447363606
 30
0.0
 11
186.6605996608132
 21
81.12683447363606
 31
0.0
  0
LINE
  5
FE4
330
1F
100
AcDbEntity
  8
0
100
AcDbLine
 10
189.1605996608132
 20
94.63511618084822
 30
0.0
 11
189.1605996608132
 21
84.63511618084822
 31
0.0
  0
LINE
  5
FE5
330
1F
100
AcDbEntity
  8
0
100
AcDbLine
 10
190.1605996608132
 20
95.63511618084829
 30
0.0
 11
190.1605996608132
 21
83.63511618084823
 31
0.0
  0
LINE
  5
FE6
330
1F
100
AcDbEntity
  8
0
100
AcDbLine
 10
160.6605996608131
 20
112.8851161808483
 30
0.0
 11
160.6605996608132
 21
66.38511618084812
 31
0.0
  0
LINE
  5
FE7
330
1F
100
AcDbEntity
  8
0
100
AcDbLine
 10
186.6605996608133
 20
113.1351161808482
 30
0.0
 11
186.6605996608133
 21
66.13511618084811
 31
0.0
  0
LINE
  5
FE8
330
1F
100
AcDbEntity
  8
0
100
AcDbLine
 10
186.6605996608133
 20
66.13511618084811
 30
0.0
 11
160.6605996608132
 21
66.38511618084812
 31
0.0
  0
LINE
  5
FE9
330
1F
100
AcDbEntity
  8
HIDDEN
  6
HIDDEN
100
AcDbLine
 10
178.1605996608131
 20
70.88511618084834
 30
0.0
 11
166.6605996608131
 21
70.88511618084822
 31
0.0
  0
LINE
  5
FEA
330
1F
100
AcDbEntity
  8
HIDDEN
  6
HIDDEN
100
AcDbLine
 10
178.1605996608131
 20
75.88511618084834
 30
0.0
 11
166.6605996608131
 21
75.88511618084822
 31
0.0
  0
LINE
  5
FEB
330
1F
100
AcDbEntity
  8
HIDDEN
  6
HIDDEN
100
AcDbLine
 10
175.6605996608131
 20
76.38511618084834
 30
0.0
 11
160.6605996608131
 21
76.38511618084834
 31
0.0
  0
LINE
  5
FEC
330
1F
100
AcDbEntity
  8
HIDDEN
  6
HIDDEN
100
AcDbLine
 10
175.660599660813
 20
70.38511618084834
 30
0.0
 11
160.6605996608131
 21
70.38511618084823
 31
0.0
  0
LINE
  5
FED
330
1F
100
AcDbEntity
  8
HIDDEN
  6
HIDDEN
100
AcDbLine
 10
166.6605996608131
 20
70.38511618084834
 30
0.0
 11
166.6605996608131
 21
76.38511618084823
 31
0.0
  0
LINE
  5
FEE
330
1F
100
AcDbEntity
  8
HIDDEN
  6
HIDDEN
100
AcDbLine
 10
175.660599660813
 20
70.38511618084834
 30
0.0
 11
175.660599660813
 21
76.38511618084823
 31
0.0
  0
LINE
  5
FEF
330
1F
100
AcDbEntity
  8
HIDDEN
  6
HIDDEN
100
AcDbLine
 10
178.1605996608131
 20
70.88511618084834
 30
0.0
 11
179.6039753337871
 21
73.38511618084822
 31
0.0
  0
LINE
  5
FF0
330
1F
100
AcDbEntity
  8
HIDDEN
  6
HIDDEN
100
AcDbLine
 10
178.1605996608131
 20
70.88511618084834
 30
0.0
 11
178.1605996608131
 21
75.88511618084822
 31
0.0
  0
LINE
  5
FF1
330
1F
100
AcDbEntity
  8
HIDDEN
  6
HIDDEN
100
AcDbLine
 10
178.1605996608131
 20
75.88511618084822
 30
0.0
 11
179.6039753337871
 21
73.38511618084822
 31
0.0
  0
LINE
  5
FF2
330
1F
100
AcDbEntity
  8
0
100
AcDbLine
 10
189.1605996608132
 20
84.63511618084822
 30
0.0
 11
190.1605996608132
 21
83.63511618084823
 31
0.0
  0
LINE
  5
FF3
330
1F
100
AcDbEntity
  8
0
100
AcDbLine
 10
186.6605996608133
 20
113.1351161808482
 30
0.0
 11
160.6605996608132
 21
112.8851161808482
 31
0.0
  0
LINE
  5
FF4
330
1F
100
AcDbEntity
  8
HIDDEN
  6
HIDDEN
100
AcDbLine
 10
178.1605996608131
 20
103.3851161808482
 30
0.0
 11
166.6605996608131
 21
103.3851161808482
 31
0.0
  0
LINE
  5
FF5
330
1F
100
AcDbEntity
  8
HIDDEN
  6
HIDDEN
100
AcDbLine
 10
175.6605996608131
 20
102.8851161808482
 30
0.0
 11
160.6605996608131
 21
102.8851161808482
 31
0.0
  0
LINE
  5
FF6
330
1F
100
AcDbEntity
  8
HIDDEN
  6
HIDDEN
100
AcDbLine
 10
178.1605996608131
 20
108.3851161808482
 30
0.0
 11
166.6605996608131
 21
108.3851161808482
 31
0.0
  0
LINE
  5
FF7
330
1F
100
AcDbEntity
  8
HIDDEN
  6
HIDDEN
100
AcDbLine
 10
175.6605996608131
 20
108.8851161808482
 30
0.0
 11
160.6605996608132
 21
108.8851161808482
 31
0.0
  0
LINE
  5
FF8
330
1F
100
AcDbEntity
  8
CENTER
  6
CENTER
100
AcDbLine
 10
170.6605996608132
 20
117.4624537289832
 30
0.0
 11
170.6605996608132
 21
105.8851161808482
 31
0.0
  0
LINE
  5
FF9
330
1F
100
AcDbEntity
  8
HIDDEN
  6
HIDDEN
100
AcDbLine
 10
166.6605996608131
 20
102.8851161808482
 30
0.0
 11
166.6605996608131
 21
108.8851161808482
 31
0.0
  0
LINE
  5
FFA
330
1F
100
AcDbEntity
  8
CENTER
  6
CENTER
100
AcDbLine
 10
180.6605996608133
 20
117.4624537289832
 30
0.0
 11
180.6605996608133
 21
105.8851161808482
 31
0.0
  0
LINE
  5
FFB
330
1F
100
AcDbEntity
  8
HIDDEN
  6
HIDDEN
100
AcDbLine
 10
175.6605996608131
 20
102.8851161808482
 30
0.0
 11
175.6605996608131
 21
108.8851161808482
 31
0.0
  0
LINE
  5
FFC
330
1F
100
AcDbEntity
  8
HIDDEN
  6
HIDDEN
100
AcDbLine
 10
178.1605996608131
 20
103.3851161808482
 30
0.0
 11
179.6039753337871
 21
105.8851161808482
 31
0.0
  0
LINE
  5
FFD
330
1F
100
AcDbEntity
  8
HIDDEN
  6
HIDDEN
100
AcDbLine
 10
178.1605996608131
 20
103.3851161808482
 30
0.0
 11
178.1605996608132
 21
108.3851161808482
 31
0.0
  0
LINE
  5
FFE
330
1F
100
AcDbEntity
  8
HIDDEN
  6
HIDDEN
100
AcDbLine
 10
178.1605996608131
 20
108.3851161808482
 30
0.0
 11
179.6039753337871
 21
105.8851161808482
 31
0.0
  0
LINE
  5
FFF
330
1F
100
AcDbEntity
  8
0
100
AcDbLine
 10
190.1605996608132
 20
95.63511618084822
 30
0.0
 11
189.1605996608132
 21
94.63511618084822
 31
0.0
  0
LINE
  5
1000
330
1F
100
AcDbEntity
  8
0
100
AcDbLine
 10
229.1605996608131
 20
79.13511618084811
 30
0.0
 11
229.160599660813
 21
100.1351161808482
 31
0.0
  0
LINE
  5
1001
330
1F
100
AcDbEntity
  8
0
100
AcDbLine
 10
228.6605996608131
 20
83.63511618084828
 30
0.0
 11
228.6605996608131
 21
66.13511618084811
 31
0.0
  0
LINE
  5
1002
330
1F
100
AcDbEntity
  8
0
100
AcDbLine
 10
228.6605996608131
 20
113.1351161808482
 30
0.0
 11
228.6605996608131
 21
95.63511618084834
 31
0.0
  0
LINE
  5
1003
330
1F
100
AcDbEntity
  8
CENTER
  6
CENTER
100
AcDbLine
 10
234.660599660813
 20
117.4624537289832
 30
0.0
 11
234.660599660813
 21
105.8851161808482
 31
0.0
  0
LINE
  5
1004
330
1F
100
AcDbEntity
  8
CENTER
  6
CENTER
100
AcDbLine
 10
244.6605996608131
 20
117.4624537289832
 30
0.0
 11
244.6605996608131
 21
105.8851161808482
 31
0.0
  0
LINE
  5
1005
330
1F
100
AcDbEntity
  8
0
100
AcDbLine
 10
190.1605996608132
 20
177.3503956936797
 30
0.0
 11
229.160599660813
 21
177.3503956936796
 31
0.0
  0
LINE
  5
1006
330
1F
100
AcDbEntity
  8
0
100
AcDbLine
 10
190.1605996608132
 20
165.3503956936797
 30
0.0
 11
229.160599660813
 21
165.3503956936797
 31
0.0
  0
TEXT
  5
1007
330
1F
100
AcDbEntity
  8
DIM
100
AcDbText
 10
198.3137024191016
 20
128.8503956936797
 30
0.0
 40
3.0
  1
98+Stroke
  7
ROMANSS
 72
     1
 11
209.8137024191016
 21
130.3503956936796
 31
0.0
100
AcDbText
 73
     2
  0
LINE
  5
1008
330
1F
100
AcDbEntity
  8
DIM
100
AcDbLine
 10
160.6605996608132
 20
182.8503956936797
 30
0.0
 11
160.6605996608132
 21
133.9086972042161
 31
0.0
  0
SOLID
  5
1009
330
1F
100
AcDbEntity
  8
DIM
100
AcDbTrace
 10
163.6605996608133
 20
135.8503956936797
 30
0.0
 11
163.6605996608133
 21
134.8503956936797
 31
0.0
 12
160.6605996608133
 22
135.3503956936797
 32
0.0
 13
160.6605996608133
 23
135.3503956936797
 33
0.0
  0
LINE
  5
100A
330
1F
100
AcDbEntity
  8
DIM
100
AcDbLine
 10
188.1605996608132
 20
177.3503956936797
 30
0.0
 11
180.1605996608132
 21
177.3503956936797
 31
0.0
  0
LINE
  5
100B
330
1F
100
AcDbEntity
  8
DIM
100
AcDbLine
 10
188.1605996608132
 20
165.3503956936797
 30
0.0
 11
180.1605996608132
 21
165.3503956936797
 31
0.0
  0
SOLID
  5
100C
330
1F
100
AcDbEntity
  8
DIM
100
AcDbTrace
 10
180.6605996608132
 20
168.3503956936797
 30
0.0
 11
181.6605996608132
 21
168.3503956936797
 31
0.0
 12
181.1605996608132
 22
165.3503956936797
 32
0.0
 13
181.1605996608132
 23
165.3503956936797
 33
0.0
  0
LINE
  5
100D
330
1F
100
AcDbEntity
  8
DIM
100
AcDbLine
 10
181.1605996608132
 20
165.3503956936797
 30
0.0
 11
181.1605996608132
 21
177.3503956936797
 31
0.0
  0
SOLID
  5
100E
330
1F
100
AcDbEntity
  8
DIM
100
AcDbTrace
 10
180.6605996608132
 20
174.3503956936797
 30
0.0
 11
181.6605996608132
 21
174.3503956936797
 31
0.0
 12
181.1605996608132
 22
177.3503956936797
 32
0.0
 13
181.1605996608132
 23
177.3503956936797
 33
0.0
  0
TEXT
  5
100F
330
1F
100
AcDbEntity
  8
DIM
100
AcDbText
 10
179.6605996608132
 20
167.7398796761234
 30
0.0
 40
3.0
  1
%%c12
 50
90.0
  7
ROMANSS
 72
     1
 11
178.1605996608132
 21
171.2398796761234
 31
0.0
100
AcDbText
 73
     2
  0
LINE
  5
1010
330
1F
100
AcDbEntity
  8
0
100
AcDbLine
 10
189.1605996608132
 20
176.3503956936796
 30
0.0
 11
189.1605996608132
 21
166.3503956936797
 31
0.0
  0
LINE
  5
1011
330
1F
100
AcDbEntity
  8
0
100
AcDbLine
 10
190.1605996608132
 20
177.3503956936797
 30
0.0
 11
190.1605996608132
 21
165.3503956936797
 31
0.0
  0
LINE
  5
1012
330
1F
100
AcDbEntity
  8
0
100
AcDbLine
 10
189.1605996608132
 20
166.3503956936797
 30
0.0
 11
190.1605996608132
 21
165.3503956936797
 31
0.0
  0
LINE
  5
1013
330
1F
100
AcDbEntity
  8
0
100
AcDbLine
 10
190.1605996608132
 20
177.3503956936797
 30
0.0
 11
189.1605996608132
 21
176.3503956936796
 31
0.0
  0
LINE
  5
1014
330
1F
100
AcDbEntity
  8
DIM
100
AcDbLine
 10
229.1605996608129
 20
158.5740097796201
 30
0.0
 11
229.1605996608129
 21
134.3503956936797
 31
0.0
  0
SOLID
  5
1015
330
1F
100
AcDbEntity
  8
DIM
100
AcDbTrace
 10
232.1605996608129
 20
135.8503956936797
 30
0.0
 11
232.1605996608129
 21
134.8503956936797
 31
0.0
 12
229.1605996608129
 22
135.3503956936797
 32
0.0
 13
229.1605996608129
 23
135.3503956936797
 33
0.0
  0
TEXT
  5
1016
330
1F
100
AcDbEntity
  8
DIM
100
AcDbText
 10
237.6498654747984
 20
136.8503956936796
 30
0.0
 40
3.0
  1
25.5
  7
ROMANSS
 72
     1
 11
242.221294046227
 21
138.3503956936797
 31
0.0
100
AcDbText
 73
     2
  0
LINE
  5
1017
330
1F
100
AcDbEntity
  8
0
100
AcDbLine
 10
229.160599660813
 20
181.8503956936798
 30
0.0
 11
229.160599660813
 21
160.8503956936797
 31
0.0
  0
LINE
  5
1018
330
1F
100
AcDbEntity
  8
0
100
AcDbLine
 10
229.1605996608131
 20
181.8503956936798
 30
0.0
 11
229.160599660813
 21
160.8503956936797
 31
0.0
  0
ARC
  5
1019
330
1F
100
AcDbEntity
  8
0
100
AcDbCircle
 10
72.58363001821016
 20
224.6003956936796
 30
0.0
 40
7.0
100
AcDbArc
 50
90.0
 51
180.0
  0
ARC
  5
101A
330
1F
100
AcDbEntity
  8
0
100
AcDbCircle
 10
72.58363001821016
 20
224.6003956936796
 30
0.0
 40
7.25
100
AcDbArc
 50
90.0
 51
180.0
  0
LINE
  5
101B
330
1F
100
AcDbEntity
  8
CENTER
  6
CENTER
100
AcDbLine
 10
66.08363001821015
 20
224.6003956936796
 30
0.0
 11
79.08363001821027
 21
224.6003956936796
 31
0.0
  0
CIRCLE
  5
101C
330
1F
100
AcDbEntity
  8
0
100
AcDbCircle
 10
72.58363001821016
 20
224.6003956936796
 30
0.0
 40
5.500000000000056
  0
LINE
  5
101D
330
1F
100
AcDbEntity
  8
CENTER
  6
CENTER
100
AcDbLine
 10
63.83363001821004
 20
245.3503956936796
 30
0.0
 11
113.8336300182101
 21
245.3503956936796
 31
0.0
  0
LINE
  5
101E
330
1F
100
AcDbEntity
  8
0
  6
CONTINUOUS
100
AcDbLine
 10
65.83363001821004
 20
273.3503956936798
 30
0.0
 11
111.83363001821
 21
273.3503956936798
 31
0.0
  0
LINE
  5
101F
330
1F
100
AcDbEntity
  8
CENTER
  6
CENTER
100
AcDbLine
 10
66.28363001820992
 20
266.3503956936797
 30
0.0
 11
78.88363001820994
 21
266.3503956936797
 31
0.0
  0
LINE
  5
1020
330
1F
100
AcDbEntity
  8
CENTER
  6
CENTER
100
AcDbLine
 10
116.8336300182101
 20
208.3503956936797
 30
0.0
 11
60.8336300182101
 21
208.3503956936797
 31
0.0
  0
CIRCLE
  5
1021
330
1F
100
AcDbEntity
  8
0
100
AcDbCircle
 10
72.58363001821016
 20
192.1003956936797
 30
0.0
 40
5.500000000000056
  0
LINE
  5
1022
330
1F
100
AcDbEntity
  8
CENTER
  6
CENTER
100
AcDbLine
 10
66.08363001821015
 20
192.1003956936797
 30
0.0
 11
79.08363001821027
 21
192.1003956936797
 31
0.0
  0
LINE
  5
1023
330
1F
100
AcDbEntity
  8
0
100
AcDbLine
 10
65.33363001821015
 20
224.6003956936796
 30
0.0
 11
65.33363001821015
 21
192.1003956936797
 31
0.0
  0
LINE
  5
1024
330
1F
100
AcDbEntity
  8
0
100
AcDbLine
 10
65.58363001821016
 20
224.6003956936796
 30
0.0
 11
65.58363001821016
 21
192.1003956936797
 31
0.0
  0
LINE
  5
1025
330
1F
100
AcDbEntity
  8
0
  6
CONTINUOUS
100
AcDbLine
 10
63.83363001821004
 20
271.3503956936798
 30
0.0
 11
65.83363001821004
 21
273.3503956936798
 31
0.0
  0
LINE
  5
1026
330
1F
100
AcDbEntity
  8
0
100
AcDbLine
 10
228.6605996608131
 20
323.1303002776833
 30
0.0
 11
228.6605996608131
 21
305.6303002776832
 31
0.0
  0
LINE
  5
1027
330
1F
100
AcDbEntity
  8
HIDDEN
  6
HIDDEN
100
AcDbLine
 10
178.1605996608131
 20
315.3803002776833
 30
0.0
 11
179.6039753337871
 21
312.8803002776833
 31
0.0
  0
LINE
  5
1028
330
1F
100
AcDbEntity
  8
HIDDEN
  6
HIDDEN
100
AcDbLine
 10
175.660599660813
 20
309.8803002776834
 30
0.0
 11
175.660599660813
 21
315.8803002776833
 31
0.0
  0
LINE
  5
1029
330
1F
100
AcDbEntity
  8
HIDDEN
  6
HIDDEN
100
AcDbLine
 10
178.1605996608131
 20
310.3803002776834
 30
0.0
 11
178.1605996608131
 21
315.3803002776833
 31
0.0
  0
ARC
  5
102A
330
1F
100
AcDbEntity
  8
0
100
AcDbCircle
 10
157.6605996608131
 20
315.1303002776833
 30
0.0
 40
1.0
100
AcDbArc
 50
180.0
 51
270.0
  0
LINE
  5
102B
330
1F
100
AcDbEntity
  8
HIDDEN
  6
HIDDEN
100
AcDbLine
 10
166.6605996608131
 20
309.8803002776834
 30
0.0
 11
166.6605996608131
 21
315.8803002776833
 31
0.0
  0
LINE
  5
102C
330
1F
100
AcDbEntity
  8
0
100
AcDbLine
 10
160.6605996608131
 20
352.3803002776834
 30
0.0
 11
160.6605996608132
 21
305.8803002776832
 31
0.0
  0
LINE
  5
102D
330
1F
100
AcDbEntity
  8
0
100
AcDbLine
 10
186.6605996608133
 20
352.6303002776833
 30
0.0
 11
186.6605996608133
 21
305.6303002776832
 31
0.0
  0
LINE
  5
102E
330
1F
100
AcDbEntity
  8
0
100
AcDbLine
 10
160.6605996608131
 20
314.1303002776833
 30
0.0
 11
157.6605996608131
 21
314.1303002776833
 31
0.0
  0
LINE
  5
102F
330
1F
100
AcDbEntity
  8
0
100
AcDbLine
 10
160.6605996608131
 20
223.3503956936797
 30
0.0
 11
157.6605996608131
 21
223.3503956936797
 31
0.0
  0
LINE
  5
1030
330
1F
100
AcDbEntity
  8
CENTER
  6
CENTER
100
AcDbLine
 10
188.1605996608133
 20
224.6003956936796
 30
0.0
 11
159.1605996608132
 21
224.6003956936796
 31
0.0
  0
LINE
  5
1031
330
1F
100
AcDbEntity
  8
CENTER
  6
CENTER
100
AcDbLine
 10
188.1605996608133
 20
312.8803002776833
 30
0.0
 11
159.1605996608132
 21
312.8803002776833
 31
0.0
  0
LINE
  5
1032
330
1F
100
AcDbEntity
  8
0
100
AcDbLine
 10
160.6605996608131
 20
193.3503956936797
 30
0.0
 11
157.6605996608131
 21
193.3503956936797
 31
0.0
  0
LINE
  5
1033
330
1F
100
AcDbEntity
  8
DIM
100
AcDbLine
 10
163.532256028728
 20
201.0626665396383
 30
0.0
 11
150.1837641007405
 21
194.9253555205273
 31
0.0
  0
LINE
  5
1034
330
1F
100
AcDbEntity
  8
CENTER
  6
CENTER
100
AcDbLine
 10
188.1605996608131
 20
192.1003956936797
 30
0.0
 11
159.1605996608132
 21
192.1003956936797
 31
0.0
  0
CIRCLE
  5
1035
330
1F
100
AcDbEntity
  8
0
100
AcDbCircle
 10
88.83363001821004
 20
245.3503956936796
 30
0.0
 40
5.999999999999971
  0
CIRCLE
  5
1036
330
1F
100
AcDbEntity
  8
0
100
AcDbCircle
 10
88.83363001821004
 20
245.3503956936796
 30
0.0
 40
10.5
  0
CIRCLE
  5
1037
330
1F
100
AcDbEntity
  8
0
100
AcDbCircle
 10
88.83363001821004
 20
245.3503956936796
 30
0.0
 40
6.999999999999971
  0
ARC
  5
1038
330
1F
100
AcDbEntity
  8
0
100
AcDbCircle
 10
88.83363001821004
 20
245.3503956936796
 30
0.0
 40
20.99999999999997
100
AcDbArc
 50
319.99479911514
 51
220.0052008848599
  0
ARC
  5
1039
330
1F
100
AcDbEntity
  8
CENTER
  6
CENTER
100
AcDbCircle
 10
88.83363001821004
 20
245.3503956936796
 30
0.0
 40
15.99999999999997
100
AcDbArc
 50
302.4617449672431
 51
237.5382550327568
  0
LINE
  5
103A
330
1F
100
AcDbEntity
  8
CENTER
  6
CENTER
100
AcDbLine
 10
115.9071599872481
 20
212.8503956936797
 30
0.0
 11
105.2378706465976
 21
212.8503956936797
 31
0.0
  0
LINE
  5
103B
330
1F
100
AcDbEntity
  8
CENTER
  6
CENTER
100
AcDbLine
 10
115.9071599872481
 20
204.3503956936797
 30
0.0
 11
105.1459471343276
 21
204.3503956936797
 31
0.0
  0
LINE
  5
103C
330
1F
100
AcDbEntity
  8
0
100
AcDbLine
 10
68.58363001821015
 20
217.5647720539451
 30
0.0
 11
68.58363001821015
 21
210.1003956936796
 31
0.0
  0
ARC
  5
103D
330
1F
100
AcDbEntity
  8
0
100
AcDbCircle
 10
88.83363001821015
 20
208.3503956936797
 30
0.0
 40
15.5
100
AcDbArc
 50
146.4083189947703
 51
173.8176957636067
  0
ARC
  5
103E
330
1F
100
AcDbEntity
  8
0
100
AcDbCircle
 10
88.83363001821015
 20
208.3503956936797
 30
0.0
 40
15.5
100
AcDbArc
 50
6.182304236393237
 51
33.59168100522964
  0
LINE
  5
103F
330
1F
100
AcDbEntity
  8
0
100
AcDbLine
 10
109.0836300182101
 20
210.1003956936795
 30
0.0
 11
109.0836300182101
 21
217.5647720539451
 31
0.0
  0
LINE
  5
1040
330
1F
100
AcDbEntity
  8
0
100
AcDbLine
 10
112.3336300182102
 20
224.6003956936798
 30
0.0
 11
112.3336300182102
 21
192.1003956936797
 31
0.0
  0
LINE
  5
1041
330
1F
100
AcDbEntity
  8
0
100
AcDbLine
 10
112.0836300182102
 20
224.6003956936798
 30
0.0
 11
112.0836300182102
 21
192.1003956936797
 31
0.0
  0
CIRCLE
  5
1042
330
1F
100
AcDbEntity
  8
0
100
AcDbCircle
 10
88.83363001821015
 20
208.3503956936797
 30
0.0
 40
15.0
  0
ARC
  5
1043
330
1F
100
AcDbEntity
  8
0
100
AcDbCircle
 10
88.83363001821015
 20
208.3503956936797
 30
0.0
 40
15.5
100
AcDbArc
 50
276.1823042363932
 51
303.5916810052296
  0
LINE
  5
1044
330
1F
100
AcDbEntity
  8
0
100
AcDbLine
 10
98.04800637847558
 20
188.1003956936797
 30
0.0
 11
90.58363001821016
 21
188.1003956936797
 31
0.0
  0
LINE
  5
1045
330
1F
100
AcDbEntity
  8
0
100
AcDbLine
 10
72.58363001821016
 20
184.8503956936797
 30
0.0
 11
105.0836300182101
 21
184.8503956936797
 31
0.0
  0
LINE
  5
1046
330
1F
100
AcDbEntity
  8
0
100
AcDbLine
 10
72.58363001821016
 20
185.1003956936797
 30
0.0
 11
105.0836300182101
 21
185.1003956936797
 31
0.0
  0
LINE
  5
1047
330
1F
100
AcDbEntity
  8
0
100
AcDbLine
 10
68.58363001821015
 20
199.1360193334142
 30
0.0
 11
68.58363001821015
 21
206.6003956936797
 31
0.0
  0
ARC
  5
1048
330
1F
100
AcDbEntity
  8
0
100
AcDbCircle
 10
88.83363001821015
 20
208.3503956936797
 30
0.0
 40
15.5
100
AcDbArc
 50
186.1823042363932
 51
213.5916810052296
  0
ARC
  5
1049
330
1F
100
AcDbEntity
  8
0
100
AcDbCircle
 10
79.84298263220324
 20
194.8141200027635
 30
0.0
 40
0.75
100
AcDbArc
 50
56.4083189947681
 51
200.4969778954492
  0
ARC
  5
104A
330
1F
100
AcDbEntity
  8
0
100
AcDbCircle
 10
72.58363001821016
 20
192.1003956936797
 30
0.0
 40
7.0
100
AcDbArc
 50
335.2061375369468
 51
20.49697789544739
  0
ARC
  5
104B
330
1F
100
AcDbEntity
  8
0
100
AcDbCircle
 10
79.61925365794474
 20
188.8503956936796
 30
0.0
 40
0.75
100
AcDbArc
 50
155.2061375369244
 51
270.0
  0
CIRCLE
  5
104C
330
1F
100
AcDbEntity
  8
0
100
AcDbCircle
 10
72.58363001821016
 20
192.1003956936797
 30
0.0
 40
2.500000000000028
  0
ARC
  5
104D
330
1F
100
AcDbEntity
  8
0
 62
     2
100
AcDbCircle
 10
72.58363001821016
 20
192.1003956936797
 30
0.0
 40
3.000000000000028
100
AcDbArc
 50
164.5904697252819
 51
108.276295686476
  0
LINE
  5
104E
330
1F
100
AcDbEntity
  8
CENTER
  6
CENTER
100
AcDbLine
 10
72.58363001821016
 20
185.6003956936796
 30
0.0
 11
72.58363001821016
 21
198.6003956936798
 31
0.0
  0
POLYLINE
  5
104F
330
1F
100
AcDbEntity
  8
0
  6
CONTINUOUS
100
AcDb2dPolyline
 66
     1
 10
0.0
 20
0.0
 30
0.0
 70
     1
  0
VERTEX
  5
144C
330
104F
100
AcDbEntity
  8
0
  6
CONTINUOUS
100
AcDbVertex
100
AcDb2dVertex
 10
74.315680825779
 20
195.1003956936796
 30
0.0
  0
VERTEX
  5
144D
330
104F
100
AcDbEntity
  8
0
  6
CONTINUOUS
100
AcDbVertex
100
AcDb2dVertex
 10
76.04773163334783
 20
192.1003956936797
 30
0.0
  0
VERTEX
  5
144E
330
104F
100
AcDbEntity
  8
0
  6
CONTINUOUS
100
AcDbVertex
100
AcDb2dVertex
 10
74.315680825779
 20
189.1003956936797
 30
0.0
  0
VERTEX
  5
144F
330
104F
100
AcDbEntity
  8
0
  6
CONTINUOUS
100
AcDbVertex
100
AcDb2dVertex
 10
70.8515792106412
 20
189.1003956936797
 30
0.0
  0
VERTEX
  5
1450
330
104F
100
AcDbEntity
  8
0
  6
CONTINUOUS
100
AcDbVertex
100
AcDb2dVertex
 10
69.11952840307236
 20
192.1003956936797
 30
0.0
  0
VERTEX
  5
1451
330
104F
100
AcDbEntity
  8
0
  6
CONTINUOUS
100
AcDbVertex
100
AcDb2dVertex
 10
70.8515792106412
 20
195.1003956936796
 30
0.0
  0
SEQEND
  5
1452
330
104F
100
AcDbEntity
  8
0
  6
CONTINUOUS
  0
ARC
  5
1050
330
1F
100
AcDbEntity
  8
0
100
AcDbCircle
 10
72.58363001821016
 20
192.1003956936797
 30
0.0
 40
7.0
100
AcDbArc
 50
69.50302210455261
 51
114.7938624630584
  0
ARC
  5
1051
330
1F
100
AcDbEntity
  8
0
100
AcDbCircle
 10
69.33363001821016
 20
199.1360193334142
 30
0.0
 40
0.75
100
AcDbArc
 50
180.0
 51
294.793862463081
  0
ARC
  5
1052
330
1F
100
AcDbEntity
  8
0
100
AcDbCircle
 10
75.29735432729404
 20
199.3597483076728
 30
0.0
 40
0.75
100
AcDbArc
 50
249.5030221045499
 51
33.59168100523167
  0
LINE
  5
1053
330
1F
100
AcDbEntity
  8
0
100
AcDbLine
 10
89.83363001821016
 20
192.1949012722761
 30
0.0
 11
89.83363001821016
 21
188.8503956936796
 31
0.0
  0
LINE
  5
1054
330
1F
100
AcDbEntity
  8
0
100
AcDbLine
 10
87.83363001821015
 20
192.1949012722761
 30
0.0
 11
87.83363001821015
 21
188.8503956936796
 31
0.0
  0
LINE
  5
1055
330
1F
100
AcDbEntity
  8
0
100
AcDbLine
 10
82.33363001821016
 20
193.8073561214306
 30
0.0
 11
82.33363001821016
 21
188.8503956936796
 31
0.0
  0
LINE
  5
1056
330
1F
100
AcDbEntity
  8
0
100
AcDbLine
 10
79.61925365794474
 20
188.1003956936797
 30
0.0
 11
87.08363001821016
 21
188.1003956936797
 31
0.0
  0
ARC
  5
1057
330
1F
100
AcDbEntity
  8
0
100
AcDbCircle
 10
81.58363001821015
 20
188.8503956936796
 30
0.0
 40
0.75
100
AcDbArc
 50
270.0
 51
0.0
  0
ARC
  5
1058
330
1F
100
AcDbEntity
  8
0
100
AcDbCircle
 10
90.58363001821016
 20
188.8503956936796
 30
0.0
 40
0.75
100
AcDbArc
 50
180.0
 51
270.0
  0
ARC
  5
1059
330
1F
100
AcDbEntity
  8
0
100
AcDbCircle
 10
87.08363001821016
 20
188.8503956936796
 30
0.0
 40
0.75
100
AcDbArc
 50
270.0
 51
0.0
  0
ARC
  5
105A
330
1F
100
AcDbEntity
  8
0
100
AcDbCircle
 10
88.83363001821015
 20
208.3503956936797
 30
0.0
 40
15.5
100
AcDbArc
 50
236.4083189947703
 51
263.8176957636067
  0
ARC
  5
105B
330
1F
100
AcDbEntity
  8
0
100
AcDbCircle
 10
81.58363001821015
 20
193.8073561214306
 30
0.0
 40
0.75
100
AcDbArc
 50
0.0
 51
63.50281483231929
  0
ARC
  5
105C
330
1F
100
AcDbEntity
  8
0
100
AcDbCircle
 10
90.58363001821016
 20
192.1949012722761
 30
0.0
 40
0.75
100
AcDbArc
 50
96.18230423639486
 51
180.0
  0
ARC
  5
105D
330
1F
100
AcDbEntity
  8
0
100
AcDbCircle
 10
87.08363001821016
 20
192.1949012722761
 30
0.0
 40
0.75
100
AcDbArc
 50
0.0
 51
83.81769576360515
  0
ARC
  5
105E
330
1F
100
AcDbEntity
  8
0
100
AcDbCircle
 10
72.67813559680661
 20
206.6003956936797
 30
0.0
 40
0.75
100
AcDbArc
 50
6.182304236394901
 51
90.0
  0
LINE
  5
105F
330
1F
100
AcDbEntity
  8
0
100
AcDbLine
 10
74.29059044596107
 20
201.8503956936796
 30
0.0
 11
69.33363001821016
 21
201.8503956936796
 31
0.0
  0
ARC
  5
1060
330
1F
100
AcDbEntity
  8
0
100
AcDbCircle
 10
69.33363001821016
 20
206.6003956936797
 30
0.0
 40
0.75
100
AcDbArc
 50
90.0
 51
180.0
  0
LINE
  5
1061
330
1F
100
AcDbEntity
  8
0
100
AcDbLine
 10
72.67813559680661
 20
207.3503956936797
 30
0.0
 11
69.33363001821016
 21
207.3503956936797
 31
0.0
  0
ARC
  5
1062
330
1F
100
AcDbEntity
  8
0
100
AcDbCircle
 10
69.33363001821016
 20
201.1003956936797
 30
0.0
 40
0.75
100
AcDbArc
 50
90.0
 51
180.0
  0
ARC
  5
1063
330
1F
100
AcDbEntity
  8
0
100
AcDbCircle
 10
74.29059044596107
 20
201.1003956936797
 30
0.0
 40
0.75
100
AcDbArc
 50
26.49718516765704
 51
90.0
  0
LINE
  5
1064
330
1F
100
AcDbEntity
  8
0
100
AcDbLine
 10
74.29059044596107
 20
214.8503956936797
 30
0.0
 11
69.33363001821016
 21
214.8503956936797
 31
0.0
  0
ARC
  5
1065
330
1F
100
AcDbEntity
  8
0
100
AcDbCircle
 10
72.67813559680661
 20
210.1003956936796
 30
0.0
 40
0.75
100
AcDbArc
 50
270.0
 51
353.8176957636051
  0
ARC
  5
1066
330
1F
100
AcDbEntity
  8
0
100
AcDbCircle
 10
69.33363001821016
 20
215.6003956936797
 30
0.0
 40
0.75
100
AcDbArc
 50
180.0
 51
270.0
  0
ARC
  5
1067
330
1F
100
AcDbEntity
  8
0
100
AcDbCircle
 10
69.33363001821016
 20
210.1003956936796
 30
0.0
 40
0.75
100
AcDbArc
 50
180.0
 51
270.0
  0
LINE
  5
1068
330
1F
100
AcDbEntity
  8
0
100
AcDbLine
 10
72.67813559680661
 20
209.3503956936797
 30
0.0
 11
69.33363001821016
 21
209.3503956936797
 31
0.0
  0
ARC
  5
1069
330
1F
100
AcDbEntity
  8
0
100
AcDbCircle
 10
74.29059044596107
 20
215.6003956936797
 30
0.0
 40
0.75
100
AcDbArc
 50
270.0
 51
333.5028148323411
  0
ARC
  5
106A
330
1F
100
AcDbEntity
  8
0
100
AcDbCircle
 10
88.83363001821015
 20
208.3503956936797
 30
0.0
 40
15.5
100
AcDbArc
 50
326.4083189947703
 51
353.8176957636067
  0
LINE
  5
106B
330
1F
100
AcDbEntity
  8
0
100
AcDbLine
 10
109.0836300182102
 20
199.1360193334142
 30
0.0
 11
109.0836300182101
 21
206.6003956936798
 31
0.0
  0
ARC
  5
106C
330
1F
100
AcDbEntity
  8
0
100
AcDbCircle
 10
102.3699057091262
 20
199.3597483076728
 30
0.0
 40
0.75
100
AcDbArc
 50
146.4083189947683
 51
290.4969778954499
  0
ARC
  5
106D
330
1F
100
AcDbEntity
  8
0
 62
     2
100
AcDbCircle
 10
105.0836300182101
 20
192.1003956936797
 30
0.0
 40
3.000000000000028
100
AcDbArc
 50
164.5904697252819
 51
108.2762956864768
  0
POLYLINE
  5
106E
330
1F
100
AcDbEntity
  8
0
  6
CONTINUOUS
100
AcDb2dPolyline
 66
     1
 10
0.0
 20
0.0
 30
0.0
 70
     1
  0
VERTEX
  5
1453
330
106E
100
AcDbEntity
  8
0
  6
CONTINUOUS
100
AcDbVertex
100
AcDb2dVertex
 10
106.8156808257789
 20
195.1003956936796
 30
0.0
  0
VERTEX
  5
1454
330
106E
100
AcDbEntity
  8
0
  6
CONTINUOUS
100
AcDbVertex
100
AcDb2dVertex
 10
108.5477316333478
 20
192.1003956936797
 30
0.0
  0
VERTEX
  5
1455
330
106E
100
AcDbEntity
  8
0
  6
CONTINUOUS
100
AcDbVertex
100
AcDb2dVertex
 10
106.8156808257789
 20
189.1003956936797
 30
0.0
  0
VERTEX
  5
1456
330
106E
100
AcDbEntity
  8
0
  6
CONTINUOUS
100
AcDbVertex
100
AcDb2dVertex
 10
103.3515792106411
 20
189.1003956936797
 30
0.0
  0
VERTEX
  5
1457
330
106E
100
AcDbEntity
  8
0
  6
CONTINUOUS
100
AcDbVertex
100
AcDb2dVertex
 10
101.6195284030723
 20
192.1003956936797
 30
0.0
  0
VERTEX
  5
1458
330
106E
100
AcDbEntity
  8
0
  6
CONTINUOUS
100
AcDbVertex
100
AcDb2dVertex
 10
103.3515792106411
 20
195.1003956936796
 30
0.0
  0
SEQEND
  5
1459
330
106E
100
AcDbEntity
  8
0
  6
CONTINUOUS
  0
CIRCLE
  5
106F
330
1F
100
AcDbEntity
  8
0
100
AcDbCircle
 10
105.0836300182101
 20
192.1003956936797
 30
0.0
 40
5.500000000000056
  0
LINE
  5
1070
330
1F
100
AcDbEntity
  8
CENTER
  6
CENTER
100
AcDbLine
 10
98.58363001821016
 20
192.1003956936797
 30
0.0
 11
111.5836300182102
 21
192.1003956936797
 31
0.0
  0
ARC
  5
1071
330
1F
100
AcDbEntity
  8
0
100
AcDbCircle
 10
105.0836300182101
 20
192.1003956936797
 30
0.0
 40
7.0
100
AcDbArc
 50
159.5030221045526
 51
204.7938624630531
  0
LINE
  5
1072
330
1F
100
AcDbEntity
  8
0
100
AcDbLine
 10
95.33363001821015
 20
193.8073561214306
 30
0.0
 11
95.33363001821015
 21
188.8503956936796
 31
0.0
  0
ARC
  5
1073
330
1F
100
AcDbEntity
  8
0
100
AcDbCircle
 10
96.08363001821016
 20
188.8503956936796
 30
0.0
 40
0.75
100
AcDbArc
 50
180.0
 51
270.0
  0
ARC
  5
1074
330
1F
100
AcDbEntity
  8
0
100
AcDbCircle
 10
98.04800637847558
 20
188.8503956936796
 30
0.0
 40
0.75
100
AcDbArc
 50
270.0
 51
24.79386246307298
  0
ARC
  5
1075
330
1F
100
AcDbEntity
  8
0
100
AcDbCircle
 10
96.08363001821016
 20
193.8073561214306
 30
0.0
 40
0.75
100
AcDbArc
 50
116.4971851676807
 51
180.0
  0
ARC
  5
1076
330
1F
100
AcDbEntity
  8
0
100
AcDbCircle
 10
97.82427740421708
 20
194.8141200027635
 30
0.0
 40
0.75
100
AcDbArc
 50
339.50302210455
 51
123.5916810052319
  0
CIRCLE
  5
1077
330
1F
100
AcDbEntity
  8
0
100
AcDbCircle
 10
105.0836300182101
 20
192.1003956936797
 30
0.0
 40
2.500000000000028
  0
LINE
  5
1078
330
1F
100
AcDbEntity
  8
CENTER
  6
CENTER
100
AcDbLine
 10
105.0836300182101
 20
185.6003956936796
 30
0.0
 11
105.0836300182101
 21
198.6003956936798
 31
0.0
  0
ARC
  5
1079
330
1F
100
AcDbEntity
  8
0
100
AcDbCircle
 10
108.3336300182102
 20
199.1360193334142
 30
0.0
 40
0.75
100
AcDbArc
 50
245.2061375369217
 51
0.0
  0
ARC
  5
107A
330
1F
100
AcDbEntity
  8
0
100
AcDbCircle
 10
105.0836300182101
 20
192.1003956936797
 30
0.0
 40
7.0
100
AcDbArc
 50
65.20613753694158
 51
110.4969778954473
  0
LINE
  5
107B
330
1F
100
AcDbEntity
  8
0
100
AcDbLine
 10
112.3336300182102
 20
193.3503956936797
 30
0.0
 11
112.0836300182102
 21
193.3503956936797
 31
0.0
  0
LINE
  5
107C
330
1F
100
AcDbEntity
  8
0
100
AcDbLine
 10
104.9891244396138
 20
207.3503956936798
 30
0.0
 11
108.3336300182101
 21
207.3503956936798
 31
0.0
  0
LINE
  5
107D
330
1F
100
AcDbEntity
  8
0
100
AcDbLine
 10
104.5836300182102
 20
205.1003956936797
 30
0.0
 11
108.3336300182101
 21
205.1003956936797
 31
0.0
  0
ARC
  5
107E
330
1F
100
AcDbEntity
  8
0
100
AcDbCircle
 10
104.9891244396138
 20
206.6003956936798
 30
0.0
 40
0.75
100
AcDbArc
 50
90.0
 51
173.817695763605
  0
ARC
  5
107F
330
1F
100
AcDbEntity
  8
0
100
AcDbCircle
 10
104.5836300182102
 20
204.3503956936797
 30
0.0
 40
0.75
100
AcDbArc
 50
90.0
 51
165.7499673021955
  0
ARC
  5
1080
330
1F
100
AcDbEntity
  8
0
100
AcDbCircle
 10
108.3336300182101
 20
206.6003956936798
 30
0.0
 40
0.75
100
AcDbArc
 50
0.0
 51
90.0
  0
ARC
  5
1081
330
1F
100
AcDbEntity
  8
0
100
AcDbCircle
 10
108.3336300182101
 20
204.3503956936797
 30
0.0
 40
0.75
100
AcDbArc
 50
0.0
 51
90.0
  0
LINE
  5
1082
330
1F
100
AcDbEntity
  8
0
100
AcDbLine
 10
104.9891244396138
 20
209.3503956936795
 30
0.0
 11
108.3336300182101
 21
209.3503956936795
 31
0.0
  0
ARC
  5
1083
330
1F
100
AcDbEntity
  8
0
100
AcDbCircle
 10
104.9891244396138
 20
210.1003956936795
 30
0.0
 40
0.75
100
AcDbArc
 50
186.1823042363949
 51
270.0
  0
ARC
  5
1084
330
1F
100
AcDbEntity
  8
0
100
AcDbCircle
 10
108.3336300182101
 20
210.1003956936795
 30
0.0
 40
0.75
100
AcDbArc
 50
270.0
 51
0.0
  0
LINE
  5
1085
330
1F
100
AcDbEntity
  8
0
100
AcDbLine
 10
90.58363001821016
 20
228.6003956936797
 30
0.0
 11
98.04800637847558
 21
228.6003956936797
 31
0.0
  0
ARC
  5
1086
330
1F
100
AcDbEntity
  8
0
100
AcDbCircle
 10
88.83363001821015
 20
208.3503956936797
 30
0.0
 40
15.5
100
AcDbArc
 50
56.40831899477036
 51
83.81769576360676
  0
LINE
  5
1087
330
1F
100
AcDbEntity
  8
0
100
AcDbLine
 10
72.58363001821016
 20
231.8503956936797
 30
0.0
 11
105.0836300182101
 21
231.8503956936798
 31
0.0
  0
LINE
  5
1088
330
1F
100
AcDbEntity
  8
0
100
AcDbLine
 10
72.58363001821016
 20
231.6003956936797
 30
0.0
 11
105.0836300182101
 21
231.6003956936798
 31
0.0
  0
ARC
  5
1089
330
1F
100
AcDbEntity
  8
0
100
AcDbCircle
 10
79.61925365794474
 20
227.8503956936797
 30
0.0
 40
0.75
100
AcDbArc
 50
90.0
 51
204.7938624630782
  0
ARC
  5
108A
330
1F
100
AcDbEntity
  8
0
100
AcDbCircle
 10
72.58363001821016
 20
224.6003956936796
 30
0.0
 40
7.0
100
AcDbArc
 50
339.5030221045526
 51
24.79386246305313
  0
ARC
  5
108B
330
1F
100
AcDbEntity
  8
0
100
AcDbCircle
 10
79.84298263220324
 20
221.8866713845958
 30
0.0
 40
0.75
100
AcDbArc
 50
159.5030221045508
 51
303.5916810052317
  0
CIRCLE
  5
108C
330
1F
100
AcDbEntity
  8
0
100
AcDbCircle
 10
72.58363001821016
 20
224.6003956936796
 30
0.0
 40
2.500000000000028
  0
ARC
  5
108D
330
1F
100
AcDbEntity
  8
0
 62
     2
100
AcDbCircle
 10
72.58363001821016
 20
224.6003956936796
 30
0.0
 40
3.000000000000028
100
AcDbArc
 50
164.5904697252819
 51
108.276295686476
  0
LINE
  5
108E
330
1F
100
AcDbEntity
  8
CENTER
  6
CENTER
100
AcDbLine
 10
72.58363001821016
 20
218.1003956936796
 30
0.0
 11
72.58363001821016
 21
231.1003956936797
 31
0.0
  0
POLYLINE
  5
108F
330
1F
100
AcDbEntity
  8
0
  6
CONTINUOUS
100
AcDb2dPolyline
 66
     1
 10
0.0
 20
0.0
 30
0.0
 70
     1
  0
VERTEX
  5
145A
330
108F
100
AcDbEntity
  8
0
  6
CONTINUOUS
100
AcDbVertex
100
AcDb2dVertex
 10
74.315680825779
 20
227.6003956936797
 30
0.0
  0
VERTEX
  5
145B
330
108F
100
AcDbEntity
  8
0
  6
CONTINUOUS
100
AcDbVertex
100
AcDb2dVertex
 10
76.04773163334783
 20
224.6003956936796
 30
0.0
  0
VERTEX
  5
145C
330
108F
100
AcDbEntity
  8
0
  6
CONTINUOUS
100
AcDbVertex
100
AcDb2dVertex
 10
74.315680825779
 20
221.6003956936797
 30
0.0
  0
VERTEX
  5
145D
330
108F
100
AcDbEntity
  8
0
  6
CONTINUOUS
100
AcDbVertex
100
AcDb2dVertex
 10
70.8515792106412
 20
221.6003956936797
 30
0.0
  0
VERTEX
  5
145E
330
108F
100
AcDbEntity
  8
0
  6
CONTINUOUS
100
AcDbVertex
100
AcDb2dVertex
 10
69.11952840307236
 20
224.6003956936796
 30
0.0
  0
VERTEX
  5
145F
330
108F
100
AcDbEntity
  8
0
  6
CONTINUOUS
100
AcDbVertex
100
AcDb2dVertex
 10
70.8515792106412
 20
227.6003956936797
 30
0.0
  0
SEQEND
  5
1460
330
108F
100
AcDbEntity
  8
0
  6
CONTINUOUS
  0
ARC
  5
1090
330
1F
100
AcDbEntity
  8
0
100
AcDbCircle
 10
72.58363001821016
 20
224.6003956936796
 30
0.0
 40
7.0
100
AcDbArc
 50
245.2061375369413
 51
290.4969778954474
  0
ARC
  5
1091
330
1F
100
AcDbEntity
  8
0
100
AcDbCircle
 10
69.33363001821016
 20
217.5647720539451
 30
0.0
 40
0.75
100
AcDbArc
 50
65.206137536919
 51
180.0
  0
ARC
  5
1092
330
1F
100
AcDbEntity
  8
0
100
AcDbCircle
 10
75.29735432729404
 20
217.3410430796866
 30
0.0
 40
0.75
100
AcDbArc
 50
326.4083189947683
 51
110.4969778954491
  0
LINE
  5
1093
330
1F
100
AcDbEntity
  8
0
100
AcDbLine
 10
87.83363001821015
 20
224.5058901150833
 30
0.0
 11
87.83363001821015
 21
227.8503956936797
 31
0.0
  0
LINE
  5
1094
330
1F
100
AcDbEntity
  8
0
100
AcDbLine
 10
89.83363001821016
 20
224.5058901150833
 30
0.0
 11
89.83363001821016
 21
227.8503956936797
 31
0.0
  0
LINE
  5
1095
330
1F
100
AcDbEntity
  8
0
100
AcDbLine
 10
82.33363001821016
 20
222.8934352659287
 30
0.0
 11
82.33363001821016
 21
227.8503956936797
 31
0.0
  0
ARC
  5
1096
330
1F
100
AcDbEntity
  8
0
100
AcDbCircle
 10
88.83363001821015
 20
208.3503956936797
 30
0.0
 40
15.5
100
AcDbArc
 50
96.18230423639325
 51
123.5916810052296
  0
ARC
  5
1097
330
1F
100
AcDbEntity
  8
0
100
AcDbCircle
 10
81.58363001821015
 20
222.8934352659287
 30
0.0
 40
0.75
100
AcDbArc
 50
296.4971851676807
 51
0.0
  0
ARC
  5
1098
330
1F
100
AcDbEntity
  8
0
100
AcDbCircle
 10
90.58363001821016
 20
224.5058901150833
 30
0.0
 40
0.75
100
AcDbArc
 50
180.0
 51
263.8176957636051
  0
ARC
  5
1099
330
1F
100
AcDbEntity
  8
0
100
AcDbCircle
 10
87.08363001821016
 20
224.5058901150833
 30
0.0
 40
0.75
100
AcDbArc
 50
276.1823042363948
 51
0.0
  0
LINE
  5
109A
330
1F
100
AcDbEntity
  8
0
100
AcDbLine
 10
79.61925365794474
 20
228.6003956936797
 30
0.0
 11
87.08363001821016
 21
228.6003956936797
 31
0.0
  0
ARC
  5
109B
330
1F
100
AcDbEntity
  8
0
100
AcDbCircle
 10
81.58363001821015
 20
227.8503956936797
 30
0.0
 40
0.75
100
AcDbArc
 50
0.0
 51
90.0
  0
ARC
  5
109C
330
1F
100
AcDbEntity
  8
0
100
AcDbCircle
 10
90.58363001821016
 20
227.8503956936797
 30
0.0
 40
0.75
100
AcDbArc
 50
90.0
 51
180.0
  0
ARC
  5
109D
330
1F
100
AcDbEntity
  8
0
100
AcDbCircle
 10
87.08363001821016
 20
227.8503956936797
 30
0.0
 40
0.75
100
AcDbArc
 50
0.0
 51
90.0
  0
INSERT
  5
109E
330
1F
100
AcDbEntity
  8
0
  6
CONTINUOUS
100
AcDbBlockReference
  2
SB_T-M4
 10
72.83363001821007
 20
245.3503956936796
 30
0.0
  0
ARC
  5
109F
330
1F
100
AcDbEntity
  8
0
100
AcDbCircle
 10
105.0836300182101
 20
224.6003956936798
 30
0.0
 40
7.0
100
AcDbArc
 50
0.0
 51
90.0
  0
ARC
  5
10A0
330
1F
100
AcDbEntity
  8
0
100
AcDbCircle
 10
105.0836300182101
 20
224.6003956936798
 30
0.0
 40
7.25
100
AcDbArc
 50
0.0
 51
90.0
  0
ARC
  5
10A1
330
1F
100
AcDbEntity
  8
0
100
AcDbCircle
 10
102.3699057091262
 20
217.3410430796866
 30
0.0
 40
0.75
100
AcDbArc
 50
69.50302210455081
 51
213.5916810052317
  0
ARC
  5
10A2
330
1F
100
AcDbEntity
  8
0
 62
     2
100
AcDbCircle
 10
105.0836300182101
 20
224.6003956936796
 30
0.0
 40
3.000000000000028
100
AcDbArc
 50
164.5904697252819
 51
108.2762956864768
  0
POLYLINE
  5
10A3
330
1F
100
AcDbEntity
  8
0
  6
CONTINUOUS
100
AcDb2dPolyline
 66
     1
 10
0.0
 20
0.0
 30
0.0
 70
     1
  0
VERTEX
  5
1461
330
10A3
100
AcDbEntity
  8
0
  6
CONTINUOUS
100
AcDbVertex
100
AcDb2dVertex
 10
106.8156808257789
 20
227.6003956936797
 30
0.0
  0
VERTEX
  5
1462
330
10A3
100
AcDbEntity
  8
0
  6
CONTINUOUS
100
AcDbVertex
100
AcDb2dVertex
 10
108.5477316333478
 20
224.6003956936796
 30
0.0
  0
VERTEX
  5
1463
330
10A3
100
AcDbEntity
  8
0
  6
CONTINUOUS
100
AcDbVertex
100
AcDb2dVertex
 10
106.8156808257789
 20
221.6003956936797
 30
0.0
  0
VERTEX
  5
1464
330
10A3
100
AcDbEntity
  8
0
  6
CONTINUOUS
100
AcDbVertex
100
AcDb2dVertex
 10
103.3515792106411
 20
221.6003956936797
 30
0.0
  0
VERTEX
  5
1465
330
10A3
100
AcDbEntity
  8
0
  6
CONTINUOUS
100
AcDbVertex
100
AcDb2dVertex
 10
101.6195284030723
 20
224.6003956936796
 30
0.0
  0
VERTEX
  5
1466
330
10A3
100
AcDbEntity
  8
0
  6
CONTINUOUS
100
AcDbVertex
100
AcDb2dVertex
 10
103.3515792106411
 20
227.6003956936797
 30
0.0
  0
SEQEND
  5
1467
330
10A3
100
AcDbEntity
  8
0
  6
CONTINUOUS
  0
CIRCLE
  5
10A4
330
1F
100
AcDbEntity
  8
0
100
AcDbCircle
 10
105.0836300182101
 20
224.6003956936796
 30
0.0
 40
5.500000000000056
  0
LINE
  5
10A5
330
1F
100
AcDbEntity
  8
CENTER
  6
CENTER
100
AcDbLine
 10
98.58363001821016
 20
224.6003956936796
 30
0.0
 11
111.5836300182102
 21
224.6003956936796
 31
0.0
  0
ARC
  5
10A6
330
1F
100
AcDbEntity
  8
0
100
AcDbCircle
 10
105.0836300182101
 20
224.6003956936796
 30
0.0
 40
7.0
100
AcDbArc
 50
155.2061375369468
 51
200.4969778954474
  0
LINE
  5
10A7
330
1F
100
AcDbEntity
  8
0
100
AcDbLine
 10
95.33363001821015
 20
222.8934352659287
 30
0.0
 11
95.33363001821015
 21
227.8503956936797
 31
0.0
  0
ARC
  5
10A8
330
1F
100
AcDbEntity
  8
0
100
AcDbCircle
 10
96.08363001821016
 20
222.8934352659287
 30
0.0
 40
0.75
100
AcDbArc
 50
180.0
 51
243.5028148323193
  0
ARC
  5
10A9
330
1F
100
AcDbEntity
  8
0
100
AcDbCircle
 10
97.82427740421708
 20
221.8866713845958
 30
0.0
 40
0.75
100
AcDbArc
 50
236.4083189947683
 51
20.49697789544921
  0
ARC
  5
10AA
330
1F
100
AcDbEntity
  8
0
100
AcDbCircle
 10
96.08363001821016
 20
227.8503956936797
 30
0.0
 40
0.75
100
AcDbArc
 50
90.0
 51
180.0
  0
ARC
  5
10AB
330
1F
100
AcDbEntity
  8
0
100
AcDbCircle
 10
98.04800637847558
 20
227.8503956936797
 30
0.0
 40
0.75
100
AcDbArc
 50
335.2061375369244
 51
90.0
  0
CIRCLE
  5
10AC
330
1F
100
AcDbEntity
  8
0
100
AcDbCircle
 10
105.0836300182101
 20
224.6003956936796
 30
0.0
 40
2.500000000000028
  0
LINE
  5
10AD
330
1F
100
AcDbEntity
  8
CENTER
  6
CENTER
100
AcDbLine
 10
105.0836300182101
 20
218.1003956936796
 30
0.0
 11
105.0836300182101
 21
231.1003956936797
 31
0.0
  0
ARC
  5
10AE
330
1F
100
AcDbEntity
  8
0
100
AcDbCircle
 10
108.3336300182102
 20
217.5647720539451
 30
0.0
 40
0.75
100
AcDbArc
 50
0.0
 51
114.793862463078
  0
ARC
  5
10AF
330
1F
100
AcDbEntity
  8
0
100
AcDbCircle
 10
105.0836300182101
 20
224.6003956936796
 30
0.0
 40
7.0
100
AcDbArc
 50
249.5030221045526
 51
294.7938624630586
  0
LINE
  5
10B0
330
1F
100
AcDbEntity
  8
0
100
AcDbLine
 10
112.3336300182102
 20
223.3503956936797
 30
0.0
 11
112.0836300182102
 21
223.3503956936797
 31
0.0
  0
INSERT
  5
10B1
330
1F
100
AcDbEntity
  8
0
  6
CONTINUOUS
100
AcDbBlockReference
  2
SB_T-M4
 10
104.83363001821
 20
245.3503956936796
 30
0.0
  0
LINE
  5
10B2
330
1F
100
AcDbEntity
  8
0
100
AcDbLine
 10
156.6605996608131
 20
194.3503956936797
 30
0.0
 11
156.6605996608131
 21
222.3503956936796
 31
0.0
  0
LINE
  5
10B3
330
1F
100
AcDbEntity
  8
DIM
100
AcDbLine
 10
150.1837641007405
 20
194.9253555205273
 30
0.0
 11
132.0568652546836
 21
194.9253555205273
 31
0.0
  0
TEXT
  5
10B4
330
1F
100
AcDbEntity
  8
DIM
100
AcDbText
 10
130.4318652546835
 20
196.4253555205273
 30
0.0
 40
3.0
  1
2-G1/8
  7
ROMANSS
 72
     2
 11
147.4318652546836
 21
197.9253555205273
 31
0.0
100
AcDbText
 73
     2
  0
ARC
  5
10B5
330
1F
100
AcDbEntity
  8
0
100
AcDbCircle
 10
157.6605996608131
 20
194.3503956936797
 30
0.0
 40
1.0
100
AcDbArc
 50
180.0
 51
270.0
  0
ARC
  5
10B6
330
1F
100
AcDbEntity
  8
0
100
AcDbCircle
 10
157.6605996608131
 20
222.3503956936796
 30
0.0
 40
1.0
100
AcDbArc
 50
90.0
 51
180.0
  0
INSERT
  5
10B7
330
1F
100
AcDbEntity
  8
0
  6
CONTINUOUS
100
AcDbBlockReference
  2
SB_T-M4
 10
88.83363001821008
 20
261.3503956936796
 30
0.0
  0
LINE
  5
10B8
330
1F
100
AcDbEntity
  8
CENTER
  6
CENTER
100
AcDbLine
 10
72.58363001821016
 20
259.7230082080139
 30
0.0
 11
72.58363001821016
 21
272.723008208014
 31
0.0
  0
CIRCLE
  5
10B9
330
1F
100
AcDbEntity
  8
0
  6
CONTINUOUS
100
AcDbCircle
 10
72.58363001820993
 20
266.3503956936797
 30
0.0
 40
3.299999999999999
  0
CIRCLE
  5
10BA
330
1F
100
AcDbEntity
  8
0
  6
CONTINUOUS
100
AcDbCircle
 10
105.0836300182099
 20
266.3503956936796
 30
0.0
 40
3.299999999999999
  0
LINE
  5
10BB
330
1F
100
AcDbEntity
  8
CENTER
  6
CENTER
100
AcDbLine
 10
105.0836300182101
 20
259.7230082080139
 30
0.0
 11
105.0836300182101
 21
272.723008208014
 31
0.0
  0
LINE
  5
10BC
330
1F
100
AcDbEntity
  8
CENTER
  6
CENTER
100
AcDbLine
 10
98.78363001820998
 20
266.3503956936797
 30
0.0
 11
111.38363001821
 21
266.3503956936796
 31
0.0
  0
LINE
  5
10BD
330
1F
100
AcDbEntity
  8
0
  6
CONTINUOUS
100
AcDbLine
 10
113.83363001821
 20
271.3503956936798
 30
0.0
 11
111.83363001821
 21
273.3503956936798
 31
0.0
  0
LINE
  5
10BE
330
1F
100
AcDbEntity
  8
0
100
AcDbLine
 10
229.1605996608131
 20
234.8503956936796
 30
0.0
 11
229.160599660813
 21
255.8503956936797
 31
0.0
  0
LINE
  5
10BF
330
1F
100
AcDbEntity
  8
0
100
AcDbLine
 10
189.1605996608132
 20
250.3503956936797
 30
0.0
 11
189.1605996608132
 21
240.3503956936796
 31
0.0
  0
LINE
  5
10C0
330
1F
100
AcDbEntity
  8
0
100
AcDbLine
 10
190.1605996608132
 20
251.3503956936797
 30
0.0
 11
190.1605996608132
 21
239.3503956936796
 31
0.0
  0
LINE
  5
10C1
330
1F
100
AcDbEntity
  8
0
100
AcDbLine
 10
190.1605996608132
 20
239.3503956936796
 30
0.0
 11
229.160599660813
 21
239.3503956936797
 31
0.0
  0
LINE
  5
10C3
330
1F
100
AcDbEntity
  8
0
  6
CONTINUOUS
100
AcDbLine
 10
228.6605996608131
 20
229.8003956936797
 30
0.0
 11
186.6605996608132
 21
229.8003956936797
 31
0.0
  0
LINE
  5
10C5
330
1F
100
AcDbEntity
  8
0
  6
CONTINUOUS
100
AcDbLine
 10
228.6605996608131
 20
186.9003956936797
 30
0.0
 11
186.6605996608132
 21
186.9003956936797
 31
0.0
  0
LINE
  5
10C6
330
1F
100
AcDbEntity
  8
0
  6
CONTINUOUS
100
AcDbLine
 10
181.1605996608133
 20
217.8253328792128
 30
0.0
 11
181.1605996608133
 21
216.3144973088174
 31
0.0
  0
LINE
  5
10C7
330
1F
100
AcDbEntity
  8
0
  6
CONTINUOUS
100
AcDbLine
 10
180.1605996608133
 20
217.8253328792128
 30
0.0
 11
180.1605996608133
 21
216.3144973088174
 31
0.0
  0
ARC
  5
10C8
330
1F
100
AcDbEntity
  8
0
  6
CONTINUOUS
100
AcDbCircle
 10
180.6605996608133
 20
212.8503956936797
 30
0.0
 40
3.5
100
AcDbArc
 50
38.21321070173869
 51
81.7867892982621
  0
ARC
  5
10C9
330
1F
100
AcDbEntity
  8
0
  6
CONTINUOUS
100
AcDbCircle
 10
180.6605996608133
 20
212.8503956936797
 30
0.0
 40
3.5
100
AcDbArc
 50
98.21321070173873
 51
141.7867892982624
  0
LINE
  5
10CA
330
1F
100
AcDbEntity
  8
0
100
AcDbLine
 10
160.6605996608131
 20
185.1003956936796
 30
0.0
 11
160.6605996608132
 21
231.6003956936797
 31
0.0
  0
LINE
  5
10CB
330
1F
100
AcDbEntity
  8
CENTER
  6
CENTER
100
AcDbLine
 10
180.6605996608133
 20
219.7143659279458
 30
0.0
 11
180.6605996608133
 21
205.9864254594135
 31
0.0
  0
LINE
  5
10CC
330
1F
100
AcDbEntity
  8
0
100
AcDbLine
 10
186.6605996608133
 20
184.8503956936797
 30
0.0
 11
186.6605996608133
 21
231.8503956936797
 31
0.0
  0
CIRCLE
  5
10CD
330
1F
100
AcDbEntity
  8
0
100
AcDbCircle
 10
180.6605996608133
 20
212.8503956936797
 30
0.0
 40
5.0
  0
CIRCLE
  5
10CE
330
1F
100
AcDbEntity
  8
0
100
AcDbCircle
 10
180.6605996608133
 20
212.8503956936797
 30
0.0
 40
5.299999999999999
  0
LINE
  5
10CF
330
1F
100
AcDbEntity
  8
0
  6
CONTINUOUS
100
AcDbLine
 10
183.4105996608133
 20
215.0154592031408
 30
0.0
 11
184.7190216457169
 21
215.7708769883384
 31
0.0
  0
LINE
  5
10D0
330
1F
100
AcDbEntity
  8
0
  6
CONTINUOUS
100
AcDbLine
 10
184.7190216457169
 20
209.9299143990209
 30
0.0
 11
183.4105996608133
 21
210.6853321842186
 31
0.0
  0
LINE
  5
10D1
330
1F
100
AcDbEntity
  8
CENTER
  6
CENTER
100
AcDbLine
 10
187.5245698950794
 20
212.8503956936797
 30
0.0
 11
173.796629426547
 21
212.8503956936797
 31
0.0
  0
LINE
  5
10D2
330
1F
100
AcDbEntity
  8
0
100
AcDbLine
 10
186.6605996608133
 20
184.8503956936797
 30
0.0
 11
160.6605996608132
 21
185.1003956936797
 31
0.0
  0
LINE
  5
10D3
330
1F
100
AcDbEntity
  8
CENTER
  6
CENTER
100
AcDbLine
 10
170.6605996608132
 20
213.3503956936797
 30
0.0
 11
170.6605996608132
 21
195.3503956936797
 31
0.0
  0
ARC
  5
10D4
330
1F
100
AcDbEntity
  8
0
 62
     2
100
AcDbCircle
 10
170.6605996608132
 20
204.3503956936797
 30
0.0
 40
4.849999999999999
100
AcDbArc
 50
73.3334385326248
 51
23.84896523350455
  0
CIRCLE
  5
10D5
330
1F
100
AcDbEntity
  8
0
100
AcDbCircle
 10
170.6605996608132
 20
204.3503956936797
 30
0.0
 40
7.5
  0
LINE
  5
10D6
330
1F
100
AcDbEntity
  8
HIDDEN
  6
HIDDEN
100
AcDbLine
 10
175.6605996608131
 20
189.1003956936796
 30
0.0
 11
160.6605996608132
 21
189.1003956936796
 31
0.0
  0
LINE
  5
10D7
330
1F
100
AcDbEntity
  8
HIDDEN
  6
HIDDEN
100
AcDbLine
 10
175.6605996608131
 20
195.1003956936796
 30
0.0
 11
160.6605996608131
 21
195.1003956936796
 31
0.0
  0
LINE
  5
10D8
330
1F
100
AcDbEntity
  8
HIDDEN
  6
HIDDEN
100
AcDbLine
 10
178.1605996608131
 20
189.6003956936796
 30
0.0
 11
166.6605996608131
 21
189.6003956936796
 31
0.0
  0
LINE
  5
10D9
330
1F
100
AcDbEntity
  8
HIDDEN
  6
HIDDEN
100
AcDbLine
 10
178.1605996608131
 20
194.6003956936796
 30
0.0
 11
166.6605996608131
 21
194.6003956936797
 31
0.0
  0
LINE
  5
10DA
330
1F
100
AcDbEntity
  8
HIDDEN
  6
HIDDEN
100
AcDbLine
 10
166.6605996608131
 20
195.1003956936796
 30
0.0
 11
166.6605996608131
 21
189.1003956936797
 31
0.0
  0
LINE
  5
10DB
330
1F
100
AcDbEntity
  8
HIDDEN
  6
HIDDEN
100
AcDbLine
 10
178.1605996608131
 20
189.6003956936797
 30
0.0
 11
179.6039753337871
 21
192.1003956936797
 31
0.0
  0
LINE
  5
10DC
330
1F
100
AcDbEntity
  8
HIDDEN
  6
HIDDEN
100
AcDbLine
 10
175.6605996608131
 20
195.1003956936796
 30
0.0
 11
175.6605996608131
 21
189.1003956936797
 31
0.0
  0
LINE
  5
10DD
330
1F
100
AcDbEntity
  8
HIDDEN
  6
HIDDEN
100
AcDbLine
 10
178.1605996608131
 20
194.6003956936796
 30
0.0
 11
178.1605996608132
 21
189.6003956936797
 31
0.0
  0
LINE
  5
10DE
330
1F
100
AcDbEntity
  8
HIDDEN
  6
HIDDEN
100
AcDbLine
 10
178.1605996608131
 20
194.6003956936796
 30
0.0
 11
179.6039753337871
 21
192.1003956936797
 31
0.0
  0
LINE
  5
10DF
330
1F
100
AcDbEntity
  8
CENTER
  6
CENTER
100
AcDbLine
 10
179.6605996608133
 20
204.3503956936797
 30
0.0
 11
161.6605996608132
 21
204.3503956936797
 31
0.0
  0
CIRCLE
  5
10E0
330
1F
100
AcDbEntity
  8
0
100
AcDbCircle
 10
170.6605996608132
 20
204.3503956936797
 30
0.0
 40
4.25
  0
CIRCLE
  5
10E1
330
1F
100
AcDbEntity
  8
0
100
AcDbCircle
 10
170.6605996608132
 20
204.3503956936797
 30
0.0
 40
3.5
  0
SOLID
  5
10E2
330
1F
100
AcDbEntity
  8
DIM
100
AcDbTrace
 10
163.3233873621984
 20
201.5169504598271
 30
0.0
 11
163.7411246952576
 21
200.6083826194494
 31
0.0
 12
166.2579595498611
 22
202.3158785388159
 32
0.0
 13
166.2579595498611
 23
202.3158785388159
 33
0.0
  0
LINE
  5
10E3
330
1F
100
AcDbEntity
  8
0
  6
CONTINUOUS
100
AcDbLine
 10
181.1605996608133
 20
209.3862940785419
 30
0.0
 11
181.1605996608133
 21
207.8754585081466
 31
0.0
  0
LINE
  5
10E4
330
1F
100
AcDbEntity
  8
0
  6
CONTINUOUS
100
AcDbLine
 10
180.1605996608133
 20
209.3862940785419
 30
0.0
 11
180.1605996608133
 21
207.8754585081466
 31
0.0
  0
LINE
  5
10E5
330
1F
100
AcDbEntity
  8
0
  6
CONTINUOUS
100
AcDbLine
 10
177.9105996608133
 20
215.0154592031408
 30
0.0
 11
176.6021776759097
 21
215.7708769883384
 31
0.0
  0
LINE
  5
10E6
330
1F
100
AcDbEntity
  8
0
  6
CONTINUOUS
100
AcDbLine
 10
176.6021776759097
 20
209.9299143990209
 30
0.0
 11
177.9105996608133
 21
210.6853321842186
 31
0.0
  0
LINE
  5
10E7
330
1F
100
AcDbEntity
  8
0
  6
CONTINUOUS
100
AcDbLine
 10
177.4105996608133
 20
214.1494337993564
 30
0.0
 11
176.1021776759098
 21
214.904851584554
 31
0.0
  0
LINE
  5
10E8
330
1F
100
AcDbEntity
  8
0
  6
CONTINUOUS
100
AcDbLine
 10
176.1021776759098
 20
210.7959398028053
 30
0.0
 11
177.4105996608133
 21
211.551357588003
 31
0.0
  0
ARC
  5
10E9
330
1F
100
AcDbEntity
  8
0
  6
CONTINUOUS
100
AcDbCircle
 10
180.6605996608133
 20
212.8503956936797
 30
0.0
 40
3.5
100
AcDbArc
 50
158.2132107017373
 51
201.7867892982617
  0
ARC
  5
10EA
330
1F
100
AcDbEntity
  8
0
  6
CONTINUOUS
100
AcDbCircle
 10
180.6605996608133
 20
212.8503956936797
 30
0.0
 40
3.5
100
AcDbArc
 50
278.2132107017379
 51
321.7867892982624
  0
ARC
  5
10EB
330
1F
100
AcDbEntity
  8
0
  6
CONTINUOUS
100
AcDbCircle
 10
180.6605996608133
 20
212.8503956936797
 30
0.0
 40
3.5
100
AcDbArc
 50
218.2132107017375
 51
261.786789298262
  0
CIRCLE
  5
10EC
330
1F
100
AcDbEntity
  8
0
  6
CONTINUOUS
100
AcDbCircle
 10
180.6605996608133
 20
212.8503956936797
 30
0.0
 40
2.5
  0
POLYLINE
  5
10ED
330
1F
100
AcDbEntity
  8
0
  6
CONTINUOUS
100
AcDb2dPolyline
 66
     1
 10
0.0
 20
0.0
 30
0.0
 70
     1
  0
VERTEX
  5
1468
330
10ED
100
AcDbEntity
  8
0
  6
CONTINUOUS
100
AcDbVertex
100
AcDb2dVertex
 10
179.7945742570288
 20
214.3503956936796
 30
0.0
  0
VERTEX
  5
1469
330
10ED
100
AcDbEntity
  8
0
  6
CONTINUOUS
100
AcDbVertex
100
AcDb2dVertex
 10
178.9285488532444
 20
212.8503956936797
 30
0.0
  0
VERTEX
  5
146A
330
10ED
100
AcDbEntity
  8
0
  6
CONTINUOUS
100
AcDbVertex
100
AcDb2dVertex
 10
179.7945742570288
 20
211.3503956936797
 30
0.0
  0
VERTEX
  5
146B
330
10ED
100
AcDbEntity
  8
0
  6
CONTINUOUS
100
AcDbVertex
100
AcDb2dVertex
 10
181.5266250645977
 20
211.3503956936797
 30
0.0
  0
VERTEX
  5
146C
330
10ED
100
AcDbEntity
  8
0
  6
CONTINUOUS
100
AcDbVertex
100
AcDb2dVertex
 10
182.3926504683821
 20
212.8503956936797
 30
0.0
  0
VERTEX
  5
146D
330
10ED
100
AcDbEntity
  8
0
  6
CONTINUOUS
100
AcDbVertex
100
AcDb2dVertex
 10
181.5266250645977
 20
214.3503956936796
 30
0.0
  0
SEQEND
  5
146E
330
10ED
100
AcDbEntity
  8
0
  6
CONTINUOUS
  0
LINE
  5
10EE
330
1F
100
AcDbEntity
  8
0
  6
CONTINUOUS
100
AcDbLine
 10
183.9105996608133
 20
214.1494337993564
 30
0.0
 11
185.2190216457169
 21
214.904851584554
 31
0.0
  0
LINE
  5
10EF
330
1F
100
AcDbEntity
  8
0
  6
CONTINUOUS
100
AcDbLine
 10
185.2190216457169
 20
210.7959398028053
 30
0.0
 11
183.9105996608133
 21
211.551357588003
 31
0.0
  0
ARC
  5
10F0
330
1F
100
AcDbEntity
  8
0
  6
CONTINUOUS
100
AcDbCircle
 10
180.6605996608133
 20
212.8503956936797
 30
0.0
 40
3.5
100
AcDbArc
 50
338.2132107017382
 51
21.78678929826177
  0
LINE
  5
10F1
330
1F
100
AcDbEntity
  8
0
100
AcDbLine
 10
186.6605996608133
 20
231.8503956936797
 30
0.0
 11
160.6605996608132
 21
231.6003956936797
 31
0.0
  0
LINE
  5
10F2
330
1F
100
AcDbEntity
  8
HIDDEN
  6
HIDDEN
100
AcDbLine
 10
175.660599660813
 20
227.6003956936796
 30
0.0
 11
160.6605996608131
 21
227.6003956936796
 31
0.0
  0
LINE
  5
10F3
330
1F
100
AcDbEntity
  8
HIDDEN
  6
HIDDEN
100
AcDbLine
 10
175.6605996608131
 20
221.6003956936796
 30
0.0
 11
160.6605996608131
 21
221.6003956936796
 31
0.0
  0
LINE
  5
10F4
330
1F
100
AcDbEntity
  8
HIDDEN
  6
HIDDEN
100
AcDbLine
 10
178.1605996608131
 20
222.1003956936796
 30
0.0
 11
166.6605996608131
 21
222.1003956936796
 31
0.0
  0
LINE
  5
10F5
330
1F
100
AcDbEntity
  8
HIDDEN
  6
HIDDEN
100
AcDbLine
 10
178.1605996608131
 20
227.1003956936796
 30
0.0
 11
166.6605996608131
 21
227.1003956936796
 31
0.0
  0
LINE
  5
10F6
330
1F
100
AcDbEntity
  8
HIDDEN
  6
HIDDEN
100
AcDbLine
 10
166.6605996608131
 20
227.6003956936796
 30
0.0
 11
166.6605996608131
 21
221.6003956936796
 31
0.0
  0
LINE
  5
10F7
330
1F
100
AcDbEntity
  8
HIDDEN
  6
HIDDEN
100
AcDbLine
 10
178.1605996608131
 20
227.1003956936796
 30
0.0
 11
179.6039753337871
 21
224.6003956936796
 31
0.0
  0
LINE
  5
10F8
330
1F
100
AcDbEntity
  8
HIDDEN
  6
HIDDEN
100
AcDbLine
 10
178.1605996608131
 20
227.1003956936796
 30
0.0
 11
178.1605996608131
 21
222.1003956936796
 31
0.0
  0
LINE
  5
10F9
330
1F
100
AcDbEntity
  8
HIDDEN
  6
HIDDEN
100
AcDbLine
 10
175.660599660813
 20
227.6003956936796
 30
0.0
 11
175.660599660813
 21
221.6003956936796
 31
0.0
  0
LINE
  5
10FA
330
1F
100
AcDbEntity
  8
HIDDEN
  6
HIDDEN
100
AcDbLine
 10
178.1605996608131
 20
222.1003956936796
 30
0.0
 11
179.6039753337871
 21
224.6003956936796
 31
0.0
  0
LINE
  5
10FB
330
1F
100
AcDbEntity
  8
0
100
AcDbLine
 10
189.1605996608132
 20
240.3503956936796
 30
0.0
 11
190.1605996608132
 21
239.3503956936796
 31
0.0
  0
ARC
  5
10FC
330
1F
100
AcDbEntity
  8
0
  6
CONTINUOUS
100
AcDbCircle
 10
234.6605996608131
 20
212.8503956936797
 30
0.0
 40
3.5
100
AcDbArc
 50
38.21321070173869
 51
81.7867892982621
  0
LINE
  5
10FD
330
1F
100
AcDbEntity
  8
0
  6
CONTINUOUS
100
AcDbLine
 10
234.1605996608131
 20
217.8253328792128
 30
0.0
 11
234.1605996608131
 21
216.3144973088174
 31
0.0
  0
LINE
  5
10FE
330
1F
100
AcDbEntity
  8
0
  6
CONTINUOUS
100
AcDbLine
 10
235.1605996608131
 20
217.8253328792128
 30
0.0
 11
235.1605996608131
 21
216.3144973088174
 31
0.0
  0
ARC
  5
10FF
330
1F
100
AcDbEntity
  8
0
  6
CONTINUOUS
100
AcDbCircle
 10
234.6605996608131
 20
212.8503956936797
 30
0.0
 40
3.5
100
AcDbArc
 50
98.21321070173791
 51
141.7867892982624
  0
LINE
  5
1100
330
1F
100
AcDbEntity
  8
CENTER
  6
CENTER
100
AcDbLine
 10
234.6605996608131
 20
219.7143659279458
 30
0.0
 11
234.6605996608131
 21
205.9864254594135
 31
0.0
  0
LINE
  5
1101
330
1F
100
AcDbEntity
  8
0
100
AcDbLine
 10
228.6605996608131
 20
231.8503956936797
 30
0.0
 11
228.6605996608131
 21
184.8503956936796
 31
0.0
  0
CIRCLE
  5
1102
330
1F
100
AcDbEntity
  8
0
100
AcDbCircle
 10
234.6605996608131
 20
212.8503956936797
 30
0.0
 40
5.299999999999999
  0
CIRCLE
  5
1103
330
1F
100
AcDbEntity
  8
0
100
AcDbCircle
 10
234.6605996608131
 20
212.8503956936797
 30
0.0
 40
5.0
  0
LINE
  5
1104
330
1F
100
AcDbEntity
  8
CENTER
  6
CENTER
100
AcDbLine
 10
227.7966294265469
 20
212.8503956936797
 30
0.0
 11
241.5245698950793
 21
212.8503956936797
 31
0.0
  0
ARC
  5
1105
330
1F
100
AcDbEntity
  8
0
 62
     2
100
AcDbCircle
 10
244.6605996608131
 20
204.3503956936797
 30
0.0
 40
4.849999999999999
100
AcDbArc
 50
73.33343853262558
 51
23.84896523350455
  0
LINE
  5
1106
330
1F
100
AcDbEntity
  8
CENTER
  6
CENTER
100
AcDbLine
 10
244.6605996608131
 20
213.3503956936797
 30
0.0
 11
244.6605996608131
 21
195.3503956936797
 31
0.0
  0
CIRCLE
  5
1107
330
1F
100
AcDbEntity
  8
0
100
AcDbCircle
 10
244.6605996608131
 20
204.3503956936797
 30
0.0
 40
7.5
  0
CIRCLE
  5
1108
330
1F
100
AcDbEntity
  8
0
100
AcDbCircle
 10
244.6605996608131
 20
204.3503956936797
 30
0.0
 40
4.25
  0
CIRCLE
  5
1109
330
1F
100
AcDbEntity
  8
0
100
AcDbCircle
 10
244.6605996608131
 20
204.3503956936797
 30
0.0
 40
3.5
  0
LINE
  5
110A
330
1F
100
AcDbEntity
  8
0
  6
CONTINUOUS
100
AcDbLine
 10
234.1605996608131
 20
209.3862940785419
 30
0.0
 11
234.1605996608131
 21
207.8754585081466
 31
0.0
  0
LINE
  5
110B
330
1F
100
AcDbEntity
  8
0
  6
CONTINUOUS
100
AcDbLine
 10
235.1605996608131
 20
209.3862940785419
 30
0.0
 11
235.1605996608131
 21
207.8754585081466
 31
0.0
  0
ARC
  5
110C
330
1F
100
AcDbEntity
  8
0
  6
CONTINUOUS
100
AcDbCircle
 10
234.6605996608131
 20
212.8503956936797
 30
0.0
 40
3.5
100
AcDbArc
 50
278.2132107017379
 51
321.7867892982624
  0
POLYLINE
  5
110D
330
1F
100
AcDbEntity
  8
0
  6
CONTINUOUS
100
AcDb2dPolyline
 66
     1
 10
0.0
 20
0.0
 30
0.0
 70
     1
  0
VERTEX
  5
146F
330
110D
100
AcDbEntity
  8
0
  6
CONTINUOUS
100
AcDbVertex
100
AcDb2dVertex
 10
233.7945742570287
 20
214.3503956936796
 30
0.0
  0
VERTEX
  5
1470
330
110D
100
AcDbEntity
  8
0
  6
CONTINUOUS
100
AcDbVertex
100
AcDb2dVertex
 10
232.9285488532442
 20
212.8503956936797
 30
0.0
  0
VERTEX
  5
1471
330
110D
100
AcDbEntity
  8
0
  6
CONTINUOUS
100
AcDbVertex
100
AcDb2dVertex
 10
233.7945742570287
 20
211.3503956936797
 30
0.0
  0
VERTEX
  5
1472
330
110D
100
AcDbEntity
  8
0
  6
CONTINUOUS
100
AcDbVertex
100
AcDb2dVertex
 10
235.5266250645975
 20
211.3503956936797
 30
0.0
  0
VERTEX
  5
1473
330
110D
100
AcDbEntity
  8
0
  6
CONTINUOUS
100
AcDbVertex
100
AcDb2dVertex
 10
236.3926504683819
 20
212.8503956936797
 30
0.0
  0
VERTEX
  5
1474
330
110D
100
AcDbEntity
  8
0
  6
CONTINUOUS
100
AcDbVertex
100
AcDb2dVertex
 10
235.5266250645975
 20
214.3503956936796
 30
0.0
  0
SEQEND
  5
1475
330
110D
100
AcDbEntity
  8
0
  6
CONTINUOUS
  0
CIRCLE
  5
110E
330
1F
100
AcDbEntity
  8
0
  6
CONTINUOUS
100
AcDbCircle
 10
234.6605996608131
 20
212.8503956936797
 30
0.0
 40
2.5
  0
LINE
  5
110F
330
1F
100
AcDbEntity
  8
0
  6
CONTINUOUS
100
AcDbLine
 10
231.9105996608131
 20
215.0154592031408
 30
0.0
 11
230.6021776759095
 21
215.7708769883384
 31
0.0
  0
LINE
  5
1110
330
1F
100
AcDbEntity
  8
0
  6
CONTINUOUS
100
AcDbLine
 10
231.4105996608131
 20
214.1494337993564
 30
0.0
 11
230.1021776759096
 21
214.904851584554
 31
0.0
  0
LINE
  5
1111
330
1F
100
AcDbEntity
  8
0
  6
CONTINUOUS
100
AcDbLine
 10
230.6021776759095
 20
209.9299143990209
 30
0.0
 11
231.9105996608131
 21
210.6853321842186
 31
0.0
  0
LINE
  5
1112
330
1F
100
AcDbEntity
  8
0
  6
CONTINUOUS
100
AcDbLine
 10
230.1021776759096
 20
210.7959398028053
 30
0.0
 11
231.4105996608131
 21
211.551357588003
 31
0.0
  0
ARC
  5
1113
330
1F
100
AcDbEntity
  8
0
  6
CONTINUOUS
100
AcDbCircle
 10
234.6605996608131
 20
212.8503956936797
 30
0.0
 40
3.5
100
AcDbArc
 50
218.2132107017375
 51
261.786789298262
  0
ARC
  5
1114
330
1F
100
AcDbEntity
  8
0
  6
CONTINUOUS
100
AcDbCircle
 10
234.6605996608131
 20
212.8503956936797
 30
0.0
 40
3.5
100
AcDbArc
 50
158.2132107017373
 51
201.7867892982617
  0
LINE
  5
1115
330
1F
100
AcDbEntity
  8
0
  6
CONTINUOUS
100
AcDbLine
 10
237.4105996608131
 20
215.0154592031408
 30
0.0
 11
238.7190216457167
 21
215.7708769883384
 31
0.0
  0
LINE
  5
1116
330
1F
100
AcDbEntity
  8
0
  6
CONTINUOUS
100
AcDbLine
 10
237.9105996608131
 20
214.1494337993564
 30
0.0
 11
239.2190216457167
 21
214.904851584554
 31
0.0
  0
LINE
  5
1117
330
1F
100
AcDbEntity
  8
0
  6
CONTINUOUS
100
AcDbLine
 10
238.7190216457167
 20
209.9299143990209
 30
0.0
 11
237.4105996608131
 21
210.6853321842186
 31
0.0
  0
LINE
  5
1118
330
1F
100
AcDbEntity
  8
0
  6
CONTINUOUS
100
AcDbLine
 10
239.2190216457167
 20
210.7959398028053
 30
0.0
 11
237.9105996608131
 21
211.551357588003
 31
0.0
  0
ARC
  5
1119
330
1F
100
AcDbEntity
  8
0
  6
CONTINUOUS
100
AcDbCircle
 10
234.6605996608131
 20
212.8503956936797
 30
0.0
 40
3.5
100
AcDbArc
 50
338.2132107017382
 51
21.78678929826177
  0
LINE
  5
111A
330
1F
100
AcDbEntity
  8
0
  6
CONTINUOUS
100
AcDbLine
 10
228.6605996608131
 20
307.6803002776833
 30
0.0
 11
186.6605996608132
 21
307.6803002776833
 31
0.0
  0
LINE
  5
111B
330
1F
100
AcDbEntity
  8
0
100
AcDbLine
 10
190.1605996608132
 20
251.3503956936797
 30
0.0
 11
229.160599660813
 21
251.3503956936797
 31
0.0
  0
LINE
  5
111C
330
1F
100
AcDbEntity
  8
DIM
100
AcDbLine
 10
189.1605996608132
 20
252.3503956936796
 30
0.0
 11
189.1605996608132
 21
282.3503956936796
 31
0.0
  0
LINE
  5
111D
330
1F
100
AcDbEntity
  8
0
100
AcDbLine
 10
190.1605996608132
 20
251.3503956936797
 30
0.0
 11
189.1605996608132
 21
250.3503956936797
 31
0.0
  0
SOLID
  5
111E
330
1F
100
AcDbEntity
  8
DIM
100
AcDbTrace
 10
192.1605996608132
 20
280.8503956936796
 30
0.0
 11
192.1605996608132
 21
281.8503956936796
 31
0.0
 12
189.1605996608132
 22
281.3503956936796
 32
0.0
 13
189.1605996608132
 23
281.3503956936796
 33
0.0
  0
LINE
  5
111F
330
1F
100
AcDbEntity
  8
0
100
AcDbLine
 10
186.6605996608133
 20
305.6303002776832
 30
0.0
 11
160.6605996608132
 21
305.8803002776832
 31
0.0
  0
LINE
  5
1120
330
1F
100
AcDbEntity
  8
HIDDEN
  6
HIDDEN
100
AcDbLine
 10
175.660599660813
 20
309.8803002776834
 30
0.0
 11
160.6605996608131
 21
309.8803002776833
 31
0.0
  0
LINE
  5
1121
330
1F
100
AcDbEntity
  8
HIDDEN
  6
HIDDEN
100
AcDbLine
 10
178.1605996608131
 20
310.3803002776834
 30
0.0
 11
166.6605996608131
 21
310.3803002776833
 31
0.0
  0
LINE
  5
1122
330
1F
100
AcDbEntity
  8
CENTER
  6
CENTER
100
AcDbLine
 10
170.6605996608132
 20
301.3029627295483
 30
0.0
 11
170.6605996608132
 21
312.8803002776833
 31
0.0
  0
LINE
  5
1123
330
1F
100
AcDbEntity
  8
CENTER
  6
CENTER
100
AcDbLine
 10
180.6605996608133
 20
301.3029627295483
 30
0.0
 11
180.6605996608133
 21
312.8803002776833
 31
0.0
  0
LINE
  5
1124
330
1F
100
AcDbEntity
  8
HIDDEN
  6
HIDDEN
100
AcDbLine
 10
178.1605996608131
 20
310.3803002776834
 30
0.0
 11
179.6039753337871
 21
312.8803002776833
 31
0.0
  0
LINE
  5
1125
330
1F
100
AcDbEntity
  8
CENTER
  6
CENTER
100
AcDbLine
 10
234.660599660813
 20
301.3029627295483
 30
0.0
 11
234.660599660813
 21
312.8803002776833
 31
0.0
  0
LINE
  5
1126
330
1F
100
AcDbEntity
  8
CENTER
  6
CENTER
100
AcDbLine
 10
244.6605996608131
 20
301.3029627295483
 30
0.0
 11
244.6605996608131
 21
312.8803002776833
 31
0.0
  0
LINE
  5
1127
330
1F
100
AcDbEntity
  8
CENTER
  6
CENTER
100
AcDbLine
 10
188.1605996608131
 20
345.3803002776833
 30
0.0
 11
159.1605996608132
 21
345.3803002776833
 31
0.0
  0
LINE
  5
1128
330
1F
100
AcDbEntity
  8
0
100
AcDbLine
 10
160.6605996608131
 20
344.1303002776833
 30
0.0
 11
157.6605996608131
 21
344.1303002776833
 31
0.0
  0
LINE
  5
1129
330
1F
100
AcDbEntity
  8
0
100
AcDbLine
 10
156.6605996608131
 20
343.1303002776833
 30
0.0
 11
156.6605996608131
 21
315.1303002776833
 31
0.0
  0
ARC
  5
112A
330
1F
100
AcDbEntity
  8
0
100
AcDbCircle
 10
157.6605996608131
 20
343.1303002776833
 30
0.0
 40
1.0
100
AcDbArc
 50
90.0
 51
180.0
  0
LINE
  5
112B
330
1F
100
AcDbEntity
  8
0
  6
CONTINUOUS
100
AcDbLine
 10
228.6605996608131
 20
350.5803002776833
 30
0.0
 11
186.6605996608132
 21
350.5803002776833
 31
0.0
  0
LINE
  5
112C
330
1F
100
AcDbEntity
  8
0
  6
CONTINUOUS
100
AcDbLine
 10
228.6605996608131
 20
337.6385819848955
 30
0.0
 11
186.6605996608132
 21
337.6385819848955
 31
0.0
  0
LINE
  5
112D
330
1F
100
AcDbEntity
  8
0
  6
CONTINUOUS
100
AcDbLine
 10
228.6605996608131
 20
320.6220185704712
 30
0.0
 11
186.6605996608132
 21
320.6220185704712
 31
0.0
  0
LINE
  5
112E
330
1F
100
AcDbEntity
  8
0
100
AcDbLine
 10
190.1605996608132
 20
335.1303002776834
 30
0.0
 11
229.160599660813
 21
335.1303002776834
 31
0.0
  0
LINE
  5
112F
330
1F
100
AcDbEntity
  8
0
100
AcDbLine
 10
190.1605996608132
 20
323.1303002776833
 30
0.0
 11
229.160599660813
 21
323.1303002776833
 31
0.0
  0
LINE
  5
1130
330
1F
100
AcDbEntity
  8
HIDDEN
  6
HIDDEN
100
AcDbLine
 10
178.1605996608131
 20
347.8803002776833
 30
0.0
 11
179.6039753337871
 21
345.3803002776833
 31
0.0
  0
LINE
  5
1131
330
1F
100
AcDbEntity
  8
HIDDEN
  6
HIDDEN
100
AcDbLine
 10
166.6605996608131
 20
342.3803002776833
 30
0.0
 11
166.6605996608131
 21
348.3803002776833
 31
0.0
  0
LINE
  5
1132
330
1F
100
AcDbEntity
  8
HIDDEN
  6
HIDDEN
100
AcDbLine
 10
175.6605996608131
 20
342.3803002776833
 30
0.0
 11
175.6605996608131
 21
348.3803002776833
 31
0.0
  0
LINE
  5
1133
330
1F
100
AcDbEntity
  8
HIDDEN
  6
HIDDEN
100
AcDbLine
 10
178.1605996608131
 20
342.8803002776833
 30
0.0
 11
178.1605996608132
 21
347.8803002776833
 31
0.0
  0
LINE
  5
1134
330
1F
100
AcDbEntity
  8
HIDDEN
  6
HIDDEN
100
AcDbLine
 10
175.6605996608131
 20
315.8803002776835
 30
0.0
 11
160.6605996608131
 21
315.8803002776835
 31
0.0
  0
LINE
  5
1135
330
1F
100
AcDbEntity
  8
HIDDEN
  6
HIDDEN
100
AcDbLine
 10
178.1605996608131
 20
315.3803002776835
 30
0.0
 11
166.6605996608131
 21
315.3803002776833
 31
0.0
  0
LINE
  5
1136
330
1F
100
AcDbEntity
  8
HIDDEN
  6
HIDDEN
100
AcDbLine
 10
175.6605996608131
 20
342.3803002776833
 30
0.0
 11
160.6605996608131
 21
342.3803002776833
 31
0.0
  0
LINE
  5
1137
330
1F
100
AcDbEntity
  8
HIDDEN
  6
HIDDEN
100
AcDbLine
 10
178.1605996608131
 20
342.8803002776833
 30
0.0
 11
166.6605996608131
 21
342.8803002776833
 31
0.0
  0
LINE
  5
1138
330
1F
100
AcDbEntity
  8
HIDDEN
  6
HIDDEN
100
AcDbLine
 10
178.1605996608131
 20
342.8803002776833
 30
0.0
 11
179.6039753337871
 21
345.3803002776833
 31
0.0
  0
LINE
  5
1139
330
1F
100
AcDbEntity
  8
0
100
AcDbLine
 10
189.1605996608132
 20
334.1303002776833
 30
0.0
 11
189.1605996608132
 21
324.1303002776833
 31
0.0
  0
LINE
  5
113A
330
1F
100
AcDbEntity
  8
0
100
AcDbLine
 10
190.1605996608132
 20
335.1303002776834
 30
0.0
 11
190.1605996608132
 21
323.1303002776833
 31
0.0
  0
LINE
  5
113B
330
1F
100
AcDbEntity
  8
0
100
AcDbLine
 10
189.1605996608132
 20
324.1303002776833
 30
0.0
 11
190.1605996608132
 21
323.1303002776833
 31
0.0
  0
LINE
  5
113C
330
1F
100
AcDbEntity
  8
0
100
AcDbLine
 10
190.1605996608132
 20
335.1303002776834
 30
0.0
 11
189.1605996608132
 21
334.1303002776833
 31
0.0
  0
LINE
  5
113D
330
1F
100
AcDbEntity
  8
0
100
AcDbLine
 10
186.6605996608133
 20
352.6303002776833
 30
0.0
 11
160.6605996608132
 21
352.3803002776833
 31
0.0
  0
LINE
  5
113E
330
1F
100
AcDbEntity
  8
HIDDEN
  6
HIDDEN
100
AcDbLine
 10
175.6605996608131
 20
348.3803002776833
 30
0.0
 11
160.6605996608132
 21
348.3803002776833
 31
0.0
  0
LINE
  5
113F
330
1F
100
AcDbEntity
  8
HIDDEN
  6
HIDDEN
100
AcDbLine
 10
178.1605996608131
 20
347.8803002776833
 30
0.0
 11
166.6605996608131
 21
347.8803002776833
 31
0.0
  0
LINE
  5
1140
330
1F
100
AcDbEntity
  8
0
100
AcDbLine
 10
228.6605996608131
 20
352.6303002776833
 30
0.0
 11
228.6605996608131
 21
335.1303002776834
 31
0.0
  0
LINE
  5
1141
330
1F
100
AcDbEntity
  8
0
100
AcDbLine
 10
229.1605996608131
 20
318.6303002776832
 30
0.0
 11
229.160599660813
 21
339.6303002776833
 31
0.0
  0
LINE
  5
1142
330
1F
100
AcDbEntity
  8
0
100
AcDbLine
 10
382.4449534598057
 20
255.8503956936797
 30
0.0
 11
382.4449534598057
 21
160.8503956936797
 31
0.0
  0
LINE
  5
1143
330
1F
100
AcDbEntity
  8
0
100
AcDbLine
 10
427.4449534598057
 20
255.8503956936797
 30
0.0
 11
427.4449534598057
 21
160.8503956936797
 31
0.0
  0
LINE
  5
1144
330
1F
100
AcDbEntity
  8
CENTER
  6
CENTER
100
AcDbLine
 10
404.9449534598058
 20
276.3503956936797
 30
0.0
 11
404.9449534598056
 21
140.3503956936797
 31
0.0
  0
LINE
  5
1145
330
1F
100
AcDbEntity
  8
CENTER
  6
CENTER
100
AcDbLine
 10
421.1949534598057
 20
273.3503956936798
 30
0.0
 11
421.1949534598057
 21
143.3503956936797
 31
0.0
  0
LINE
  5
1146
330
1F
100
AcDbEntity
  8
CENTER
  6
CENTER
100
AcDbLine
 10
388.6949534598057
 20
273.3503956936798
 30
0.0
 11
388.6949534598057
 21
143.3503956936797
 31
0.0
  0
LINE
  5
1147
330
1F
100
AcDbEntity
  8
0
100
AcDbLine
 10
324.6605996608132
 20
255.8503956936796
 30
0.0
 11
324.6605996608132
 21
160.8503956936797
 31
0.0
  0
LINE
  5
1148
330
1F
100
AcDbEntity
  8
0
100
AcDbLine
 10
309.6605996608132
 20
255.8503956936796
 30
0.0
 11
309.6605996608132
 21
160.8503956936797
 31
0.0
  0
LINE
  5
1149
330
1F
100
AcDbEntity
  8
0
100
AcDbLine
 10
379.9449534598057
 20
271.3503956936798
 30
0.0
 11
379.9449534598057
 21
145.3503956936797
 31
0.0
  0
LINE
  5
114A
330
1F
100
AcDbEntity
  8
0
100
AcDbLine
 10
429.9449534598058
 20
271.3503956936798
 30
0.0
 11
429.9449534598057
 21
145.3503956936797
 31
0.0
  0
LINE
  5
114B
330
1F
100
AcDbEntity
  8
DIM
100
AcDbLine
 10
334.6605996608132
 20
174.3503956936796
 30
0.0
 11
334.6605996608132
 21
242.3503956936796
 31
0.0
  0
LINE
  5
114C
330
1F
100
AcDbEntity
  8
DIM
100
AcDbLine
 10
445.9449534598057
 20
244.3503956936797
 30
0.0
 11
445.9449534598057
 21
172.3503956936797
 31
0.0
  0
LINE
  5
114D
330
1F
100
AcDbEntity
  8
DIM
100
AcDbLine
 10
453.9449534598056
 20
163.8503956936796
 30
0.0
 11
453.9449534598056
 21
252.8503956936797
 31
0.0
  0
LINE
  5
114E
330
1F
100
AcDbEntity
  8
DIM
100
AcDbLine
 10
469.9449534598056
 20
143.3503956936797
 30
0.0
 11
469.9449534598056
 21
273.3503956936798
 31
0.0
  0
LINE
  5
114F
330
1F
100
AcDbEntity
  8
0
100
AcDbLine
 10
269.6605996608134
 20
273.3503956936798
 30
0.0
 11
269.6605996608131
 21
143.3503956936797
 31
0.0
  0
LINE
  5
1150
330
1F
100
AcDbEntity
  8
DIM
  6
CONTINUOUS
100
AcDbLine
 10
461.9449534598056
 20
153.3503956936797
 30
0.0
 11
461.9449534598056
 21
263.3503956936796
 31
0.0
  0
LINE
  5
1151
330
1F
100
AcDbEntity
  8
DIM
100
AcDbLine
 10
342.6605996608132
 20
163.8503956936796
 30
0.0
 11
342.6605996608132
 21
252.8503956936797
 31
0.0
  0
LINE
  5
1152
330
1F
100
AcDbEntity
  8
0
100
AcDbLine
 10
254.6605996608134
 20
273.3503956936798
 30
0.0
 11
254.6605996608131
 21
143.3503956936797
 31
0.0
  0
LINE
  5
1153
330
1F
100
AcDbEntity
  8
DIM
100
AcDbLine
 10
430.4449534598058
 20
169.3503956936797
 30
0.0
 11
446.9449534598058
 21
169.3503956936797
 31
0.0
  0
LINE
  5
1154
330
1F
100
AcDbEntity
  8
DIM
100
AcDbLine
 10
428.4449534598057
 20
160.8503956936797
 30
0.0
 11
454.9449534598056
 21
160.8503956936797
 31
0.0
  0
LINE
  5
1155
330
1F
100
AcDbEntity
  8
DIM
100
AcDbLine
 10
430.9449534598058
 20
143.3503956936797
 30
0.0
 11
470.9449534598056
 21
143.3503956936797
 31
0.0
  0
LINE
  5
1156
330
1F
100
AcDbEntity
  8
DIM
  6
CONTINUOUS
100
AcDbLine
 10
430.9449534598057
 20
150.3503956936797
 30
0.0
 11
462.9449534598056
 21
150.3503956936797
 31
0.0
  0
LINE
  5
1157
330
1F
100
AcDbEntity
  8
0
100
AcDbLine
 10
299.1605996608132
 20
96.13511618084817
 30
0.0
 11
300.6605996608133
 21
96.13511618084817
 31
0.0
  0
LINE
  5
1158
330
1F
100
AcDbEntity
  8
0
100
AcDbLine
 10
299.1605996608132
 20
83.13511618084817
 30
0.0
 11
300.6605996608132
 21
83.13511618084817
 31
0.0
  0
LINE
  5
1159
330
1F
100
AcDbEntity
  8
0
100
AcDbLine
 10
286.160599660813
 20
83.63511618084812
 30
0.0
 11
309.6605996608132
 21
83.63511618084812
 31
0.0
  0
LINE
  5
115A
330
1F
100
AcDbEntity
  8
0
100
AcDbLine
 10
286.1605996608129
 20
95.63511618084879
 30
0.0
 11
309.6605996608132
 21
95.63511618084811
 31
0.0
  0
LINE
  5
115B
330
1F
100
AcDbEntity
  8
0
100
AcDbLine
 10
269.6605996608134
 20
114.6351161808482
 30
0.0
 11
269.6605996608132
 21
64.63511618084822
 31
0.0
  0
LINE
  5
115C
330
1F
100
AcDbEntity
  8
0
100
AcDbLine
 10
286.160599660813
 20
79.13511618084817
 30
0.0
 11
286.1605996608129
 21
100.1351161808482
 31
0.0
  0
LINE
  5
115D
330
1F
100
AcDbEntity
  8
0
100
AcDbLine
 10
254.6605996608134
 20
114.6351161808482
 30
0.0
 11
254.6605996608132
 21
64.63511618084822
 31
0.0
  0
LINE
  5
115E
330
1F
100
AcDbEntity
  8
0
100
AcDbLine
 10
269.6605996608131
 20
79.13511618084817
 30
0.0
 11
286.160599660813
 21
79.13511618084817
 31
0.0
  0
LINE
  5
115F
330
1F
100
AcDbEntity
  8
0
  6
CONTINUOUS
100
AcDbLine
 10
254.6605996608132
 20
64.63511618084822
 30
0.0
 11
269.6605996608133
 21
64.63511618084829
 31
0.0
  0
LINE
  5
1160
330
1F
100
AcDbEntity
  8
HIDDEN
  6
HIDDEN
100
AcDbLine
 10
254.6605996608133
 20
76.68511618084824
 30
0.0
 11
269.6605996608133
 21
76.68511618084824
 31
0.0
  0
LINE
  5
1161
330
1F
100
AcDbEntity
  8
HIDDEN
  6
HIDDEN
100
AcDbLine
 10
254.6605996608132
 20
70.08511618084821
 30
0.0
 11
269.6605996608132
 21
70.08511618084821
 31
0.0
  0
LINE
  5
1162
330
1F
100
AcDbEntity
  8
0
100
AcDbLine
 10
270.6605996608133
 20
79.13511618084817
 30
0.0
 11
270.6605996608133
 21
75.63511618084823
 31
0.0
  0
LINE
  5
1163
330
1F
100
AcDbEntity
  8
0
100
AcDbLine
 10
270.6605996608133
 20
75.63511618084823
 30
0.0
 11
269.6605996608133
 21
74.63511618084822
 31
0.0
  0
LINE
  5
1164
330
1F
100
AcDbEntity
  8
0
100
AcDbLine
 10
286.6605996608132
 20
81.13511618084823
 30
0.0
 11
292.6605996608132
 21
81.13511618084823
 31
0.0
  0
ARC
  5
1165
330
1F
100
AcDbEntity
  8
0
  6
CONTINUOUS
100
AcDbCircle
 10
296.1918496608132
 20
85.38511618084829
 30
0.0
 40
9.531249999999923
100
AcDbArc
 50
190.5799024938491
 51
206.4810398303522
  0
LINE
  5
1166
330
1F
100
AcDbEntity
  8
0
  6
CONTINUOUS
100
AcDbLine
 10
286.6605996608132
 20
83.63511618084817
 30
0.0
 11
286.6605996608132
 21
81.13511618084823
 31
0.0
  0
ARC
  5
1167
330
1F
100
AcDbEntity
  8
0
  6
CONTINUOUS
100
AcDbCircle
 10
283.1293496608133
 20
85.38511618084829
 30
0.0
 40
9.531249999999923
100
AcDbArc
 50
333.5189601696595
 51
349.42009750615
  0
LINE
  5
1168
330
1F
100
AcDbEntity
  8
0
  6
CONTINUOUS
100
AcDbLine
 10
292.6605996608132
 20
83.63511618084817
 30
0.0
 11
292.6605996608132
 21
81.13511618084823
 31
0.0
  0
LINE
  5
1169
330
1F
100
AcDbEntity
  8
0
100
AcDbLine
 10
298.6605996608132
 20
83.63511618084817
 30
0.0
 11
299.1605996608132
 21
83.13511618084817
 31
0.0
  0
LINE
  5
116A
330
1F
100
AcDbEntity
  8
0
100
AcDbLine
 10
269.6605996608131
 20
100.1351161808482
 30
0.0
 11
286.1605996608129
 21
100.1351161808482
 31
0.0
  0
LINE
  5
116B
330
1F
100
AcDbEntity
  8
0
100
AcDbLine
 10
270.6605996608133
 20
103.6351161808482
 30
0.0
 11
270.6605996608133
 21
100.1351161808482
 31
0.0
  0
LINE
  5
116C
330
1F
100
AcDbEntity
  8
HIDDEN
  6
HIDDEN
100
AcDbLine
 10
254.6605996608133
 20
102.5851161808482
 30
0.0
 11
269.6605996608133
 21
102.5851161808482
 31
0.0
  0
LINE
  5
116D
330
1F
100
AcDbEntity
  8
HIDDEN
  6
HIDDEN
100
AcDbLine
 10
254.6605996608133
 20
109.1851161808482
 30
0.0
 11
269.6605996608133
 21
109.1851161808482
 31
0.0
  0
LINE
  5
116E
330
1F
100
AcDbEntity
  8
0
  6
CONTINUOUS
100
AcDbLine
 10
254.6605996608134
 20
114.6351161808482
 30
0.0
 11
269.6605996608134
 21
114.6351161808482
 31
0.0
  0
LINE
  5
116F
330
1F
100
AcDbEntity
  8
0
100
AcDbLine
 10
269.6605996608133
 20
104.6351161808482
 30
0.0
 11
270.6605996608133
 21
103.6351161808482
 31
0.0
  0
LINE
  5
1170
330
1F
100
AcDbEntity
  8
0
100
AcDbLine
 10
286.6605996608132
 20
98.13511618084817
 30
0.0
 11
292.6605996608131
 21
98.13511618084817
 31
0.0
  0
LINE
  5
1171
330
1F
100
AcDbEntity
  8
0
  6
CONTINUOUS
100
AcDbLine
 10
286.6605996608132
 20
98.13511618084817
 30
0.0
 11
286.6605996608132
 21
95.63511618084874
 31
0.0
  0
ARC
  5
1172
330
1F
100
AcDbEntity
  8
0
  6
CONTINUOUS
100
AcDbCircle
 10
296.1918496608132
 20
93.88511618084823
 30
0.0
 40
9.531249999999923
100
AcDbArc
 50
153.5189601696368
 51
169.4200975061484
  0
ARC
  5
1173
330
1F
100
AcDbEntity
  8
0
  6
CONTINUOUS
100
AcDbCircle
 10
283.1293496608133
 20
93.88511618084823
 30
0.0
 40
9.531249999999923
100
AcDbArc
 50
10.57990249385079
 51
26.48103983035224
  0
LINE
  5
1174
330
1F
100
AcDbEntity
  8
0
  6
CONTINUOUS
100
AcDbLine
 10
292.6605996608131
 20
98.13511618084817
 30
0.0
 11
292.6605996608131
 21
95.63511618084858
 31
0.0
  0
LINE
  5
1175
330
1F
100
AcDbEntity
  8
0
100
AcDbLine
 10
299.1605996608132
 20
96.13511618084817
 30
0.0
 11
298.6605996608131
 21
95.63511618084817
 31
0.0
  0
LINE
  5
1176
330
1F
100
AcDbEntity
  8
0
100
AcDbLine
 10
324.6605996608132
 20
112.1351161808482
 30
0.0
 11
324.6605996608132
 21
67.13511618084822
 31
0.0
  0
LINE
  5
1177
330
1F
100
AcDbEntity
  8
0
100
AcDbLine
 10
309.6605996608132
 20
112.1351161808482
 30
0.0
 11
309.6605996608132
 21
67.13511618084822
 31
0.0
  0
LINE
  5
1178
330
1F
100
AcDbEntity
  8
HIDDEN
  6
HIDDEN
100
AcDbLine
 10
324.6605996608133
 20
76.63511618084829
 30
0.0
 11
316.1605996608133
 21
76.63511618084829
 31
0.0
  0
LINE
  5
1179
330
1F
100
AcDbEntity
  8
HIDDEN
  6
HIDDEN
100
AcDbLine
 10
324.6605996608133
 20
70.13511618084828
 30
0.0
 11
316.1605996608133
 21
70.13511618084828
 31
0.0
  0
LINE
  5
117A
330
1F
100
AcDbEntity
  8
CENTER
  6
CENTER
100
AcDbLine
 10
306.6355567277789
 20
73.38511618084822
 30
0.0
 11
327.6355567277789
 21
73.38511618084822
 31
0.0
  0
LINE
  5
117B
330
1F
100
AcDbEntity
  8
0
  6
CONTINUOUS
100
AcDbLine
 10
309.6605996608132
 20
67.13511618084822
 30
0.0
 11
324.6605996608132
 21
67.13511618084822
 31
0.0
  0
LINE
  5
117C
330
1F
100
AcDbEntity
  8
HIDDEN
  6
HIDDEN
100
AcDbLine
 10
316.1605996608132
 20
78.63511618084834
 30
0.0
 11
316.1605996608133
 21
68.13511618084828
 31
0.0
  0
LINE
  5
117D
330
1F
100
AcDbEntity
  8
HIDDEN
  6
HIDDEN
100
AcDbLine
 10
316.1605996608132
 20
68.13511618084828
 30
0.0
 11
309.6605996608133
 21
68.13511618084828
 31
0.0
  0
LINE
  5
117E
330
1F
100
AcDbEntity
  8
HIDDEN
  6
HIDDEN
100
AcDbLine
 10
316.1605996608132
 20
78.63511618084828
 30
0.0
 11
309.6605996608133
 21
78.63511618084834
 31
0.0
  0
LINE
  5
117F
330
1F
100
AcDbEntity
  8
0
100
AcDbLine
 10
300.6605996608132
 20
83.63511618084812
 30
0.0
 11
300.6605996608132
 21
73.13511618084823
 31
0.0
  0
LINE
  5
1180
330
1F
100
AcDbEntity
  8
0
100
AcDbLine
 10
300.6605996608132
 20
73.13511618084823
 30
0.0
 11
309.6605996608132
 21
73.13511618084823
 31
0.0
  0
LINE
  5
1181
330
1F
100
AcDbEntity
  8
HIDDEN
  6
HIDDEN
100
AcDbLine
 10
324.6605996608133
 20
109.1351161808482
 30
0.0
 11
316.1605996608133
 21
109.1351161808482
 31
0.0
  0
LINE
  5
1182
330
1F
100
AcDbEntity
  8
HIDDEN
  6
HIDDEN
100
AcDbLine
 10
324.6605996608133
 20
102.6351161808482
 30
0.0
 11
316.1605996608133
 21
102.6351161808482
 31
0.0
  0
LINE
  5
1183
330
1F
100
AcDbEntity
  8
CENTER
  6
CENTER
100
AcDbLine
 10
306.6355567277789
 20
105.8851161808482
 30
0.0
 11
327.635556727779
 21
105.8851161808482
 31
0.0
  0
LINE
  5
1184
330
1F
100
AcDbEntity
  8
0
  6
CONTINUOUS
100
AcDbLine
 10
309.6605996608132
 20
112.1351161808483
 30
0.0
 11
324.6605996608132
 21
112.1351161808482
 31
0.0
  0
LINE
  5
1185
330
1F
100
AcDbEntity
  8
HIDDEN
  6
HIDDEN
100
AcDbLine
 10
316.1605996608132
 20
111.1351161808482
 30
0.0
 11
316.1605996608133
 21
100.6351161808482
 31
0.0
  0
LINE
  5
1186
330
1F
100
AcDbEntity
  8
0
100
AcDbLine
 10
300.6605996608132
 20
106.1351161808482
 30
0.0
 11
300.6605996608133
 21
95.6351161808484
 31
0.0
  0
LINE
  5
1187
330
1F
100
AcDbEntity
  8
HIDDEN
  6
HIDDEN
100
AcDbLine
 10
316.1605996608132
 20
100.6351161808482
 30
0.0
 11
309.6605996608133
 21
100.6351161808482
 31
0.0
  0
LINE
  5
1188
330
1F
100
AcDbEntity
  8
HIDDEN
  6
HIDDEN
100
AcDbLine
 10
316.1605996608132
 20
111.1351161808482
 30
0.0
 11
309.6605996608133
 21
111.1351161808482
 31
0.0
  0
LINE
  5
1189
330
1F
100
AcDbEntity
  8
0
100
AcDbLine
 10
300.6605996608132
 20
106.1351161808482
 30
0.0
 11
309.6605996608132
 21
106.1351161808482
 31
0.0
  0
LINE
  5
118A
330
1F
100
AcDbEntity
  8
0
100
AcDbLine
 10
286.1605996608131
 20
177.3503956936797
 30
0.0
 11
309.6605996608132
 21
177.3503956936797
 31
0.0
  0
LINE
  5
118B
330
1F
100
AcDbEntity
  8
0
100
AcDbLine
 10
286.1605996608131
 20
165.3503956936797
 30
0.0
 11
309.6605996608132
 21
165.3503956936797
 31
0.0
  0
LINE
  5
118C
330
1F
100
AcDbEntity
  8
DIM
100
AcDbLine
 10
287.5657604014737
 20
160.8503956936797
 30
0.0
 11
308.6605996608132
 21
160.8503956936796
 31
0.0
  0
TEXT
  5
118D
330
1F
100
AcDbEntity
  8
DIM
100
AcDbText
 10
295.7566555743643
 20
128.8503956936797
 30
0.0
 40
3.0
  1
55
  7
ROMANSS
 72
     1
 11
298.1852270029357
 21
130.3503956936796
 31
0.0
100
AcDbText
 73
     2
  0
LINE
  5
118E
330
1F
100
AcDbEntity
  8
DIM
100
AcDbLine
 10
269.6605996608132
 20
142.1924424575712
 30
0.0
 11
269.6605996608132
 21
126.2327689162355
 31
0.0
  0
LINE
  5
118F
330
1F
100
AcDbEntity
  8
DIM
100
AcDbLine
 10
254.6605996608132
 20
142.1924424575712
 30
0.0
 11
254.6605996608132
 21
126.3503956936796
 31
0.0
  0
SOLID
  5
1190
330
1F
100
AcDbEntity
  8
DIM
100
AcDbTrace
 10
257.6605996608132
 20
127.8503956936797
 30
0.0
 11
257.6605996608132
 21
126.8503956936797
 31
0.0
 12
254.6605996608132
 22
127.3503956936796
 32
0.0
 13
254.6605996608132
 23
127.3503956936796
 33
0.0
  0
TEXT
  5
1191
330
1F
100
AcDbEntity
  8
DIM
100
AcDbText
 10
260.017742517957
 20
128.8503956936798
 30
0.0
 40
3.0
  1
15
  7
ROMANSS
 72
     1
 11
262.1605996608142
 21
130.3503956936798
 31
0.0
100
AcDbText
 73
     2
  0
SOLID
  5
1192
330
1F
100
AcDbEntity
  8
DIM
100
AcDbTrace
 10
272.6605996608122
 20
127.8503956936798
 30
0.0
 11
272.6605996608122
 21
126.8503956936798
 31
0.0
 12
269.6605996608123
 22
127.3503956936798
 32
0.0
 13
269.6605996608123
 23
127.3503956936798
 33
0.0
  0
SOLID
  5
1193
330
1F
100
AcDbEntity
  8
DIM
100
AcDbTrace
 10
266.6605996608142
 20
127.8503956936798
 30
0.0
 11
266.6605996608142
 21
126.8503956936798
 31
0.0
 12
269.6605996608142
 22
127.3503956936798
 32
0.0
 13
269.6605996608142
 23
127.3503956936798
 33
0.0
  0
LINE
  5
1194
330
1F
100
AcDbEntity
  8
HIDDEN
  6
HIDDEN
100
AcDbLine
 10
254.6605996608134
 20
147.0503956936797
 30
0.0
 11
269.6605996608134
 21
147.0503956936797
 31
0.0
  0
LINE
  5
1195
330
1F
100
AcDbEntity
  8
0
  6
CONTINUOUS
100
AcDbLine
 10
254.660599660813
 20
143.3503956936797
 30
0.0
 11
269.660599660813
 21
143.3503956936797
 31
0.0
  0
LINE
  5
1196
330
1F
100
AcDbEntity
  8
0
100
AcDbLine
 10
269.6605996608131
 20
181.8503956936798
 30
0.0
 11
286.1605996608131
 21
181.8503956936798
 31
0.0
  0
LINE
  5
1197
330
1F
100
AcDbEntity
  8
0
100
AcDbLine
 10
269.6605996608131
 20
160.8503956936797
 30
0.0
 11
286.160599660813
 21
160.8503956936797
 31
0.0
  0
LINE
  5
1198
330
1F
100
AcDbEntity
  8
HIDDEN
  6
HIDDEN
100
AcDbLine
 10
254.6605996608133
 20
153.6503956936797
 30
0.0
 11
269.6605996608133
 21
153.6503956936797
 31
0.0
  0
LINE
  5
1199
330
1F
100
AcDbEntity
  8
0
100
AcDbLine
 10
286.1605996608131
 20
181.8503956936798
 30
0.0
 11
286.1605996608131
 21
160.8503956936795
 31
0.0
  0
LINE
  5
119A
330
1F
100
AcDbEntity
  8
DIM
100
AcDbLine
 10
309.6605996608132
 20
159.8503956936797
 30
0.0
 11
309.6605996608132
 21
134.3503956936797
 31
0.0
  0
LINE
  5
119B
330
1F
100
AcDbEntity
  8
DIM
100
AcDbLine
 10
324.6605996608132
 20
159.8503956936797
 30
0.0
 11
324.6605996608132
 21
126.3503956936796
 31
0.0
  0
SOLID
  5
119C
330
1F
100
AcDbEntity
  8
DIM
100
AcDbTrace
 10
321.6605996608132
 20
135.8503956936796
 30
0.0
 11
321.6605996608132
 21
134.8503956936797
 31
0.0
 12
324.6605996608132
 22
135.3503956936797
 32
0.0
 13
324.6605996608132
 23
135.3503956936797
 33
0.0
  0
LINE
  5
119D
330
1F
100
AcDbEntity
  8
DIM
100
AcDbLine
 10
324.6605996608132
 20
135.3503956936797
 30
0.0
 11
309.6605996608132
 21
135.3503956936797
 31
0.0
  0
SOLID
  5
119E
330
1F
100
AcDbEntity
  8
DIM
100
AcDbTrace
 10
321.6605996608132
 20
127.8503956936797
 30
0.0
 11
321.6605996608132
 21
126.8503956936797
 31
0.0
 12
324.6605996608132
 22
127.3503956936796
 32
0.0
 13
324.6605996608132
 23
127.3503956936796
 33
0.0
  0
SOLID
  5
119F
330
1F
100
AcDbEntity
  8
DIM
100
AcDbTrace
 10
312.6605996608132
 20
135.8503956936796
 30
0.0
 11
312.6605996608132
 21
134.8503956936797
 31
0.0
 12
309.6605996608132
 22
135.3503956936797
 32
0.0
 13
309.6605996608132
 23
135.3503956936797
 33
0.0
  0
TEXT
  5
11A0
330
1F
100
AcDbEntity
  8
DIM
100
AcDbText
 10
315.0177425179561
 20
136.8503956936796
 30
0.0
 40
3.0
  1
15
  7
ROMANSS
 72
     1
 11
317.1605996608132
 21
138.3503956936797
 31
0.0
100
AcDbText
 73
     2
  0
LINE
  5
11A1
330
1F
100
AcDbEntity
  8
HIDDEN
  6
HIDDEN
100
AcDbLine
 10
324.6605996608132
 20
166.1003956936796
 30
0.0
 11
316.1605996608132
 21
166.1003956936796
 31
0.0
  0
LINE
  5
11A2
330
1F
100
AcDbEntity
  8
HIDDEN
  6
HIDDEN
100
AcDbLine
 10
324.6605996608132
 20
172.6003956936796
 30
0.0
 11
316.1605996608132
 21
172.6003956936796
 31
0.0
  0
LINE
  5
11A3
330
1F
100
AcDbEntity
  8
CENTER
  6
CENTER
100
AcDbLine
 10
307.5191669617763
 20
169.3503956936797
 30
0.0
 11
327.591955662459
 21
169.3503956936796
 31
0.0
  0
LINE
  5
11A4
330
1F
100
AcDbEntity
  8
0
100
AcDbLine
 10
309.6605996608132
 20
160.8503956936796
 30
0.0
 11
324.6605996608132
 21
160.8503956936797
 31
0.0
  0
LINE
  5
11A5
330
1F
100
AcDbEntity
  8
HIDDEN
  6
HIDDEN
100
AcDbLine
 10
316.1605996608132
 20
164.1003956936796
 30
0.0
 11
316.1605996608132
 21
174.6003956936796
 31
0.0
  0
LINE
  5
11A6
330
1F
100
AcDbEntity
  8
HIDDEN
  6
HIDDEN
100
AcDbLine
 10
316.1605996608132
 20
164.1003956936796
 30
0.0
 11
309.6605996608132
 21
164.1003956936796
 31
0.0
  0
LINE
  5
11A7
330
1F
100
AcDbEntity
  8
HIDDEN
  6
HIDDEN
100
AcDbLine
 10
316.1605996608132
 20
174.6003956936796
 30
0.0
 11
309.6605996608132
 21
174.6003956936796
 31
0.0
  0
LINE
  5
11A8
330
1F
100
AcDbEntity
  8
DIM
100
AcDbLine
 10
325.6605996608131
 20
160.8503956936796
 30
0.0
 11
343.6605996608132
 21
160.8503956936797
 31
0.0
  0
SOLID
  5
11A9
330
1F
100
AcDbEntity
  8
DIM
100
AcDbTrace
 10
342.1605996608132
 20
163.8503956936796
 30
0.0
 11
343.1605996608132
 21
163.8503956936796
 31
0.0
 12
342.6605996608132
 22
160.8503956936797
 32
0.0
 13
342.6605996608132
 23
160.8503956936797
 33
0.0
  0
SOLID
  5
11AA
330
1F
100
AcDbEntity
  8
DIM
100
AcDbTrace
 10
334.1605996608132
 20
174.3503956936796
 30
0.0
 11
335.1605996608132
 21
174.3503956936796
 31
0.0
 12
334.6605996608132
 22
171.3503956936796
 32
0.0
 13
334.6605996608132
 23
171.3503956936796
 33
0.0
  0
LINE
  5
11AB
330
1F
100
AcDbEntity
  8
DIM
100
AcDbLine
 10
329.4072750103492
 20
171.3503956936796
 30
0.0
 11
335.6605996608132
 21
171.3503956936796
 31
0.0
  0
LINE
  5
11AC
330
1F
100
AcDbEntity
  8
CENTER
  6
CENTER
100
AcDbLine
 10
382.3949534598057
 20
150.3503956936795
 30
0.0
 11
394.9949534598057
 21
150.3503956936795
 31
0.0
  0
LINE
  5
11AD
330
1F
100
AcDbEntity
  8
CENTER
  6
CENTER
100
AcDbLine
 10
380.4449534598057
 20
169.3503956936797
 30
0.0
 11
396.9449534598057
 21
169.3503956936797
 31
0.0
  0
CIRCLE
  5
11AE
330
1F
100
AcDbEntity
  8
HIDDEN
  6
HIDDEN
100
AcDbCircle
 10
388.6949534598057
 20
169.3503956936797
 30
0.0
 40
5.25
  0
LINE
  5
11AF
330
1F
100
AcDbEntity
  8
0
100
AcDbLine
 10
382.4449534598057
 20
160.8503956936797
 30
0.0
 11
427.4449534598057
 21
160.8503956936797
 31
0.0
  0
LINE
  5
11B0
330
1F
100
AcDbEntity
  8
DIM
100
AcDbLine
 10
391.6949534598058
 20
135.3503956936797
 30
0.0
 11
418.1949534598057
 21
135.3503956936797
 31
0.0
  0
LINE
  5
11B1
330
1F
100
AcDbEntity
  8
DIM
100
AcDbLine
 10
385.4449534598058
 20
127.3503956936796
 30
0.0
 11
424.4449534598057
 21
127.3503956936796
 31
0.0
  0
LINE
  5
11B2
330
1F
100
AcDbEntity
  8
DIM
100
AcDbLine
 10
382.9449534598058
 20
119.3503956936797
 30
0.0
 11
426.9449534598058
 21
119.3503956936797
 31
0.0
  0
LINE
  5
11B3
330
1F
100
AcDbEntity
  8
0
  6
CONTINUOUS
100
AcDbLine
 10
381.9449534598057
 20
143.3503956936797
 30
0.0
 11
427.9449534598056
 21
143.3503956936797
 31
0.0
  0
LINE
  5
11B4
330
1F
100
AcDbEntity
  8
DIM
100
AcDbLine
 10
382.4449534598057
 20
159.8503956936797
 30
0.0
 11
382.4449534598057
 21
126.3503956936796
 31
0.0
  0
CIRCLE
  5
11B5
330
1F
100
AcDbEntity
  8
0
  6
CONTINUOUS
100
AcDbCircle
 10
388.6949534598057
 20
150.3503956936797
 30
0.0
 40
3.299999999999999
  0
LINE
  5
11B6
330
1F
100
AcDbEntity
  8
DIM
100
AcDbLine
 10
388.6949534598057
 20
142.501122075388
 30
0.0
 11
388.6949534598057
 21
134.3503956936797
 31
0.0
  0
LINE
  5
11B7
330
1F
100
AcDbEntity
  8
DIM
100
AcDbLine
 10
379.9449534598057
 20
142.5927882738511
 30
0.0
 11
379.9449534598057
 21
118.3503956936797
 31
0.0
  0
SOLID
  5
11B8
330
1F
100
AcDbEntity
  8
DIM
100
AcDbTrace
 10
382.9449534598058
 20
119.8503956936797
 30
0.0
 11
382.9449534598058
 21
118.8503956936797
 31
0.0
 12
379.9449534598057
 22
119.3503956936797
 32
0.0
 13
379.9449534598057
 23
119.3503956936797
 33
0.0
  0
SOLID
  5
11B9
330
1F
100
AcDbEntity
  8
DIM
100
AcDbTrace
 10
385.4449534598058
 20
127.8503956936797
 30
0.0
 11
385.4449534598058
 21
126.8503956936797
 31
0.0
 12
382.4449534598057
 22
127.3503956936796
 32
0.0
 13
382.4449534598057
 23
127.3503956936796
 33
0.0
  0
LINE
  5
11BA
330
1F
100
AcDbEntity
  8
0
  6
CONTINUOUS
100
AcDbLine
 10
379.9449534598057
 20
145.3503956936797
 30
0.0
 11
381.9449534598057
 21
143.3503956936797
 31
0.0
  0
SOLID
  5
11BB
330
1F
100
AcDbEntity
  8
DIM
100
AcDbTrace
 10
391.6949534598058
 20
135.8503956936796
 30
0.0
 11
391.6949534598058
 21
134.8503956936797
 31
0.0
 12
388.6949534598057
 22
135.3503956936797
 32
0.0
 13
388.6949534598057
 23
135.3503956936797
 33
0.0
  0
CIRCLE
  5
11BC
330
1F
100
AcDbEntity
  8
0
100
AcDbCircle
 10
388.6949534598057
 20
169.3503956936797
 30
0.0
 40
3.25
  0
LINE
  5
11BD
330
1F
100
AcDbEntity
  8
DIM
100
AcDbLine
 10
427.4449534598057
 20
159.8503956936797
 30
0.0
 11
427.4449534598057
 21
126.3503956936796
 31
0.0
  0
CIRCLE
  5
11BE
330
1F
100
AcDbEntity
  8
0
  6
CONTINUOUS
100
AcDbCircle
 10
421.1949534598057
 20
150.3503956936797
 30
0.0
 40
3.299999999999999
  0
LINE
  5
11BF
330
1F
100
AcDbEntity
  8
CENTER
  6
CENTER
100
AcDbLine
 10
414.8949534598058
 20
150.3503956936795
 30
0.0
 11
427.4949534598057
 21
150.3503956936796
 31
0.0
  0
TEXT
  5
11C0
330
1F
100
AcDbEntity
  8
DIM
100
AcDbText
 10
402.5163820312343
 20
128.8503956936797
 30
0.0
 40
3.0
  1
45
  7
ROMANSS
 72
     1
 11
404.9449534598058
 21
130.3503956936796
 31
0.0
100
AcDbText
 73
     2
  0
TEXT
  5
11C1
330
1F
100
AcDbEntity
  8
DIM
100
AcDbText
 10
402.5163820312343
 20
120.8503956936797
 30
0.0
 40
3.0
  1
50
  7
ROMANSS
 72
     1
 11
404.9449534598058
 21
122.3503956936797
 31
0.0
100
AcDbText
 73
     2
  0
TEXT
  5
11C2
330
1F
100
AcDbEntity
  8
DIM
100
AcDbText
 10
400.3735248883772
 20
136.8503956936796
 30
0.0
 40
3.0
  1
32.5
  7
ROMANSS
 72
     1
 11
404.9449534598058
 21
138.3503956936797
 31
0.0
100
AcDbText
 73
     2
  0
LINE
  5
11C3
330
1F
100
AcDbEntity
  8
DIM
100
AcDbLine
 10
429.9449534598058
 20
143.3575924465393
 30
0.0
 11
429.9449534598058
 21
118.3503956936797
 31
0.0
  0
LINE
  5
11C4
330
1F
100
AcDbEntity
  8
DIM
100
AcDbLine
 10
421.1949534598057
 20
142.3754228051453
 30
0.0
 11
421.1949534598057
 21
134.3503956936797
 31
0.0
  0
SOLID
  5
11C5
330
1F
100
AcDbEntity
  8
DIM
100
AcDbTrace
 10
424.4449534598057
 20
127.8503956936797
 30
0.0
 11
424.4449534598057
 21
126.8503956936797
 31
0.0
 12
427.4449534598057
 22
127.3503956936796
 32
0.0
 13
427.4449534598057
 23
127.3503956936796
 33
0.0
  0
SOLID
  5
11C6
330
1F
100
AcDbEntity
  8
DIM
100
AcDbTrace
 10
426.9449534598058
 20
119.8503956936797
 30
0.0
 11
426.9449534598058
 21
118.8503956936797
 31
0.0
 12
429.9449534598058
 22
119.3503956936797
 32
0.0
 13
429.9449534598058
 23
119.3503956936797
 33
0.0
  0
SOLID
  5
11C7
330
1F
100
AcDbEntity
  8
DIM
100
AcDbTrace
 10
418.1949534598057
 20
135.8503956936796
 30
0.0
 11
418.1949534598057
 21
134.8503956936797
 31
0.0
 12
421.1949534598057
 22
135.3503956936797
 32
0.0
 13
421.1949534598057
 23
135.3503956936797
 33
0.0
  0
LINE
  5
11C8
330
1F
100
AcDbEntity
  8
0
  6
CONTINUOUS
100
AcDbLine
 10
429.9449534598057
 20
145.3503956936797
 30
0.0
 11
427.9449534598056
 21
143.3503956936797
 31
0.0
  0
LINE
  5
11C9
330
1F
100
AcDbEntity
  8
CENTER
  6
CENTER
100
AcDbLine
 10
412.9449534598057
 20
169.3503956936797
 30
0.0
 11
429.4449534598057
 21
169.3503956936797
 31
0.0
  0
CIRCLE
  5
11CA
330
1F
100
AcDbEntity
  8
0
100
AcDbCircle
 10
404.9449534598058
 20
171.3503956936797
 30
0.0
 40
4.53810623556582
  0
CIRCLE
  5
11CB
330
1F
100
AcDbEntity
  8
0
100
AcDbCircle
 10
404.9449534598058
 20
171.3503956936797
 30
0.0
 40
5.0
  0
POLYLINE
  5
11CC
330
1F
100
AcDbEntity
  8
0
100
AcDb2dPolyline
 66
     1
 10
0.0
 20
0.0
 30
0.0
 70
     1
  0
VERTEX
  5
1476
330
11CC
100
AcDbEntity
  8
0
100
AcDbVertex
100
AcDb2dVertex
 10
403.5015777868316
 20
173.8503956936797
 30
0.0
  0
VERTEX
  5
1477
330
11CC
100
AcDbEntity
  8
0
100
AcDbVertex
100
AcDb2dVertex
 10
402.0582021138576
 20
171.3503956936797
 30
0.0
  0
VERTEX
  5
1478
330
11CC
100
AcDbEntity
  8
0
100
AcDbVertex
100
AcDb2dVertex
 10
403.5015777868316
 20
168.8503956936797
 30
0.0
  0
VERTEX
  5
1479
330
11CC
100
AcDbEntity
  8
0
100
AcDbVertex
100
AcDb2dVertex
 10
406.3883291327798
 20
168.8503956936797
 30
0.0
  0
VERTEX
  5
147A
330
11CC
100
AcDbEntity
  8
0
100
AcDbVertex
100
AcDb2dVertex
 10
407.8317048057539
 20
171.3503956936797
 30
0.0
  0
VERTEX
  5
147B
330
11CC
100
AcDbEntity
  8
0
100
AcDbVertex
100
AcDb2dVertex
 10
406.3883291327798
 20
173.8503956936797
 30
0.0
  0
SEQEND
  5
147C
330
11CC
100
AcDbEntity
  8
0
  0
LINE
  5
11CD
330
1F
100
AcDbEntity
  8
CENTER
  6
CENTER
100
AcDbLine
 10
396.9449534598057
 20
171.3503956936797
 30
0.0
 11
412.9449534598057
 21
171.3503956936797
 31
0.0
  0
CIRCLE
  5
11CE
330
1F
100
AcDbEntity
  8
HIDDEN
  6
HIDDEN
100
AcDbCircle
 10
421.1949534598057
 20
169.3503956936797
 30
0.0
 40
5.25
  0
CIRCLE
  5
11CF
330
1F
100
AcDbEntity
  8
0
100
AcDbCircle
 10
421.1949534598057
 20
169.3503956936797
 30
0.0
 40
3.25
  0
SOLID
  5
11D0
330
1F
100
AcDbEntity
  8
DIM
  6
CONTINUOUS
100
AcDbTrace
 10
461.4449534598056
 20
153.3503956936797
 30
0.0
 11
462.4449534598056
 21
153.3503956936797
 31
0.0
 12
461.9449534598056
 22
150.3503956936797
 32
0.0
 13
461.9449534598056
 23
150.3503956936797
 33
0.0
  0
SOLID
  5
11D1
330
1F
100
AcDbEntity
  8
DIM
100
AcDbTrace
 10
469.4449534598057
 20
146.3503956936797
 30
0.0
 11
470.4449534598056
 21
146.3503956936797
 31
0.0
 12
469.9449534598056
 22
143.3503956936797
 32
0.0
 13
469.9449534598056
 23
143.3503956936797
 33
0.0
  0
SOLID
  5
11D2
330
1F
100
AcDbEntity
  8
DIM
100
AcDbTrace
 10
453.4449534598056
 20
163.8503956936796
 30
0.0
 11
454.4449534598056
 21
163.8503956936796
 31
0.0
 12
453.9449534598056
 22
160.8503956936797
 32
0.0
 13
453.9449534598056
 23
160.8503956936797
 33
0.0
  0
SOLID
  5
11D3
330
1F
100
AcDbEntity
  8
DIM
100
AcDbTrace
 10
445.4449534598057
 20
172.3503956936797
 30
0.0
 11
446.4449534598058
 21
172.3503956936797
 31
0.0
 12
445.9449534598057
 22
169.3503956936797
 32
0.0
 13
445.9449534598057
 23
169.3503956936797
 33
0.0
  0
LINE
  5
11D4
330
1F
100
AcDbEntity
  8
DIM
100
AcDbLine
 10
428.1949534598058
 20
224.6003956936796
 30
0.0
 11
438.9449534598058
 21
224.6003956936796
 31
0.0
  0
LINE
  5
11D5
330
1F
100
AcDbEntity
  8
DIM
100
AcDbLine
 10
430.4449534598058
 20
247.3503956936797
 30
0.0
 11
446.9449534598058
 21
247.3503956936797
 31
0.0
  0
LINE
  5
11D6
330
1F
100
AcDbEntity
  8
DIM
100
AcDbLine
 10
428.4449534598057
 20
255.8503956936797
 30
0.0
 11
454.9449534598056
 21
255.8503956936797
 31
0.0
  0
LINE
  5
11D7
330
1F
100
AcDbEntity
  8
DIM
100
AcDbLine
 10
430.9449534598058
 20
273.3503956936798
 30
0.0
 11
470.9449534598056
 21
273.3503956936798
 31
0.0
  0
LINE
  5
11D8
330
1F
100
AcDbEntity
  8
DIM
100
AcDbLine
 10
424.4658115274278
 20
229.625834556473
 30
0.0
 11
460.6092248204482
 21
281.0201524463039
 31
0.0
  0
LINE
  5
11D9
330
1F
100
AcDbEntity
  8
DIM
  6
CONTINUOUS
100
AcDbLine
 10
428.5812614992645
 20
266.3503956936796
 30
0.0
 11
462.9449534598056
 21
266.3503956936796
 31
0.0
  0
LINE
  5
11DA
330
1F
100
AcDbEntity
  8
DIM
100
AcDbLine
 10
428.1949534598058
 20
192.1003956936797
 30
0.0
 11
438.9449534598058
 21
192.1003956936797
 31
0.0
  0
LINE
  5
11DB
330
1F
100
AcDbEntity
  8
HIDDEN
  6
HIDDEN
100
AcDbLine
 10
316.1605996608132
 20
318.1303002776834
 30
0.0
 11
316.1605996608133
 21
307.6303002776834
 31
0.0
  0
LINE
  5
11DC
330
1F
100
AcDbEntity
  8
0
100
AcDbLine
 10
300.6605996608132
 20
323.1303002776832
 30
0.0
 11
300.6605996608132
 21
312.6303002776833
 31
0.0
  0
LINE
  5
11DD
330
1F
100
AcDbEntity
  8
0
100
AcDbLine
 10
270.6605996608133
 20
315.1303002776833
 30
0.0
 11
269.6605996608133
 21
314.1303002776833
 31
0.0
  0
LINE
  5
11DE
330
1F
100
AcDbEntity
  8
0
100
AcDbLine
 10
324.6605996608132
 20
351.6303002776833
 30
0.0
 11
324.6605996608132
 21
306.6303002776833
 31
0.0
  0
LINE
  5
11DF
330
1F
100
AcDbEntity
  8
0
100
AcDbLine
 10
309.6605996608132
 20
351.6303002776833
 30
0.0
 11
309.6605996608132
 21
306.6303002776833
 31
0.0
  0
LINE
  5
11E0
330
1F
100
AcDbEntity
  8
0
100
AcDbLine
 10
269.6605996608134
 20
354.1303002776833
 30
0.0
 11
269.6605996608132
 21
304.1303002776833
 31
0.0
  0
LINE
  5
11E1
330
1F
100
AcDbEntity
  8
0
100
AcDbLine
 10
254.6605996608134
 20
354.1303002776833
 30
0.0
 11
254.6605996608132
 21
304.1303002776833
 31
0.0
  0
LINE
  5
11E2
330
1F
100
AcDbEntity
  8
DIM
100
AcDbLine
 10
371.7048826287496
 20
281.2253124426201
 30
0.0
 11
344.6417107253175
 21
281.2253124426201
 31
0.0
  0
TEXT
  5
11E3
330
1F
100
AcDbEntity
  8
DIM
100
AcDbText
 10
343.2637640491817
 20
277.20710030408
 30
0.0
 40
3.0
  1
%%c10.5x6.5dp
  7
ROMANSS
 72
     2
 11
369.4066211920389
 21
278.70710030408
 31
0.0
100
AcDbText
 73
     2
  0
LINE
  5
11E4
330
1F
100
AcDbEntity
  8
DIM
100
AcDbLine
 10
363.8625783124336
 20
264.7656316619653
 30
0.0
 11
340.7915675049334
 21
264.7656316619653
 31
0.0
  0
TEXT
  5
11E5
330
1F
100
AcDbEntity
  8
DIM
100
AcDbText
 10
337.7737103620763
 20
266.2656316619652
 30
0.0
 40
3.0
  1
2-%%c6H7x6L
  7
ROMANSS
 72
     2
 11
362.9165675049335
 21
267.7656316619652
 31
0.0
100
AcDbText
 73
     2
  0
LINE
  5
11E6
330
1F
100
AcDbEntity
  8
HIDDEN
  6
HIDDEN
100
AcDbLine
 10
316.1605996608132
 20
252.6003956936798
 30
0.0
 11
316.1605996608132
 21
242.1003956936797
 31
0.0
  0
LINE
  5
11E7
330
1F
100
AcDbEntity
  8
0
100
AcDbLine
 10
286.1605996608131
 20
234.8503956936796
 30
0.0
 11
286.1605996608131
 21
255.8503956936799
 31
0.0
  0
LINE
  5
11E8
330
1F
100
AcDbEntity
  8
0
100
AcDbLine
 10
299.1605996608132
 20
214.8503956936796
 30
0.0
 11
300.6605996608133
 21
214.8503956936797
 31
0.0
  0
LINE
  5
11E9
330
1F
100
AcDbEntity
  8
0
100
AcDbLine
 10
286.1605996608131
 20
239.3503956936796
 30
0.0
 11
309.6605996608132
 21
239.3503956936796
 31
0.0
  0
LINE
  5
11EA
330
1F
100
AcDbEntity
  8
0
100
AcDbLine
 10
299.1605996608132
 20
201.8503956936796
 30
0.0
 11
300.6605996608132
 21
201.8503956936796
 31
0.0
  0
POLYLINE
  5
11EB
330
1F
100
AcDbEntity
  8
0
  6
CONTINUOUS
100
AcDb2dPolyline
 66
     1
 10
0.0
 20
0.0
 30
0.0
  0
VERTEX
  5
147D
330
11EB
100
AcDbEntity
  8
0
  6
CONTINUOUS
100
AcDbVertex
100
AcDb2dVertex
 10
292.2131400765184
 20
217.3753956937323
 30
0.0
 42
-0.3158477786492784
  0
VERTEX
  5
147E
330
11EB
100
AcDbEntity
  8
0
  6
CONTINUOUS
100
AcDbVertex
100
AcDb2dVertex
 10
291.8005996608126
 20
213.3503956937326
 30
0.0
 42
-0.085170391833105
  0
VERTEX
  5
147F
330
11EB
100
AcDbEntity
  8
0
  6
CONTINUOUS
100
AcDbVertex
100
AcDb2dVertex
 10
292.6605996608132
 20
208.3503956937327
 30
0.0
  0
SEQEND
  5
1480
330
11EB
100
AcDbEntity
  8
0
  6
CONTINUOUS
  0
LINE
  5
11EC
330
1F
100
AcDbEntity
  8
0
  6
CONTINUOUS
100
AcDbLine
 10
292.6605996608132
 20
216.6003956937327
 30
0.0
 11
292.6605996608132
 21
200.1003956937327
 31
0.0
  0
LINE
  5
11ED
330
1F
100
AcDbEntity
  8
0
  6
CONTINUOUS
100
AcDbLine
 10
286.6605996608132
 20
216.6003956937332
 30
0.0
 11
286.6605996608132
 21
200.1003956937332
 31
0.0
  0
POLYLINE
  5
11EE
330
1F
100
AcDbEntity
  8
0
  6
CONTINUOUS
100
AcDb2dPolyline
 66
     1
 10
0.0
 20
0.0
 30
0.0
  0
VERTEX
  5
1481
330
11EE
100
AcDbEntity
  8
0
  6
CONTINUOUS
100
AcDbVertex
100
AcDb2dVertex
 10
287.1080592451081
 20
217.3753956937328
 30
0.0
 42
0.3158477786492784
  0
VERTEX
  5
1482
330
11EE
100
AcDbEntity
  8
0
  6
CONTINUOUS
100
AcDbVertex
100
AcDb2dVertex
 10
287.5205996608138
 20
213.3503956937332
 30
0.0
 42
0.085170391833105
  0
VERTEX
  5
1483
330
11EE
100
AcDbEntity
  8
0
  6
CONTINUOUS
100
AcDbVertex
100
AcDb2dVertex
 10
286.6605996608132
 20
208.3503956937332
 30
0.0
  0
SEQEND
  5
1484
330
11EE
100
AcDbEntity
  8
0
  6
CONTINUOUS
  0
LINE
  5
11EF
330
1F
100
AcDbEntity
  8
0
100
AcDbLine
 10
270.6605996608132
 20
222.3503956936796
 30
0.0
 11
270.6605996608132
 21
194.3503956936797
 31
0.0
  0
LINE
  5
11F0
330
1F
100
AcDbEntity
  8
0
100
AcDbLine
 10
254.6605996608132
 20
232.8503956936797
 30
0.0
 11
254.6605996608132
 21
183.8503956936797
 31
0.0
  0
LINE
  5
11F1
330
1F
100
AcDbEntity
  8
0
100
AcDbLine
 10
270.6605996608132
 20
214.3503956936796
 30
0.0
 11
279.6605996608133
 21
214.3503956936796
 31
0.0
  0
LINE
  5
11F2
330
1F
100
AcDbEntity
  8
0
  6
CONTINUOUS
100
AcDbLine
 10
280.6605996608133
 20
211.667020484035
 30
0.0
 11
274.6605996608133
 21
211.667020484035
 31
0.0
  0
LINE
  5
11F3
330
1F
100
AcDbEntity
  8
0
  6
CONTINUOUS
100
AcDbLine
 10
280.6605996608132
 20
205.0337709033242
 30
0.0
 11
274.6605996608132
 21
205.0337709033242
 31
0.0
  0
LINE
  5
11F4
330
1F
100
AcDbEntity
  8
0
  6
CONTINUOUS
 62
     4
100
AcDbLine
 10
280.6605996608133
 20
211.667020484035
 30
0.0
 11
274.6605996608132
 21
205.0337709033242
 31
0.0
  0
LINE
  5
11F5
330
1F
100
AcDbEntity
  8
0
  6
CONTINUOUS
 62
     4
100
AcDbLine
 10
280.6605996608132
 20
205.0337709033242
 30
0.0
 11
274.6605996608133
 21
211.667020484035
 31
0.0
  0
LINE
  5
11F6
330
1F
100
AcDbEntity
  8
0
100
AcDbLine
 10
270.6605996608132
 20
202.3503956936797
 30
0.0
 11
279.6605996608132
 21
202.3503956936797
 31
0.0
  0
LINE
  5
11F7
330
1F
100
AcDbEntity
  8
0
100
AcDbLine
 10
270.6605996608132
 20
194.3503956936797
 30
0.0
 11
269.6605996608131
 21
193.3503956936797
 31
0.0
  0
LINE
  5
11F8
330
1F
100
AcDbEntity
  8
0
100
AcDbLine
 10
274.6605996608133
 20
211.667020484035
 30
0.0
 11
274.6605996608132
 21
205.0337709033242
 31
0.0
  0
ARC
  5
11F9
330
1F
100
AcDbEntity
  8
0
  6
CONTINUOUS
100
AcDbCircle
 10
279.6605996608133
 20
208.3503956936796
 30
0.0
 40
6.000000000000089
100
AcDbArc
 50
146.4426902380799
 51
213.55730976192
  0
LINE
  5
11FA
330
1F
100
AcDbEntity
  8
0
  6
CONTINUOUS
100
AcDbLine
 10
292.6605996608132
 20
200.1003956937327
 30
0.0
 11
291.7656804922217
 21
198.5503956937334
 31
0.0
  0
LINE
  5
11FB
330
1F
100
AcDbEntity
  8
0
  6
CONTINUOUS
100
AcDbLine
 10
286.6605996608132
 20
200.1003956937332
 30
0.0
 11
287.5555188294047
 21
198.5503956937339
 31
0.0
  0
POLYLINE
  5
11FC
330
1F
100
AcDbEntity
  8
0
  6
CONTINUOUS
100
AcDb2dPolyline
 66
     1
 10
0.0
 20
0.0
 30
0.0
  0
VERTEX
  5
1485
330
11FC
100
AcDbEntity
  8
0
  6
CONTINUOUS
100
AcDbVertex
100
AcDb2dVertex
 10
292.2131400765184
 20
199.325395693733
 30
0.0
 42
0.3158477786492784
  0
VERTEX
  5
1486
330
11FC
100
AcDbEntity
  8
0
  6
CONTINUOUS
100
AcDbVertex
100
AcDb2dVertex
 10
291.8005996608126
 20
203.3503956937326
 30
0.0
 42
0.085170391833105
  0
VERTEX
  5
1487
330
11FC
100
AcDbEntity
  8
0
  6
CONTINUOUS
100
AcDbVertex
100
AcDb2dVertex
 10
292.6605996608132
 20
208.3503956937327
 30
0.0
  0
SEQEND
  5
1488
330
11FC
100
AcDbEntity
  8
0
  6
CONTINUOUS
  0
POLYLINE
  5
11FD
330
1F
100
AcDbEntity
  8
0
  6
CONTINUOUS
100
AcDb2dPolyline
 66
     1
 10
0.0
 20
0.0
 30
0.0
  0
VERTEX
  5
1489
330
11FD
100
AcDbEntity
  8
0
  6
CONTINUOUS
100
AcDbVertex
100
AcDb2dVertex
 10
287.1080592451081
 20
199.3253956937336
 30
0.0
 42
-0.3158477786492784
  0
VERTEX
  5
148A
330
11FD
100
AcDbEntity
  8
0
  6
CONTINUOUS
100
AcDbVertex
100
AcDb2dVertex
 10
287.5205996608138
 20
203.3503956937332
 30
0.0
 42
-0.085170391833105
  0
VERTEX
  5
148B
330
11FD
100
AcDbEntity
  8
0
  6
CONTINUOUS
100
AcDbVertex
100
AcDb2dVertex
 10
286.6605996608132
 20
208.3503956937332
 30
0.0
  0
SEQEND
  5
148C
330
11FD
100
AcDbEntity
  8
0
  6
CONTINUOUS
  0
LINE
  5
11FE
330
1F
100
AcDbEntity
  8
0
  6
CONTINUOUS
100
AcDbLine
 10
287.5555188294047
 20
198.5503956937339
 30
0.0
 11
291.7656804922217
 21
198.5503956937339
 31
0.0
  0
LINE
  5
11FF
330
1F
100
AcDbEntity
  8
0
  6
CONTINUOUS
100
AcDbLine
 10
287.5205996608138
 20
213.3503956937332
 30
0.0
 11
291.7656804922217
 21
213.3503956937332
 31
0.0
  0
LINE
  5
1200
330
1F
100
AcDbEntity
  8
0
  6
CONTINUOUS
100
AcDbLine
 10
287.5205996608138
 20
203.3503956937332
 30
0.0
 11
291.7656804922217
 21
203.3503956937332
 31
0.0
  0
LINE
  5
1201
330
1F
100
AcDbEntity
  8
0
100
AcDbLine
 10
280.6605996608133
 20
213.3503956936797
 30
0.0
 11
280.6605996608132
 21
203.3503956936796
 31
0.0
  0
LINE
  5
1202
330
1F
100
AcDbEntity
  8
0
100
AcDbLine
 10
282.6605996608133
 20
213.3503956936797
 30
0.0
 11
282.6605996608132
 21
203.3503956936796
 31
0.0
  0
LINE
  5
1203
330
1F
100
AcDbEntity
  8
0
100
AcDbLine
 10
280.6605996608132
 20
204.3503956936797
 30
0.0
 11
282.6605996608132
 21
204.3503956936797
 31
0.0
  0
LINE
  5
1204
330
1F
100
AcDbEntity
  8
0
100
AcDbLine
 10
280.6605996608132
 20
203.3503956936796
 30
0.0
 11
279.6605996608132
 21
202.3503956936797
 31
0.0
  0
LINE
  5
1205
330
1F
100
AcDbEntity
  8
0
100
AcDbLine
 10
279.6605996608132
 20
205.0337709033242
 30
0.0
 11
279.6605996608132
 21
202.3503956936797
 31
0.0
  0
LINE
  5
1206
330
1F
100
AcDbEntity
  8
0
 62
     2
100
AcDbLine
 10
282.6605996608132
 20
203.9503956936797
 30
0.0
 11
286.6605996608132
 21
203.9503956936797
 31
0.0
  0
LINE
  5
1207
330
1F
100
AcDbEntity
  8
0
100
AcDbLine
 10
282.6605996608132
 20
203.3503956936796
 30
0.0
 11
286.6605996608132
 21
203.3503956936796
 31
0.0
  0
LINE
  5
1208
330
1F
100
AcDbEntity
  8
0
100
AcDbLine
 10
280.6605996608132
 20
212.3503956936796
 30
0.0
 11
282.6605996608133
 21
212.3503956936796
 31
0.0
  0
LINE
  5
1209
330
1F
100
AcDbEntity
  8
0
100
AcDbLine
 10
279.6605996608133
 20
214.3503956936796
 30
0.0
 11
279.6605996608133
 21
211.667020484035
 31
0.0
  0
LINE
  5
120A
330
1F
100
AcDbEntity
  8
0
100
AcDbLine
 10
280.6605996608133
 20
213.3503956936797
 30
0.0
 11
279.6605996608133
 21
214.3503956936796
 31
0.0
  0
LINE
  5
120B
330
1F
100
AcDbEntity
  8
0
 62
     2
100
AcDbLine
 10
282.6605996608133
 20
212.7503956936796
 30
0.0
 11
286.6605996608132
 21
212.7503956936797
 31
0.0
  0
LINE
  5
120C
330
1F
100
AcDbEntity
  8
0
100
AcDbLine
 10
282.6605996608133
 20
213.3503956936797
 30
0.0
 11
286.6605996608132
 21
213.3503956936796
 31
0.0
  0
LINE
  5
120D
330
1F
100
AcDbEntity
  8
0
100
AcDbLine
 10
298.6605996608132
 20
210.8503956936797
 30
0.0
 11
298.6605996608132
 21
205.8503956936796
 31
0.0
  0
ARC
  5
120E
330
1F
100
AcDbEntity
  8
0
100
AcDbCircle
 10
292.6605996608132
 20
208.3503956936797
 30
0.0
 40
6.5
100
AcDbArc
 50
337.3801350519594
 51
22.61986494804061
  0
LINE
  5
120F
330
1F
100
AcDbEntity
  8
0
 62
     4
100
AcDbLine
 10
298.6605996608132
 20
210.8503956936797
 30
0.0
 11
292.6605996608132
 21
205.8503956936796
 31
0.0
  0
LINE
  5
1210
330
1F
100
AcDbEntity
  8
0
 62
     4
100
AcDbLine
 10
292.6605996608132
 20
210.8503956936797
 30
0.0
 11
298.6605996608132
 21
205.8503956936796
 31
0.0
  0
LINE
  5
1211
330
1F
100
AcDbEntity
  8
0
100
AcDbLine
 10
292.6605996608132
 20
214.3503956936797
 30
0.0
 11
292.6605996608132
 21
202.3503956936797
 31
0.0
  0
LINE
  5
1212
330
1F
100
AcDbEntity
  8
0
100
AcDbLine
 10
292.6605996608132
 20
202.3503956936797
 30
0.0
 11
298.6605996608133
 21
202.3503956936797
 31
0.0
  0
LINE
  5
1213
330
1F
100
AcDbEntity
  8
0
100
AcDbLine
 10
298.6605996608132
 20
205.8503956936796
 30
0.0
 11
292.6605996608132
 21
205.8503956936796
 31
0.0
  0
LINE
  5
1214
330
1F
100
AcDbEntity
  8
0
100
AcDbLine
 10
298.6605996608132
 20
202.3503956936797
 30
0.0
 11
299.1605996608132
 21
201.8503956936796
 31
0.0
  0
LINE
  5
1215
330
1F
100
AcDbEntity
  8
0
100
AcDbLine
 10
292.6605996608132
 20
214.3503956936797
 30
0.0
 11
298.6605996608132
 21
214.3503956936797
 31
0.0
  0
LINE
  5
1216
330
1F
100
AcDbEntity
  8
0
100
AcDbLine
 10
298.6605996608132
 20
210.8503956936797
 30
0.0
 11
292.6605996608132
 21
210.8503956936797
 31
0.0
  0
LINE
  5
1217
330
1F
100
AcDbEntity
  8
0
100
AcDbLine
 10
299.1605996608132
 20
214.8503956936796
 30
0.0
 11
298.6605996608131
 21
214.3503956936796
 31
0.0
  0
LINE
  5
1218
330
1F
100
AcDbEntity
  8
0
100
AcDbLine
 10
269.6605996608131
 20
234.8503956936796
 30
0.0
 11
286.1605996608131
 21
234.8503956936796
 31
0.0
  0
LINE
  5
1219
330
1F
100
AcDbEntity
  8
0
100
AcDbLine
 10
269.6605996608132
 20
223.3503956936797
 30
0.0
 11
270.6605996608132
 21
222.3503956936796
 31
0.0
  0
LINE
  5
121A
330
1F
100
AcDbEntity
  8
0
  6
CONTINUOUS
100
AcDbLine
 10
287.5555188294047
 20
218.1503956937325
 30
0.0
 11
291.7656804922217
 21
218.1503956937325
 31
0.0
  0
LINE
  5
121B
330
1F
100
AcDbEntity
  8
0
  6
CONTINUOUS
100
AcDbLine
 10
286.6605996608132
 20
216.6003956937332
 30
0.0
 11
287.5555188294047
 21
218.1503956937325
 31
0.0
  0
LINE
  5
121C
330
1F
100
AcDbEntity
  8
0
  6
CONTINUOUS
100
AcDbLine
 10
292.6605996608132
 20
216.6003956937327
 30
0.0
 11
291.7656804922217
 21
218.1503956937319
 31
0.0
  0
LINE
  5
121D
330
1F
100
AcDbEntity
  8
0
100
AcDbLine
 10
300.6605996608132
 20
224.8503956936797
 30
0.0
 11
300.6605996608132
 21
191.8503956936796
 31
0.0
  0
LINE
  5
121E
330
1F
100
AcDbEntity
  8
HIDDEN
  6
HIDDEN
100
AcDbLine
 10
309.6605996608132
 20
195.1003956936797
 30
0.0
 11
324.6605996608132
 21
195.1003956936797
 31
0.0
  0
LINE
  5
121F
330
1F
100
AcDbEntity
  8
HIDDEN
  6
HIDDEN
100
AcDbLine
 10
309.6605996608132
 20
194.6003956936797
 30
0.0
 11
324.6605996608132
 21
194.6003956936797
 31
0.0
  0
LINE
  5
1220
330
1F
100
AcDbEntity
  8
HIDDEN
  6
HIDDEN
100
AcDbLine
 10
309.6605996608132
 20
189.1003956936796
 30
0.0
 11
324.6605996608132
 21
189.1003956936797
 31
0.0
  0
LINE
  5
1221
330
1F
100
AcDbEntity
  8
HIDDEN
  6
HIDDEN
100
AcDbLine
 10
309.6605996608132
 20
189.6003956936797
 30
0.0
 11
324.6605996608132
 21
189.6003956936796
 31
0.0
  0
LINE
  5
1222
330
1F
100
AcDbEntity
  8
CENTER
  6
CENTER
100
AcDbLine
 10
307.1205865146651
 20
192.1003956936797
 30
0.0
 11
327.5478344291135
 21
192.1003956936796
 31
0.0
  0
LINE
  5
1223
330
1F
100
AcDbEntity
  8
HIDDEN
  6
HIDDEN
100
AcDbLine
 10
318.6605996608133
 20
205.3503956936797
 30
0.0
 11
324.6605996608132
 21
205.3503956936797
 31
0.0
  0
LINE
  5
1224
330
1F
100
AcDbEntity
  8
HIDDEN
  6
HIDDEN
100
AcDbLine
 10
318.6605996608133
 20
211.3503956936797
 30
0.0
 11
324.6605996608132
 21
211.3503956936797
 31
0.0
  0
LINE
  5
1225
330
1F
100
AcDbEntity
  8
0
100
AcDbLine
 10
300.6605996608132
 20
191.8503956936796
 30
0.0
 11
309.6605996608132
 21
191.8503956936796
 31
0.0
  0
LINE
  5
1226
330
1F
100
AcDbEntity
  8
0
100
AcDbLine
 10
300.6605996608132
 20
212.3503956936796
 30
0.0
 11
300.6605996608132
 21
204.3503956936797
 31
0.0
  0
LINE
  5
1227
330
1F
100
AcDbEntity
  8
HIDDEN
  6
HIDDEN
100
AcDbLine
 10
318.6605996608132
 20
211.3503956936797
 30
0.0
 11
318.6605996608132
 21
205.3503956936797
 31
0.0
  0
TEXT
  5
1228
330
1F
100
AcDbEntity
  8
DIM
100
AcDbText
 10
333.1605996608132
 20
205.8503956936796
 30
0.0
 40
3.0
  1
74
 50
90.0
  7
ROMANSS
 72
     1
 11
331.6605996608132
 21
208.3503956936796
 31
0.0
100
AcDbText
 73
     2
  0
TEXT
  5
1229
330
1F
100
AcDbEntity
  8
DIM
100
AcDbText
 10
341.1605996608132
 20
205.9218242651082
 30
0.0
 40
3.0
  1
95
 50
90.0
  7
ROMANSS
 72
     1
 11
339.6605996608132
 21
208.3503956936797
 31
0.0
100
AcDbText
 73
     2
  0
LINE
  5
122A
330
1F
100
AcDbEntity
  8
HIDDEN
  6
HIDDEN
100
AcDbLine
 10
309.6605996608132
 20
221.6003956936796
 30
0.0
 11
324.6605996608132
 21
221.6003956936796
 31
0.0
  0
LINE
  5
122B
330
1F
100
AcDbEntity
  8
HIDDEN
  6
HIDDEN
100
AcDbLine
 10
309.6605996608132
 20
222.1003956936796
 30
0.0
 11
324.6605996608132
 21
222.1003956936796
 31
0.0
  0
LINE
  5
122C
330
1F
100
AcDbEntity
  8
HIDDEN
  6
HIDDEN
100
AcDbLine
 10
309.6605996608132
 20
227.6003956936797
 30
0.0
 11
324.6605996608132
 21
227.6003956936796
 31
0.0
  0
LINE
  5
122D
330
1F
100
AcDbEntity
  8
HIDDEN
  6
HIDDEN
100
AcDbLine
 10
309.6605996608132
 20
227.1003956936796
 30
0.0
 11
324.6605996608132
 21
227.1003956936797
 31
0.0
  0
LINE
  5
122E
330
1F
100
AcDbEntity
  8
HIDDEN
  6
HIDDEN
100
AcDbLine
 10
324.6605996608132
 20
244.1003956936797
 30
0.0
 11
316.1605996608132
 21
244.1003956936797
 31
0.0
  0
LINE
  5
122F
330
1F
100
AcDbEntity
  8
CENTER
  6
CENTER
100
AcDbLine
 10
307.5191669617763
 20
247.3503956936796
 30
0.0
 11
327.591955662459
 21
247.3503956936797
 31
0.0
  0
LINE
  5
1230
330
1F
100
AcDbEntity
  8
CENTER
  6
CENTER
100
AcDbLine
 10
307.1205865146651
 20
224.6003956936796
 30
0.0
 11
327.5478344291135
 21
224.6003956936797
 31
0.0
  0
LINE
  5
1231
330
1F
100
AcDbEntity
  8
0
100
AcDbLine
 10
300.6605996608132
 20
224.8503956936797
 30
0.0
 11
309.6605996608132
 21
224.8503956936797
 31
0.0
  0
LINE
  5
1232
330
1F
100
AcDbEntity
  8
HIDDEN
  6
HIDDEN
100
AcDbLine
 10
316.1605996608132
 20
242.1003956936797
 30
0.0
 11
309.6605996608132
 21
242.1003956936797
 31
0.0
  0
SOLID
  5
1233
330
1F
100
AcDbEntity
  8
DIM
100
AcDbTrace
 10
334.1605996608132
 20
242.3503956936796
 30
0.0
 11
335.1605996608132
 21
242.3503956936796
 31
0.0
 12
334.6605996608132
 22
245.3503956936796
 32
0.0
 13
334.6605996608132
 23
245.3503956936796
 33
0.0
  0
LINE
  5
1234
330
1F
100
AcDbEntity
  8
DIM
100
AcDbLine
 10
329.4072750103492
 20
245.3503956936796
 30
0.0
 11
335.6605996608132
 21
245.3503956936796
 31
0.0
  0
LINE
  5
1235
330
1F
100
AcDbEntity
  8
0
100
AcDbLine
 10
286.1605996608131
 20
251.3503956936799
 30
0.0
 11
309.6605996608132
 21
251.3503956936795
 31
0.0
  0
LINE
  5
1236
330
1F
100
AcDbEntity
  8
DIM
100
AcDbLine
 10
287.5657604014737
 20
255.8503956936797
 30
0.0
 11
308.6605996608132
 21
255.8503956936796
 31
0.0
  0
LINE
  5
1237
330
1F
100
AcDbEntity
  8
0
100
AcDbLine
 10
269.6605996608131
 20
255.8503956936797
 30
0.0
 11
286.160599660813
 21
255.8503956936796
 31
0.0
  0
LINE
  5
1238
330
1F
100
AcDbEntity
  8
HIDDEN
  6
HIDDEN
100
AcDbLine
 10
254.6605996608133
 20
263.0503956936797
 30
0.0
 11
269.6605996608133
 21
263.0503956936797
 31
0.0
  0
LINE
  5
1239
330
1F
100
AcDbEntity
  8
0
  6
CONTINUOUS
100
AcDbLine
 10
254.660599660813
 20
273.3503956936798
 30
0.0
 11
269.660599660813
 21
273.3503956936798
 31
0.0
  0
LINE
  5
123A
330
1F
100
AcDbEntity
  8
HIDDEN
  6
HIDDEN
100
AcDbLine
 10
254.6605996608134
 20
269.6503956936797
 30
0.0
 11
269.6605996608134
 21
269.6503956936797
 31
0.0
  0
LINE
  5
123B
330
1F
100
AcDbEntity
  8
0
  6
CONTINUOUS
100
AcDbLine
 10
254.6605996608132
 20
304.1303002776833
 30
0.0
 11
269.6605996608133
 21
304.1303002776833
 31
0.0
  0
LINE
  5
123C
330
1F
100
AcDbEntity
  8
HIDDEN
  6
HIDDEN
100
AcDbLine
 10
254.6605996608132
 20
309.5803002776833
 30
0.0
 11
269.6605996608132
 21
309.5803002776833
 31
0.0
  0
LINE
  5
123D
330
1F
100
AcDbEntity
  8
DIM
100
AcDbLine
 10
324.6605996608132
 20
256.8503956936797
 30
0.0
 11
324.6605996608132
 21
282.3503956936796
 31
0.0
  0
LINE
  5
123E
330
1F
100
AcDbEntity
  8
HIDDEN
  6
HIDDEN
100
AcDbLine
 10
324.6605996608132
 20
250.6003956936797
 30
0.0
 11
316.1605996608132
 21
250.6003956936797
 31
0.0
  0
SOLID
  5
123F
330
1F
100
AcDbEntity
  8
DIM
100
AcDbTrace
 10
321.6605996608132
 20
280.8503956936796
 30
0.0
 11
321.6605996608132
 21
281.8503956936796
 31
0.0
 12
324.6605996608132
 22
281.3503956936796
 32
0.0
 13
324.6605996608132
 23
281.3503956936796
 33
0.0
  0
LINE
  5
1240
330
1F
100
AcDbEntity
  8
0
100
AcDbLine
 10
309.6605996608132
 20
255.8503956936796
 30
0.0
 11
324.6605996608132
 21
255.8503956936796
 31
0.0
  0
LINE
  5
1241
330
1F
100
AcDbEntity
  8
HIDDEN
  6
HIDDEN
100
AcDbLine
 10
316.1605996608132
 20
252.6003956936797
 30
0.0
 11
309.6605996608132
 21
252.6003956936798
 31
0.0
  0
LINE
  5
1242
330
1F
100
AcDbEntity
  8
DIM
100
AcDbLine
 10
325.6605996608131
 20
255.8503956936796
 30
0.0
 11
343.6605996608132
 21
255.8503956936797
 31
0.0
  0
SOLID
  5
1243
330
1F
100
AcDbEntity
  8
DIM
100
AcDbTrace
 10
342.1605996608132
 20
252.8503956936797
 30
0.0
 11
343.1605996608132
 21
252.8503956936797
 31
0.0
 12
342.6605996608132
 22
255.8503956936797
 32
0.0
 13
342.6605996608132
 23
255.8503956936797
 33
0.0
  0
LINE
  5
1244
330
1F
100
AcDbEntity
  8
HIDDEN
  6
HIDDEN
100
AcDbLine
 10
324.6605996608133
 20
309.6303002776834
 30
0.0
 11
316.1605996608133
 21
309.6303002776834
 31
0.0
  0
LINE
  5
1245
330
1F
100
AcDbEntity
  8
CENTER
  6
CENTER
100
AcDbLine
 10
306.6355567277789
 20
312.8803002776833
 30
0.0
 11
327.6355567277789
 21
312.8803002776833
 31
0.0
  0
LINE
  5
1246
330
1F
100
AcDbEntity
  8
0
  6
CONTINUOUS
100
AcDbLine
 10
309.6605996608132
 20
306.6303002776833
 30
0.0
 11
324.6605996608132
 21
306.6303002776833
 31
0.0
  0
LINE
  5
1247
330
1F
100
AcDbEntity
  8
HIDDEN
  6
HIDDEN
100
AcDbLine
 10
316.1605996608132
 20
307.6303002776834
 30
0.0
 11
309.6605996608133
 21
307.6303002776834
 31
0.0
  0
LINE
  5
1248
330
1F
100
AcDbEntity
  8
0
100
AcDbLine
 10
300.6605996608132
 20
312.6303002776833
 30
0.0
 11
309.6605996608132
 21
312.6303002776833
 31
0.0
  0
CIRCLE
  5
1249
330
1F
100
AcDbEntity
  8
0
100
AcDbCircle
 10
404.9449534598058
 20
245.3503956936797
 30
0.0
 40
4.53810623556582
  0
CIRCLE
  5
124A
330
1F
100
AcDbEntity
  8
0
100
AcDbCircle
 10
404.9449534598058
 20
245.3503956936797
 30
0.0
 40
5.0
  0
CIRCLE
  5
124B
330
1F
100
AcDbEntity
  8
HIDDEN
  6
HIDDEN
100
AcDbCircle
 10
421.1949534598057
 20
247.3503956936797
 30
0.0
 40
5.25
  0
CIRCLE
  5
124C
330
1F
100
AcDbEntity
  8
0
100
AcDbCircle
 10
421.1949534598057
 20
247.3503956936797
 30
0.0
 40
3.25
  0
CIRCLE
  5
124D
330
1F
100
AcDbEntity
  8
0
100
AcDbCircle
 10
388.6949534598057
 20
247.3503956936797
 30
0.0
 40
3.25
  0
CIRCLE
  5
124E
330
1F
100
AcDbEntity
  8
HIDDEN
  6
HIDDEN
100
AcDbCircle
 10
388.6949534598057
 20
247.3503956936797
 30
0.0
 40
5.25
  0
LINE
  5
124F
330
1F
100
AcDbEntity
  8
DIM
100
AcDbLine
 10
386.0740272021087
 20
213.7418278565637
 30
0.0
 11
363.8625783124336
 21
264.7656316619653
 31
0.0
  0
LINE
  5
1250
330
1F
100
AcDbEntity
  8
CENTER
  6
CENTER
100
AcDbLine
 10
380.4449534598057
 20
247.3503956936797
 30
0.0
 11
396.9449534598057
 21
247.3503956936797
 31
0.0
  0
LINE
  5
1251
330
1F
100
AcDbEntity
  8
CENTER
  6
CENTER
100
AcDbLine
 10
382.6949534598057
 20
224.6003956936796
 30
0.0
 11
394.6949534598057
 21
224.6003956936796
 31
0.0
  0
LINE
  5
1252
330
1F
100
AcDbEntity
  8
CENTER
  6
CENTER
100
AcDbLine
 10
382.6949534598057
 20
192.1003956936797
 30
0.0
 11
394.6949534598057
 21
192.1003956936797
 31
0.0
  0
LINE
  5
1253
330
1F
100
AcDbEntity
  8
CENTER
  6
CENTER
100
AcDbLine
 10
376.9449534598058
 20
208.3503956936796
 30
0.0
 11
432.9449534598057
 21
208.3503956936796
 31
0.0
  0
ARC
  5
1254
330
1F
100
AcDbEntity
  8
0
 62
     2
100
AcDbCircle
 10
388.6949534598057
 20
192.1003956936797
 30
0.0
 40
3.000000000000003
100
AcDbArc
 50
255.0000000000055
 51
194.9999999999944
  0
CIRCLE
  5
1255
330
1F
100
AcDbEntity
  8
0
100
AcDbCircle
 10
388.6949534598057
 20
192.1003956936797
 30
0.0
 40
2.5
  0
CIRCLE
  5
1256
330
1F
100
AcDbEntity
  8
0
100
AcDbCircle
 10
388.6949534598057
 20
208.3503956936797
 30
0.0
 40
3.0
  0
SOLID
  5
1257
330
1F
100
AcDbEntity
  8
DIM
100
AcDbTrace
 10
386.5324728653132
 20
213.9413963257393
 30
0.0
 11
385.6155815389044
 21
213.5422593873882
 31
0.0
 12
387.271438017162
 22
210.9911538773373
 32
0.0
 13
387.271438017162
 23
210.9911538773373
 33
0.0
  0
ARC
  5
1258
330
1F
100
AcDbEntity
  8
0
 62
     2
100
AcDbCircle
 10
388.6949534598057
 20
224.6003956936796
 30
0.0
 40
3.000000000000003
100
AcDbArc
 50
255.0000000000055
 51
194.9999999999944
  0
CIRCLE
  5
1259
330
1F
100
AcDbEntity
  8
0
100
AcDbCircle
 10
388.6949534598057
 20
224.6003956936796
 30
0.0
 40
2.5
  0
CIRCLE
  5
125A
330
1F
100
AcDbEntity
  8
0
100
AcDbCircle
 10
404.9449534598058
 20
221.3503956936797
 30
0.0
 40
5.0
  0
LINE
  5
125B
330
1F
100
AcDbEntity
  8
DIM
100
AcDbLine
 10
437.9449534598058
 20
195.1003956936796
 30
0.0
 11
437.9449534598058
 21
221.6003956936797
 31
0.0
  0
LINE
  5
125C
330
1F
100
AcDbEntity
  8
CENTER
  6
CENTER
100
AcDbLine
 10
415.1949534598058
 20
192.1003956936797
 30
0.0
 11
427.1949534598057
 21
192.1003956936797
 31
0.0
  0
CIRCLE
  5
125D
330
1F
100
AcDbEntity
  8
0
100
AcDbCircle
 10
404.9449534598058
 20
195.3503956936797
 30
0.0
 40
5.0
  0
POLYLINE
  5
125E
330
1F
100
AcDbEntity
  8
0
100
AcDb2dPolyline
 66
     1
 10
0.0
 20
0.0
 30
0.0
 70
     1
  0
VERTEX
  5
148D
330
125E
100
AcDbEntity
  8
0
100
AcDbVertex
100
AcDb2dVertex
 10
403.5015777868316
 20
197.8503956936797
 30
0.0
  0
VERTEX
  5
148E
330
125E
100
AcDbEntity
  8
0
100
AcDbVertex
100
AcDb2dVertex
 10
402.0582021138576
 20
195.3503956936797
 30
0.0
  0
VERTEX
  5
148F
330
125E
100
AcDbEntity
  8
0
100
AcDbVertex
100
AcDb2dVertex
 10
403.5015777868316
 20
192.8503956936797
 30
0.0
  0
VERTEX
  5
1490
330
125E
100
AcDbEntity
  8
0
100
AcDbVertex
100
AcDb2dVertex
 10
406.3883291327798
 20
192.8503956936797
 30
0.0
  0
VERTEX
  5
1491
330
125E
100
AcDbEntity
  8
0
100
AcDbVertex
100
AcDb2dVertex
 10
407.8317048057539
 20
195.3503956936797
 30
0.0
  0
VERTEX
  5
1492
330
125E
100
AcDbEntity
  8
0
100
AcDbVertex
100
AcDb2dVertex
 10
406.3883291327798
 20
197.8503956936797
 30
0.0
  0
SEQEND
  5
1493
330
125E
100
AcDbEntity
  8
0
  0
CIRCLE
  5
125F
330
1F
100
AcDbEntity
  8
0
100
AcDbCircle
 10
404.9449534598058
 20
195.3503956936797
 30
0.0
 40
4.53810623556582
  0
LINE
  5
1260
330
1F
100
AcDbEntity
  8
CENTER
  6
CENTER
100
AcDbLine
 10
396.9449534598057
 20
195.3503956936796
 30
0.0
 11
412.9449534598057
 21
195.3503956936796
 31
0.0
  0
POLYLINE
  5
1261
330
1F
100
AcDbEntity
  8
0
100
AcDb2dPolyline
 66
     1
 10
0.0
 20
0.0
 30
0.0
 70
     1
  0
VERTEX
  5
1494
330
1261
100
AcDbEntity
  8
0
100
AcDbVertex
100
AcDb2dVertex
 10
404.0789280560217
 20
209.8503956936796
 30
0.0
  0
VERTEX
  5
1495
330
1261
100
AcDbEntity
  8
0
100
AcDbVertex
100
AcDb2dVertex
 10
403.2129026522376
 20
208.3503956936797
 30
0.0
  0
VERTEX
  5
1496
330
1261
100
AcDbEntity
  8
0
100
AcDbVertex
100
AcDb2dVertex
 10
404.0789280560217
 20
206.8503956936797
 30
0.0
  0
VERTEX
  5
1497
330
1261
100
AcDbEntity
  8
0
100
AcDbVertex
100
AcDb2dVertex
 10
405.8109788635898
 20
206.8503956936797
 30
0.0
  0
VERTEX
  5
1498
330
1261
100
AcDbEntity
  8
0
100
AcDbVertex
100
AcDb2dVertex
 10
406.6770042673739
 20
208.3503956936797
 30
0.0
  0
VERTEX
  5
1499
330
1261
100
AcDbEntity
  8
0
100
AcDbVertex
100
AcDb2dVertex
 10
405.8109788635898
 20
209.8503956936796
 30
0.0
  0
SEQEND
  5
149A
330
1261
100
AcDbEntity
  8
0
  0
CIRCLE
  5
1262
330
1F
100
AcDbEntity
  8
0
100
AcDbCircle
 10
404.9449534598058
 20
208.3503956936797
 30
0.0
 40
2.5
  0
CIRCLE
  5
1263
330
1F
100
AcDbEntity
  8
0
100
AcDbCircle
 10
404.9449534598058
 20
208.3503956936797
 30
0.0
 40
3.0
  0
ARC
  5
1264
330
1F
100
AcDbEntity
  8
0
 62
     2
100
AcDbCircle
 10
421.1949534598057
 20
192.1003956936797
 30
0.0
 40
3.000000000000003
100
AcDbArc
 50
255.0000000000055
 51
194.9999999999944
  0
CIRCLE
  5
1265
330
1F
100
AcDbEntity
  8
0
100
AcDbCircle
 10
421.1949534598057
 20
192.1003956936797
 30
0.0
 40
2.5
  0
SOLID
  5
1266
330
1F
100
AcDbEntity
  8
DIM
100
AcDbTrace
 10
437.4449534598057
 20
195.1003956936796
 30
0.0
 11
438.4449534598058
 21
195.1003956936796
 31
0.0
 12
437.9449534598058
 22
192.1003956936797
 32
0.0
 13
437.9449534598058
 23
192.1003956936797
 33
0.0
  0
CIRCLE
  5
1267
330
1F
100
AcDbEntity
  8
0
100
AcDbCircle
 10
421.1949534598057
 20
208.3503956936797
 30
0.0
 40
3.0
  0
TEXT
  5
1268
330
1F
100
AcDbEntity
  8
DIM
100
AcDbText
 10
436.4449534598057
 20
203.7789671222511
 30
0.0
 40
3.0
  1
32.5
 50
90.0
  7
ROMANSS
 72
     1
 11
434.9449534598058
 21
208.3503956936797
 31
0.0
100
AcDbText
 73
     2
  0
LINE
  5
1269
330
1F
100
AcDbEntity
  8
CENTER
  6
CENTER
100
AcDbLine
 10
412.9449534598057
 20
247.3503956936797
 30
0.0
 11
429.4449534598057
 21
247.3503956936797
 31
0.0
  0
LINE
  5
126A
330
1F
100
AcDbEntity
  8
CENTER
  6
CENTER
100
AcDbLine
 10
415.1949534598058
 20
224.6003956936796
 30
0.0
 11
427.1949534598057
 21
224.6003956936796
 31
0.0
  0
POLYLINE
  5
126B
330
1F
100
AcDbEntity
  8
0
100
AcDb2dPolyline
 66
     1
 10
0.0
 20
0.0
 30
0.0
 70
     1
  0
VERTEX
  5
149B
330
126B
100
AcDbEntity
  8
0
100
AcDbVertex
100
AcDb2dVertex
 10
403.5015777868316
 20
223.8503956936797
 30
0.0
  0
VERTEX
  5
149C
330
126B
100
AcDbEntity
  8
0
100
AcDbVertex
100
AcDb2dVertex
 10
402.0582021138576
 20
221.3503956936797
 30
0.0
  0
VERTEX
  5
149D
330
126B
100
AcDbEntity
  8
0
100
AcDbVertex
100
AcDb2dVertex
 10
403.5015777868316
 20
218.8503956936797
 30
0.0
  0
VERTEX
  5
149E
330
126B
100
AcDbEntity
  8
0
100
AcDbVertex
100
AcDb2dVertex
 10
406.3883291327798
 20
218.8503956936797
 30
0.0
  0
VERTEX
  5
149F
330
126B
100
AcDbEntity
  8
0
100
AcDbVertex
100
AcDb2dVertex
 10
407.8317048057539
 20
221.3503956936797
 30
0.0
  0
VERTEX
  5
14A0
330
126B
100
AcDbEntity
  8
0
100
AcDbVertex
100
AcDb2dVertex
 10
406.3883291327798
 20
223.8503956936797
 30
0.0
  0
SEQEND
  5
14A1
330
126B
100
AcDbEntity
  8
0
  0
CIRCLE
  5
126C
330
1F
100
AcDbEntity
  8
0
100
AcDbCircle
 10
404.9449534598058
 20
221.3503956936797
 30
0.0
 40
4.53810623556582
  0
LINE
  5
126D
330
1F
100
AcDbEntity
  8
CENTER
  6
CENTER
100
AcDbLine
 10
396.9449534598057
 20
221.3503956936797
 30
0.0
 11
412.9449534598057
 21
221.3503956936797
 31
0.0
  0
POLYLINE
  5
126E
330
1F
100
AcDbEntity
  8
0
100
AcDb2dPolyline
 66
     1
 10
0.0
 20
0.0
 30
0.0
 70
     1
  0
VERTEX
  5
14A2
330
126E
100
AcDbEntity
  8
0
100
AcDbVertex
100
AcDb2dVertex
 10
403.5015777868316
 20
247.8503956936797
 30
0.0
  0
VERTEX
  5
14A3
330
126E
100
AcDbEntity
  8
0
100
AcDbVertex
100
AcDb2dVertex
 10
402.0582021138576
 20
245.3503956936797
 30
0.0
  0
VERTEX
  5
14A4
330
126E
100
AcDbEntity
  8
0
100
AcDbVertex
100
AcDb2dVertex
 10
403.5015777868316
 20
242.8503956936797
 30
0.0
  0
VERTEX
  5
14A5
330
126E
100
AcDbEntity
  8
0
100
AcDbVertex
100
AcDb2dVertex
 10
406.3883291327798
 20
242.8503956936797
 30
0.0
  0
VERTEX
  5
14A6
330
126E
100
AcDbEntity
  8
0
100
AcDbVertex
100
AcDb2dVertex
 10
407.8317048057539
 20
245.3503956936797
 30
0.0
  0
VERTEX
  5
14A7
330
126E
100
AcDbEntity
  8
0
100
AcDbVertex
100
AcDb2dVertex
 10
406.3883291327798
 20
247.8503956936797
 30
0.0
  0
SEQEND
  5
14A8
330
126E
100
AcDbEntity
  8
0
  0
LINE
  5
126F
330
1F
100
AcDbEntity
  8
CENTER
  6
CENTER
100
AcDbLine
 10
396.9449534598057
 20
245.3503956936796
 30
0.0
 11
412.9449534598057
 21
245.3503956936796
 31
0.0
  0
ARC
  5
1270
330
1F
100
AcDbEntity
  8
0
 62
     2
100
AcDbCircle
 10
421.1949534598057
 20
224.6003956936796
 30
0.0
 40
3.000000000000003
100
AcDbArc
 50
255.0000000000055
 51
194.9999999999944
  0
CIRCLE
  5
1271
330
1F
100
AcDbEntity
  8
0
100
AcDbCircle
 10
421.1949534598057
 20
224.6003956936796
 30
0.0
 40
2.5
  0
SOLID
  5
1272
330
1F
100
AcDbEntity
  8
DIM
100
AcDbTrace
 10
424.8748007056899
 20
229.3382100580998
 30
0.0
 11
424.0568223491656
 21
229.9134590548463
 31
0.0
 12
422.7400645371881
 22
227.1718994869004
 32
0.0
 13
422.7400645371881
 23
227.1718994869004
 33
0.0
  0
SOLID
  5
1273
330
1F
100
AcDbEntity
  8
DIM
100
AcDbTrace
 10
437.4449534598057
 20
221.6003956936797
 30
0.0
 11
438.4449534598058
 21
221.6003956936797
 31
0.0
 12
437.9449534598058
 22
224.6003956936796
 32
0.0
 13
437.9449534598058
 23
224.6003956936796
 33
0.0
  0
SOLID
  5
1274
330
1F
100
AcDbEntity
  8
DIM
  6
CONTINUOUS
100
AcDbTrace
 10
392.724510580988
 20
271.2370249338038
 30
0.0
 11
391.8855929625086
 21
271.7812833553324
 31
0.0
 12
390.6722765071624
 22
268.99240128913
 32
0.0
 13
390.6722765071624
 23
268.99240128913
 33
0.0
  0
LINE
  5
1275
330
1F
100
AcDbEntity
  8
CENTER
  6
CENTER
100
AcDbLine
 10
382.3949534598057
 20
266.3503956936797
 30
0.0
 11
394.9949534598057
 21
266.3503956936797
 31
0.0
  0
LINE
  5
1276
330
1F
100
AcDbEntity
  8
0
100
AcDbLine
 10
382.4449534598057
 20
255.8503956936797
 30
0.0
 11
427.4449534598057
 21
255.8503956936797
 31
0.0
  0
LINE
  5
1277
330
1F
100
AcDbEntity
  8
0
  6
CONTINUOUS
100
AcDbLine
 10
381.9449534598057
 20
273.3503956936798
 30
0.0
 11
427.9449534598057
 21
273.3503956936798
 31
0.0
  0
LINE
  5
1278
330
1F
100
AcDbEntity
  8
DIM
  6
CONTINUOUS
100
AcDbLine
 10
392.3050517717483
 20
271.5091541445681
 30
0.0
 11
398.6382333789932
 21
281.2710933653248
 31
0.0
  0
CIRCLE
  5
1279
330
1F
100
AcDbEntity
  8
0
  6
CONTINUOUS
100
AcDbCircle
 10
388.6949534598057
 20
266.3503956936797
 30
0.0
 40
3.299999999999999
  0
LINE
  5
127A
330
1F
100
AcDbEntity
  8
DIM
100
AcDbLine
 10
385.0929991277192
 20
254.7718261355442
 30
0.0
 11
371.7048826287496
 21
281.2253124426201
 31
0.0
  0
SOLID
  5
127B
330
1F
100
AcDbEntity
  8
DIM
100
AcDbTrace
 10
385.5391188438194
 20
254.9976074432442
 30
0.0
 11
384.6468794116191
 21
254.5460448278442
 31
0.0
 12
386.4476869739194
 22
252.0951078389433
 32
0.0
 13
386.4476869739194
 23
252.0951078389433
 33
0.0
  0
LINE
  5
127C
330
1F
100
AcDbEntity
  8
0
  6
CONTINUOUS
100
AcDbLine
 10
379.9449534598057
 20
271.3503956936798
 30
0.0
 11
381.9449534598057
 21
273.3503956936798
 31
0.0
  0
TEXT
  5
127D
330
1F
100
AcDbEntity
  8
DIM
100
AcDbText
 10
348.8389416760249
 20
282.7253124426201
 30
0.0
 40
3.0
  1
4-%%c6.5
  7
ROMANSS
 72
     2
 11
364.4103702474534
 21
284.2253124426201
 31
0.0
100
AcDbText
 73
     2
  0
LINE
  5
127E
330
1F
100
AcDbEntity
  8
CENTER
  6
CENTER
100
AcDbLine
 10
414.8949534598058
 20
266.3503956936797
 30
0.0
 11
427.4949534598057
 21
266.3503956936796
 31
0.0
  0
LINE
  5
127F
330
1F
100
AcDbEntity
  8
DIM
  6
CONTINUOUS
100
AcDbLine
 10
398.6382333789932
 20
281.2710933653248
 30
0.0
 11
413.2632333789932
 21
281.2710933653248
 31
0.0
  0
CIRCLE
  5
1280
330
1F
100
AcDbEntity
  8
0
  6
CONTINUOUS
100
AcDbCircle
 10
421.1949534598057
 20
266.3503956936796
 30
0.0
 40
3.299999999999999
  0
LINE
  5
1281
330
1F
100
AcDbEntity
  8
0
  6
CONTINUOUS
100
AcDbLine
 10
429.9449534598058
 20
271.3503956936798
 30
0.0
 11
427.9449534598057
 21
273.3503956936798
 31
0.0
  0
TEXT
  5
1282
330
1F
100
AcDbEntity
  8
DIM
  6
CONTINUOUS
100
AcDbText
 10
399.6382333789932
 20
282.7710933653248
 30
0.0
 40
3.0
  1
4-%%c6.6
  7
ROMANSS
 11
399.6382333789932
 21
284.2710933653248
 31
0.0
100
AcDbText
 73
     2
  0
LINE
  5
1283
330
1F
100
AcDbEntity
  8
0
100
AcDbLine
 10
299.1605996608132
 20
335.6303002776832
 30
0.0
 11
300.6605996608133
 21
335.6303002776832
 31
0.0
  0
LINE
  5
1284
330
1F
100
AcDbEntity
  8
0
100
AcDbLine
 10
299.1605996608132
 20
322.6303002776832
 30
0.0
 11
300.6605996608132
 21
322.6303002776832
 31
0.0
  0
LINE
  5
1285
330
1F
100
AcDbEntity
  8
0
100
AcDbLine
 10
286.160599660813
 20
323.1303002776832
 30
0.0
 11
309.6605996608132
 21
323.1303002776832
 31
0.0
  0
LINE
  5
1286
330
1F
100
AcDbEntity
  8
0
100
AcDbLine
 10
286.1605996608129
 20
335.1303002776839
 30
0.0
 11
309.6605996608132
 21
335.1303002776832
 31
0.0
  0
LINE
  5
1287
330
1F
100
AcDbEntity
  8
0
100
AcDbLine
 10
269.6605996608131
 20
339.6303002776833
 30
0.0
 11
286.1605996608129
 21
339.6303002776833
 31
0.0
  0
LINE
  5
1288
330
1F
100
AcDbEntity
  8
0
100
AcDbLine
 10
269.6605996608131
 20
318.6303002776832
 30
0.0
 11
286.160599660813
 21
318.6303002776832
 31
0.0
  0
LINE
  5
1289
330
1F
100
AcDbEntity
  8
HIDDEN
  6
HIDDEN
100
AcDbLine
 10
254.6605996608133
 20
316.1803002776833
 30
0.0
 11
269.6605996608133
 21
316.1803002776833
 31
0.0
  0
LINE
  5
128A
330
1F
100
AcDbEntity
  8
0
100
AcDbLine
 10
270.6605996608133
 20
318.6303002776832
 30
0.0
 11
270.6605996608133
 21
315.1303002776833
 31
0.0
  0
LINE
  5
128B
330
1F
100
AcDbEntity
  8
HIDDEN
  6
HIDDEN
100
AcDbLine
 10
254.6605996608133
 20
342.0803002776833
 30
0.0
 11
269.6605996608133
 21
342.0803002776833
 31
0.0
  0
LINE
  5
128C
330
1F
100
AcDbEntity
  8
0
100
AcDbLine
 10
269.6605996608133
 20
344.1303002776833
 30
0.0
 11
270.6605996608133
 21
343.1303002776833
 31
0.0
  0
LINE
  5
128D
330
1F
100
AcDbEntity
  8
0
100
AcDbLine
 10
270.6605996608133
 20
343.1303002776833
 30
0.0
 11
270.6605996608133
 21
339.6303002776833
 31
0.0
  0
LINE
  5
128E
330
1F
100
AcDbEntity
  8
0
100
AcDbLine
 10
286.160599660813
 20
318.6303002776832
 30
0.0
 11
286.1605996608129
 21
339.6303002776833
 31
0.0
  0
LINE
  5
128F
330
1F
100
AcDbEntity
  8
0
100
AcDbLine
 10
286.6605996608132
 20
320.6303002776833
 30
0.0
 11
292.6605996608132
 21
320.6303002776833
 31
0.0
  0
ARC
  5
1290
330
1F
100
AcDbEntity
  8
0
  6
CONTINUOUS
100
AcDbCircle
 10
296.1918496608132
 20
324.8803002776833
 30
0.0
 40
9.531249999999923
100
AcDbArc
 50
190.5799024938491
 51
206.4810398303522
  0
LINE
  5
1291
330
1F
100
AcDbEntity
  8
0
  6
CONTINUOUS
100
AcDbLine
 10
286.6605996608132
 20
323.1303002776832
 30
0.0
 11
286.6605996608132
 21
320.6303002776833
 31
0.0
  0
LINE
  5
1292
330
1F
100
AcDbEntity
  8
0
100
AcDbLine
 10
298.6605996608132
 20
323.1303002776832
 30
0.0
 11
299.1605996608132
 21
322.6303002776832
 31
0.0
  0
ARC
  5
1293
330
1F
100
AcDbEntity
  8
0
  6
CONTINUOUS
100
AcDbCircle
 10
283.1293496608133
 20
324.8803002776833
 30
0.0
 40
9.531249999999923
100
AcDbArc
 50
333.5189601696595
 51
349.42009750615
  0
LINE
  5
1294
330
1F
100
AcDbEntity
  8
0
  6
CONTINUOUS
100
AcDbLine
 10
292.6605996608132
 20
323.1303002776832
 30
0.0
 11
292.6605996608132
 21
320.6303002776833
 31
0.0
  0
LINE
  5
1295
330
1F
100
AcDbEntity
  8
0
100
AcDbLine
 10
286.6605996608132
 20
337.6303002776832
 30
0.0
 11
292.6605996608131
 21
337.6303002776832
 31
0.0
  0
LINE
  5
1296
330
1F
100
AcDbEntity
  8
0
  6
CONTINUOUS
100
AcDbLine
 10
286.6605996608132
 20
337.6303002776832
 30
0.0
 11
286.6605996608132
 21
335.1303002776838
 31
0.0
  0
ARC
  5
1297
330
1F
100
AcDbEntity
  8
0
  6
CONTINUOUS
100
AcDbCircle
 10
296.1918496608132
 20
333.3803002776833
 30
0.0
 40
9.531249999999923
100
AcDbArc
 50
153.5189601696368
 51
169.4200975061484
  0
LINE
  5
1298
330
1F
100
AcDbEntity
  8
0
  6
CONTINUOUS
100
AcDbLine
 10
292.6605996608131
 20
337.6303002776832
 30
0.0
 11
292.6605996608131
 21
335.1303002776837
 31
0.0
  0
ARC
  5
1299
330
1F
100
AcDbEntity
  8
0
  6
CONTINUOUS
100
AcDbCircle
 10
283.1293496608133
 20
333.3803002776833
 30
0.0
 40
9.531249999999923
100
AcDbArc
 50
10.57990249385079
 51
26.48103983035224
  0
LINE
  5
129A
330
1F
100
AcDbEntity
  8
0
100
AcDbLine
 10
299.1605996608132
 20
335.6303002776832
 30
0.0
 11
298.6605996608131
 21
335.1303002776832
 31
0.0
  0
LINE
  5
129B
330
1F
100
AcDbEntity
  8
0
  6
CONTINUOUS
100
AcDbLine
 10
254.6605996608134
 20
354.1303002776833
 30
0.0
 11
269.6605996608134
 21
354.1303002776833
 31
0.0
  0
LINE
  5
129C
330
1F
100
AcDbEntity
  8
HIDDEN
  6
HIDDEN
100
AcDbLine
 10
254.6605996608133
 20
348.6803002776833
 30
0.0
 11
269.6605996608133
 21
348.6803002776833
 31
0.0
  0
LINE
  5
129D
330
1F
100
AcDbEntity
  8
HIDDEN
  6
HIDDEN
100
AcDbLine
 10
316.1605996608132
 20
350.6303002776834
 30
0.0
 11
316.1605996608133
 21
340.1303002776833
 31
0.0
  0
LINE
  5
129E
330
1F
100
AcDbEntity
  8
HIDDEN
  6
HIDDEN
100
AcDbLine
 10
324.6605996608133
 20
342.1303002776833
 30
0.0
 11
316.1605996608133
 21
342.1303002776833
 31
0.0
  0
LINE
  5
129F
330
1F
100
AcDbEntity
  8
HIDDEN
  6
HIDDEN
100
AcDbLine
 10
324.6605996608133
 20
316.1303002776834
 30
0.0
 11
316.1605996608133
 21
316.1303002776834
 31
0.0
  0
LINE
  5
12A0
330
1F
100
AcDbEntity
  8
CENTER
  6
CENTER
100
AcDbLine
 10
306.6355567277789
 20
345.3803002776833
 30
0.0
 11
327.635556727779
 21
345.3803002776833
 31
0.0
  0
LINE
  5
12A1
330
1F
100
AcDbEntity
  8
HIDDEN
  6
HIDDEN
100
AcDbLine
 10
316.1605996608132
 20
318.1303002776834
 30
0.0
 11
309.6605996608133
 21
318.1303002776834
 31
0.0
  0
LINE
  5
12A2
330
1F
100
AcDbEntity
  8
HIDDEN
  6
HIDDEN
100
AcDbLine
 10
316.1605996608132
 20
340.1303002776833
 30
0.0
 11
309.6605996608133
 21
340.1303002776833
 31
0.0
  0
LINE
  5
12A3
330
1F
100
AcDbEntity
  8
0
100
AcDbLine
 10
300.6605996608132
 20
345.6303002776833
 30
0.0
 11
300.6605996608133
 21
335.1303002776834
 31
0.0
  0
LINE
  5
12A4
330
1F
100
AcDbEntity
  8
0
100
AcDbLine
 10
300.6605996608132
 20
345.6303002776833
 30
0.0
 11
309.6605996608132
 21
345.6303002776833
 31
0.0
  0
LINE
  5
12A5
330
1F
100
AcDbEntity
  8
HIDDEN
  6
HIDDEN
100
AcDbLine
 10
324.6605996608133
 20
348.6303002776833
 30
0.0
 11
316.1605996608133
 21
348.6303002776833
 31
0.0
  0
LINE
  5
12A6
330
1F
100
AcDbEntity
  8
0
  6
CONTINUOUS
100
AcDbLine
 10
309.6605996608132
 20
351.6303002776834
 30
0.0
 11
324.6605996608132
 21
351.6303002776833
 31
0.0
  0
LINE
  5
12A7
330
1F
100
AcDbEntity
  8
HIDDEN
  6
HIDDEN
100
AcDbLine
 10
316.1605996608132
 20
350.6303002776833
 30
0.0
 11
309.6605996608133
 21
350.6303002776834
 31
0.0
  0
TEXT
  5
12A8
330
1F
100
AcDbEntity
  8
DIM
100
AcDbText
 10
452.4449534598057
 20
205.9218242651082
 30
0.0
 40
3.0
  1
95
 50
90.0
  7
ROMANSS
 72
     1
 11
450.9449534598056
 21
208.3503956936797
 31
0.0
100
AcDbText
 73
     2
  0
TEXT
  5
12A9
330
1F
100
AcDbEntity
  8
DIM
100
AcDbText
 10
444.4449534598057
 20
205.9218242651083
 30
0.0
 40
3.0
  1
78
 50
90.0
  7
ROMANSS
 72
     1
 11
442.9449534598058
 21
208.3503956936797
 31
0.0
100
AcDbText
 73
     2
  0
TEXT
  5
12AA
330
1F
100
AcDbEntity
  8
DIM
  6
CONTINUOUS
100
AcDbText
 10
460.4449534598057
 20
205.136109979394
 30
0.0
 40
3.0
  1
116
 50
90.0
  7
ROMANSS
 72
     1
 11
458.9449534598056
 21
208.3503956936797
 31
0.0
100
AcDbText
 73
     2
  0
TEXT
  5
12AB
330
1F
100
AcDbEntity
  8
DIM
100
AcDbText
 10
468.4449534598057
 20
204.778967122251
 30
0.0
 40
3.0
  1
130
 50
90.0
  7
ROMANSS
 72
     1
 11
466.9449534598056
 21
208.3503956936796
 31
0.0
100
AcDbText
 73
     2
  0
SOLID
  5
12AC
330
1F
100
AcDbEntity
  8
DIM
100
AcDbTrace
 10
445.4449534598057
 20
244.3503956936797
 30
0.0
 11
446.4449534598058
 21
244.3503956936797
 31
0.0
 12
445.9449534598057
 22
247.3503956936797
 32
0.0
 13
445.9449534598057
 23
247.3503956936797
 33
0.0
  0
LINE
  5
12AD
330
1F
100
AcDbEntity
  8
DIM
100
AcDbLine
 10
460.6092248204482
 20
281.0201524463039
 30
0.0
 11
482.5537801833843
 21
281.0201524463039
 31
0.0
  0
SOLID
  5
12AE
330
1F
100
AcDbEntity
  8
DIM
  6
CONTINUOUS
100
AcDbTrace
 10
461.4449534598056
 20
263.3503956936796
 30
0.0
 11
462.4449534598056
 21
263.3503956936796
 31
0.0
 12
461.9449534598056
 22
266.3503956936796
 32
0.0
 13
461.9449534598056
 23
266.3503956936796
 33
0.0
  0
SOLID
  5
12AF
330
1F
100
AcDbEntity
  8
DIM
100
AcDbTrace
 10
453.4449534598056
 20
252.8503956936797
 30
0.0
 11
454.4449534598056
 21
252.8503956936797
 31
0.0
 12
453.9449534598056
 22
255.8503956936797
 32
0.0
 13
453.9449534598056
 23
255.8503956936797
 33
0.0
  0
SOLID
  5
12B0
330
1F
100
AcDbEntity
  8
DIM
100
AcDbTrace
 10
469.4449534598057
 20
270.3503956936797
 30
0.0
 11
470.4449534598056
 21
270.3503956936797
 31
0.0
 12
469.9449534598056
 22
273.3503956936798
 32
0.0
 13
469.9449534598056
 23
273.3503956936798
 33
0.0
  0
TEXT
  5
12B1
330
1F
100
AcDbEntity
  8
DIM
100
AcDbText
 10
461.91962337673
 20
282.5201524463039
 30
0.0
 40
3.0
  1
4-M6x12L
  7
ROMANSS
 11
461.91962337673
 21
284.0201524463039
 31
0.0
100
AcDbText
 73
     2
  0
TEXT
  5
12B3
330
1F
100
AcDbEntity
  8
LOGO
  6
CONTINUOUS
 62
     7
100
AcDbText
 10
348.1934945140205
 20
10.37393515127867
 30
0.0
 40
15.81303255610126
  1
MGTX
  7
CHINESET
 72
     1
 11
377.1840542002062
 21
18.2804514293293
 31
0.0
100
AcDbText
 73
     2
  0
LINE
  5
1514
330
1F
100
AcDbEntity
  8
AM_VIS
100
AcDbLine
 10
186.6605996608133
 20
197.8336131451639
 30
0.0
 11
228.6605996608131
 21
197.8336131451639
 31
0.0
  0
LINE
  5
1515
330
1F
100
AcDbEntity
  8
AM_VIS
100
AcDbLine
 10
186.6605996608133
 20
203.0490799137817
 30
0.0
 11
228.6605996608131
 21
203.0490799137817
 31
0.0
  0
LINE
  5
1516
330
1F
100
AcDbEntity
  8
AM_VIS
100
AcDbLine
 10
186.6605996608133
 20
197.8343742055455
 30
0.0
 11
228.6605996608131
 21
197.8343742055455
 31
0.0
  0
ENDSEC
  0
SECTION
  2
OBJECTS
  0
DICTIONARY
  5
C
330
0
100
AcDbDictionary
  3
ACAD_GROUP
350
D
  3
ACAD_LAYOUT
350
1A
  3
ACAD_MLINESTYLE
350
17
  3
ACAD_PLOTSETTINGS
350
19
  3
ACMDICTIONARY
350
14CD
  3
AMG
350
14B3
  3
AMGSNAPSETTINGS
350
1501
  3
DWGPROPS
350
153B
1001
ACAD
1000
TREAT_AS_HARD
1070
     0
  0
DICTIONARY
  5
B48
330
1F
100
AcDbDictionary
  3
ACAD_INDEX
350
1518
  3
ACAD_LAYOUTSELFREF
350
15A2
1001
ACAD
1000
TREAT_AS_HARD
1070
     1
  0
DICTIONARY
  5
B4A
330
1B
100
AcDbDictionary
  3
ACAD_LAYOUTSELFREF
350
15A1
1001
ACAD
1000
TREAT_AS_HARD
1070
     1
  0
DICTIONARY
  5
D
102
{ACAD_REACTORS
330
C
102
}
330
C
100
AcDbDictionary
1001
ACAD
1000
TREAT_AS_HARD
1070
     0
  0
DICTIONARY
  5
1A
102
{ACAD_REACTORS
330
C
102
}
330
C
100
AcDbDictionary
1001
ACAD
1000
TREAT_AS_HARD
1070
     0
  0
DICTIONARY
  5
17
102
{ACAD_REACTORS
330
C
102
}
330
C
100
AcDbDictionary
  3
STANDARD
350
18
1001
ACAD
1000
TREAT_AS_HARD
1070
     0
  0
DICTIONARY
  5
19
102
{ACAD_REACTORS
330
C
102
}
330
C
100
AcDbDictionary
1001
ACAD
1000
TREAT_AS_HARD
1070
     0
  0
DICTIONARY
  5
14CD
102
{ACAD_REACTORS
330
C
102
}
330
C
100
AcDbDictionary
  3
ACMSTDDICTIONARY
350
14D3
1001
ACAD
1000
TREAT_AS_HARD
1070
     0
  0
DICTIONARY
  5
14B3
102
{ACAD_REACTORS
330
C
102
}
330
C
100
AcDbDictionary
  3
ACMGSETTINGS
350
14B4
1001
ACAD
1000
TREAT_AS_HARD
1070
     0
  0
DICTIONARY
  5
1501
102
{ACAD_REACTORS
330
C
102
}
330
C
100
AcDbDictionary
1001
ACAD
1000
TREAT_AS_HARD
1070
     0
  0
XRECORD
  5
153B
102
{ACAD_REACTORS
330
C
102
}
330
C
100
AcDbXrecord
  1
DWGPROPS COOKIE
  2

  3

  4

  6

  7

  8

  9

300
AmdtFileType=84
301
=
302
=
303
=
304
=
305
=
306
=
307
=
308
=
309
=
 40
0.0104074884259259
 41
2451928.441684502
 42
2453335.473944305
  1

 90
        1
  0
DICTIONARY
  5
1518
102
{ACAD_REACTORS
330
B48
102
}
330
B48
100
AcDbDictionary
  3
*A1
350
1519
1001
ACAD
1000
TREAT_AS_HARD
1070
     0
  0
XRECORD
  5
15A2
102
{ACAD_REACTORS
330
B48
102
}
330
B48
100
AcDbXrecord
340
1F
  0
XRECORD
  5
15A1
102
{ACAD_REACTORS
330
B4A
102
}
330
B4A
100
AcDbXrecord
340
1B
  0
MLINESTYLE
  5
18
102
{ACAD_REACTORS
330
17
102
}
330
17
100
AcDbMlineStyle
  2
STANDARD
 70
     0
  3

 62
   256
 51
90.0
 52
90.0
 71
     2
 49
0.5
 62
   256
  6
BYLAYER
 49
-0.5
 62
   256
  6
BYLAYER
  0
DICTIONARY
  5
14D3
102
{ACAD_REACTORS
330
14CD
102
}
330
14CD
100
AcDbDictionary
1001
ACAD
1000
TREAT_AS_HARD
1070
     0
  0
DICTIONARY
  5
14B4
102
{ACAD_REACTORS
330
14B3
102
}
330
14B3
100
AcDbDictionary
  3
DWGSETTINGS
350
14B5
1001
ACAD
1000
TREAT_AS_HARD
1070
     0
  0
LAYER_INDEX
  5
1519
102
{ACAD_REACTORS
330
1518
102
}
330
1518
100
AcDbIndex
 40
2453335.49764912
100
AcDbLayerIndex
  8
0
360
151A
 90
      534
  8
DIM
360
151B
 90
      156
  8
HIDDEN
360
151C
 90
      112
  8
CENTER
360
151D
 90
       98
  8
LOGO
360
151E
 90
      114
  8
UMCBOR
360
151F
 90
        0
  8
UMCL1
360
1520
 90
        0
  8
UMCL2
360
1521
 90
        0
  8
AM_VIS
360
1522
 90
        3
  0
XRECORD
  5
14B5
102
{ACAD_REACTORS
330
14B4
102
}
330
14B4
100
AcDbXrecord
  1
VERSION
140
15.0
  1
PRODUCT
  2
AutoCAD Mechanical 2000
  0
IDBUFFER
  5
151A
330
0
100
AcDbIdBuffer
330
3C3
330
3C4
330
3E2
330
586
330
769
330
76C
330
76D
330
76E
330
76F
330
771
330
772
330
774
330
775
330
776
330
77C
330
77D
330
77E
330
77F
330
780
330
783
330
784
330
785
330
788
330
789
330
78A
330
78B
330
78C
330
78D
330
78E
330
78F
330
790
330
791
330
792
330
795
330
796
330
799
330
79D
330
7A5
330
7A8
330
7AB
330
7AD
330
7AE
330
7B0
330
7B1
330
7B2
330
7B4
330
7B5
330
7B6
330
7BB
330
7BC
330
7BD
330
7BE
330
7BF
330
7C0
330
7C4
330
7C5
330
7C6
330
7C7
330
7CA
330
7CB
330
7CC
330
7CD
330
7CE
330
F99
330
F9A
330
F9B
330
F9C
330
F9D
330
F9E
330
F9F
330
FA0
330
FA2
330
FA3
330
FA7
330
FA8
330
FA9
330
FAA
330
FB9
330
FBA
330
FBC
330
FBD
330
FBE
330
FC1
330
FC2
330
FC4
330
FC6
330
FC8
330
FCA
330
FCC
330
FCD
330
FCE
330
FD0
330
FD2
330
FD4
330
FD5
330
FD6
330
FD7
330
FD8
330
FD9
330
FDA
330
FDE
330
FDF
330
FE0
330
FE1
330
FE2
330
FE3
330
FE4
330
FE5
330
FE6
330
FE7
330
FE8
330
FF2
330
FF3
330
FFF
330
1000
330
1001
330
1002
330
1005
330
1006
330
1010
330
1011
330
1012
330
1013
330
1017
330
1018
330
1019
330
101A
330
101C
330
101E
330
1021
330
1023
330
1024
330
1025
330
1026
330
102A
330
102C
330
102D
330
102E
330
102F
330
1032
330
1035
330
1036
330
1037
330
1038
330
103C
330
103D
330
103E
330
103F
330
1040
330
1041
330
1042
330
1043
330
1044
330
1045
330
1046
330
1047
330
1048
330
1049
330
104A
330
104B
330
104C
330
104D
330
104F
330
1050
330
1051
330
1052
330
1053
330
1054
330
1055
330
1056
330
1057
330
1058
330
1059
330
105A
330
105B
330
105C
330
105D
330
105E
330
105F
330
1060
330
1061
330
1062
330
1063
330
1064
330
1065
330
1066
330
1067
330
1068
330
1069
330
106A
330
106B
330
106C
330
106D
330
106E
330
106F
330
1071
330
1072
330
1073
330
1074
330
1075
330
1076
330
1077
330
1079
330
107A
330
107B
330
107C
330
107D
330
107E
330
107F
330
1080
330
1081
330
1082
330
1083
330
1084
330
1085
330
1086
330
1087
330
1088
330
1089
330
108A
330
108B
330
108C
330
108D
330
108F
330
1090
330
1091
330
1092
330
1093
330
1094
330
1095
330
1096
330
1097
330
1098
330
1099
330
109A
330
109B
330
109C
330
109D
330
109E
330
109F
330
10A0
330
10A1
330
10A2
330
10A3
330
10A4
330
10A6
330
10A7
330
10A8
330
10A9
330
10AA
330
10AB
330
10AC
330
10AE
330
10AF
330
10B0
330
10B1
330
10B2
330
10B5
330
10B6
330
10B7
330
10B9
330
10BA
330
10BD
330
10BE
330
10BF
330
10C0
330
10C1
330
10C3
330
10C5
330
10C6
330
10C7
330
10C8
330
10C9
330
10CA
330
10CC
330
10CD
330
10CE
330
10CF
330
10D0
330
10D2
330
10D4
330
10D5
330
10E0
330
10E1
330
10E3
330
10E4
330
10E5
330
10E6
330
10E7
330
10E8
330
10E9
330
10EA
330
10EB
330
10EC
330
10ED
330
10EE
330
10EF
330
10F0
330
10F1
330
10FB
330
10FC
330
10FD
330
10FE
330
10FF
330
1101
330
1102
330
1103
330
1105
330
1107
330
1108
330
1109
330
110A
330
110B
330
110C
330
110D
330
110E
330
110F
330
1110
330
1111
330
1112
330
1113
330
1114
330
1115
330
1116
330
1117
330
1118
330
1119
330
111A
330
111B
330
111D
330
111F
330
1128
330
1129
330
112A
330
112B
330
112C
330
112D
330
112E
330
112F
330
1139
330
113A
330
113B
330
113C
330
113D
330
1140
330
1141
330
1142
330
1143
330
1147
330
1148
330
1149
330
114A
330
114F
330
1152
330
1157
330
1158
330
1159
330
115A
330
115B
330
115C
330
115D
330
115E
330
115F
330
1162
330
1163
330
1164
330
1165
330
1166
330
1167
330
1168
330
1169
330
116A
330
116B
330
116E
330
116F
330
1170
330
1171
330
1172
330
1173
330
1174
330
1175
330
1176
330
1177
330
117B
330
117F
330
1180
330
1184
330
1186
330
1189
330
118A
330
118B
330
1195
330
1196
330
1197
330
1199
330
11A4
330
11AF
330
11B3
330
11B5
330
11BA
330
11BC
330
11BE
330
11C8
330
11CA
330
11CB
330
11CC
330
11CF
330
11DC
330
11DD
330
11DE
330
11DF
330
11E0
330
11E1
330
11E7
330
11E8
330
11E9
330
11EA
330
11EB
330
11EC
330
11ED
330
11EE
330
11EF
330
11F0
330
11F1
330
11F2
330
11F3
330
11F4
330
11F5
330
11F6
330
11F7
330
11F8
330
11F9
330
11FA
330
11FB
330
11FC
330
11FD
330
11FE
330
11FF
330
1200
330
1201
330
1202
330
1203
330
1204
330
1205
330
1206
330
1207
330
1208
330
1209
330
120A
330
120B
330
120C
330
120D
330
120E
330
120F
330
1210
330
1211
330
1212
330
1213
330
1214
330
1215
330
1216
330
1217
330
1218
330
1219
330
121A
330
121B
330
121C
330
121D
330
1225
330
1226
330
1231
330
1235
330
1237
330
1239
330
123B
330
1240
330
1246
330
1248
330
1249
330
124A
330
124C
330
124D
330
1254
330
1255
330
1256
330
1258
330
1259
330
125A
330
125D
330
125E
330
125F
330
1261
330
1262
330
1263
330
1264
330
1265
330
1267
330
126B
330
126C
330
126E
330
1270
330
1271
330
1276
330
1277
330
1279
330
127C
330
1280
330
1281
330
1283
330
1284
330
1285
330
1286
330
1287
330
1288
330
128A
330
128C
330
128D
330
128E
330
128F
330
1290
330
1291
330
1292
330
1293
330
1294
330
1295
330
1296
330
1297
330
1298
330
1299
330
129A
330
129B
330
12A3
330
12A4
330
12A6
  0
IDBUFFER
  5
151B
330
0
100
AcDbIdBuffer
330
766
330
767
330
770
330
777
330
778
330
779
330
77A
330
77B
330
793
330
797
330
798
330
79A
330
79B
330
79C
330
79E
330
79F
330
7A0
330
7A1
330
7A2
330
7A3
330
7A4
330
7A6
330
7A7
330
7A9
330
7AA
330
7B7
330
7B8
330
7B9
330
7BA
330
7C1
330
7C2
330
7C3
330
FA4
330
FA5
330
FA6
330
FAF
330
FB4
330
FB5
330
FBB
330
FC7
330
FDB
330
FDC
330
FDD
330
1007
330
1008
330
1009
330
100A
330
100B
330
100C
330
100D
330
100E
330
100F
330
1014
330
1015
330
1016
330
1033
330
10B3
330
10B4
330
10E2
330
111C
330
111E
330
114B
330
114C
330
114D
330
114E
330
1150
330
1151
330
1153
330
1154
330
1155
330
1156
330
118C
330
118D
330
118E
330
118F
330
1190
330
1191
330
1192
330
1193
330
119A
330
119B
330
119C
330
119D
330
119E
330
119F
330
11A0
330
11A8
330
11A9
330
11AA
330
11AB
330
11B0
330
11B1
330
11B2
330
11B4
330
11B6
330
11B7
330
11B8
330
11B9
330
11BB
330
11BD
330
11C0
330
11C1
330
11C2
330
11C3
330
11C4
330
11C5
330
11C6
330
11C7
330
11D0
330
11D1
330
11D2
330
11D3
330
11D4
330
11D5
330
11D6
330
11D7
330
11D8
330
11D9
330
11DA
330
11E2
330
11E3
330
11E4
330
11E5
330
1228
330
1229
330
1233
330
1234
330
1236
330
123D
330
123F
330
1242
330
1243
330
124F
330
1257
330
125B
330
1266
330
1268
330
1272
330
1273
330
1274
330
1278
330
127A
330
127B
330
127D
330
127F
330
1282
330
12A8
330
12A9
330
12AA
330
12AB
330
12AC
330
12AD
330
12AE
330
12AF
330
12B0
330
12B1
  0
IDBUFFER
  5
151C
330
0
100
AcDbIdBuffer
330
7AC
330
FE9
330
FEA
330
FEB
330
FEC
330
FED
330
FEE
330
FEF
330
FF0
330
FF1
330
FF4
330
FF5
330
FF6
330
FF7
330
FF9
330
FFB
330
FFC
330
FFD
330
FFE
330
1027
330
1028
330
1029
330
102B
330
10D6
330
10D7
330
10D8
330
10D9
330
10DA
330
10DB
330
10DC
330
10DD
330
10DE
330
10F2
330
10F3
330
10F4
330
10F5
330
10F6
330
10F7
330
10F8
330
10F9
330
10FA
330
1120
330
1121
330
1124
330
1130
330
1131
330
1132
330
1133
330
1134
330
1135
330
1136
330
1137
330
1138
330
113E
330
113F
330
1160
330
1161
330
116C
330
116D
330
1178
330
1179
330
117C
330
117D
330
117E
330
1181
330
1182
330
1185
330
1187
330
1188
330
1194
330
1198
330
11A1
330
11A2
330
11A5
330
11A6
330
11A7
330
11AE
330
11CE
330
11DB
330
11E6
330
121E
330
121F
330
1220
330
1221
330
1223
330
1224
330
1227
330
122A
330
122B
330
122C
330
122D
330
122E
330
1232
330
1238
330
123A
330
123C
330
123E
330
1241
330
1244
330
1247
330
124B
330
124E
330
1289
330
128B
330
129C
330
129D
330
129E
330
129F
330
12A1
330
12A2
330
12A5
330
12A7
  0
IDBUFFER
  5
151D
330
0
100
AcDbIdBuffer
330
768
330
76A
330
76B
330
773
330
781
330
782
330
786
330
787
330
794
330
7AF
330
7B3
330
7C8
330
7C9
330
FA1
330
FAB
330
FAC
330
FAD
330
FAE
330
FB0
330
FB1
330
FB2
330
FB3
330
FB6
330
FB7
330
FB8
330
FBF
330
FC0
330
FC3
330
FC5
330
FC9
330
FCB
330
FCF
330
FD1
330
FD3
330
FF8
330
FFA
330
1003
330
1004
330
101B
330
101D
330
101F
330
1020
330
1022
330
1030
330
1031
330
1034
330
1039
330
103A
330
103B
330
104E
330
1070
330
1078
330
108E
330
10A5
330
10AD
330
10B8
330
10BB
330
10BC
330
10CB
330
10D1
330
10D3
330
10DF
330
1100
330
1104
330
1106
330
1122
330
1123
330
1125
330
1126
330
1127
330
1144
330
1145
330
1146
330
117A
330
1183
330
11A3
330
11AC
330
11AD
330
11BF
330
11C9
330
11CD
330
1222
330
122F
330
1230
330
1245
330
1250
330
1251
330
1252
330
1253
330
125C
330
1260
330
1269
330
126A
330
126D
330
126F
330
1275
330
127E
330
12A0
  0
IDBUFFER
  5
151E
330
0
100
AcDbIdBuffer
330
7D2
330
7D3
330
7D4
330
7D5
330
7D6
330
7D7
330
7D8
330
7D9
330
7DA
330
7DB
330
7DC
330
7DD
330
7DE
330
7DF
330
7E0
330
7E1
330
7E2
330
7E3
330
7E4
330
7E5
330
7E6
330
7E7
330
7E8
330
7E9
330
7EA
330
7EB
330
7EC
330
7ED
330
7EE
330
7EF
330
7F0
330
7F1
330
7F2
330
7F3
330
7F4
330
7F5
330
7F6
330
7F7
330
7F8
330
7F9
330
7FA
330
7FB
330
7FC
330
7FD
330
7FE
330
7FF
330
800
330
801
330
802
330
803
330
804
330
805
330
806
330
807
330
808
330
809
330
80A
330
80B
330
80C
330
80D
330
80E
330
80F
330
810
330
811
330
812
330
813
330
814
330
815
330
816
330
817
330
818
330
819
330
81A
330
81B
330
81C
330
81D
330
81E
330
81F
330
820
330
821
330
822
330
823
330
824
330
825
330
826
330
827
330
828
330
829
330
82A
330
82B
330
82C
330
82D
330
82E
330
82F
330
830
330
831
330
832
330
833
330
834
330
835
330
836
330
837
330
838
330
839
330
83A
330
83B
330
83C
330
83D
330
83E
330
83F
330
840
330
841
330
845
330
12B3
  0
IDBUFFER
  5
151F
330
0
100
AcDbIdBuffer
  0
IDBUFFER
  5
1520
330
0
100
AcDbIdBuffer
  0
IDBUFFER
  5
1521
330
0
100
AcDbIdBuffer
  0
IDBUFFER
  5
1522
330
0
100
AcDbIdBuffer
330
1514
330
1515
330
1516
  0
ENDSEC
  0
EOF
