  0
SECTION
  2
HEADER
  9
$ACADVER
  1
AC1012
  9
$DWGCODEPAGE
  3
big5
  9
$INSBASE
 10
0.0
 20
0.0
 30
0.0
  9
$EXTMIN
 10
29.9670430062888
 20
25.40561054344948
 30
-0.000000000000013
  9
$EXTMAX
 10
810.0329609052664
 20
504.1966565519067
 30
0.0000000000000023
  9
$LIMMIN
 10
0.0
 20
0.0
  9
$LIMMAX
 10
840.0
 20
594.0
  9
$ORTHOMODE
 70
     1
  9
$REGENMODE
 70
     1
  9
$FILLMODE
 70
     1
  9
$QTEXTMODE
 70
     0
  9
$MIRRTEXT
 70
     1
  9
$DRAGMODE
 70
     2
  9
$LTSCALE
 40
1.0
  9
$OSMODE
 70
    55
  9
$ATTMODE
 70
     1
  9
$TEXTSIZE
 40
3.0
  9
$TRACEWID
 40
0.05
  9
$TEXTSTYLE
  7
ITALICT
  9
$CLAYER
  8
0
  9
$CELTYPE
  6
CONTINUOUS
  9
$CECOLOR
 62
   256
  9
$CELTSCALE
 40
1.0
  9
$DELOBJ
 70
     1
  9
$DISPSILH
 70
     0
  9
$DIMSCALE
 40
1.0
  9
$DIMASZ
 40
3.0
  9
$DIMEXO
 40
1.0
  9
$DIMDLI
 40
1647129056757192
  9
$DIMRND
 40
0.0
  9
$DIMDLE
 40
0.0
  9
$DIMEXE
 40
1.0
  9
$DIMTP
 40
0.15
  9
$DIMTM
 40
-0.1
  9
$DIMTXT
 40
3.0
  9
$DIMCEN
 40
2.0
  9
$DIMTSZ
 40
0.0
  9
$DIMTOL
 70
     1
  9
$DIMLIM
 70
     0
  9
$DIMTIH
 70
     0
  9
$DIMTOH
 70
     0
  9
$DIMSE1
 70
     0
  9
$DIMSE2
 70
     0
  9
$DIMTAD
 70
     1
  9
$DIMZIN
 70
     0
  9
$DIMBLK
  1

  9
$DIMASO
 70
     0
  9
$DIMSHO
 70
     0
  9
$DIMPOST
  1

  9
$DIMAPOST
  1

  9
$DIMALT
 70
     0
  9
$DIMALTD
 70
     2
  9
$DIMALTF
 40
25.4
  9
$DIMLFAC
 40
1.0
  9
$DIMTOFL
 70
     1
  9
$DIMTVP
 40
1.0
  9
$DIMTIX
 70
     0
  9
$DIMSOXD
 70
     0
  9
$DIMSAH
 70
     0
  9
$DIMBLK1
  1

  9
$DIMBLK2
  1

  9
$DIMSTYLE
  2
STANDARD
  9
$DIMCLRD
 70
     0
  9
$DIMCLRE
 70
     0
  9
$DIMCLRT
 70
     0
  9
$DIMTFAC
 40
1.0
  9
$DIMGAP
 40
0.09
  9
$DIMJUST
 70
     0
  9
$DIMSD1
 70
     0
  9
$DIMSD2
 70
     0
  9
$DIMTOLJ
 70
     1
  9
$DIMTZIN
 70
     0
  9
$DIMALTZ
 70
     0
  9
$DIMALTTZ
 70
     0
  9
$DIMFIT
 70
     5
  9
$DIMUPT
 70
     0
  9
$DIMUNIT
 70
     2
  9
$DIMDEC
 70
     2
  9
$DIMTDEC
 70
     8
  9
$DIMALTU
 70
     2
  9
$DIMALTTD
 70
     2
  9
$DIMTXSTY
  7
STANDARD
  9
$DIMAUNIT
 70
     0
  9
$LUNITS
 70
     2
  9
$LUPREC
 70
     2
  9
$SKETCHINC
 40
0.1
  9
$FILLETRAD
 40
0.75
  9
$AUNITS
 70
     0
  9
$AUPREC
 70
     2
  9
$MENU
  1
ACAD
  9
$ELEVATION
 40
0.0
  9
$PELEVATION
 40
0.0
  9
$THICKNESS
 40
0.0
  9
$LIMCHECK
 70
     0
  9
$BLIPMODE
 70
     0
  9
$CHAMFERA
 40
1.0
  9
$CHAMFERB
 40
1.0
  9
$CHAMFERC
 40
0.0
  9
$CHAMFERD
 40
0.0
  9
$SKPOLY
 70
     1
  9
$TDCREATE
 40
2450580.703446064
  9
$TDUPDATE
 40
2453335.496857592
  9
$TDINDWG
 40
0.1261662500
  9
$TDUSRTIMER
 40
0.1261662500
  9
$USRTIMER
 70
     1
  9
$ANGBASE
 50
0.0
  9
$ANGDIR
 70
     0
  9
$PDMODE
 70
     0
  9
$PDSIZE
 40
0.0
  9
$PLINEWID
 40
0.0
  9
$COORDS
 70
     1
  9
$SPLFRAME
 70
     0
  9
$SPLINETYPE
 70
     6
  9
$SPLINESEGS
 70
     8
  9
$ATTDIA
 70
     1
  9
$ATTREQ
 70
     1
  9
$HANDLING
 70
 22529
  9
$HANDSEED
  5
29CA
  9
$SURFTAB1
 70
     6
  9
$SURFTAB2
 70
     6
  9
$SURFTYPE
 70
     6
  9
$SURFU
 70
     6
  9
$SURFV
 70
     6
  9
$UCSNAME
  2

  9
$UCSORG
 10
0.0
 20
0.0
 30
0.0
  9
$UCSXDIR
 10
1.0
 20
0.0
 30
0.0
  9
$UCSYDIR
 10
0.0
 20
1.0
 30
0.0
  9
$PUCSNAME
  2

  9
$PUCSORG
 10
0.0
 20
0.0
 30
0.0
  9
$PUCSXDIR
 10
1.0
 20
0.0
 30
0.0
  9
$PUCSYDIR
 10
0.0
 20
1.0
 30
0.0
  9
$USERI1
 70
     0
  9
$USERI2
 70
-31485
  9
$USERI3
 70
     0
  9
$USERI4
 70
     0
  9
$USERI5
 70
     0
  9
$USERR1
 40
0.0
  9
$USERR2
 40
0.0
  9
$USERR3
 40
0.0
  9
$USERR4
 40
0.0
  9
$USERR5
 40
0.0
  9
$WORLDVIEW
 70
     1
  9
$SHADEDGE
 70
     3
  9
$SHADEDIF
 70
    70
  9
$TILEMODE
 70
     1
  9
$MAXACTVP
 70
    48
  9
$PINSBASE
 10
0.0
 20
0.0
 30
0.0
  9
$PLIMCHECK
 70
     0
  9
$PEXTMIN
 10
1.000000000000000E+20
 20
1.000000000000000E+20
 30
1.000000000000000E+20
  9
$PEXTMAX
 10
-1.000000000000000E+20
 20
-1.000000000000000E+20
 30
-1.000000000000000E+20
  9
$PLIMMIN
 10
0.0
 20
0.0
  9
$PLIMMAX
 10
12.0
 20
9.0
  9
$UNITMODE
 70
     0
  9
$VISRETAIN
 70
     1
  9
$PLINEGEN
 70
     0
  9
$PSLTSCALE
 70
     0
  9
$TREEDEPTH
 70
  3020
  9
$PICKSTYLE
 70
     1
  9
$CMLSTYLE
  2
STANDARD
  9
$CMLJUST
 70
     0
  9
$CMLSCALE
 40
1.0
  9
$SAVEIMAGES
 70
     1
  0
ENDSEC
  0
SECTION
  2
CLASSES
  0
CLASS
  1
ACDBDICTIONARYWDFLT
  2
AcDbDictionaryWithDefault
  3
AutoCAD 2000
 90
    32768
280
     0
281
     0
  0
CLASS
  1
ACDBPLACEHOLDER
  2
AcDbPlaceHolder
  3
AutoCAD 2000
 90
    32768
280
     0
281
     0
  0
CLASS
  1
LAYOUT
  2
AcDbLayout
  3
AutoCAD 2000
 90
    32768
280
     0
281
     0
  0
CLASS
  1
LONG_TRANSACTION
  2
AcDbLongTransaction
  3
AutoCAD 2000
 90
    32768
280
     0
281
     0
  0
CLASS
  1
LWPOLYLINE
  2
AcDbPolyline
  3
AutoCAD 2000
 90
    32768
280
     0
281
     1
  0
CLASS
  1
HATCH
  2
AcDbHatch
  3
AutoCAD 2000
 90
    32768
280
     0
281
     1
  0
CLASS
  1
XRECORD
  2
AcDbXrecord
  3
AutoCAD 2000
 90
    32768
280
     0
281
     0
  0
CLASS
  1
ACME_DOCUMENT
  2
AcMeDbDoc
  3
AcMeServices
 90
    32768
280
     0
281
     0
  0
CLASS
  1
AMGSETTINGSOBJ
  2
AmgSettingsObj
  3
"AcadM|Product Description: AutoCAD Mechanical 2000|Company: Autodesk"
 90
    32768
280
     0
281
     0
  0
CLASS
  1
ACMESCOPE
  2
AcMeScope
  3
AcMeServices
 90
    32768
280
     0
281
     0
  0
CLASS
  1
ACMECOMMANDHISTORY
  2
AcMeCommandHistory
  3
AcMeServices
 90
    32768
280
     0
281
     0
  0
CLASS
  1
ACIMSYSVARMAN
  2
AcImSysVarManager
  3
AcMeServices
 90
    32768
280
     0
281
     0
  0
CLASS
  1
ACIMREALSYSVAR
  2
AcImRealSysVar
  3
AcMeServices
 90
    32768
280
     0
281
     0
  0
CLASS
  1
ACIMINTSYSVAR
  2
AcImIntSysVar
  3
AcMeServices
 90
    32768
280
     0
281
     0
  0
CLASS
  1
ACMEDRAWINGMAN
  2
AcMeDrawingMan
  3
AcMeServices
 90
    32768
280
     0
281
     0
  0
CLASS
  1
ACMEVIEW
  2
AcMeView
  3
AcMeServices
 90
    32768
280
     0
281
     0
  0
CLASS
  1
ACDBENTITYCACHE
  2
AcMeEntityCache
  3
AcMeServices
 90
    32768
280
     0
281
     0
  0
CLASS
  1
GSMANAGER
  2
AcMeGSManager
  3
AcMeServices
 90
    32768
280
     0
281
     0
  0
CLASS
  1
AMDTINTERNALREACTOR
  2
AmdtInternalReactor
  3
AcMeServices
 90
    32768
280
     0
281
     0
  0
CLASS
  1
ACMESTATEMGR
  2
AcMeStateMgr
  3
AcMeServices
 90
    32768
280
     0
281
     0
  0
CLASS
  1
ACGREFMASTER
  2
AcGrefMaster
  3
AcAttribServices
 90
    32768
280
     0
281
     0
  0
CLASS
  1
ACME_DATABASE
  2
AcMeDbDatabase
  3
AcMeServices
 90
    32768
280
     0
281
     0
  0
CLASS
  1
ACRFINSADJUSTERMGR
  2
AcRfInsAdjusterMgr
  3
AcMeServices
 90
    32768
280
     0
281
     0
  0
CLASS
  1
ACGREFACADMASTER
  2
AcGrefacadMaster
  3
AcGrefServices
 90
    32768
280
     0
281
     0
  0
CLASS
  1
AMIMASTER
  2
AmiMaster
  3
AmiServices
 90
    32768
280
     0
281
     0
  0
CLASS
  1
ACMDATADICTIONARY
  2
AcmDataDictionary
  3
"AcmSymBB|Product Description: AutoCAD Mechanical 2000|Company: Autodesk"
 90
    32768
280
     0
281
     0
  0
CLASS
  1
ACMDATAENTRYBLOCK
  2
AcmDataEntryBlock
  3
"AcmSymBB|Product Description: AutoCAD Mechanical 2000|Company: Autodesk"
 90
    32768
280
     0
281
     0
  0
CLASS
  1
ACIMSTRSYSVAR
  2
AcImStrSysVar
  3
AcMeServices
 90
    32768
280
     0
281
     0
  0
CLASS
  1
ACMSTANDARDANSI
  2
AcmStandardANSI
  3
"Amdt_StdImp|Product Description: AutoCAD Mechanical 2000|Company: Autodesk"
 90
    32768
280
     0
281
     0
  0
CLASS
  1
AMGOBJPROPCFG
  2
AmgObjPropCfg
  3
"AmgLay|Product Description: AutoCAD Mechanical 2000|Company: Autodesk"
 90
    32769
280
     0
281
     0
  0
CLASS
  1
ACMSURFSTANDARDANSI
  2
AcmSurfTextStdANSI
  3
"Amdt_StdImp|Product Description: AutoCAD Mechanical 2000|Company: Autodesk"
 90
    32768
280
     0
281
     0
  0
CLASS
  1
ACMFCFSTANDARDANSI
  2
AcmFCFStdANSI
  3
"Amdt_StdImp|Product Description: AutoCAD Mechanical 2000|Company: Autodesk"
 90
    32768
280
     0
281
     0
  0
CLASS
  1
ACMWELDSTANDARDANSI
  2
AcmWeldingStdANSI
  3
"Amdt_StdImp|Product Description: AutoCAD Mechanical 2000|Company: Autodesk"
 90
    32768
280
     0
281
     0
  0
CLASS
  1
ACMIDSTANDARDANSI
  2
AcmIdStdANSI
  3
"Amdt_StdImp|Product Description: AutoCAD Mechanical 2000|Company: Autodesk"
 90
    32768
280
     0
281
     0
  0
CLASS
  1
ACMDATUMSTANDARDANSI
  2
AcmDatumStdANSI
  3
"Amdt_StdImp|Product Description: AutoCAD Mechanical 2000|Company: Autodesk"
 90
    32768
280
     0
281
     0
  0
CLASS
  1
ACMBOMSTANDARDANSI
  2
AcmBOMStdANSI
  3
"Amdt_StdImp|Product Description: AutoCAD Mechanical 2000|Company: Autodesk"
 90
    32768
280
     0
281
     0
  0
CLASS
  1
ACMDETAILSTANDARDANSI
  2
AmdtDetailSymStdANSI
  3
"Amdt_StdImp|Product Description: AutoCAD Mechanical 2000|Company: Autodesk"
 90
    32768
280
     0
281
     0
  0
CLASS
  1
ACMSECTIONSTANDARDANSI
  2
AmdtSectionSymStdANSI
  3
"Amdt_StdImp|Product Description: AutoCAD Mechanical 2000|Company: Autodesk"
 90
    32768
280
     0
281
     0
  0
CLASS
  1
ACMCENTERLINESTANDARDANSI
  2
AmdtCenterLineStdANSI
  3
"Amdt_StdImp|Product Description: AutoCAD Mechanical 2000|Company: Autodesk"
 90
    32768
280
     0
281
     0
  0
CLASS
  1
ACMNOTESTANDARDANSI
  2
AmdtNoteStdANSI
  3
"Amdt_StdImp|Product Description: AutoCAD Mechanical 2000|Company: Autodesk"
 90
    32768
280
     0
281
     0
  0
CLASS
  1
ACAMGLAYSTD
  2
AcAmgLayStd
  3
"AcAmgLayStd|Product Description: AutoCAD Mechanical 2000|Company: Autodesk"
 90
    32768
280
     0
281
     0
  0
CLASS
  1
ACAMGDIMSTD
  2
AcAmgDimStd
  3
"AcAmgDimStd|Product Description: AutoCAD Mechanical 2000|Company: Autodesk"
 90
    32768
280
     0
281
     0
  0
CLASS
  1
ACAMGHOLECHARTSTDANSI
  2
AcAmgHoleChartStdANSI
  3
ACMSYMBB_MODULE_NAME
 90
    32768
280
     0
281
     0
  0
CLASS
  1
ACAMGTITLESTD
  2
AcAmgTitleStd
  3
"TITLEAPP"
 90
    32768
280
     0
281
     0
  0
CLASS
  1
ACAMGFILTERDAT
  2
AcAmgFilterDat
  3
"AcadM|Product Description: AutoCAD Mechanical 2000|Company: Autodesk"
 90
    32768
280
     0
281
     0
  0
CLASS
  1
LAYER_INDEX
  2
AcDbLayerIndex
  3
AutoCAD 2000
 90
    32768
280
     0
281
     0
  0
CLASS
  1
IDBUFFER
  2
AcDbIdBuffer
  3
AutoCAD 2000
 90
    32768
280
     0
281
     0
  0
CLASS
  1
DICTIONARYVAR
  2
AcDbDictionaryVar
  3
AutoCAD 2000
 90
    32768
280
     0
281
     0
  0
CLASS
  1
LONG_TRANSACTION
  2
AcDbLongTransaction
  3
AutoCAD 2000
 90
    32768
280
     0
281
     0
  0
CLASS
  1
LWPOLYLINE
  2
AcDbPolyline
  3
AutoCAD 2000
 90
    32768
280
     0
281
     1
  0
CLASS
  1
HATCH
  2
AcDbHatch
  3
AutoCAD 2000
 90
    32768
280
     0
281
     1
  0
CLASS
  1
XRECORD
  2
AcDbXrecord
  3
AutoCAD 2000
 90
    32768
280
     0
281
     0
  0
CLASS
  1
AMDTFORMULAUPDATEDISPATCHER
  2
AmdtFormulaUpdateDispatcher
  3
AcMeServices
 90
    32768
280
     0
281
     0
  0
CLASS
  1
LONG_TRANSACTION
  2
AcDbLongTransaction
  3
AutoCAD 2000
 90
    32768
280
     0
281
     0
  0
CLASS
  1
LWPOLYLINE
  2
AcDbPolyline
  3
AutoCAD 2000
 90
    32768
280
     0
281
     1
  0
CLASS
  1
HATCH
  2
AcDbHatch
  3
AutoCAD 2000
 90
    32768
280
     0
281
     1
  0
CLASS
  1
XRECORD
  2
AcDbXrecord
  3
AutoCAD 2000
 90
    32768
280
     0
281
     0
  0
ENDSEC
  0
SECTION
  2
TABLES
  0
TABLE
  2
VPORT
  5
8
330
0
100
AcDbSymbolTable
 70
     5
  0
VPORT
  5
29C7
330
8
100
AcDbSymbolTableRecord
100
AcDbViewportTableRecord
  2
*ACTIVE
 70
     0
 10
0.0
 20
0.0
 11
1.0
 21
1.0
 12
420.0000019557776
 22
264.801133547678
 13
0.0
 23
0.0
 14
1.0
 24
1.0
 15
0.0
 25
0.0
 16
0.0
 26
0.0
 36
1.0
 17
0.0
 27
0.0
 37
0.0
 40
484.1606652160287
 41
1.756554307116104
 42
1.0
 43
0.0
 44
0.0
 50
0.0
 51
0.0
 71
     0
 72
   100
 73
     1
 74
     1
 75
     0
 76
     0
 77
     0
 78
     0
  0
ENDTAB
  0
TABLE
  2
LTYPE
  5
5
330
0
100
AcDbSymbolTable
 70
    16
  0
LTYPE
  5
13
330
5
100
AcDbSymbolTableRecord
100
AcDbLinetypeTableRecord
  2
BYBLOCK
 70
     0
  3

 72
    65
 73
     0
 40
0.0
  0
LTYPE
  5
14
330
5
100
AcDbSymbolTableRecord
100
AcDbLinetypeTableRecord
  2
BYLAYER
 70
     0
  3

 72
    65
 73
     0
 40
0.0
  0
LTYPE
  5
15
330
5
100
AcDbSymbolTableRecord
100
AcDbLinetypeTableRecord
  2
CONTINUOUS
 70
     0
  3
Solid line
 72
    65
 73
     0
 40
0.0
  0
LTYPE
  5
35
330
5
100
AcDbSymbolTableRecord
100
AcDbLinetypeTableRecord
  2
CENTER
 70
     0
  3
_______________ _ _______________ _ ___________
 72
    65
 73
     4
 40
18.0
 49
15.0
 74
     0
 49
-1.0
 74
     0
 49
1.0
 74
     0
 49
-1.0
 74
     0
  0
LTYPE
  5
36
330
5
100
AcDbSymbolTableRecord
100
AcDbLinetypeTableRecord
  2
HIDDEN
 70
     0
  3
___ ___ ___ ___ ___ ___ ___ ___ ___ ___ 
 72
    65
 73
     2
 40
4.0
 49
3.0
 74
     0
 49
-1.0
 74
     0
  0
LTYPE
  5
288F
330
5
100
AcDbSymbolTableRecord
100
AcDbLinetypeTableRecord
  2
AM_ISO02W050
 70
     0
  3
__ __ __ __ __ __ __ __ __ __ __ __ __ __ __
 72
    65
 73
     2
 40
7.5
 49
6.0
 74
     0
 49
-1.5
 74
     0
  0
LTYPE
  5
2890
330
5
100
AcDbSymbolTableRecord
100
AcDbLinetypeTableRecord
  2
AM_ISO08W050
 70
     0
  3
____ . ____ . ____ . ____ . ____ . ____ . ____
 72
    65
 73
     4
 40
18.0
 49
12.0
 74
     0
 49
-1.5
 74
     0
 49
3.0
 74
     0
 49
-1.5
 74
     0
  0
LTYPE
  5
2891
330
5
100
AcDbSymbolTableRecord
100
AcDbLinetypeTableRecord
  2
AM_ISO09W050
 70
     0
  3
_____ . . _____ . . _____ . . ____ .. ____
 72
    65
 73
     6
 40
22.5
 49
12.0
 74
     0
 49
-1.5
 74
     0
 49
3.0
 74
     0
 49
-1.5
 74
     0
 49
3.0
 74
     0
 49
-1.5
 74
     0
  0
LTYPE
  5
2892
330
5
100
AcDbSymbolTableRecord
100
AcDbLinetypeTableRecord
  2
AMCONSTR
 70
     0
  3
_______________________
 72
    65
 73
     2
 40
9999.0
 49
9999.0
 74
     0
 49
0.0
 74
     0
  0
LTYPE
  5
2893
330
5
100
AcDbSymbolTableRecord
100
AcDbLinetypeTableRecord
  2
AM_ISO08W050X2
 70
     0
  3
__ . __ . __ . __ . __ . __
 72
    65
 73
     4
 40
9.0
 49
6.0
 74
     0
 49
-0.75
 74
     0
 49
1.5
 74
     0
 49
-0.75
 74
     0
  0
LTYPE
  5
2894
330
5
100
AcDbSymbolTableRecord
100
AcDbLinetypeTableRecord
  2
AM_ISO02W050X2
 70
     0
  3
 _ _ _ _ _ _ _ _ _ _ _ _
 72
    65
 73
     2
 40
3.75
 49
3.0
 74
     0
 49
-0.75
 74
     0
  0
LTYPE
  5
2897
330
5
100
AcDbSymbolTableRecord
100
AcDbLinetypeTableRecord
  2
AMZIGZAG
 70
     0
  3
/\/-/\/-/\/-/\/-/\/-/\/
 72
    65
 73
     2
 40
11.00009999999999
 49
0.0001
 74
     4
 75
   135
340
2896
 46
0.04
 50
0.0
 44
0.0
 45
0.0
 49
-11.0
 74
     0
  0
LTYPE
  5
2898
330
5
100
AcDbSymbolTableRecord
100
AcDbLinetypeTableRecord
  2
PHANTOM2
 70
     0
  3
Phantom (.5x) ___ _ _ ___ _ _ ___ _ _ ___ _ _
 72
    65
 73
     6
 40
1.25
 49
0.625
 74
     0
 49
-0.125
 74
     0
 49
0.125
 74
     0
 49
-0.125
 74
     0
 49
0.125
 74
     0
 49
-0.125
 74
     0
  0
LTYPE
  5
2899
330
5
100
AcDbSymbolTableRecord
100
AcDbLinetypeTableRecord
  2
CENTER2
 70
     0
  3
Center (.5x) ___ _ ___ _ ___ _ ___ _ ___ _ ___
 72
    65
 73
     4
 40
1.125
 49
0.75
 74
     0
 49
-0.125
 74
     0
 49
0.125
 74
     0
 49
-0.125
 74
     0
  0
LTYPE
  5
289A
330
5
100
AcDbSymbolTableRecord
100
AcDbLinetypeTableRecord
  2
HIDDEN2
 70
     0
  3
Hidden (.5x) _ _ _ _ _ _ _ _ _ _ _ _ _ _ _ _ _
 72
    65
 73
     2
 40
0.1875
 49
0.125
 74
     0
 49
-0.0625
 74
     0
  0
LTYPE
  5
289B
330
5
100
AcDbSymbolTableRecord
100
AcDbLinetypeTableRecord
  2
AMZIGZAG2
 70
     0
  3
/\/-/\/-/\/-/\/-/\/-/\/
 72
    65
 73
     2
 40
0.4401
 49
0.0001
 74
     4
 75
   135
340
2896
 46
0.0016
 50
0.0
 44
0.0
 45
0.0
 49
-0.4400000000000001
 74
     0
  0
LTYPE
  5
28A8
330
5
100
AcDbSymbolTableRecord
100
AcDbLinetypeTableRecord
  2
ACANSTGB
 70
     0
  3
__ . . __ . .
 72
    65
 73
     6
 40
0.35433070866
 49
0.15748031496
 74
     0
 49
-0.03937007874
 74
     0
 49
0.03937007874
 74
     0
 49
-0.03937007874
 74
     0
 49
0.03937007874
 74
     0
 49
-0.03937007874
 74
     0
  0
LTYPE
  5
28A9
330
5
100
AcDbSymbolTableRecord
100
AcDbLinetypeTableRecord
  2
ACANSTGL
 70
     0
  3
_ _ _ _ _
 72
    65
 73
     2
 40
0.11811023622
 49
0.07874015748
 74
     0
 49
-0.03937007874
 74
     0
  0
ENDTAB
  0
TABLE
  2
LAYER
  5
2
330
0
100
AcDbSymbolTable
 70
     6
  0
LAYER
  5
10
330
2
100
AcDbSymbolTableRecord
100
AcDbLayerTableRecord
  2
0
 70
     0
 62
     7
  6
CONTINUOUS
  0
LAYER
  5
39
330
2
100
AcDbSymbolTableRecord
100
AcDbLayerTableRecord
  2
HIDDEN
 70
     0
 62
     6
  6
HIDDEN
  0
LAYER
  5
3A
330
2
100
AcDbSymbolTableRecord
100
AcDbLayerTableRecord
  2
DIM
 70
     0
 62
     5
  6
CONTINUOUS
  0
LAYER
  5
3B
330
2
100
AcDbSymbolTableRecord
100
AcDbLayerTableRecord
  2
CENTER
 70
     0
 62
     1
  6
CENTER
  0
LAYER
  5
1035
330
2
100
AcDbSymbolTableRecord
100
AcDbLayerTableRecord
  2
LOGO
 70
     0
 62
     7
  6
CONTINUOUS
  0
LAYER
  5
2951
330
2
100
AcDbSymbolTableRecord
100
AcDbLayerTableRecord
  2
AM_VIS
 70
     0
 62
     7
  6
CONTINUOUS
  0
ENDTAB
  0
TABLE
  2
STYLE
  5
3
330
0
100
AcDbSymbolTable
 70
     9
  0
STYLE
  5
11
330
3
100
AcDbSymbolTableRecord
100
AcDbTextStyleTableRecord
  2
STANDARD
 70
     0
 40
0.0
 41
1.0
 50
0.0
 71
     0
 42
3.0
  3

  4

  0
STYLE
  5
30
330
3
100
AcDbSymbolTableRecord
100
AcDbTextStyleTableRecord
  2
ITALICT
 70
     0
 40
0.0
 41
1.0
 50
0.0
 71
     0
 42
3.0
  3
ITALICT.SHX
  4

  0
STYLE
  5
31
330
3
100
AcDbSymbolTableRecord
100
AcDbTextStyleTableRecord
  2
ROMANS
 70
     0
 40
0.0
 41
1.0
 50
0.0
 71
     0
 42
3.0
  3
ROMANS.SHX
  4
LMP
  0
STYLE
  5
34
330
3
100
AcDbSymbolTableRecord
100
AcDbTextStyleTableRecord
  2
ROMANSS
 70
     0
 40
0.0
 41
1.0
 50
0.0
 71
     0
 42
3.0
  3
ROMANSS.SHX
  4
LMP
  0
STYLE
  5
1036
330
3
100
AcDbSymbolTableRecord
100
AcDbTextStyleTableRecord
  2
CHINESET
 70
     0
 40
0.0
 41
1.0
 50
0.0
 71
     0
 42
4.0
  3
C:\r13\com\fonts\simplex.shx
  4
C:\r13\com\fonts\chineset.shx
  0
STYLE
  5
1037
330
3
100
AcDbSymbolTableRecord
100
AcDbTextStyleTableRecord
  2
LOGO
 70
     0
 40
0.0
 41
1.0
 50
0.0
 71
     0
 42
5.0
  3
LEI00DP.TTF
  4

1001
ACAD
1000
文鼎中粗隸
1071
    34865
  0
STYLE
  5
2896
330
3
100
AcDbSymbolTableRecord
100
AcDbTextStyleTableRecord
  2

 70
     1
 40
0.0
 41
1.0
 50
0.0
 71
     0
 42
3.0
  3
ltypeshp.shx
  4

  0
STYLE
  5
289C
330
3
100
AcDbSymbolTableRecord
100
AcDbTextStyleTableRecord
  2
ACANSTS
 70
     0
 40
1.0
 41
1.0
 50
0.0
 71
     0
 42
3.0
  3
romans.shx
  4
chineset.shx
  0
STYLE
  5
28A7
330
3
100
AcDbSymbolTableRecord
100
AcDbTextStyleTableRecord
  2
ACANSGDT
 70
     0
 40
0.0
 41
1.0
 50
0.0
 71
     0
 42
3.0
  3
amgdtans.shx
  4

  0
ENDTAB
  0
TABLE
  2
VIEW
  5
6
330
0
100
AcDbSymbolTable
 70
     0
  0
ENDTAB
  0
TABLE
  2
UCS
  5
7
330
0
100
AcDbSymbolTable
 70
     0
  0
ENDTAB
  0
TABLE
  2
APPID
  5
9
330
0
100
AcDbSymbolTable
 70
     5
  0
APPID
  5
12
330
9
100
AcDbSymbolTableRecord
100
AcDbRegAppTableRecord
  2
ACAD
 70
     0
  0
APPID
  5
38
330
9
100
AcDbSymbolTableRecord
100
AcDbRegAppTableRecord
  2
TCAD
 70
     0
  0
APPID
  5
2871
330
9
100
AcDbSymbolTableRecord
100
AcDbRegAppTableRecord
  2
MCAD_NO_VIS
 70
     0
  0
APPID
  5
2872
330
9
100
AcDbSymbolTableRecord
100
AcDbRegAppTableRecord
  2
ACAD_TEMP_GRAPHIC
 70
     0
  0
APPID
  5
2883
330
9
100
AcDbSymbolTableRecord
100
AcDbRegAppTableRecord
  2
ACATTRIBSERVICES
 70
     0
  0
ENDTAB
  0
TABLE
  2
DIMSTYLE
  5
A
330
0
100
AcDbSymbolTable
 70
     7
  0
DIMSTYLE
105
F5E
330
A
100
AcDbSymbolTableRecord
100
AcDbDimStyleTableRecord
  2
STANDARD
 70
     0
  3

  4

  5

  6

  7

 40
1.0
 41
0.18
 42
0.0625
 43
0.38
 44
0.18
 45
0.0
 46
0.0
 47
0.0
 48
0.0
140
0.18
141
0.09
142
0.0
143
25.4
144
1.0
145
0.0
146
1.0
147
0.09
 71
     0
 72
     0
 73
     1
 74
     1
 75
     0
 76
     0
 77
     0
 78
     0
170
     0
171
     2
172
     0
173
     0
174
     0
175
     0
176
     0
177
     0
178
     0
270
     2
271
     4
272
     4
273
     2
274
     2
340
11
275
     0
280
     0
281
     0
282
     0
283
     1
284
     0
285
     0
286
     0
287
     3
288
     0
  0
DIMSTYLE
105
28AD
330
A
100
AcDbSymbolTableRecord
100
AcDbDimStyleTableRecord
  2
AM_ANSI
 70
     0
  3

  4
mm
  5

  6

  7

 40
1.0
 41
0.1
 42
0.05
 43
0.5
 44
0.1
 45
0.0
 46
0.0
 47
0.1
 48
0.1
140
0.12
141
0.0
142
0.0
143
25.4
144
1.0
145
0.0
146
0.71
147
0.06
 71
     0
 72
     0
 73
     1
 74
     1
 75
     0
 76
     0
 77
     0
 78
     7
170
     0
171
     2
172
     0
173
     0
174
     0
175
     0
176
   256
177
   256
178
     2
270
     2
271
     4
272
     4
273
     2
274
     4
340
11
275
     0
280
     0
281
     0
282
     0
283
     1
284
     7
285
     0
286
     0
287
     3
288
     0
  0
DIMSTYLE
105
28AE
330
A
100
AcDbSymbolTableRecord
100
AcDbDimStyleTableRecord
  2
AM_ANSI$3
 70
     0
  3

  4
mm
  5

  6

  7

 40
1.0
 41
0.1
 42
0.05
 43
0.5
 44
0.1
 45
0.0
 46
0.0
 47
0.1
 48
0.1
140
0.12
141
0.0
142
0.0
143
25.4
144
1.0
145
0.0
146
0.71
147
0.06
 71
     0
 72
     0
 73
     1
 74
     1
 75
     0
 76
     0
 77
     0
 78
     7
170
     0
171
     2
172
     0
173
     0
174
     0
175
     0
176
   256
177
   256
178
     2
270
     2
271
     4
272
     4
273
     2
274
     4
340
11
275
     0
280
     0
281
     0
282
     0
283
     1
284
     7
285
     0
286
     0
287
     0
288
     1
  0
DIMSTYLE
105
28AF
330
A
100
AcDbSymbolTableRecord
100
AcDbDimStyleTableRecord
  2
AM_ANSI$4
 70
     0
  3

  4
mm
  5

  6

  7

 40
1.0
 41
0.1
 42
0.05
 43
0.5
 44
0.1
 45
0.0
 46
0.0
 47
0.1
 48
0.1
140
0.12
141
0.0
142
0.0
143
25.4
144
1.0
145
0.0
146
0.71
147
0.06
 71
     0
 72
     0
 73
     1
 74
     1
 75
     0
 76
     0
 77
     0
 78
     7
170
     0
171
     2
172
     0
173
     0
174
     0
175
     0
176
   256
177
   256
178
     2
270
     2
271
     4
272
     4
273
     2
274
     4
340
11
275
     0
280
     0
281
     0
282
     0
283
     1
284
     7
285
     0
286
     0
287
     0
288
     1
  0
DIMSTYLE
105
28B0
330
A
100
AcDbSymbolTableRecord
100
AcDbDimStyleTableRecord
  2
AM_ANSI$7
 70
     0
  3

  4
mm
  5

  6

  7

 40
1.0
 41
0.1
 42
0.05
 43
0.5
 44
0.1
 45
0.0
 46
0.0
 47
0.1
 48
0.1
140
0.24
141
0.0
142
0.0
143
25.4
144
1.0
145
0.0
146
0.71
147
0.06
 71
     0
 72
     0
 73
     1
 74
     1
 75
     0
 76
     0
 77
     0
 78
     7
170
     0
171
     2
172
     0
173
     0
174
     0
175
     0
176
   256
177
   256
178
     2
270
     2
271
     4
272
     4
273
     2
274
     4
340
11
275
     0
280
     0
281
     0
282
     0
283
     1
284
     7
285
     0
286
     0
287
     3
288
     0
  0
DIMSTYLE
105
28B1
330
A
100
AcDbSymbolTableRecord
100
AcDbDimStyleTableRecord
  2
AM_ANSI$SF
 70
     0
  3

  4
mm
  5

  6

  7

 40
1.0
 41
0.1
 42
0.05
 43
0.5
 44
0.1
 45
0.0
 46
0.0
 47
0.1
 48
0.1
140
0.12
141
0.0
142
0.0
143
25.4
144
1.0
145
0.0
146
0.71
147
0.06
 71
     0
 72
     0
 73
     1
 74
     1
 75
     1
 76
     1
 77
     0
 78
     7
170
     0
171
     2
172
     0
173
     0
174
     0
175
     0
176
   256
177
   256
178
     2
270
     2
271
     4
272
     4
273
     2
274
     4
340
11
275
     0
280
     0
281
     0
282
     0
283
     1
284
     7
285
     0
286
     0
287
     3
288
     0
  0
DIMSTYLE
105
28B6
330
A
100
AcDbSymbolTableRecord
100
AcDbDimStyleTableRecord
  2
AM_ANSI$SH
 70
     0
  3

  4
mm
  5

  6
GENAXEH
  7

 40
1.0
 41
0.1
 42
0.05
 43
0.5
 44
0.1
 45
0.0
 46
0.0
 47
0.1
 48
0.1
140
0.12
141
0.0
142
0.0
143
25.4
144
1.0
145
0.0
146
0.71
147
0.06
 71
     0
 72
     0
 73
     1
 74
     1
 75
     1
 76
     1
 77
     0
 78
     7
170
     0
171
     2
172
     0
173
     1
174
     0
175
     0
176
   256
177
   256
178
     2
270
     2
271
     4
272
     4
273
     2
274
     4
340
11
275
     0
280
     0
281
     0
282
     0
283
     1
284
     7
285
     0
286
     0
287
     3
288
     0
  0
ENDTAB
  0
TABLE
  2
BLOCK_RECORD
  5
1
330
0
100
AcDbSymbolTable
 70
     1
  0
BLOCK_RECORD
  5
1E
102
{ACAD_XDICTIONARY
360
2393
102
}
330
1
100
AcDbSymbolTableRecord
100
AcDbBlockTableRecord
  2
*MODEL_SPACE
  0
BLOCK_RECORD
  5
1A
102
{ACAD_XDICTIONARY
360
2395
102
}
330
1
100
AcDbSymbolTableRecord
100
AcDbBlockTableRecord
  2
*PAPER_SPACE
  0
BLOCK_RECORD
  5
28B2
330
1
100
AcDbSymbolTableRecord
100
AcDbBlockTableRecord
  2
GENAXEH
  0
ENDTAB
  0
ENDSEC
  0
SECTION
  2
BLOCKS
  0
BLOCK
  5
3E
330
1E
100
AcDbEntity
  8
0
100
AcDbBlockBegin
  2
*MODEL_SPACE
 70
     0
 10
0.0
 20
0.0
 30
0.0
  3
*MODEL_SPACE
  1

  0
ENDBLK
  5
3F
330
1E
100
AcDbEntity
  8
0
100
AcDbBlockEnd
  0
BLOCK
  5
3C
330
1A
100
AcDbEntity
 67
     1
  8
0
100
AcDbBlockBegin
  2
*PAPER_SPACE
 70
     0
 10
0.0
 20
0.0
 30
0.0
  3
*PAPER_SPACE
  1

  0
ENDBLK
  5
3D
330
1A
100
AcDbEntity
 67
     1
  8
0
100
AcDbBlockEnd
  0
BLOCK
  5
28B4
330
28B2
100
AcDbEntity
  8
0
100
AcDbBlockBegin
  2
GENAXEH
 70
     0
 10
0.0
 20
0.0
 30
0.0
  3
GENAXEH
  1

  0
LINE
  5
28B3
330
28B2
100
AcDbEntity
  8
0
100
AcDbLine
 10
-1.0
 20
0.0
 30
0.0
 11
1.0
 21
0.0
 31
0.0
  0
ENDBLK
  5
28B5
330
28B2
100
AcDbEntity
  8
0
100
AcDbBlockEnd
  0
ENDSEC
  0
SECTION
  2
ENTITIES
  0
LINE
  5
B2E
330
1E
100
AcDbEntity
  8
0
 62
     4
100
AcDbLine
 10
810.0
 20
504.1544966061458
 30
0.0
 11
810.0
 21
128.5017484044847
 31
0.0
  0
LINE
  5
B2F
330
1E
100
AcDbEntity
  8
0
 62
     4
100
AcDbLine
 10
30.0
 20
128.5017484044847
 30
0.0
 11
30.0
 21
504.1544966061458
 31
0.0
  0
LINE
  5
B30
330
1E
100
AcDbEntity
  8
0
 62
     4
100
AcDbLine
 10
810.0
 20
128.5017484044847
 30
0.0
 11
30.0
 21
128.5017484044847
 31
0.0
  0
LINE
  5
B32
330
1E
100
AcDbEntity
  8
0
 62
     4
100
AcDbLine
 10
30.0
 20
504.1544966061458
 30
0.0
 11
810.0
 21
504.1544966061458
 31
0.0
  0
LINE
  5
F5F
330
1E
100
AcDbEntity
  8
0
 62
     4
100
AcDbLine
 10
552.5227084224934
 20
504.1544966061458
 30
0.0
 11
552.5227084224934
 21
128.5017484044847
 31
0.0
  0
LINE
  5
FCC
330
1E
100
AcDbEntity
  8
CENTER
  6
CENTER
100
AcDbLine
 10
586.8346741291023
 20
370.7322368770263
 30
0.0
 11
706.2931756369002
 21
370.7322368770263
 31
0.0
  0
LINE
  5
FCD
330
1E
100
AcDbEntity
  8
DIM
100
AcDbLine
 10
602.8346741291024
 20
262.2699764105159
 30
0.0
 11
689.8346741291024
 21
262.2699764105159
 31
0.0
  0
LINE
  5
FCE
330
1E
100
AcDbEntity
  8
DIM
100
AcDbLine
 10
588.8346741291023
 20
254.2699764105159
 30
0.0
 11
703.8346741291023
 21
254.2699764105159
 31
0.0
  0
LINE
  5
FCF
330
1E
100
AcDbEntity
  8
0
100
AcDbLine
 10
589.3346741291024
 20
380.7322368770263
 30
0.0
 11
703.3346741291024
 21
380.7322368770263
 31
0.0
  0
LINE
  5
FD0
330
1E
100
AcDbEntity
  8
0
100
AcDbLine
 10
589.3346741291024
 20
360.7322368770263
 30
0.0
 11
703.3346741291024
 21
360.7322368770263
 31
0.0
  0
LINE
  5
FD1
330
1E
100
AcDbEntity
  8
CENTER
  6
CENTER
100
AcDbLine
 10
586.2649840793369
 20
322.7699764105159
 30
0.0
 11
705.8346741291024
 21
322.7699764105159
 31
0.0
  0
LINE
  5
FD2
330
1E
100
AcDbEntity
  8
0
100
AcDbLine
 10
590.8346741291024
 20
270.269976410516
 30
0.0
 11
701.8346741291024
 21
270.2699764105159
 31
0.0
  0
LINE
  5
FD3
330
1E
100
AcDbEntity
  8
0
100
AcDbLine
 10
626.3346741291023
 20
294.769976410516
 30
0.0
 11
666.3346741291024
 21
294.769976410516
 31
0.0
  0
LINE
  5
FD4
330
1E
100
AcDbEntity
  8
DIM
100
AcDbLine
 10
602.8346741291025
 20
310.5605766104058
 30
0.0
 11
602.8346741291024
 21
261.2699764105159
 31
0.0
  0
LINE
  5
FD5
330
1E
100
AcDbEntity
  8
CENTER
  6
CENTER
100
AcDbLine
 10
646.3346741291025
 20
269.269976410516
 30
0.0
 11
646.3346741291025
 21
348.7699764105159
 31
0.0
  0
LINE
  5
FD6
330
1E
100
AcDbEntity
  8
0
100
AcDbLine
 10
618.8346741291024
 20
302.269976410516
 30
0.0
 11
618.8346741291024
 21
346.769976410516
 31
0.0
  0
LINE
  5
FD7
330
1E
100
AcDbEntity
  8
0
100
AcDbLine
 10
588.8346741291025
 20
272.269976410516
 30
0.0
 11
588.8346741291023
 21
347.2699764105159
 31
0.0
  0
LINE
  5
FD8
330
1E
100
AcDbEntity
  8
DIM
100
AcDbLine
 10
588.8346741291023
 20
269.5264475714497
 30
0.0
 11
588.8346741291023
 21
253.2699764105159
 31
0.0
  0
SOLID
  5
FD9
330
1E
100
AcDbEntity
  8
DIM
100
AcDbTrace
 10
591.8346741291023
 20
254.7699764105159
 30
0.0
 11
591.8346741291023
 21
253.7699764105159
 31
0.0
 12
588.8346741291023
 22
254.2699764105159
 32
0.0
 13
588.8346741291023
 23
254.2699764105159
 33
0.0
  0
LINE
  5
FDA
330
1E
100
AcDbEntity
  8
0
100
AcDbLine
 10
590.8346741291024
 20
270.269976410516
 30
0.0
 11
588.8346741291025
 21
272.269976410516
 31
0.0
  0
SOLID
  5
FDB
330
1E
100
AcDbEntity
  8
DIM
100
AcDbTrace
 10
605.8346741291024
 20
262.7699764105159
 30
0.0
 11
605.8346741291024
 21
261.7699764105159
 31
0.0
 12
602.8346741291024
 22
262.2699764105159
 32
0.0
 13
602.8346741291024
 23
262.2699764105159
 33
0.0
  0
TEXT
  5
FDC
330
1E
100
AcDbEntity
  8
DIM
100
AcDbText
 10
642.3664249423323
 20
255.4699764105159
 30
0.0
 40
3.0
  1
115
  7
ROMANS
 72
     1
 11
646.8664249423323
 21
256.9699764105159
 31
0.0
100
AcDbText
 73
     2
  0
TEXT
  5
FDD
330
1E
100
AcDbEntity
  8
DIM
100
AcDbText
 10
643.855588982741
 20
263.5364125498633
 30
0.0
 40
3.0
  1
87
  7
ROMANS
 72
     1
 11
646.7127318398838
 21
265.0364125498633
 31
0.0
100
AcDbText
 73
     2
  0
ARC
  5
FDE
330
1E
100
AcDbEntity
  8
0
100
AcDbCircle
 10
626.3346741291023
 20
302.269976410516
 30
0.0
 40
7.5
100
AcDbArc
 50
180.0
 51
270.0
  0
LINE
  5
FDF
330
1E
100
AcDbEntity
  8
0
100
AcDbLine
 10
603.5846741291025
 20
360.7322368770263
 30
0.0
 11
603.5846741291024
 21
380.7322368770263
 31
0.0
  0
LINE
  5
FE0
330
1E
100
AcDbEntity
  8
0
100
AcDbLine
 10
602.0846741291024
 20
360.7322368770263
 30
0.0
 11
602.0846741291023
 21
380.7322368770263
 31
0.0
  0
LINE
  5
FE1
330
1E
100
AcDbEntity
  8
0
100
AcDbLine
 10
618.8346741291025
 20
360.7322368770263
 30
0.0
 11
618.8346741291025
 21
380.7322368770263
 31
0.0
  0
LINE
  5
FE2
330
1E
100
AcDbEntity
  8
CENTER
  6
CENTER
100
AcDbLine
 10
602.8346741291024
 20
358.7322368770263
 30
0.0
 11
602.8346741291024
 21
382.7322368770263
 31
0.0
  0
LINE
  5
FE3
330
1E
100
AcDbEntity
  8
CENTER
  6
CENTER
100
AcDbLine
 10
646.3346741291025
 20
358.7322368770263
 30
0.0
 11
646.3346741291025
 21
383.3581641726611
 31
0.0
  0
LINE
  5
FE4
330
1E
100
AcDbEntity
  8
0
100
AcDbLine
 10
588.8346741291023
 20
361.2322368770263
 30
0.0
 11
588.8346741291023
 21
380.2322368770262
 31
0.0
  0
LINE
  5
FE5
330
1E
100
AcDbEntity
  8
0
100
AcDbLine
 10
617.8346741291023
 20
347.7699764105159
 30
0.0
 11
603.5846741291024
 21
347.7699764105159
 31
0.0
  0
LINE
  5
FE6
330
1E
100
AcDbEntity
  8
CENTER
  6
CENTER
100
AcDbLine
 10
585.9429237907534
 20
339.2699764105159
 30
0.0
 11
621.9816555769787
 21
339.2699764105159
 31
0.0
  0
LINE
  5
FE7
330
1E
100
AcDbEntity
  8
0
100
AcDbLine
 10
602.0846741291023
 20
330.7347425715529
 30
0.0
 11
602.0846741291023
 21
347.7699764105159
 31
0.0
  0
LINE
  5
FE8
330
1E
100
AcDbEntity
  8
0
100
AcDbLine
 10
603.5846741291024
 20
330.7347425715529
 30
0.0
 11
603.5846741291024
 21
347.7699764105159
 31
0.0
  0
LINE
  5
FE9
330
1E
100
AcDbEntity
  8
CENTER
  6
CENTER
100
AcDbLine
 10
602.8346741291024
 20
311.7699764105159
 30
0.0
 11
602.8346741291024
 21
349.6558395596153
 31
0.0
  0
ARC
  5
FEA
330
1E
100
AcDbEntity
  8
0
100
AcDbCircle
 10
602.8346741291024
 20
322.7699764105159
 30
0.0
 40
8.0
100
AcDbArc
 50
95.37937899111206
 51
84.62062100888793
  0
LINE
  5
FEB
330
1E
100
AcDbEntity
  8
0
100
AcDbLine
 10
602.0846741291024
 20
335.2699764105159
 30
0.0
 11
603.5846741291025
 21
335.2699764105159
 31
0.0
  0
LINE
  5
FEC
330
1E
100
AcDbEntity
  8
0
100
AcDbLine
 10
602.0846741291023
 20
347.7699764105159
 30
0.0
 11
589.3346741291024
 21
347.7699764105159
 31
0.0
  0
LINE
  5
FED
330
1E
100
AcDbEntity
  8
0
100
AcDbLine
 10
588.8346741291023
 20
347.269976410516
 30
0.0
 11
589.3346741291024
 21
347.7699764105159
 31
0.0
  0
LINE
  5
FEE
330
1E
100
AcDbEntity
  8
0
100
AcDbLine
 10
588.8346741291023
 20
361.2322368770263
 30
0.0
 11
589.3346741291024
 21
360.7322368770263
 31
0.0
  0
LINE
  5
FEF
330
1E
100
AcDbEntity
  8
0
100
AcDbLine
 10
602.0846741291024
 20
343.269976410516
 30
0.0
 11
603.5846741291025
 21
343.269976410516
 31
0.0
  0
LINE
  5
FF0
330
1E
100
AcDbEntity
  8
0
100
AcDbLine
 10
602.0846741291024
 20
366.7322368770262
 30
0.0
 11
603.5846741291025
 21
366.7322368770262
 31
0.0
  0
LINE
  5
FF1
330
1E
100
AcDbEntity
  8
0
100
AcDbLine
 10
617.8346741291023
 20
347.7699764105159
 30
0.0
 11
618.8346741291024
 21
346.769976410516
 31
0.0
  0
LINE
  5
FF2
330
1E
100
AcDbEntity
  8
0
100
AcDbLine
 10
588.8346741291023
 20
380.2322368770262
 30
0.0
 11
589.3346741291024
 21
380.7322368770263
 31
0.0
  0
LINE
  5
FF3
330
1E
100
AcDbEntity
  8
0
100
AcDbLine
 10
602.0846741291024
 20
374.7322368770263
 30
0.0
 11
603.5846741291024
 21
374.7322368770263
 31
0.0
  0
LINE
  5
FF4
330
1E
100
AcDbEntity
  8
CENTER
  6
CENTER
100
AcDbLine
 10
745.321991010098
 20
349.7699764105159
 30
0.0
 11
745.3219910100981
 21
268.011737200237
 31
0.0
  0
LINE
  5
FF5
330
1E
100
AcDbEntity
  8
DIM
100
AcDbLine
 10
689.8346741291024
 20
310.2795501682941
 30
0.0
 11
689.8346741291024
 21
261.2699764105159
 31
0.0
  0
TEXT
  5
FF6
330
1E
100
AcDbEntity
  8
DIM
100
AcDbText
 10
718.9346741291025
 20
304.0228291930136
 30
0.0
 40
3.0
  1
77.5
 50
90.0
  7
ROMANS
 72
     1
 11
717.4346741291024
 21
309.0228291930136
 31
0.0
100
AcDbText
 73
     2
  0
LINE
  5
FF7
330
1E
100
AcDbEntity
  8
DIM
100
AcDbLine
 10
719.8346741291024
 20
270.269976410516
 30
0.0
 11
719.8346741291024
 21
347.7699764105159
 31
0.0
  0
LINE
  5
FF8
330
1E
100
AcDbEntity
  8
DIM
100
AcDbLine
 10
711.8346741291024
 20
270.269976410516
 30
0.0
 11
711.8346741291023
 21
347.7699764105159
 31
0.0
  0
LINE
  5
FF9
330
1E
100
AcDbEntity
  8
0
100
AcDbLine
 10
673.8346741291024
 20
302.269976410516
 30
0.0
 11
673.8346741291024
 21
346.769976410516
 31
0.0
  0
LINE
  5
FFA
330
1E
100
AcDbEntity
  8
0
100
AcDbLine
 10
755.321991010098
 20
347.2699764105159
 30
0.0
 11
755.321991010098
 21
270.769976410516
 31
0.0
  0
LINE
  5
FFB
330
1E
100
AcDbEntity
  8
0
100
AcDbLine
 10
735.321991010098
 20
347.2699764105159
 30
0.0
 11
735.321991010098
 21
270.769976410516
 31
0.0
  0
LINE
  5
FFC
330
1E
100
AcDbEntity
  8
0
100
AcDbLine
 10
703.8346741291023
 20
272.269976410516
 30
0.0
 11
703.8346741291023
 21
347.269976410516
 31
0.0
  0
TEXT
  5
FFD
330
1E
100
AcDbEntity
  8
DIM
100
AcDbText
 10
710.9346741291025
 20
294.7406110103172
 30
0.0
 40
3.0
  1
52.5
 50
90.0
  7
ROMANS
 72
     1
 11
709.4346741291025
 21
299.7406110103172
 31
0.0
100
AcDbText
 73
     2
  0
LINE
  5
FFE
330
1E
100
AcDbEntity
  8
DIM
100
AcDbLine
 10
702.8346741291024
 20
270.269976410516
 30
0.0
 11
720.8346741291024
 21
270.269976410516
 31
0.0
  0
LINE
  5
FFF
330
1E
100
AcDbEntity
  8
DIM
100
AcDbLine
 10
703.8346741291023
 20
269.6422900624802
 30
0.0
 11
703.8346741291023
 21
253.2699764105159
 31
0.0
  0
SOLID
  5
1000
330
1E
100
AcDbEntity
  8
DIM
100
AcDbTrace
 10
700.8346741291023
 20
254.7699764105159
 30
0.0
 11
700.8346741291023
 21
253.7699764105159
 31
0.0
 12
703.8346741291023
 22
254.2699764105159
 32
0.0
 13
703.8346741291023
 23
254.2699764105159
 33
0.0
  0
SOLID
  5
1001
330
1E
100
AcDbEntity
  8
DIM
100
AcDbTrace
 10
686.8346741291023
 20
262.7699764105159
 30
0.0
 11
686.8346741291023
 21
261.7699764105159
 31
0.0
 12
689.8346741291024
 22
262.2699764105159
 32
0.0
 13
689.8346741291024
 23
262.2699764105159
 33
0.0
  0
LINE
  5
1002
330
1E
100
AcDbEntity
  8
0
100
AcDbLine
 10
703.8346741291023
 20
272.269976410516
 30
0.0
 11
701.8346741291024
 21
270.2699764105159
 31
0.0
  0
ARC
  5
1003
330
1E
100
AcDbEntity
  8
0
100
AcDbCircle
 10
666.3346741291024
 20
302.269976410516
 30
0.0
 40
7.5
100
AcDbArc
 50
270.0
 51
0.0
  0
SOLID
  5
1004
330
1E
100
AcDbEntity
  8
DIM
100
AcDbTrace
 10
712.2513407957691
 20
272.7699764105159
 30
0.0
 11
711.4180074624357
 21
272.7699764105159
 31
0.0
 12
711.8346741291024
 22
270.2699764105158
 32
0.0
 13
711.8346741291024
 23
270.2699764105158
 33
0.0
  0
SOLID
  5
1005
330
1E
100
AcDbEntity
  8
DIM
100
AcDbTrace
 10
720.2513407957691
 20
272.769976410516
 30
0.0
 11
719.4180074624357
 21
272.769976410516
 31
0.0
 12
719.8346741291024
 22
270.269976410516
 32
0.0
 13
719.8346741291024
 23
270.269976410516
 33
0.0
  0
TEXT
  5
1006
330
1E
100
AcDbEntity
  8
DIM
100
AcDbText
 10
742.8744767379968
 20
263.4699764105159
 30
0.0
 40
3.0
  1
20
  7
ROMANS
 72
     1
 11
745.7316195951396
 21
264.9699764105159
 31
0.0
100
AcDbText
 73
     2
  0
LINE
  5
1007
330
1E
100
AcDbEntity
  8
DIM
100
AcDbLine
 10
738.321991010098
 20
262.2699764105159
 30
0.0
 11
752.321991010098
 21
262.2699764105159
 31
0.0
  0
LINE
  5
1008
330
1E
100
AcDbEntity
  8
0
100
AcDbLine
 10
735.821991010098
 20
270.269976410516
 30
0.0
 11
754.821991010098
 21
270.269976410516
 31
0.0
  0
LINE
  5
1009
330
1E
100
AcDbEntity
  8
DIM
100
AcDbLine
 10
735.321991010098
 20
269.769976410516
 30
0.0
 11
735.321991010098
 21
261.2699764105159
 31
0.0
  0
SOLID
  5
100A
330
1E
100
AcDbEntity
  8
DIM
100
AcDbTrace
 10
738.321991010098
 20
261.7699764105159
 30
0.0
 11
738.321991010098
 21
262.7699764105159
 31
0.0
 12
735.321991010098
 22
262.2699764105159
 32
0.0
 13
735.321991010098
 23
262.2699764105159
 33
0.0
  0
LINE
  5
100B
330
1E
100
AcDbEntity
  8
0
100
AcDbLine
 10
735.321991010098
 20
270.769976410516
 30
0.0
 11
735.821991010098
 21
270.269976410516
 31
0.0
  0
LINE
  5
100C
330
1E
100
AcDbEntity
  8
DIM
100
AcDbLine
 10
755.321991010098
 20
269.769976410516
 30
0.0
 11
755.321991010098
 21
261.2699764105159
 31
0.0
  0
SOLID
  5
100D
330
1E
100
AcDbEntity
  8
DIM
100
AcDbTrace
 10
752.321991010098
 20
261.7699764105159
 30
0.0
 11
752.321991010098
 21
262.7699764105159
 31
0.0
 12
755.321991010098
 22
262.2699764105159
 32
0.0
 13
755.321991010098
 23
262.2699764105159
 33
0.0
  0
LINE
  5
100E
330
1E
100
AcDbEntity
  8
0
100
AcDbLine
 10
755.321991010098
 20
270.769976410516
 30
0.0
 11
754.821991010098
 21
270.269976410516
 31
0.0
  0
LINE
  5
100F
330
1E
100
AcDbEntity
  8
HIDDEN
  6
HIDDEN
100
AcDbLine
 10
735.321991010098
 20
294.769976410516
 30
0.0
 11
755.321991010098
 21
294.769976410516
 31
0.0
  0
LINE
  5
1010
330
1E
100
AcDbEntity
  8
CENTER
  6
CENTER
100
AcDbLine
 10
733.3219910100979
 20
339.2699764105159
 30
0.0
 11
757.3219910100979
 21
339.2699764105159
 31
0.0
  0
LINE
  5
1011
330
1E
100
AcDbEntity
  8
CENTER
  6
CENTER
100
AcDbLine
 10
733.321991010098
 20
322.7699764105159
 30
0.0
 11
757.9479183057328
 21
322.7699764105159
 31
0.0
  0
LINE
  5
1012
330
1E
100
AcDbEntity
  8
0
100
AcDbLine
 10
690.5846741291023
 20
360.7322368770263
 30
0.0
 11
690.5846741291023
 21
380.7322368770263
 31
0.0
  0
LINE
  5
1013
330
1E
100
AcDbEntity
  8
0
100
AcDbLine
 10
689.0846741291023
 20
360.7322368770263
 30
0.0
 11
689.0846741291023
 21
380.7322368770263
 31
0.0
  0
LINE
  5
1014
330
1E
100
AcDbEntity
  8
0
100
AcDbLine
 10
673.8346741291024
 20
360.7322368770263
 30
0.0
 11
673.8346741291024
 21
380.7322368770263
 31
0.0
  0
LINE
  5
1015
330
1E
100
AcDbEntity
  8
CENTER
  6
CENTER
100
AcDbLine
 10
689.8346741291024
 20
358.7322368770263
 30
0.0
 11
689.8346741291024
 21
382.7322368770263
 31
0.0
  0
LINE
  5
1016
330
1E
100
AcDbEntity
  8
0
100
AcDbLine
 10
703.8346741291024
 20
361.2322368770263
 30
0.0
 11
703.8346741291024
 21
380.2322368770263
 31
0.0
  0
LINE
  5
1017
330
1E
100
AcDbEntity
  8
DIM
100
AcDbLine
 10
704.3346741291024
 20
347.7699764105159
 30
0.0
 11
720.8346741291024
 21
347.7699764105159
 31
0.0
  0
TEXT
  5
1018
330
1E
100
AcDbEntity
  8
DIM
100
AcDbText
 10
710.9346741291024
 20
333.3765430337288
 30
0.0
 40
3.0
  1
25
 50
90.0
  7
ROMANS
 72
     1
 11
709.4346741291023
 21
336.2336858908716
 31
0.0
100
AcDbText
 73
     2
  0
LINE
  5
1019
330
1E
100
AcDbEntity
  8
DIM
100
AcDbLine
 10
707.4410264367768
 20
322.7699764105159
 30
0.0
 11
712.8346741291023
 21
322.7699764105159
 31
0.0
  0
LINE
  5
101A
330
1E
100
AcDbEntity
  8
0
100
AcDbLine
 10
690.5846741291023
 20
330.7347425715529
 30
0.0
 11
690.5846741291023
 21
347.7699764105159
 31
0.0
  0
LINE
  5
101B
330
1E
100
AcDbEntity
  8
0
100
AcDbLine
 10
689.0846741291023
 20
330.7347425715529
 30
0.0
 11
689.0846741291023
 21
347.7699764105159
 31
0.0
  0
LINE
  5
101C
330
1E
100
AcDbEntity
  8
CENTER
  6
CENTER
100
AcDbLine
 10
689.8346741291024
 20
311.7699764105159
 30
0.0
 11
689.8346741291024
 21
349.6558395596153
 31
0.0
  0
ARC
  5
101D
330
1E
100
AcDbEntity
  8
0
100
AcDbCircle
 10
689.8346741291024
 20
322.7699764105159
 30
0.0
 40
8.0
100
AcDbArc
 50
95.37937899111206
 51
84.62062100888793
  0
LINE
  5
101E
330
1E
100
AcDbEntity
  8
0
100
AcDbLine
 10
689.0846741291024
 20
335.2699764105159
 30
0.0
 11
690.5846741291025
 21
335.2699764105159
 31
0.0
  0
LINE
  5
101F
330
1E
100
AcDbEntity
  8
CENTER
  6
CENTER
100
AcDbLine
 10
670.8341542440357
 20
339.2699764105159
 30
0.0
 11
706.872886030261
 21
339.2699764105159
 31
0.0
  0
LINE
  5
1020
330
1E
100
AcDbEntity
  8
0
100
AcDbLine
 10
674.8346741291023
 20
347.7699764105159
 30
0.0
 11
689.0846741291023
 21
347.7699764105159
 31
0.0
  0
LINE
  5
1021
330
1E
100
AcDbEntity
  8
0
100
AcDbLine
 10
673.8346741291024
 20
346.769976410516
 30
0.0
 11
674.8346741291023
 21
347.7699764105159
 31
0.0
  0
LINE
  5
1022
330
1E
100
AcDbEntity
  8
0
100
AcDbLine
 10
690.5846741291023
 20
347.7699764105159
 30
0.0
 11
703.3346741291023
 21
347.7699764105159
 31
0.0
  0
LINE
  5
1023
330
1E
100
AcDbEntity
  8
0
100
AcDbLine
 10
689.0846741291024
 20
343.269976410516
 30
0.0
 11
690.5846741291025
 21
343.269976410516
 31
0.0
  0
LINE
  5
1024
330
1E
100
AcDbEntity
  8
0
100
AcDbLine
 10
703.3346741291023
 20
347.7699764105159
 30
0.0
 11
703.8346741291023
 21
347.269976410516
 31
0.0
  0
LINE
  5
1025
330
1E
100
AcDbEntity
  8
0
100
AcDbLine
 10
689.0846741291023
 20
366.7322368770263
 30
0.0
 11
690.5846741291023
 21
366.7322368770263
 31
0.0
  0
LINE
  5
1026
330
1E
100
AcDbEntity
  8
0
100
AcDbLine
 10
703.3346741291024
 20
360.7322368770263
 30
0.0
 11
703.8346741291024
 21
361.2322368770263
 31
0.0
  0
POLYLINE
  5
1027
330
1E
100
AcDbEntity
  8
0
100
AcDb2dPolyline
 66
     1
 10
0.0
 20
0.0
 30
0.0
 70
     1
  0
VERTEX
  5
2715
330
1027
100
AcDbEntity
  8
0
100
AcDbVertex
100
AcDb2dVertex
 10
748.321991010098
 20
337.5379256029471
 30
0.0
  0
VERTEX
  5
2716
330
1027
100
AcDbEntity
  8
0
100
AcDbVertex
100
AcDb2dVertex
 10
748.321991010098
 20
341.0020272180847
 30
0.0
  0
VERTEX
  5
2717
330
1027
100
AcDbEntity
  8
0
100
AcDbVertex
100
AcDb2dVertex
 10
745.321991010098
 20
342.7340780256536
 30
0.0
  0
VERTEX
  5
2718
330
1027
100
AcDbEntity
  8
0
100
AcDbVertex
100
AcDb2dVertex
 10
742.321991010098
 20
341.0020272180847
 30
0.0
  0
VERTEX
  5
2719
330
1027
100
AcDbEntity
  8
0
100
AcDbVertex
100
AcDb2dVertex
 10
742.321991010098
 20
337.5379256029471
 30
0.0
  0
VERTEX
  5
271A
330
1027
100
AcDbEntity
  8
0
100
AcDbVertex
100
AcDb2dVertex
 10
745.321991010098
 20
335.8058747953782
 30
0.0
  0
SEQEND
  5
271B
330
1027
100
AcDbEntity
  8
0
  0
CIRCLE
  5
1028
330
1E
100
AcDbEntity
  8
0
100
AcDbCircle
 10
745.321991010098
 20
339.2699764105159
 30
0.0
 40
5.5
  0
CIRCLE
  5
1029
330
1E
100
AcDbEntity
  8
0
100
AcDbCircle
 10
745.321991010098
 20
339.2699764105159
 30
0.0
 40
6.5
  0
CIRCLE
  5
102A
330
1E
100
AcDbEntity
  8
0
100
AcDbCircle
 10
745.321991010098
 20
339.2699764105159
 30
0.0
 40
7.0
  0
SOLID
  5
102B
330
1E
100
AcDbEntity
  8
DIM
100
AcDbTrace
 10
711.4180074624357
 20
320.2699764105158
 30
0.0
 11
712.2513407957691
 21
320.2699764105158
 31
0.0
 12
711.8346741291024
 22
322.7699764105158
 32
0.0
 13
711.8346741291024
 23
322.7699764105158
 33
0.0
  0
SOLID
  5
102C
330
1E
100
AcDbEntity
  8
DIM
100
AcDbTrace
 10
711.4180074624357
 20
325.2699764105159
 30
0.0
 11
712.2513407957691
 21
325.2699764105159
 31
0.0
 12
711.8346741291023
 22
322.7699764105159
 32
0.0
 13
711.8346741291023
 23
322.7699764105159
 33
0.0
  0
SOLID
  5
102D
330
1E
100
AcDbEntity
  8
DIM
100
AcDbTrace
 10
720.2513407957691
 20
345.2699764105159
 30
0.0
 11
719.4180074624357
 21
345.2699764105159
 31
0.0
 12
719.8346741291024
 22
347.7699764105159
 32
0.0
 13
719.8346741291024
 23
347.7699764105159
 33
0.0
  0
SOLID
  5
102E
330
1E
100
AcDbEntity
  8
DIM
100
AcDbTrace
 10
711.4180074624357
 20
345.2699764105159
 30
0.0
 11
712.2513407957691
 21
345.2699764105159
 31
0.0
 12
711.8346741291023
 22
347.7699764105159
 32
0.0
 13
711.8346741291023
 23
347.7699764105159
 33
0.0
  0
LINE
  5
102F
330
1E
100
AcDbEntity
  8
0
100
AcDbLine
 10
735.821991010098
 20
347.7699764105159
 30
0.0
 11
754.821991010098
 21
347.7699764105159
 31
0.0
  0
LINE
  5
1030
330
1E
100
AcDbEntity
  8
0
100
AcDbLine
 10
735.821991010098
 20
347.7699764105159
 30
0.0
 11
735.321991010098
 21
347.2699764105159
 31
0.0
  0
LINE
  5
1031
330
1E
100
AcDbEntity
  8
0
100
AcDbLine
 10
754.821991010098
 20
347.7699764105159
 30
0.0
 11
755.321991010098
 21
347.2699764105159
 31
0.0
  0
LINE
  5
1032
330
1E
100
AcDbEntity
  8
0
100
AcDbLine
 10
689.0846741291023
 20
374.7322368770263
 30
0.0
 11
690.5846741291023
 21
374.7322368770263
 31
0.0
  0
LINE
  5
1033
330
1E
100
AcDbEntity
  8
0
100
AcDbLine
 10
703.3346741291024
 20
380.7322368770263
 30
0.0
 11
703.8346741291024
 21
380.2322368770263
 31
0.0
  0
TEXT
  5
1038
330
1E
100
AcDbEntity
  8
LOGO
 62
     6
100
AcDbText
 10
601.5882184934939
 20
52.90703474809697
 30
0.0
 40
13.74449339207048
  1
行程
 41
0.9
  7
CHINESET
 72
     4
 11
613.9582625463575
 21
59.77928144413221
 31
0.0
100
AcDbText
  0
LINE
  5
1039
330
1E
100
AcDbEntity
  8
LOGO
 62
     6
100
AcDbLine
 10
649.4506990322015
 20
34.00835633400014
 30
0.0
 11
578.4658260605134
 21
34.00835633400002
 31
0.0
  0
LINE
  5
103A
330
1E
100
AcDbEntity
  8
LOGO
 62
     6
100
AcDbLine
 10
649.4506990322015
 20
71.80571316219396
 30
0.0
 11
578.4658260605134
 21
71.80571316219396
 31
0.0
  0
TEXT
  5
103B
330
1E
100
AcDbEntity
  8
LOGO
  6
CONTINUOUS
 62
     6
100
AcDbText
 10
598.4138950196111
 20
38.30351051902204
 30
0.0
 40
8.590308370044052
  1
Stroke
 41
0.8
  7
CHINESET
 72
     4
 11
613.9582625463575
 21
42.59866470404406
 31
0.0
100
AcDbText
  0
TEXT
  5
103C
330
1E
100
AcDbEntity
  8
LOGO
  6
CONTINUOUS
 62
     7
100
AcDbText
 10
609.834914971277
 20
93.9456856478775
 30
0.0
 40
17.1806167400881
  1
0
  7
CHINESET
 72
     1
 11
615.5617872179731
 21
102.5359940179215
 31
0.0
100
AcDbText
 73
     2
  0
LINE
  5
103D
330
1E
100
AcDbEntity
  8
LOGO
 62
     6
100
AcDbLine
 10
642.5784523361662
 20
118.1933783604318
 30
0.0
 11
585.3380727565487
 21
118.1933783604318
 31
0.0
  0
LINE
  5
103E
330
1E
100
AcDbEntity
  8
LOGO
 62
     6
100
AcDbLine
 10
642.5784523361661
 20
87.26826822827325
 30
0.0
 11
585.3380727565487
 21
87.26826822827325
 31
0.0
  0
LINE
  5
103F
330
1E
100
AcDbEntity
  8
LOGO
 62
     1
100
AcDbLine
 10
810.0
 20
128.5017484044847
 30
0.0
 11
30.0
 21
128.5017484044847
 31
0.0
  0
LINE
  5
1040
330
1E
100
AcDbEntity
  8
LOGO
 62
     1
100
AcDbLine
 10
810.0
 20
25.41804796395608
 30
0.0
 11
30.0
 21
25.41804796395608
 31
0.0
  0
LINE
  5
1041
330
1E
100
AcDbEntity
  8
LOGO
  6
CONTINUOUS
 62
     6
100
AcDbLine
 10
225.9976024676809
 20
101.1055335198675
 30
0.0
 11
244.7611188415556
 21
103.583970230542
 31
0.0
  0
LINE
  5
1042
330
1E
100
AcDbEntity
  8
LOGO
  6
CONTINUOUS
 62
     6
100
AcDbLine
 10
225.9976024676809
 20
94.0918423827027
 30
0.0
 11
244.7611188415556
 21
91.61340567202817
 31
0.0
  0
LINE
  5
1043
330
1E
100
AcDbEntity
  8
LOGO
 62
     1
100
AcDbLine
 10
256.7841409691628
 20
107.8850083163789
 30
0.0
 11
105.5947136563876
 21
107.8850083163789
 31
0.0
  0
LINE
  5
1044
330
1E
100
AcDbEntity
  8
LOGO
 62
     1
100
AcDbLine
 10
256.7841409691628
 20
87.26826822827325
 30
0.0
 11
105.5947136563876
 21
87.26826822827325
 31
0.0
  0
TEXT
  5
1045
330
1E
100
AcDbEntity
  8
LOGO
 62
     6
100
AcDbText
 10
203.5259287883717
 20
113.0391933384054
 30
0.0
 40
10.30837004405286
  1
1 : 1
  7
CHINESET
 72
     1
 11
221.6882950564648
 21
118.1933783604318
 31
0.0
100
AcDbText
 73
     2
  0
TEXT
  5
1046
330
1E
100
AcDbEntity
  8
LOGO
 62
     6
100
AcDbText
 10
203.5259287883717
 20
71.80571316219398
 30
0.0
 40
10.30837004405286
  1
m/m
  7
CHINESET
 72
     1
 11
221.6882950564648
 21
76.95989818422041
 31
0.0
100
AcDbText
 73
     2
  0
LINE
  5
1047
330
1E
100
AcDbEntity
  8
LOGO
 62
     1
100
AcDbLine
 10
256.7841409691628
 20
66.65152814016764
 30
0.0
 11
29.99999999999989
 21
66.65152814016764
 31
0.0
  0
TEXT
  5
1048
330
1E
100
AcDbEntity
  8
LOGO
  6
CONTINUOUS
 62
     5
100
AcDbText
 10
33.37410356303289
 20
45.6686853486298
 30
0.0
 40
15.46255506607929
  1
金器工業股份有限公司
 41
0.8
  7
LOGO
100
AcDbText
  0
TEXT
  5
1049
330
1E
100
AcDbEntity
  8
LOGO
  6
CONTINUOUS
 62
     5
100
AcDbText
 10
37.80164672155835
 20
30.20310083406869
 30
0.0
 40
10.30837004405286
  1
MINDMAN INDUSTRIAL CO.,LTD
 41
0.85
  7
CHINESET
100
AcDbText
  0
SOLID
  5
104A
330
1E
100
AcDbEntity
  8
LOGO
 62
     5
100
AcDbTrace
 10
40.6950993574617
 20
83.7877260574716
 30
0.0
 11
45.15216807287999
 21
83.78772605747011
 31
0.0
 12
63.74890305790342
 22
126.0530328416134
 32
0.0
 13
68.20597177332132
 23
126.0530328416104
 33
0.0
  0
SOLID
  5
104B
330
1E
100
AcDbEntity
  8
LOGO
 62
     5
100
AcDbTrace
 10
46.99647236891795
 20
83.7877260574716
 30
0.0
 11
51.45354108433586
 21
83.7877260574716
 31
0.0
 12
68.20597177332132
 22
122.6718082988805
 32
0.0
 13
63.74890305790342
 23
106.3292230090118
 33
0.0
  0
SOLID
  5
104C
330
1E
100
AcDbEntity
  8
LOGO
 62
     2
100
AcDbTrace
 10
45.15216807287999
 20
83.78772605747011
 30
0.0
 11
46.99647236891795
 21
83.7877260574716
 31
0.0
 12
68.20597177332132
 22
126.0530328416104
 32
0.0
 13
70.05027606935792
 23
126.0530328416104
 33
0.0
  0
SOLID
  5
104D
330
1E
100
AcDbEntity
  8
LOGO
 62
     5
100
AcDbTrace
 10
45.27933977092263
 20
76.10312482399113
 30
0.0
 11
46.81626001761715
 21
76.10312482399113
 31
0.0
 12
45.27933977092263
 22
68.41852359051213
 32
0.0
 13
46.81626001761715
 23
68.41852359051213
 33
0.0
  0
SOLID
  5
104E
330
1E
100
AcDbEntity
  8
LOGO
 62
     5
100
AcDbTrace
 10
33.54932519951145
 20
68.41852359051213
 30
0.0
 11
35.0862454462091
 21
68.41852359051213
 31
0.0
 12
39.41433248521607
 22
76.10312482399113
 32
0.0
 13
40.951252731911
 23
76.10312482399113
 33
0.0
  0
SOLID
  5
104F
330
1E
100
AcDbEntity
  8
LOGO
 62
     5
100
AcDbTrace
 10
39.41433248521607
 20
76.10312482399113
 30
0.0
 11
40.951252731911
 21
76.10312482399113
 31
0.0
 12
39.41433248521607
 22
68.41852359051213
 32
0.0
 13
40.951252731911
 23
68.41852359051213
 33
0.0
  0
SOLID
  5
1050
330
1E
100
AcDbEntity
  8
LOGO
 62
     5
100
AcDbTrace
 10
39.41433248521607
 20
68.41852359051213
 30
0.0
 11
40.951252731911
 21
68.41852359051213
 31
0.0
 12
45.27933977092263
 22
76.10312482399113
 32
0.0
 13
46.81626001761715
 23
76.10312482399113
 33
0.0
  0
LINE
  5
1051
330
1E
100
AcDbEntity
  8
LOGO
 62
     1
100
AcDbLine
 10
30.0
 20
25.41804796395608
 30
0.0
 11
30.0
 21
128.5017484044847
 31
0.0
  0
TEXT
  5
1052
330
1E
100
AcDbEntity
  8
LOGO
 62
     6
100
AcDbText
 10
114.0945169918187
 20
113.0442663551594
 30
0.0
 40
10.30837004405286
  1
比例 Scale:
 41
0.9
  7
CHINESET
 72
     4
 11
146.828193832599
 21
118.1933783604318
 31
0.0
100
AcDbText
  0
TEXT
  5
1053
330
1E
100
AcDbEntity
  8
LOGO
 62
     6
100
AcDbText
 10
117.6978445563247
 20
92.56745697918381
 30
0.0
 40
10.30837004405286
  1
投影 View:
 41
0.9
  7
CHINESET
 72
     4
 11
146.828193832599
 21
97.57663827232612
 31
0.0
100
AcDbText
  0
TEXT
  5
1054
330
1E
100
AcDbEntity
  8
LOGO
 62
     6
100
AcDbText
 10
118.7056718061673
 20
71.80571316219396
 30
0.0
 40
10.30837004405286
  1
單位 Unit:
 41
0.9
  7
CHINESET
 72
     4
 11
146.828193832599
 21
76.95989818422041
 31
0.0
100
AcDbText
  0
POLYLINE
  5
1055
330
1E
100
AcDbEntity
  8
LOGO
 62
     5
100
AcDb2dPolyline
 66
     1
 10
0.0
 20
0.0
 30
0.0
 70
     1
 40
1.539383259911894
 41
1.539383259911894
  0
VERTEX
  5
271C
330
1055
100
AcDbEntity
  8
LOGO
 62
     5
100
AcDbVertex
100
AcDb2dVertex
 10
82.69942920207165
 20
72.26082420725089
 30
0.0
 42
1.0
  0
VERTEX
  5
271D
330
1055
100
AcDbEntity
  8
LOGO
 62
     5
100
AcDbVertex
100
AcDb2dVertex
 10
88.85696224171912
 20
72.26082420725089
 30
0.0
 42
1.0
  0
SEQEND
  5
271E
330
1055
100
AcDbEntity
  8
LOGO
 62
     5
  0
LINE
  5
1056
330
1E
100
AcDbEntity
  8
LOGO
 62
     5
100
AcDbLine
 10
97.56114848521578
 20
68.41852359051213
 30
0.0
 11
97.56114848521578
 21
73.02928433059889
 31
0.0
  0
SOLID
  5
1057
330
1E
100
AcDbEntity
  8
LOGO
 62
     5
100
AcDbTrace
 10
88.08342239991828
 20
76.10312482399113
 30
0.0
 11
89.62034264661298
 21
76.10312482399113
 31
0.0
 12
88.08342239991828
 22
68.41852359051213
 32
0.0
 13
89.62034264661298
 23
68.41852359051213
 33
0.0
  0
SOLID
  5
1058
330
1E
100
AcDbEntity
  8
LOGO
 62
     5
100
AcDbTrace
 10
91.41346749843142
 20
68.41852359051213
 30
0.0
 11
92.95038774512889
 21
68.41852359051213
 31
0.0
 12
91.41346749843142
 22
76.10312482399113
 32
0.0
 13
92.95038774512889
 23
76.10312482399113
 33
0.0
  0
SOLID
  5
1059
330
1E
100
AcDbEntity
  8
LOGO
 62
     5
100
AcDbTrace
 10
96.02422823852124
 20
73.02928433059889
 30
0.0
 11
97.56114848521578
 21
73.0292843305987
 31
0.0
 12
96.02422823852124
 22
68.41852359051213
 32
0.0
 13
97.56114848521578
 23
68.41852359051213
 33
0.0
  0
SOLID
  5
105A
330
1E
100
AcDbEntity
  8
LOGO
 62
     5
100
AcDbTrace
 10
66.05412973592382
 20
78.40850519403598
 30
0.0
 11
67.59104998261836
 21
78.40850519403598
 31
0.0
 12
66.05412973592382
 22
68.41852359051213
 32
0.0
 13
67.59104998261836
 23
68.41852359051213
 33
0.0
  0
SOLID
  5
105B
330
1E
100
AcDbEntity
  8
LOGO
 62
     5
100
AcDbTrace
 10
69.3841748344413
 20
76.10312482399113
 30
0.0
 11
70.92109508113601
 21
76.10312482399113
 31
0.0
 12
69.3841748344413
 22
68.41852359051213
 32
0.0
 13
70.92109508113601
 23
68.41852359051213
 33
0.0
  0
SOLID
  5
105C
330
1E
100
AcDbEntity
  8
LOGO
 62
     5
100
AcDbTrace
 10
73.99493557452818
 20
73.02928433059889
 30
0.0
 11
75.5318558212229
 21
73.02928433059889
 31
0.0
 12
73.99493557452818
 22
68.41852359051213
 32
0.0
 13
75.5318558212229
 23
68.41852359051213
 33
0.0
  0
SOLID
  5
105D
330
1E
100
AcDbEntity
  8
LOGO
 62
     5
100
AcDbTrace
 10
78.60569631461527
 20
73.02928433059889
 30
0.0
 11
80.1426165613098
 21
73.02928433059889
 31
0.0
 12
78.60569631461527
 22
68.41852359050921
 32
0.0
 13
80.1426165613098
 23
68.41852359050921
 33
0.0
  0
LINE
  5
105E
330
1E
100
AcDbEntity
  8
LOGO
 62
     1
100
AcDbLine
 10
105.5947136563876
 20
66.65152814016753
 30
0.0
 11
105.5947136563876
 21
128.5017484044847
 31
0.0
  0
SOLID
  5
105F
330
1E
100
AcDbEntity
  8
LOGO
 62
     5
100
AcDbTrace
 10
51.96564291053532
 20
76.10312482399113
 30
0.0
 11
53.50256315722983
 21
76.10312482399113
 31
0.0
 12
51.96564291053532
 22
68.41852359051213
 32
0.0
 13
53.50256315722983
 23
68.41852359051213
 33
0.0
  0
SOLID
  5
1060
330
1E
100
AcDbEntity
  8
LOGO
 62
     5
100
AcDbTrace
 10
56.57640365062182
 20
73.02928433059889
 30
0.0
 11
58.11332389731928
 21
73.02928433059889
 31
0.0
 12
56.57640365062182
 22
68.41852359051213
 32
0.0
 13
58.11332389731928
 23
68.41852359051213
 33
0.0
  0
SOLID
  5
1061
330
1E
100
AcDbEntity
  8
LOGO
 62
     5
100
AcDbTrace
 10
48.63559781201746
 20
76.10312482399113
 30
0.0
 11
50.17251805871648
 21
76.10312482399113
 31
0.0
 12
48.63559781201746
 22
68.41852359050921
 32
0.0
 13
50.17251805871648
 23
68.41852359051213
 33
0.0
  0
POLYLINE
  5
1062
330
1E
100
AcDbEntity
  8
LOGO
 62
     5
100
AcDb2dPolyline
 66
     1
 10
0.0
 20
0.0
 30
0.0
 70
     1
 40
1.539383259911894
 41
1.539383259911894
  0
VERTEX
  5
271F
330
1062
100
AcDbEntity
  8
LOGO
 62
     5
100
AcDbVertex
100
AcDb2dVertex
 10
60.67013653807858
 20
72.26082420725089
 30
0.0
 42
1.0
  0
VERTEX
  5
2720
330
1062
100
AcDbEntity
  8
LOGO
 62
     5
100
AcDbVertex
100
AcDb2dVertex
 10
66.82766957772625
 20
72.26082420725089
 30
0.0
 42
1.0
  0
SEQEND
  5
2721
330
1062
100
AcDbEntity
  8
LOGO
 62
     5
  0
POLYLINE
  5
1063
330
1E
100
AcDbEntity
  8
LOGO
 62
     5
100
AcDb2dPolyline
 66
     1
 10
0.0
 20
0.0
 30
0.0
 40
1.539383259911894
 41
1.539383259911894
  0
VERTEX
  5
2722
330
1063
100
AcDbEntity
  8
LOGO
 62
     5
100
AcDbVertex
100
AcDb2dVertex
 10
96.79638288169309
 20
73.02928433059893
 30
0.0
 42
1.0
  0
VERTEX
  5
2723
330
1063
100
AcDbEntity
  8
LOGO
 62
     5
100
AcDbVertex
100
AcDb2dVertex
 10
92.17823310195722
 20
73.02928433059893
 30
0.0
 42
1.0
  0
SEQEND
  5
2724
330
1063
100
AcDbEntity
  8
LOGO
 62
     5
  0
SOLID
  5
1064
330
1E
100
AcDbEntity
  8
LOGO
 62
     5
100
AcDbTrace
 10
93.10407976979787
 20
83.78772605747011
 30
0.0
 11
97.56114848521578
 21
83.78772605747011
 31
0.0
 12
93.10407976979787
 22
126.0530328416104
 32
0.0
 13
97.56114848521578
 23
126.0530328416134
 33
0.0
  0
SOLID
  5
1065
330
1E
100
AcDbEntity
  8
LOGO
 62
     5
100
AcDbTrace
 10
70.05027606935792
 20
126.0530328416104
 30
0.0
 11
74.50734478477563
 21
126.0530328416134
 31
0.0
 12
70.05027606935792
 22
87.16895060020155
 32
0.0
 13
74.50734478477563
 23
103.5115358900702
 33
0.0
  0
SOLID
  5
1066
330
1E
100
AcDbEntity
  8
LOGO
 62
     5
100
AcDbTrace
 10
70.05027606935792
 20
87.16895060020155
 30
0.0
 11
74.50734478477563
 21
103.5115358900702
 31
0.0
 12
91.25977547376127
 22
126.0530328416134
 32
0.0
 13
86.80270675834298
 23
126.0530328416134
 33
0.0
  0
SOLID
  5
1067
330
1E
100
AcDbEntity
  8
LOGO
 62
     5
100
AcDbTrace
 10
91.25977547376127
 20
122.6718082988805
 30
0.0
 11
86.80270675834298
 21
106.3292230090118
 31
0.0
 12
91.25977547376127
 22
83.78772605747011
 32
0.0
 13
86.80270675834298
 23
83.78772605747011
 33
0.0
  0
SOLID
  5
1068
330
1E
100
AcDbEntity
  8
LOGO
 62
     2
100
AcDbTrace
 10
91.25977547376127
 20
126.0530328416134
 30
0.0
 11
93.10407976979787
 21
126.0530328416104
 31
0.0
 12
91.25977547376127
 22
83.78772605747011
 32
0.0
 13
93.10407976979787
 23
83.78772605747011
 33
0.0
  0
SOLID
  5
1069
330
1E
100
AcDbEntity
  8
LOGO
 62
     5
100
AcDbTrace
 10
63.74890305790342
 20
83.7877260574716
 30
0.0
 11
68.20597177332132
 21
83.7877260574716
 31
0.0
 12
63.74890305790342
 22
106.3292230090118
 32
0.0
 13
68.20597177332132
 23
122.6718082988805
 33
0.0
  0
SOLID
  5
106A
330
1E
100
AcDbEntity
  8
LOGO
 62
     2
100
AcDbTrace
 10
68.20597177332132
 20
126.0530328416104
 30
0.0
 11
70.05027606935792
 21
126.0530328416104
 31
0.0
 12
68.20597177332132
 22
83.7877260574716
 32
0.0
 13
70.05027606935792
 23
83.7877260574716
 33
0.0
  0
SOLID
  5
106B
330
1E
100
AcDbEntity
  8
LOGO
 62
     5
100
AcDbTrace
 10
70.05027606935792
 20
83.7877260574716
 30
0.0
 11
74.50734478477563
 21
83.7877260574716
 31
0.0
 12
91.25977547376127
 22
122.6718082988805
 32
0.0
 13
86.80270675834298
 23
106.3292230090118
 33
0.0
  0
SOLID
  5
106C
330
1E
100
AcDbEntity
  8
LOGO
 62
     2
100
AcDbTrace
 10
68.20597177332132
 20
83.7877260574716
 30
0.0
 11
70.05027606935792
 21
83.7877260574716
 31
0.0
 12
91.25977547376127
 22
126.0530328416134
 32
0.0
 13
93.10407976979787
 23
126.0530328416104
 33
0.0
  0
POLYLINE
  5
106D
330
1E
100
AcDbEntity
  8
LOGO
 62
     5
100
AcDb2dPolyline
 66
     1
 10
0.0
 20
0.0
 30
0.0
 40
1.539383259911894
 41
1.539383259911894
  0
VERTEX
  5
2725
330
106D
100
AcDbEntity
  8
LOGO
 62
     5
100
AcDbVertex
100
AcDb2dVertex
 10
74.76709021770003
 20
73.02928433059893
 30
0.0
 42
1.0
  0
VERTEX
  5
2726
330
106D
100
AcDbEntity
  8
LOGO
 62
     5
100
AcDbVertex
100
AcDb2dVertex
 10
70.14894043796416
 20
73.02928433059893
 30
0.0
 42
1.0
  0
SEQEND
  5
2727
330
106D
100
AcDbEntity
  8
LOGO
 62
     5
  0
POLYLINE
  5
106E
330
1E
100
AcDbEntity
  8
LOGO
 62
     5
100
AcDb2dPolyline
 66
     1
 10
0.0
 20
0.0
 30
0.0
 40
1.539383259911894
 41
1.539383259911894
  0
VERTEX
  5
2728
330
106E
100
AcDbEntity
  8
LOGO
 62
     5
100
AcDbVertex
100
AcDb2dVertex
 10
57.34855829379404
 20
73.02928433059893
 30
0.0
 42
1.0
  0
VERTEX
  5
2729
330
106E
100
AcDbEntity
  8
LOGO
 62
     5
100
AcDbVertex
100
AcDb2dVertex
 10
52.7304085140582
 20
73.02928433059893
 30
0.0
 42
1.0
  0
SEQEND
  5
272A
330
106E
100
AcDbEntity
  8
LOGO
 62
     5
  0
SOLID
  5
106F
330
1E
100
AcDbEntity
  8
LOGO
 62
     5
100
AcDbTrace
 10
48.63559781201746
 20
77.17896899667767
 30
0.0
 11
50.17251805871648
 21
77.17896899667767
 31
0.0
 12
48.63559781201746
 22
78.40850519403598
 32
0.0
 13
50.17251805871648
 23
78.40850519403598
 33
0.0
  0
POLYLINE
  5
1070
330
1E
100
AcDbEntity
  8
LOGO
 62
     5
100
AcDb2dPolyline
 66
     1
 10
0.0
 20
0.0
 30
0.0
 70
     1
  0
VERTEX
  5
272B
330
1070
100
AcDbEntity
  8
LOGO
 62
     5
100
AcDbVertex
100
AcDb2dVertex
 10
83.47281535185194
 20
72.26082420725163
 30
0.0
 42
1.000000057330635
  0
VERTEX
  5
272C
330
1070
100
AcDbEntity
  8
LOGO
 62
     5
100
AcDbVertex
100
AcDb2dVertex
 10
88.08357609194079
 20
72.26082420725163
 30
0.0
 42
1.000000057330635
  0
SEQEND
  5
272D
330
1070
100
AcDbEntity
  8
LOGO
 62
     5
  0
CIRCLE
  5
1071
330
1E
100
AcDbEntity
  8
LOGO
 62
     5
100
AcDbCircle
 10
85.77819572189628
 20
72.26082420725162
 30
0.0
 40
2.305380370044053
  0
POLYLINE
  5
1072
330
1E
100
AcDbEntity
  8
LOGO
 62
     5
100
AcDb2dPolyline
 66
     1
 10
0.0
 20
0.0
 30
0.0
 40
1.539383259911894
 41
1.539383259911894
  0
VERTEX
  5
272E
330
1072
100
AcDbEntity
  8
LOGO
 62
     5
100
AcDbVertex
100
AcDb2dVertex
 10
79.3778509577869
 20
73.02928433059893
 30
0.0
 42
1.0
  0
VERTEX
  5
272F
330
1072
100
AcDbEntity
  8
LOGO
 62
     5
100
AcDbVertex
100
AcDb2dVertex
 10
74.75970117805106
 20
73.02928433059893
 30
0.0
 42
1.0
  0
SEQEND
  5
2730
330
1072
100
AcDbEntity
  8
LOGO
 62
     5
  0
LINE
  5
1073
330
1E
100
AcDbEntity
  8
LOGO
 62
     1
100
AcDbLine
 10
188.0616740088105
 20
66.65152814016753
 30
0.0
 11
188.0616740088105
 21
128.5017484044847
 31
0.0
  0
CIRCLE
  5
1074
330
1E
100
AcDbEntity
  8
LOGO
  6
CONTINUOUS
 62
     6
100
AcDbCircle
 10
207.1489104959179
 20
97.59868795128507
 30
0.0
 40
5.985282279256926
  0
CIRCLE
  5
1075
330
1E
100
AcDbEntity
  8
LOGO
  6
CONTINUOUS
 62
     6
100
AcDbCircle
 10
207.1489104959179
 20
97.59868795128507
 30
0.0
 40
3.506845568582407
  0
LINE
  5
1076
330
1E
100
AcDbEntity
  8
LOGO
 62
     6
100
AcDbLine
 10
225.9976024676812
 20
94.09184238270269
 30
0.0
 11
225.9976024676809
 21
101.1055335198675
 31
0.0
  0
TEXT
  5
1077
330
1E
100
AcDbEntity
  8
LOGO
  6
CONTINUOUS
 62
     6
100
AcDbText
 10
423.4421838810247
 20
38.30351051902217
 30
0.0
 40
8.590308370044052
  1
Model
  7
CHINESET
 72
     4
 11
439.8046760144419
 21
42.5986647040442
 31
0.0
100
AcDbText
  0
TEXT
  5
1078
330
1E
100
AcDbEntity
  8
LOGO
  6
CONTINUOUS
 62
     7
100
AcDbText
 10
231.167953858974
 20
111.6342516777418
 30
0.0
 40
8.433748363371437
  1

  7
CHINESET
 72
     1
 11
231.167953858974
 21
115.8511258594275
 31
0.0
100
AcDbText
 73
     2
  0
LINE
  5
1079
330
1E
100
AcDbEntity
  8
LOGO
 62
     6
100
AcDbLine
 10
481.0381561906534
 20
118.1933783604318
 30
0.0
 11
398.5711958382306
 21
118.1933783604318
 31
0.0
  0
LINE
  5
107A
330
1E
100
AcDbEntity
  8
LOGO
 62
     6
100
AcDbLine
 10
481.0381561906534
 20
87.26826822827325
 30
0.0
 11
398.5711958382306
 21
87.26826822827325
 31
0.0
  0
LINE
  5
107B
330
1E
100
AcDbEntity
  8
LOGO
 62
     6
100
AcDbLine
 10
474.1659094946181
 20
71.80571316219396
 30
0.0
 11
405.4434425342657
 21
71.80571316219396
 31
0.0
  0
LINE
  5
107C
330
1E
100
AcDbEntity
  8
LOGO
 62
     6
100
AcDbLine
 10
474.1659094946181
 20
34.00835633400011
 30
0.0
 11
405.4434425342657
 21
34.00835633400002
 31
0.0
  0
TEXT
  5
107D
330
1E
100
AcDbEntity
  8
LOGO
 62
     7
100
AcDbText
 10
265.2220457435327
 20
102.6919342229073
 30
0.0
 40
20.61674008810572
  1
訂購代號:
  7
CHINESET
100
AcDbText
  0
TEXT
  5
107E
330
1E
100
AcDbEntity
  8
LOGO
 62
     7
100
AcDbText
 10
262.7561699666595
 20
83.34253336054166
 30
0.0
 40
13.74449339207048
  1
Order example:
 41
0.8
  7
CHINESET
100
AcDbText
  0
LINE
  5
107F
330
1E
100
AcDbEntity
  8
LOGO
 62
     1
100
AcDbLine
 10
256.7841409691628
 20
25.41804796395608
 30
0.0
 11
256.7841409691628
 21
128.5017484044847
 31
0.0
  0
LINE
  5
1080
330
1E
100
AcDbEntity
  8
LOGO
 62
     6
100
AcDbLine
 10
244.7611188415556
 20
91.61340567202817
 30
0.0
 11
244.7611188415556
 21
103.583970230542
 31
0.0
  0
LINE
  5
1081
330
1E
100
AcDbEntity
  8
LOGO
 62
     6
100
AcDbLine
 10
405.4434425342657
 20
71.80571316219396
 30
0.0
 11
405.4434425342657
 21
34.00835633400002
 31
0.0
  0
LINE
  5
1082
330
1E
100
AcDbEntity
  8
LOGO
 62
     6
100
AcDbLine
 10
398.5711958382306
 20
118.1933783604318
 30
0.0
 11
398.5711958382306
 21
87.26826822827325
 31
0.0
  0
TEXT
  5
1083
330
1E
100
AcDbEntity
  8
LOGO
  6
CONTINUOUS
 62
     7
100
AcDbText
 10
521.1179526921791
 20
93.94568564787769
 30
0.0
 40
17.1806167400881
  1
40
  7
CHINESET
 72
     1
 11
535.0260710055838
 21
102.5359940179217
 31
0.0
100
AcDbText
 73
     2
  0
LINE
  5
1084
330
1E
100
AcDbEntity
  8
LOGO
 62
     6
100
AcDbLine
 10
561.0067206365264
 20
34.00835633400032
 30
0.0
 11
505.8383720314096
 21
34.00835633400024
 31
0.0
  0
LINE
  5
1085
330
1E
100
AcDbEntity
  8
LOGO
 62
     6
100
AcDbLine
 10
561.0067206365264
 20
87.26826822827348
 30
0.0
 11
505.8383720314096
 21
87.26826822827348
 31
0.0
  0
LINE
  5
1086
330
1E
100
AcDbEntity
  8
LOGO
 62
     6
100
AcDbLine
 10
561.0067206365264
 20
71.80571316219417
 30
0.0
 11
505.8383720314096
 21
71.80571316219417
 31
0.0
  0
LINE
  5
1087
330
1E
100
AcDbEntity
  8
LOGO
 62
     6
100
AcDbLine
 10
561.0067206365264
 20
118.1933783604322
 30
0.0
 11
505.8383720314096
 21
118.193378360432
 31
0.0
  0
LINE
  5
1088
330
1E
100
AcDbEntity
  8
LOGO
 62
     6
100
AcDbLine
 10
505.8383720314096
 20
71.80571316219417
 30
0.0
 11
505.8383720314096
 21
34.00835633400032
 31
0.0
  0
LINE
  5
1089
330
1E
100
AcDbEntity
  8
LOGO
 62
     6
100
AcDbLine
 10
474.1659094946182
 20
71.80571316219396
 30
0.0
 11
474.1659094946182
 21
34.00835633400014
 31
0.0
  0
TEXT
  5
108A
330
1E
100
AcDbEntity
  8
LOGO
 62
     6
100
AcDbText
 10
426.0601826223714
 20
53.25876390970514
 30
0.0
 40
13.74449339207048
  1
型式
  7
CHINESET
 72
     4
 11
439.8046760144419
 21
59.77928144413228
 31
0.0
100
AcDbText
  0
LINE
  5
108B
330
1E
100
AcDbEntity
  8
LOGO
 62
     6
100
AcDbLine
 10
439.8046760144419
 20
87.26826822827325
 30
0.0
 11
439.8046760144419
 21
71.80571316219396
 31
0.0
  0
LINE
  5
108C
330
1E
100
AcDbEntity
  8
LOGO
 62
     6
100
AcDbLine
 10
505.8383720314096
 20
118.193378360432
 30
0.0
 11
505.8383720314096
 21
87.26826822827348
 31
0.0
  0
LINE
  5
108D
330
1E
100
AcDbEntity
  8
LOGO
 62
     6
100
AcDbLine
 10
481.0381561906535
 20
118.1933783604318
 30
0.0
 11
481.0381561906535
 21
87.26826822827325
 31
0.0
  0
LINE
  5
108E
330
1E
100
AcDbEntity
  8
LOGO
  6
CONTINUOUS
 62
     7
100
AcDbLine
 10
486.8349516293153
 20
102.621281666942
 30
0.0
 11
500.4903518565486
 21
102.621281666942
 31
0.0
  0
LINE
  5
108F
330
1E
100
AcDbEntity
  8
LOGO
 62
     6
100
AcDbLine
 10
578.4658260605134
 20
71.80571316219396
 30
0.0
 11
578.4658260605134
 21
34.00835633400002
 31
0.0
  0
LINE
  5
1090
330
1E
100
AcDbEntity
  8
LOGO
 62
     6
100
AcDbLine
 10
561.0067206365264
 20
71.80571316219417
 30
0.0
 11
561.0067206365264
 21
34.00835633400044
 31
0.0
  0
TEXT
  5
1091
330
1E
100
AcDbEntity
  8
LOGO
  6
CONTINUOUS
 62
     6
100
AcDbText
 10
522.7869264472468
 20
38.30351051902225
 30
0.0
 40
8.590308370044052
  1
Bore
 41
0.8
  7
CHINESET
 72
     4
 11
533.422546333968
 21
42.59866470404428
 31
0.0
100
AcDbText
  0
TEXT
  5
1092
330
1E
100
AcDbEntity
  8
LOGO
 62
     6
100
AcDbText
 10
520.2793745278007
 20
52.90703474809715
 30
0.0
 40
13.74449339207048
  1
內徑
 41
0.9
  7
CHINESET
 72
     4
 11
533.422546333968
 21
59.77928144413239
 31
0.0
100
AcDbText
  0
LINE
  5
1093
330
1E
100
AcDbEntity
  8
LOGO
  6
CONTINUOUS
 62
     7
100
AcDbLine
 10
566.3346523544545
 20
102.6212816669421
 30
0.0
 11
579.9900525816879
 21
102.6212816669421
 31
0.0
  0
LINE
  5
1094
330
1E
100
AcDbEntity
  8
LOGO
 62
     6
100
AcDbLine
 10
561.0067206365264
 20
118.1933783604322
 30
0.0
 11
561.0067206365264
 21
87.26826822827348
 31
0.0
  0
LINE
  5
1095
330
1E
100
AcDbEntity
  8
LOGO
 62
     6
100
AcDbLine
 10
533.4225455416513
 20
87.26826822827348
 30
0.0
 11
533.4225455416513
 21
71.80571316219417
 31
0.0
  0
LINE
  5
1096
330
1E
100
AcDbEntity
  8
LOGO
 62
     6
100
AcDbLine
 10
585.3380727565488
 20
118.1933783604318
 30
0.0
 11
585.3380727565487
 21
87.26826822827325
 31
0.0
  0
LINE
  5
1097
330
1E
100
AcDbEntity
  8
LOGO
 62
     6
100
AcDbLine
 10
614.6860022719671
 20
87.26826822827325
 30
0.0
 11
614.6860022719671
 21
71.80571316219396
 31
0.0
  0
TEXT
  5
1098
330
1E
100
AcDbEntity
  8
LOGO
 62
     6
100
AcDbText
 10
698.2281755640008
 20
52.90703474809726
 30
0.0
 40
13.74449339207048
  1
配件
 41
0.9
  7
CHINESET
 72
     4
 11
710.7270742424149
 21
59.77928144413249
 31
0.0
100
AcDbText
  0
LINE
  5
1099
330
1E
100
AcDbEntity
  8
LOGO
 62
     6
100
AcDbLine
 10
760.9803782071725
 20
34.00835633400044
 30
0.0
 11
660.4737702776571
 21
34.00835633400032
 31
0.0
  0
LINE
  5
109A
330
1E
100
AcDbEntity
  8
LOGO
 62
     6
100
AcDbLine
 10
760.9803782071725
 20
71.80571316219417
 30
0.0
 11
660.4737702776571
 21
71.80571316219417
 31
0.0
  0
TEXT
  5
109B
330
1E
100
AcDbEntity
  8
LOGO
  6
CONTINUOUS
 62
     6
100
AcDbText
 10
685.3652114356182
 20
39.73522858069636
 30
0.0
 40
8.590308370044052
  1
Accessory
 41
0.8
  7
CHINESET
 72
     4
 11
710.7270742424149
 21
42.59866470404438
 31
0.0
100
AcDbText
  0
LINE
  5
109C
330
1E
100
AcDbEntity
  8
LOGO
 62
     6
100
AcDbLine
 10
660.4737702776571
 20
71.80571316219417
 30
0.0
 11
660.4737702776571
 21
34.00835633400032
 31
0.0
  0
LINE
  5
109D
330
1E
100
AcDbEntity
  8
LOGO
 62
     6
100
AcDbLine
 10
649.4506990322015
 20
71.80571316219396
 30
0.0
 11
649.4506990322015
 21
33.86583523616077
 31
0.0
  0
LINE
  5
109E
330
1E
100
AcDbEntity
  8
LOGO
 62
     6
100
AcDbLine
 10
642.5784523361662
 20
118.1933783604318
 30
0.0
 11
642.5784523361661
 21
87.26826822827325
 31
0.0
  0
LINE
  5
109F
330
1E
100
AcDbEntity
  8
LOGO
  6
CONTINUOUS
 62
     7
100
AcDbLine
 10
648.6660009297081
 20
102.621281666942
 30
0.0
 11
662.3214011569416
 21
102.621281666942
 31
0.0
  0
TEXT
  5
10A0
330
1E
100
AcDbEntity
  8
LOGO
  6
CONTINUOUS
 62
     7
100
AcDbText
 10
669.1538543512848
 20
93.9456856478775
 30
0.0
 40
17.1806167400881
  1
RP
  7
CHINESET
 72
     1
 11
683.4710349680249
 21
102.5359940179215
 31
0.0
100
AcDbText
 73
     2
  0
LINE
  5
10A1
330
1E
100
AcDbEntity
  8
LOGO
 62
     6
100
AcDbLine
 10
698.6939454253517
 20
118.193378360432
 30
0.0
 11
698.6939454253517
 21
87.26826822827325
 31
0.0
  0
LINE
  5
10A2
330
1E
100
AcDbEntity
  8
LOGO
 62
     6
100
AcDbLine
 10
667.4043268459071
 20
118.193378360432
 30
0.0
 11
667.4043268459071
 21
87.26826822827325
 31
0.0
  0
LINE
  5
10A3
330
1E
100
AcDbEntity
  8
LOGO
 62
     6
100
AcDbLine
 10
698.6939454253517
 20
87.26826822827325
 30
0.0
 11
667.4043268459071
 21
87.26826822827325
 31
0.0
  0
LINE
  5
10A4
330
1E
100
AcDbEntity
  8
LOGO
 62
     6
100
AcDbLine
 10
683.0491361356291
 20
87.26826822827325
 30
0.0
 11
683.0491361356291
 21
71.80571316219417
 31
0.0
  0
LINE
  5
10A5
330
1E
100
AcDbEntity
  8
LOGO
 62
     6
100
AcDbLine
 10
698.6939454253517
 20
118.193378360432
 30
0.0
 11
667.4043268459071
 21
118.193378360432
 31
0.0
  0
LINE
  5
10A6
330
1E
100
AcDbEntity
  8
LOGO
 62
     6
100
AcDbLine
 10
760.9803782071725
 20
71.80571316219417
 30
0.0
 11
760.9803782071725
 21
34.00835633400044
 31
0.0
  0
LINE
  5
10A7
330
1E
100
AcDbEntity
  8
LOGO
 62
     1
100
AcDbLine
 10
810.0
 20
25.41804796395608
 30
0.0
 11
810.0
 21
128.5017484044847
 31
0.0
  0
TEXT
  5
10AB
330
1E
100
AcDbEntity
  8
LOGO
  6
CONTINUOUS
 62
     7
100
AcDbText
 10
569.5461313616769
 20
441.5472031785006
 30
0.0
 40
17.1806167400881
  1
RP 配件
  7
CHINESET
 72
     1
 11
611.5005838475171
 21
450.1375115485447
 31
0.0
100
AcDbText
 73
     2
  0
LINE
  5
1BCD
330
1E
100
AcDbEntity
  8
0
100
AcDbLine
 10
244.5057805792342
 20
463.633713665471
 30
0.0
 11
275.5057805792342
 21
463.633713665471
 31
0.0
  0
LINE
  5
1BCE
330
1E
100
AcDbEntity
  8
0
100
AcDbLine
 10
245.5057805792342
 20
476.1337136654711
 30
0.0
 11
275.5057805792342
 21
475.6337136654711
 31
0.0
  0
LINE
  5
1BCF
330
1E
100
AcDbEntity
  8
0
100
AcDbLine
 10
244.5057805792342
 20
435.633713665471
 30
0.0
 11
275.5057805792342
 21
435.633713665471
 31
0.0
  0
LINE
  5
1BD0
330
1E
100
AcDbEntity
  8
0
100
AcDbLine
 10
245.5057805792343
 20
423.1337136654712
 30
0.0
 11
275.5057805792343
 21
423.6337136654712
 31
0.0
  0
LINE
  5
1BD1
330
1E
100
AcDbEntity
  8
0
100
AcDbLine
 10
243.5057805792343
 20
369.3766809917664
 30
0.0
 11
275.5057805792342
 21
369.3766809917664
 31
0.0
  0
LINE
  5
1BD2
330
1E
100
AcDbEntity
  8
0
100
AcDbLine
 10
245.5057805792342
 20
338.3766809917665
 30
0.0
 11
275.5057805792342
 21
337.8766809917665
 31
0.0
  0
LINE
  5
1BD3
330
1E
100
AcDbEntity
  8
0
100
AcDbLine
 10
243.5057805792343
 20
341.3766809917663
 30
0.0
 11
275.5057805792342
 21
341.3766809917663
 31
0.0
  0
LINE
  5
1BD4
330
1E
100
AcDbEntity
  8
0
100
AcDbLine
 10
245.5057805792343
 20
285.3766809917665
 30
0.0
 11
275.5057805792343
 21
285.8766809917665
 31
0.0
  0
LINE
  5
1BD5
330
1E
100
AcDbEntity
  8
CENTER
  6
CENTER
100
AcDbLine
 10
250.8057805792343
 20
307.8766809917666
 30
0.0
 11
270.2057805792343
 21
307.8766809917666
 31
0.0
  0
LINE
  5
1BD6
330
1E
100
AcDbEntity
  8
0
100
AcDbLine
 10
243.5057805792343
 20
282.3766809917665
 30
0.0
 11
275.5057805792342
 21
282.3766809917665
 31
0.0
  0
LINE
  5
1BD7
330
1E
100
AcDbEntity
  8
0
100
AcDbLine
 10
243.5057805792343
 20
254.3766809917665
 30
0.0
 11
275.5057805792342
 21
254.3766809917665
 31
0.0
  0
LINE
  5
1BD8
330
1E
100
AcDbEntity
  8
DIM
100
AcDbLine
 10
275.5057805792342
 20
223.8766809917665
 30
0.0
 11
243.5057805792343
 21
223.8766809917665
 31
0.0
  0
LINE
  5
1BD9
330
1E
100
AcDbEntity
  8
0
100
AcDbLine
 10
245.5057805792342
 20
200.5077711925984
 30
0.0
 11
275.5057805792342
 21
200.0077711925984
 31
0.0
  0
LINE
  5
1BDA
330
1E
100
AcDbEntity
  8
0
100
AcDbLine
 10
244.5057805792342
 20
188.0077711925983
 30
0.0
 11
275.5057805792342
 21
188.0077711925983
 31
0.0
  0
LINE
  5
1BDB
330
1E
100
AcDbEntity
  8
DIM
100
AcDbLine
 10
272.5057805792342
 20
215.8766809917665
 30
0.0
 11
165.5057805792342
 21
215.8766809917665
 31
0.0
  0
LINE
  5
1BDC
330
1E
100
AcDbEntity
  8
0
100
AcDbLine
 10
244.5057805792342
 20
160.0077711925983
 30
0.0
 11
275.5057805792342
 21
160.0077711925983
 31
0.0
  0
LINE
  5
1BDD
330
1E
100
AcDbEntity
  8
0
100
AcDbLine
 10
245.5057805792343
 20
147.5077711925984
 30
0.0
 11
275.5057805792343
 21
148.0077711925984
 31
0.0
  0
CIRCLE
  5
1BDE
330
1E
100
AcDbEntity
  8
0
100
AcDbCircle
 10
260.5057805792343
 20
307.8766809917666
 30
0.0
 40
8.699999999999999
  0
CIRCLE
  5
1BDF
330
1E
100
AcDbEntity
  8
0
100
AcDbCircle
 10
260.5057805792343
 20
307.8766809917666
 30
0.0
 40
6.700000000000003
  0
ARC
  5
1BE0
330
1E
100
AcDbEntity
  8
0
 62
     2
100
AcDbCircle
 10
260.5057805792343
 20
307.8766809917666
 30
0.0
 40
6.6
100
AcDbArc
 50
153.8611037766975
 51
104.9974520806068
  0
LINE
  5
1BE1
330
1E
100
AcDbEntity
  8
CENTER
  6
CENTER
100
AcDbLine
 10
200.5057805792342
 20
355.3766809917661
 30
0.0
 11
354.5057805792342
 21
355.3766809917665
 31
0.0
  0
LINE
  5
1BE2
330
1E
100
AcDbEntity
  8
CENTER
  6
CENTER
100
AcDbLine
 10
200.5057805792342
 20
268.3766809917665
 30
0.0
 11
354.5057805792343
 21
268.3766809917665
 31
0.0
  0
LINE
  5
1BE3
330
1E
100
AcDbEntity
  8
CENTER
  6
CENTER
100
AcDbLine
 10
163.5057805792342
 20
449.6337136654711
 30
0.0
 11
354.5057805792342
 21
449.6337136654712
 31
0.0
  0
LINE
  5
1BE4
330
1E
100
AcDbEntity
  8
CENTER
  6
CENTER
100
AcDbLine
 10
167.793142403455
 20
430.6337136654711
 30
0.0
 11
294.1537087274145
 21
430.6337136654711
 31
0.0
  0
LINE
  5
1BE5
330
1E
100
AcDbEntity
  8
CENTER
  6
CENTER
100
AcDbLine
 10
163.5057805792342
 20
311.8766809917665
 30
0.0
 11
354.5057805792342
 21
311.8766809917665
 31
0.0
  0
LINE
  5
1BE6
330
1E
100
AcDbEntity
  8
CENTER
  6
CENTER
100
AcDbLine
 10
167.793142403455
 20
468.6337136654712
 30
0.0
 11
293.4291983904447
 21
468.6337136654712
 31
0.0
  0
LINE
  5
1BE7
330
1E
100
AcDbEntity
  8
DIM
100
AcDbLine
 10
351.5057805792342
 20
399.8766809917665
 30
0.0
 11
203.5057805792342
 21
399.8766809917665
 31
0.0
  0
LINE
  5
1BE8
330
1E
100
AcDbEntity
  8
CENTER
  6
CENTER
100
AcDbLine
 10
163.5057805792342
 20
174.0077711925984
 30
0.0
 11
354.5057805792342
 21
174.0077711925984
 31
0.0
  0
LINE
  5
1BE9
330
1E
100
AcDbEntity
  8
CENTER
  6
CENTER
100
AcDbLine
 10
167.793142403455
 20
193.0077711925984
 30
0.0
 11
293.4291983904447
 21
193.0077711925984
 31
0.0
  0
LINE
  5
1BEA
330
1E
100
AcDbEntity
  8
CENTER
  6
CENTER
100
AcDbLine
 10
167.793142403455
 20
155.0077711925984
 30
0.0
 11
294.1537087274145
 21
155.0077711925984
 31
0.0
  0
LINE
  5
1BEB
330
1E
100
AcDbEntity
  8
0
100
AcDbLine
 10
243.5057805792343
 20
282.3766809917665
 30
0.0
 11
243.5057805792343
 21
254.3766809917665
 31
0.0
  0
TEXT
  5
1BEC
330
1E
100
AcDbEntity
  8
DIM
100
AcDbText
 10
194.0057805792342
 20
264.948109563195
 30
0.0
 40
3.0
  1
%%c16
 50
90.0
  7
ROMANSS
 72
     1
 11
192.5057805792342
 21
268.3766809917665
 31
0.0
100
AcDbText
 73
     2
  0
LINE
  5
1BED
330
1E
100
AcDbEntity
  8
DIM
100
AcDbLine
 10
195.5057805792342
 20
263.3766809917665
 30
0.0
 11
195.5057805792342
 21
273.3766809917665
 31
0.0
  0
LINE
  5
1BEE
330
1E
100
AcDbEntity
  8
0
100
AcDbLine
 10
204.5057805792342
 20
276.3766809917666
 30
0.0
 11
204.5057805792342
 21
260.3766809917665
 31
0.0
  0
LINE
  5
1BEF
330
1E
100
AcDbEntity
  8
0
100
AcDbLine
 10
203.5057805792342
 20
275.3766809917666
 30
0.0
 11
203.5057805792342
 21
261.3766809917666
 31
0.0
  0
CIRCLE
  5
1BF0
330
1E
100
AcDbEntity
  8
0
  6
CONTINUOUS
100
AcDbCircle
 10
98.65012750479809
 20
268.3766809917665
 30
0.0
 40
3.5
  0
LINE
  5
1BF1
330
1E
100
AcDbEntity
  8
DIM
100
AcDbLine
 10
170.5057805792342
 20
284.174099146104
 30
0.0
 11
170.5057805792342
 21
222.7405425657363
 31
0.0
  0
LINE
  5
1BF2
330
1E
100
AcDbEntity
  8
DIM
100
AcDbLine
 10
165.5057805792342
 20
293.4126561933062
 30
0.0
 11
165.5057805792342
 21
214.8766809917665
 31
0.0
  0
CIRCLE
  5
1BF3
330
1E
100
AcDbEntity
  8
0
  6
CONTINUOUS
100
AcDbCircle
 10
60.65012750479809
 20
268.3766809917665
 30
0.0
 40
3.5
  0
CIRCLE
  5
1BF4
330
1E
100
AcDbEntity
  8
0
100
AcDbCircle
 10
79.65012750479804
 20
268.3766809917665
 30
0.0
 40
8.0
  0
CIRCLE
  5
1BF5
330
1E
100
AcDbEntity
  8
0
100
AcDbCircle
 10
79.65012750479804
 20
268.3766809917665
 30
0.0
 40
14.0
  0
ARC
  5
1BF6
330
1E
100
AcDbEntity
  8
0
100
AcDbCircle
 10
79.65012750479804
 20
268.3766809917665
 30
0.0
 40
24.0
100
AcDbArc
 50
134.9005279606886
 51
45.09947203931139
  0
ARC
  5
1BF7
330
1E
100
AcDbEntity
  8
CENTER
  6
CENTER
100
AcDbCircle
 10
79.65012750479804
 20
268.3766809917665
 30
0.0
 40
19.0
100
AcDbArc
 50
116.5253520166098
 51
63.47464798339013
  0
CIRCLE
  5
1BF8
330
1E
100
AcDbEntity
  8
0
100
AcDbCircle
 10
79.65012750479804
 20
268.3766809917665
 30
0.0
 40
7.0
  0
LINE
  5
1BF9
330
1E
100
AcDbEntity
  8
CENTER
  6
CENTER
100
AcDbLine
 10
79.65012750479818
 20
394.5533888180404
 30
0.0
 11
79.65012750479804
 21
228.3733669274731
 31
0.0
  0
LINE
  5
1BFA
330
1E
100
AcDbEntity
  8
0
100
AcDbLine
 10
51.65012750479803
 20
391.8766809917665
 30
0.0
 11
51.65012750479798
 21
231.8766809917665
 31
0.0
  0
LINE
  5
1BFB
330
1E
100
AcDbEntity
  8
0
100
AcDbLine
 10
107.6501275047979
 20
391.8766809917665
 30
0.0
 11
107.650127504798
 21
231.8766809917665
 31
0.0
  0
LINE
  5
1BFC
330
1E
100
AcDbEntity
  8
CENTER
  6
CENTER
100
AcDbLine
 10
51.65012750479798
 20
268.3766809917665
 30
0.0
 11
107.6501275047979
 21
268.3766809917665
 31
0.0
  0
LINE
  5
1BFD
330
1E
100
AcDbEntity
  8
0
  6
CONTINUOUS
100
AcDbLine
 10
51.65012750479792
 20
231.8766809917665
 30
0.0
 11
107.650127504798
 21
231.8766809917665
 31
0.0
  0
LINE
  5
1BFE
330
1E
100
AcDbEntity
  8
CENTER
  6
CENTER
100
AcDbLine
 10
60.65012750479803
 20
249.3766809917665
 30
0.0
 11
60.65012750479803
 21
234.3766809917665
 31
0.0
  0
LINE
  5
1BFF
330
1E
100
AcDbEntity
  8
CENTER
  6
CENTER
100
AcDbLine
 10
53.15012750479809
 20
241.8766809917665
 30
0.0
 11
68.15012750479809
 21
241.8766809917665
 31
0.0
  0
CIRCLE
  5
1C00
330
1E
100
AcDbEntity
  8
0
  6
CONTINUOUS
100
AcDbCircle
 10
60.65012750479809
 20
241.8766809917665
 30
0.0
 40
4.5
  0
CIRCLE
  5
1C01
330
1E
100
AcDbEntity
  8
0
  6
CONTINUOUS
100
AcDbCircle
 10
60.65012750479809
 20
268.3766809917665
 30
0.0
 40
3.153579676674365
  0
POLYLINE
  5
1C02
330
1E
100
AcDbEntity
  8
0
  6
CONTINUOUS
100
AcDb2dPolyline
 66
     1
 10
0.0
 20
0.0
 30
0.0
 70
     1
  0
VERTEX
  5
27CA
330
1C02
100
AcDbEntity
  8
0
  6
CONTINUOUS
100
AcDbVertex
100
AcDb2dVertex
 10
59.78410210101401
 20
269.8766809917665
 30
0.0
  0
VERTEX
  5
27CB
330
1C02
100
AcDbEntity
  8
0
  6
CONTINUOUS
100
AcDbVertex
100
AcDb2dVertex
 10
58.91807669722993
 20
268.3766809917665
 30
0.0
  0
VERTEX
  5
27CC
330
1C02
100
AcDbEntity
  8
0
  6
CONTINUOUS
100
AcDbVertex
100
AcDb2dVertex
 10
59.78410210101401
 20
266.8766809917665
 30
0.0
  0
VERTEX
  5
27CD
330
1C02
100
AcDbEntity
  8
0
  6
CONTINUOUS
100
AcDbVertex
100
AcDb2dVertex
 10
61.51615290858217
 20
266.8766809917665
 30
0.0
  0
VERTEX
  5
27CE
330
1C02
100
AcDbEntity
  8
0
  6
CONTINUOUS
100
AcDbVertex
100
AcDb2dVertex
 10
62.38217831236624
 20
268.3766809917665
 30
0.0
  0
VERTEX
  5
27CF
330
1C02
100
AcDbEntity
  8
0
  6
CONTINUOUS
100
AcDbVertex
100
AcDb2dVertex
 10
61.51615290858217
 20
269.8766809917665
 30
0.0
  0
SEQEND
  5
27D0
330
1C02
100
AcDbEntity
  8
0
  6
CONTINUOUS
  0
CIRCLE
  5
1C03
330
1E
100
AcDbEntity
  8
0
  6
CONTINUOUS
100
AcDbCircle
 10
98.65012750479815
 20
241.8766809917665
 30
0.0
 40
4.5
  0
LINE
  5
1C04
330
1E
100
AcDbEntity
  8
CENTER
  6
CENTER
100
AcDbLine
 10
91.15012750479815
 20
241.8766809917665
 30
0.0
 11
106.1501275047981
 21
241.8766809917665
 31
0.0
  0
LINE
  5
1C05
330
1E
100
AcDbEntity
  8
CENTER
  6
CENTER
100
AcDbLine
 10
98.65012750479804
 20
249.3766809917665
 30
0.0
 11
98.65012750479804
 21
234.3766809917665
 31
0.0
  0
CIRCLE
  5
1C06
330
1E
100
AcDbEntity
  8
0
  6
CONTINUOUS
100
AcDbCircle
 10
79.65012750479809
 20
249.3766809917665
 30
0.0
 40
3.5
  0
CIRCLE
  5
1C07
330
1E
100
AcDbEntity
  8
0
  6
CONTINUOUS
100
AcDbCircle
 10
79.65012750479809
 20
249.3766809917665
 30
0.0
 40
3.153579676674365
  0
POLYLINE
  5
1C08
330
1E
100
AcDbEntity
  8
0
  6
CONTINUOUS
100
AcDb2dPolyline
 66
     1
 10
0.0
 20
0.0
 30
0.0
 70
     1
  0
VERTEX
  5
27D1
330
1C08
100
AcDbEntity
  8
0
  6
CONTINUOUS
100
AcDbVertex
100
AcDb2dVertex
 10
78.78410210101401
 20
250.8766809917665
 30
0.0
  0
VERTEX
  5
27D2
330
1C08
100
AcDbEntity
  8
0
  6
CONTINUOUS
100
AcDbVertex
100
AcDb2dVertex
 10
77.91807669722993
 20
249.3766809917665
 30
0.0
  0
VERTEX
  5
27D3
330
1C08
100
AcDbEntity
  8
0
  6
CONTINUOUS
100
AcDbVertex
100
AcDb2dVertex
 10
78.78410210101401
 20
247.8766809917665
 30
0.0
  0
VERTEX
  5
27D4
330
1C08
100
AcDbEntity
  8
0
  6
CONTINUOUS
100
AcDbVertex
100
AcDb2dVertex
 10
80.51615290858217
 20
247.8766809917665
 30
0.0
  0
VERTEX
  5
27D5
330
1C08
100
AcDbEntity
  8
0
  6
CONTINUOUS
100
AcDbVertex
100
AcDb2dVertex
 10
81.38217831236625
 20
249.3766809917665
 30
0.0
  0
VERTEX
  5
27D6
330
1C08
100
AcDbEntity
  8
0
  6
CONTINUOUS
100
AcDbVertex
100
AcDb2dVertex
 10
80.51615290858217
 20
250.8766809917665
 30
0.0
  0
SEQEND
  5
27D7
330
1C08
100
AcDbEntity
  8
0
  6
CONTINUOUS
  0
POLYLINE
  5
1C09
330
1E
100
AcDbEntity
  8
0
  6
CONTINUOUS
100
AcDb2dPolyline
 66
     1
 10
0.0
 20
0.0
 30
0.0
 70
     1
  0
VERTEX
  5
27D8
330
1C09
100
AcDbEntity
  8
0
  6
CONTINUOUS
100
AcDbVertex
100
AcDb2dVertex
 10
97.78410210101402
 20
269.8766809917665
 30
0.0
  0
VERTEX
  5
27D9
330
1C09
100
AcDbEntity
  8
0
  6
CONTINUOUS
100
AcDbVertex
100
AcDb2dVertex
 10
96.91807669722994
 20
268.3766809917665
 30
0.0
  0
VERTEX
  5
27DA
330
1C09
100
AcDbEntity
  8
0
  6
CONTINUOUS
100
AcDbVertex
100
AcDb2dVertex
 10
97.78410210101402
 20
266.8766809917665
 30
0.0
  0
VERTEX
  5
27DB
330
1C09
100
AcDbEntity
  8
0
  6
CONTINUOUS
100
AcDbVertex
100
AcDb2dVertex
 10
99.51615290858217
 20
266.8766809917665
 30
0.0
  0
VERTEX
  5
27DC
330
1C09
100
AcDbEntity
  8
0
  6
CONTINUOUS
100
AcDbVertex
100
AcDb2dVertex
 10
100.3821783123662
 20
268.3766809917665
 30
0.0
  0
VERTEX
  5
27DD
330
1C09
100
AcDbEntity
  8
0
  6
CONTINUOUS
100
AcDbVertex
100
AcDb2dVertex
 10
99.51615290858217
 20
269.8766809917665
 30
0.0
  0
SEQEND
  5
27DE
330
1C09
100
AcDbEntity
  8
0
  6
CONTINUOUS
  0
CIRCLE
  5
1C0A
330
1E
100
AcDbEntity
  8
0
  6
CONTINUOUS
100
AcDbCircle
 10
98.65012750479809
 20
268.3766809917665
 30
0.0
 40
3.153579676674365
  0
LINE
  5
1C0B
330
1E
100
AcDbEntity
  8
0
100
AcDbLine
 10
203.5057805792342
 20
181.0077711925985
 30
0.0
 11
203.5057805792342
 21
167.0077711925985
 31
0.0
  0
LINE
  5
1C0C
330
1E
100
AcDbEntity
  8
0
100
AcDbLine
 10
204.5057805792342
 20
182.0077711925985
 30
0.0
 11
204.5057805792342
 21
166.0077711925984
 31
0.0
  0
LINE
  5
1C0D
330
1E
100
AcDbEntity
  8
0
100
AcDbLine
 10
200.5057805792342
 20
147.5077711925985
 30
0.0
 11
200.5057805792341
 21
200.5077711925985
 31
0.0
  0
LINE
  5
1C0E
330
1E
100
AcDbEntity
  8
0
100
AcDbLine
 10
170.5057805792342
 20
200.0077711925984
 30
0.0
 11
170.5057805792344
 21
148.0077711925985
 31
0.0
  0
LINE
  5
1C0F
330
1E
100
AcDbEntity
  8
0
100
AcDbLine
 10
165.5057805792342
 20
190.5077711925984
 30
0.0
 11
165.5057805792342
 21
157.5077711925984
 31
0.0
  0
LINE
  5
1C10
330
1E
100
AcDbEntity
  8
0
100
AcDbLine
 10
244.5057805792342
 20
188.0077711925983
 30
0.0
 11
244.5057805792342
 21
160.0077711925983
 31
0.0
  0
LINE
  5
1C11
330
1E
100
AcDbEntity
  8
0
100
AcDbLine
 10
245.5057805792342
 20
149.8077711925984
 30
0.0
 11
200.5057805792342
 21
149.8077711925985
 31
0.0
  0
LINE
  5
1C12
330
1E
100
AcDbEntity
  8
0
100
AcDbLine
 10
244.5057805792342
 20
162.2055468899465
 30
0.0
 11
200.5057805792342
 21
162.2055468899465
 31
0.0
  0
LINE
  5
1C13
330
1E
100
AcDbEntity
  8
0
100
AcDbLine
 10
170.5057805792343
 20
156.5077711925984
 30
0.0
 11
166.5057805792342
 21
156.5077711925984
 31
0.0
  0
ARC
  5
1C14
330
1E
100
AcDbEntity
  8
0
100
AcDbCircle
 10
166.5057805792342
 20
157.5077711925984
 30
0.0
 40
1.0
100
AcDbArc
 50
180.0
 51
270.0
  0
LINE
  5
1C15
330
1E
100
AcDbEntity
  8
HIDDEN
  6
HIDDEN
100
AcDbLine
 10
188.5057805792342
 20
157.4077711925985
 30
0.0
 11
189.8914212252894
 21
155.0077711925984
 31
0.0
  0
LINE
  5
1C16
330
1E
100
AcDbEntity
  8
HIDDEN
  6
HIDDEN
100
AcDbLine
 10
188.5057805792342
 20
152.6077711925984
 30
0.0
 11
188.5057805792342
 21
157.4077711925984
 31
0.0
  0
LINE
  5
1C17
330
1E
100
AcDbEntity
  8
HIDDEN
  6
HIDDEN
100
AcDbLine
 10
185.5057805792342
 20
152.0077711925984
 30
0.0
 11
185.5057805792342
 21
158.0077711925984
 31
0.0
  0
LINE
  5
1C18
330
1E
100
AcDbEntity
  8
HIDDEN
  6
HIDDEN
100
AcDbLine
 10
176.5057805792342
 20
152.0077711925984
 30
0.0
 11
176.5057805792342
 21
158.0077711925984
 31
0.0
  0
LINE
  5
1C19
330
1E
100
AcDbEntity
  8
HIDDEN
  6
HIDDEN
100
AcDbLine
 10
170.5057805792342
 20
152.0077711925984
 30
0.0
 11
185.5057805792342
 21
152.0077711925984
 31
0.0
  0
LINE
  5
1C1A
330
1E
100
AcDbEntity
  8
0
100
AcDbLine
 10
200.5057805792342
 20
147.5077711925985
 30
0.0
 11
170.5057805792341
 21
148.0077711925985
 31
0.0
  0
LINE
  5
1C1B
330
1E
100
AcDbEntity
  8
HIDDEN
  6
HIDDEN
100
AcDbLine
 10
176.5057805792342
 20
152.6077711925984
 30
0.0
 11
188.5057805792342
 21
152.6077711925984
 31
0.0
  0
LINE
  5
1C1C
330
1E
100
AcDbEntity
  8
HIDDEN
  6
HIDDEN
100
AcDbLine
 10
188.5057805792342
 20
152.6077711925984
 30
0.0
 11
189.8914212252893
 21
155.0077711925984
 31
0.0
  0
LINE
  5
1C1D
330
1E
100
AcDbEntity
  8
HIDDEN
  6
HIDDEN
100
AcDbLine
 10
170.5057805792342
 20
158.0077711925984
 30
0.0
 11
185.5057805792342
 21
158.0077711925984
 31
0.0
  0
LINE
  5
1C1E
330
1E
100
AcDbEntity
  8
HIDDEN
  6
HIDDEN
100
AcDbLine
 10
176.5057805792342
 20
157.4077711925985
 30
0.0
 11
188.5057805792342
 21
157.4077711925984
 31
0.0
  0
LINE
  5
1C1F
330
1E
100
AcDbEntity
  8
0
100
AcDbLine
 10
204.5057805792342
 20
166.0077711925985
 30
0.0
 11
244.5057805792342
 21
166.0077711925984
 31
0.0
  0
LINE
  5
1C20
330
1E
100
AcDbEntity
  8
0
100
AcDbLine
 10
203.5057805792342
 20
167.0077711925985
 30
0.0
 11
204.5057805792342
 21
166.0077711925985
 31
0.0
  0
LINE
  5
1C21
330
1E
100
AcDbEntity
  8
0
100
AcDbLine
 10
245.5057805792343
 20
160.0077711925983
 30
0.0
 11
245.5057805792343
 21
147.5077711925984
 31
0.0
  0
LINE
  5
1C22
330
1E
100
AcDbEntity
  8
DIM
100
AcDbLine
 10
202.5057805792342
 20
260.3766809917665
 30
0.0
 11
194.5057805792342
 21
260.3766809917665
 31
0.0
  0
LINE
  5
1C23
330
1E
100
AcDbEntity
  8
0
100
AcDbLine
 10
244.5057805792342
 20
185.8099954952503
 30
0.0
 11
200.5057805792342
 21
185.8099954952503
 31
0.0
  0
LINE
  5
1C24
330
1E
100
AcDbEntity
  8
0
100
AcDbLine
 10
245.5057805792342
 20
198.2077711925983
 30
0.0
 11
200.5057805792342
 21
198.2077711925983
 31
0.0
  0
LINE
  5
1C25
330
1E
100
AcDbEntity
  8
DIM
100
AcDbLine
 10
177.5420262419867
 20
223.8766809917665
 30
0.0
 11
157.6586114605085
 21
223.8766809917665
 31
0.0
  0
LINE
  5
1C26
330
1E
100
AcDbEntity
  8
0
100
AcDbLine
 10
170.5057805792342
 20
191.5077711925984
 30
0.0
 11
166.5057805792342
 21
191.5077711925984
 31
0.0
  0
SOLID
  5
1C27
330
1E
100
AcDbEntity
  8
DIM
100
AcDbTrace
 10
168.5057805792341
 20
216.3766809917665
 30
0.0
 11
168.5057805792341
 21
215.3766809917665
 31
0.0
 12
165.5057805792341
 22
215.8766809917665
 32
0.0
 13
165.5057805792341
 23
215.8766809917665
 33
0.0
  0
ARC
  5
1C28
330
1E
100
AcDbEntity
  8
0
100
AcDbCircle
 10
166.5057805792342
 20
190.5077711925984
 30
0.0
 40
1.0
100
AcDbArc
 50
90.0
 51
180.0
  0
SOLID
  5
1C29
330
1E
100
AcDbEntity
  8
DIM
100
AcDbTrace
 10
162.505780579234
 20
224.3766809917665
 30
0.0
 11
162.505780579234
 21
223.3766809917665
 31
0.0
 12
165.505780579234
 22
223.8766809917665
 32
0.0
 13
165.505780579234
 23
223.8766809917665
 33
0.0
  0
LINE
  5
1C2A
330
1E
100
AcDbEntity
  8
CENTER
  6
CENTER
100
AcDbLine
 10
194.0057805792341
 20
205.0505805948236
 30
0.0
 11
194.0057805792341
 21
191.3226401262913
 31
0.0
  0
LINE
  5
1C2B
330
1E
100
AcDbEntity
  8
CENTER
  6
CENTER
100
AcDbLine
 10
185.5057805792342
 20
204.6096428209482
 30
0.0
 11
185.5057805792342
 21
185.2096428209481
 31
0.0
  0
LINE
  5
1C2C
330
1E
100
AcDbEntity
  8
HIDDEN
  6
HIDDEN
100
AcDbLine
 10
170.5057805792342
 20
190.0077711925984
 30
0.0
 11
185.5057805792342
 21
190.0077711925984
 31
0.0
  0
LINE
  5
1C2D
330
1E
100
AcDbEntity
  8
HIDDEN
  6
HIDDEN
100
AcDbLine
 10
170.5057805792342
 20
196.0077711925984
 30
0.0
 11
185.5057805792342
 21
196.0077711925984
 31
0.0
  0
LINE
  5
1C2E
330
1E
100
AcDbEntity
  8
0
100
AcDbLine
 10
200.5057805792341
 20
200.5077711925985
 30
0.0
 11
170.5057805792342
 21
200.0077711925984
 31
0.0
  0
LINE
  5
1C2F
330
1E
100
AcDbEntity
  8
HIDDEN
  6
HIDDEN
100
AcDbLine
 10
176.5057805792342
 20
190.6077711925984
 30
0.0
 11
188.5057805792342
 21
190.6077711925984
 31
0.0
  0
LINE
  5
1C30
330
1E
100
AcDbEntity
  8
HIDDEN
  6
HIDDEN
100
AcDbLine
 10
176.5057805792342
 20
195.4077711925985
 30
0.0
 11
188.5057805792342
 21
195.4077711925984
 31
0.0
  0
LINE
  5
1C31
330
1E
100
AcDbEntity
  8
HIDDEN
  6
HIDDEN
100
AcDbLine
 10
176.5057805792342
 20
190.0077711925984
 30
0.0
 11
176.5057805792342
 21
196.0077711925984
 31
0.0
  0
LINE
  5
1C32
330
1E
100
AcDbEntity
  8
HIDDEN
  6
HIDDEN
100
AcDbLine
 10
185.5057805792342
 20
190.0077711925984
 30
0.0
 11
185.5057805792342
 21
196.0077711925984
 31
0.0
  0
LINE
  5
1C33
330
1E
100
AcDbEntity
  8
HIDDEN
  6
HIDDEN
100
AcDbLine
 10
188.5057805792342
 20
195.4077711925985
 30
0.0
 11
189.8914212252894
 21
193.0077711925984
 31
0.0
  0
LINE
  5
1C34
330
1E
100
AcDbEntity
  8
HIDDEN
  6
HIDDEN
100
AcDbLine
 10
188.5057805792342
 20
190.6077711925984
 30
0.0
 11
189.8914212252893
 21
193.0077711925984
 31
0.0
  0
LINE
  5
1C35
330
1E
100
AcDbEntity
  8
HIDDEN
  6
HIDDEN
100
AcDbLine
 10
188.5057805792342
 20
190.6077711925984
 30
0.0
 11
188.5057805792342
 21
195.4077711925984
 31
0.0
  0
SOLID
  5
1C36
330
1E
100
AcDbEntity
  8
DIM
100
AcDbTrace
 10
173.5057805792341
 20
224.3766809917665
 30
0.0
 11
173.5057805792341
 21
223.3766809917665
 31
0.0
 12
170.5057805792341
 22
223.8766809917665
 32
0.0
 13
170.5057805792341
 23
223.8766809917665
 33
0.0
  0
TEXT
  5
1C37
330
1E
100
AcDbEntity
  8
DIM
100
AcDbText
 10
158.8865887303622
 20
225.3766809917665
 30
0.0
 40
3.0
  1
5
  7
ROMANSS
 72
     1
 11
159.8865887303623
 21
226.8766809917666
 31
0.0
100
AcDbText
 73
     2
  0
SOLID
  5
1C38
330
1E
100
AcDbEntity
  8
DIM
100
AcDbTrace
 10
195.0057805792342
 20
263.3766809917665
 30
0.0
 11
196.0057805792342
 21
263.3766809917665
 31
0.0
 12
195.5057805792342
 22
260.3766809917665
 32
0.0
 13
195.5057805792342
 23
260.3766809917665
 33
0.0
  0
LINE
  5
1C39
330
1E
100
AcDbEntity
  8
DIM
100
AcDbLine
 10
243.5057805792343
 20
252.6612486539636
 30
0.0
 11
243.5057805792343
 21
222.8766809917665
 31
0.0
  0
TEXT
  5
1C3A
330
1E
100
AcDbEntity
  8
DIM
100
AcDbText
 10
210.6486377220914
 20
217.3766809917665
 30
0.0
 40
3.0
  1
110+Stroke
  7
ROMANSS
 72
     1
 11
223.0057805792343
 21
218.8766809917665
 31
0.0
100
AcDbText
 73
     2
  0
LINE
  5
1C3B
330
1E
100
AcDbEntity
  8
0
100
AcDbLine
 10
204.5057805792342
 20
182.0077711925985
 30
0.0
 11
244.5057805792342
 21
182.0077711925984
 31
0.0
  0
LINE
  5
1C3C
330
1E
100
AcDbEntity
  8
0
100
AcDbLine
 10
204.5057805792342
 20
182.0077711925985
 30
0.0
 11
203.5057805792342
 21
181.0077711925985
 31
0.0
  0
LINE
  5
1C3D
330
1E
100
AcDbEntity
  8
CENTER
  6
CENTER
100
AcDbLine
 10
260.5057805792343
 20
204.6096428209482
 30
0.0
 11
260.5057805792343
 21
185.2096428209481
 31
0.0
  0
LINE
  5
1C3E
330
1E
100
AcDbEntity
  8
CENTER
  6
CENTER
100
AcDbLine
 10
252.0057805792343
 20
205.0505805948236
 30
0.0
 11
252.0057805792343
 21
191.3226401262913
 31
0.0
  0
LINE
  5
1C3F
330
1E
100
AcDbEntity
  8
0
100
AcDbLine
 10
245.5057805792342
 20
200.5077711925984
 30
0.0
 11
245.5057805792342
 21
188.0077711925983
 31
0.0
  0
SOLID
  5
1C40
330
1E
100
AcDbEntity
  8
DIM
100
AcDbTrace
 10
246.5057805792342
 20
224.3766809917665
 30
0.0
 11
246.5057805792342
 21
223.3766809917665
 31
0.0
 12
243.5057805792343
 22
223.8766809917665
 32
0.0
 13
243.5057805792343
 23
223.8766809917665
 33
0.0
  0
LINE
  5
1C41
330
1E
100
AcDbEntity
  8
0
100
AcDbLine
 10
204.5057805792342
 20
260.3766809917666
 30
0.0
 11
243.5057805792343
 21
260.3766809917665
 31
0.0
  0
LINE
  5
1C42
330
1E
100
AcDbEntity
  8
0
100
AcDbLine
 10
203.5057805792342
 20
261.3766809917666
 30
0.0
 11
204.5057805792342
 21
260.3766809917666
 31
0.0
  0
TEXT
  5
1C43
330
1E
100
AcDbEntity
  8
DIM
100
AcDbText
 10
258.1404674568355
 20
225.3766809917665
 30
0.0
 40
3.0
  1
32
  7
ROMANSS
 72
     1
 11
260.5690388854069
 21
226.8766809917665
 31
0.0
100
AcDbText
 73
     2
  0
LINE
  5
1C44
330
1E
100
AcDbEntity
  8
0
100
AcDbLine
 10
204.5057805792342
 20
457.6337136654712
 30
0.0
 11
203.5057805792342
 21
456.6337136654712
 31
0.0
  0
LINE
  5
1C45
330
1E
100
AcDbEntity
  8
0
100
AcDbLine
 10
170.5057805792342
 20
475.6337136654711
 30
0.0
 11
170.5057805792344
 21
423.6337136654712
 31
0.0
  0
LINE
  5
1C46
330
1E
100
AcDbEntity
  8
0
100
AcDbLine
 10
165.5057805792342
 20
466.1337136654712
 30
0.0
 11
165.5057805792342
 21
433.1337136654711
 31
0.0
  0
LINE
  5
1C47
330
1E
100
AcDbEntity
  8
0
100
AcDbLine
 10
244.5057805792342
 20
463.633713665471
 30
0.0
 11
244.5057805792342
 21
435.633713665471
 31
0.0
  0
LINE
  5
1C48
330
1E
100
AcDbEntity
  8
0
100
AcDbLine
 10
204.5057805792342
 20
457.6337136654712
 30
0.0
 11
204.5057805792342
 21
441.6337136654711
 31
0.0
  0
LINE
  5
1C49
330
1E
100
AcDbEntity
  8
0
100
AcDbLine
 10
200.5057805792342
 20
423.1337136654713
 30
0.0
 11
200.5057805792341
 21
476.1337136654711
 31
0.0
  0
CIRCLE
  5
1C4A
330
1E
100
AcDbEntity
  8
0
100
AcDbCircle
 10
79.65012750479814
 20
355.3766809917665
 30
0.0
 40
14.0
  0
ARC
  5
1C4B
330
1E
100
AcDbEntity
  8
0
100
AcDbCircle
 10
79.65012750479814
 20
355.3766809917665
 30
0.0
 40
24.0
100
AcDbArc
 50
314.9005279606885
 51
225.0994720393113
  0
ARC
  5
1C4C
330
1E
100
AcDbEntity
  8
CENTER
  6
CENTER
100
AcDbCircle
 10
79.65012750479814
 20
355.3766809917665
 30
0.0
 40
19.0
100
AcDbArc
 50
296.5253520166098
 51
243.4746479833901
  0
LINE
  5
1C4D
330
1E
100
AcDbEntity
  8
CENTER
  6
CENTER
100
AcDbLine
 10
51.65012750479803
 20
355.3766809917664
 30
0.0
 11
107.6501275047979
 21
355.3766809917666
 31
0.0
  0
LINE
  5
1C4E
330
1E
100
AcDbEntity
  8
0
100
AcDbLine
 10
77.65012750479809
 20
335.3766809917664
 30
0.0
 11
68.3960941972133
 21
335.3766809917664
 31
0.0
  0
ARC
  5
1C4F
330
1E
100
AcDbEntity
  8
0
100
AcDbCircle
 10
79.65012750479809
 20
311.8766809917665
 30
0.0
 40
17.99999999999997
100
AcDbArc
 50
96.04232841905428
 51
130.3492909951198
  0
LINE
  5
1C50
330
1E
100
AcDbEntity
  8
CENTER
  6
CENTER
100
AcDbLine
 10
48.65012750479803
 20
311.8766809917665
 30
0.0
 11
110.6501275047979
 21
311.8766809917665
 31
0.0
  0
LINE
  5
1C51
330
1E
100
AcDbEntity
  8
0
100
AcDbLine
 10
77.65012750479809
 20
288.3766809917665
 30
0.0
 11
68.3960941972133
 21
288.3766809917665
 31
0.0
  0
ARC
  5
1C52
330
1E
100
AcDbEntity
  8
0
100
AcDbCircle
 10
79.65012750479809
 20
311.8766809917665
 30
0.0
 40
17.99999999999997
100
AcDbArc
 50
229.6507090048801
 51
263.9576715809457
  0
CIRCLE
  5
1C53
330
1E
100
AcDbEntity
  8
0
100
AcDbCircle
 10
79.65012750479809
 20
311.8766809917665
 30
0.0
 40
17.49999999999997
  0
POLYLINE
  5
1C54
330
1E
100
AcDbEntity
  8
0
100
AcDb2dPolyline
 66
     1
 10
0.0
 20
0.0
 30
0.0
 70
     1
  0
VERTEX
  5
27DF
330
1C54
100
AcDbEntity
  8
0
100
AcDbVertex
100
AcDb2dVertex
 10
53.1501275047982
 20
292.8766809917665
 30
0.0
 42
0.4142135623730951
  0
VERTEX
  5
27E0
330
1C54
100
AcDbEntity
  8
0
100
AcDbVertex
100
AcDb2dVertex
 10
60.6501275047982
 20
285.3766809917665
 30
0.0
  0
VERTEX
  5
27E1
330
1C54
100
AcDbEntity
  8
0
100
AcDbVertex
100
AcDb2dVertex
 10
98.65012750479809
 20
285.3766809917665
 30
0.0
 42
0.4142135623730951
  0
VERTEX
  5
27E2
330
1C54
100
AcDbEntity
  8
0
100
AcDbVertex
100
AcDb2dVertex
 10
106.150127504798
 20
292.8766809917665
 30
0.0
  0
VERTEX
  5
27E3
330
1C54
100
AcDbEntity
  8
0
100
AcDbVertex
100
AcDb2dVertex
 10
106.150127504798
 20
330.8766809917665
 30
0.0
 42
0.4142135623730951
  0
VERTEX
  5
27E4
330
1C54
100
AcDbEntity
  8
0
100
AcDbVertex
100
AcDb2dVertex
 10
98.65012750479809
 20
338.3766809917664
 30
0.0
  0
VERTEX
  5
27E5
330
1C54
100
AcDbEntity
  8
0
100
AcDbVertex
100
AcDb2dVertex
 10
60.6501275047982
 20
338.3766809917664
 30
0.0
 42
0.4142135623730951
  0
VERTEX
  5
27E6
330
1C54
100
AcDbEntity
  8
0
100
AcDbVertex
100
AcDb2dVertex
 10
53.1501275047982
 20
330.8766809917665
 30
0.0
  0
SEQEND
  5
27E7
330
1C54
100
AcDbEntity
  8
0
  0
POLYLINE
  5
1C55
330
1E
100
AcDbEntity
  8
0
100
AcDb2dPolyline
 66
     1
 10
0.0
 20
0.0
 30
0.0
 70
     1
  0
VERTEX
  5
27E8
330
1C55
100
AcDbEntity
  8
0
100
AcDbVertex
100
AcDb2dVertex
 10
53.6501275047982
 20
292.8766809917665
 30
0.0
 42
0.4142135623730951
  0
VERTEX
  5
27E9
330
1C55
100
AcDbEntity
  8
0
100
AcDbVertex
100
AcDb2dVertex
 10
60.6501275047982
 20
285.8766809917665
 30
0.0
  0
VERTEX
  5
27EA
330
1C55
100
AcDbEntity
  8
0
100
AcDbVertex
100
AcDb2dVertex
 10
98.65012750479809
 20
285.8766809917665
 30
0.0
 42
0.4142135623730951
  0
VERTEX
  5
27EB
330
1C55
100
AcDbEntity
  8
0
100
AcDbVertex
100
AcDb2dVertex
 10
105.650127504798
 20
292.8766809917665
 30
0.0
  0
VERTEX
  5
27EC
330
1C55
100
AcDbEntity
  8
0
100
AcDbVertex
100
AcDb2dVertex
 10
105.650127504798
 20
330.8766809917665
 30
0.0
 42
0.4142135623730951
  0
VERTEX
  5
27ED
330
1C55
100
AcDbEntity
  8
0
100
AcDbVertex
100
AcDb2dVertex
 10
98.65012750479809
 20
337.8766809917664
 30
0.0
  0
VERTEX
  5
27EE
330
1C55
100
AcDbEntity
  8
0
100
AcDbVertex
100
AcDb2dVertex
 10
60.6501275047982
 20
337.8766809917664
 30
0.0
 42
0.4142135623730957
  0
VERTEX
  5
27EF
330
1C55
100
AcDbEntity
  8
0
100
AcDbVertex
100
AcDb2dVertex
 10
53.6501275047982
 20
330.8766809917665
 30
0.0
  0
SEQEND
  5
27F0
330
1C55
100
AcDbEntity
  8
0
  0
ARC
  5
1C56
330
1E
100
AcDbEntity
  8
0
100
AcDbCircle
 10
79.65012750479809
 20
311.8766809917665
 30
0.0
 40
17.99999999999997
100
AcDbArc
 50
139.6507090048801
 51
173.9576715809457
  0
LINE
  5
1C57
330
1E
100
AcDbEntity
  8
0
100
AcDbLine
 10
56.15012750479809
 20
313.8766809917664
 30
0.0
 11
56.15012750479809
 21
323.1307142993513
 31
0.0
  0
ARC
  5
1C58
330
1E
100
AcDbEntity
  8
0
 62
     2
100
AcDbCircle
 10
60.65012750479809
 20
292.8766809917665
 30
0.0
 40
3.000000000000003
100
AcDbArc
 50
255.0000000000055
 51
194.9999999999944
  0
CIRCLE
  5
1C59
330
1E
100
AcDbEntity
  8
0
100
AcDbCircle
 10
60.65012750479809
 20
292.8766809917665
 30
0.0
 40
2.5
  0
ARC
  5
1C5A
330
1E
100
AcDbEntity
  8
0
100
AcDbCircle
 10
60.65012750479809
 20
292.8766809917665
 30
0.0
 40
7.5
100
AcDbArc
 50
335.6842608288274
 51
34.19307712513986
  0
POLYLINE
  5
1C5B
330
1E
100
AcDbEntity
  8
0
100
AcDb2dPolyline
 66
     1
 10
0.0
 20
0.0
 30
0.0
 70
     1
  0
VERTEX
  5
27F1
330
1C5B
100
AcDbEntity
  8
0
100
AcDbVertex
100
AcDb2dVertex
 10
63.65012750479803
 20
291.1446301841976
 30
0.0
  0
VERTEX
  5
27F2
330
1C5B
100
AcDbEntity
  8
0
100
AcDbVertex
100
AcDb2dVertex
 10
63.65012750479803
 20
294.6087317993353
 30
0.0
  0
VERTEX
  5
27F3
330
1C5B
100
AcDbEntity
  8
0
100
AcDbVertex
100
AcDb2dVertex
 10
60.65012750479809
 20
296.3407826069042
 30
0.0
  0
VERTEX
  5
27F4
330
1C5B
100
AcDbEntity
  8
0
100
AcDbVertex
100
AcDb2dVertex
 10
57.65012750479809
 20
294.6087317993353
 30
0.0
  0
VERTEX
  5
27F5
330
1C5B
100
AcDbEntity
  8
0
100
AcDbVertex
100
AcDb2dVertex
 10
57.65012750479809
 20
291.1446301841976
 30
0.0
  0
VERTEX
  5
27F6
330
1C5B
100
AcDbEntity
  8
0
100
AcDbVertex
100
AcDb2dVertex
 10
60.65012750479809
 20
289.4125793766287
 30
0.0
  0
SEQEND
  5
27F7
330
1C5B
100
AcDbEntity
  8
0
  0
LINE
  5
1C5C
330
1E
100
AcDbEntity
  8
CENTER
  6
CENTER
100
AcDbLine
 10
60.65012750479809
 20
286.3766809917665
 30
0.0
 11
60.65012750479809
 21
299.3766809917665
 31
0.0
  0
CIRCLE
  5
1C5D
330
1E
100
AcDbEntity
  8
0
100
AcDbCircle
 10
60.65012750479809
 20
292.8766809917665
 30
0.0
 40
5.5
  0
CIRCLE
  5
1C5E
330
1E
100
AcDbEntity
  8
0
100
AcDbCircle
 10
60.65012750479809
 20
292.8766809917665
 30
0.0
 40
5.0
  0
LINE
  5
1C5F
330
1E
100
AcDbEntity
  8
CENTER
  6
CENTER
100
AcDbLine
 10
67.15012750479809
 20
292.8766809917665
 30
0.0
 11
54.15012750479809
 21
292.8766809917665
 31
0.0
  0
ARC
  5
1C60
330
1E
100
AcDbEntity
  8
0
100
AcDbCircle
 10
68.3960941972133
 20
289.3766809917665
 30
0.0
 40
1.0
100
AcDbArc
 50
155.6842608288113
 51
270.0
  0
LINE
  5
1C61
330
1E
100
AcDbEntity
  8
0
100
AcDbLine
 10
56.15012750479809
 20
309.8766809917665
 30
0.0
 11
56.15012750479809
 21
300.6226476841816
 31
0.0
  0
ARC
  5
1C62
330
1E
100
AcDbEntity
  8
0
100
AcDbCircle
 10
79.65012750479809
 20
311.8766809917665
 30
0.0
 40
17.99999999999997
100
AcDbArc
 50
186.0423284190542
 51
220.3492909951198
  0
LINE
  5
1C63
330
1E
100
AcDbEntity
  8
0
100
AcDbLine
 10
57.15012750479809
 20
303.8766809917665
 30
0.0
 11
62.91692697411668
 21
303.8766809917665
 31
0.0
  0
ARC
  5
1C64
330
1E
100
AcDbEntity
  8
0
100
AcDbCircle
 10
60.65012750479809
 20
292.8766809917665
 30
0.0
 40
7.5
100
AcDbArc
 50
55.80692287485991
 51
114.3157391711744
  0
ARC
  5
1C65
330
1E
100
AcDbEntity
  8
0
100
AcDbCircle
 10
57.15012750479809
 20
300.6226476841816
 30
0.0
 40
1.0
100
AcDbArc
 50
180.0
 51
294.3157391711868
  0
ARC
  5
1C66
330
1E
100
AcDbEntity
  8
0
100
AcDbCircle
 10
57.15012750479809
 20
302.8766809917665
 30
0.0
 40
1.0
100
AcDbArc
 50
90.0
 51
180.0
  0
LINE
  5
1C67
330
1E
100
AcDbEntity
  8
0
100
AcDbLine
 10
67.31882947557949
 20
298.1311694001747
 30
0.0
 11
66.91376197870818
 21
297.7261019033034
 31
0.0
  0
ARC
  5
1C68
330
1E
100
AcDbEntity
  8
0
100
AcDbCircle
 10
62.91692697411668
 20
302.8766809917665
 30
0.0
 40
1.0
100
AcDbArc
 50
28.27371363136768
 51
90.0
  0
LINE
  5
1C69
330
1E
100
AcDbEntity
  8
0
100
AcDbLine
 10
65.90461591320639
 20
299.5453829625479
 30
0.0
 11
65.49954841633496
 21
299.1403154656765
 31
0.0
  0
ARC
  5
1C6A
330
1E
100
AcDbEntity
  8
0
100
AcDbCircle
 10
65.55106252261305
 20
299.8989363531411
 30
0.0
 40
0.5
100
AcDbArc
 50
315.0000000000066
 51
40.34929099512185
  0
ARC
  5
1C6B
330
1E
100
AcDbEntity
  8
0
100
AcDbCircle
 10
65.14599502574174
 20
299.4938688562698
 30
0.0
 40
0.5
100
AcDbArc
 50
235.8069228748598
 51
314.9999999999997
  0
ARC
  5
1C6C
330
1E
100
AcDbEntity
  8
0
100
AcDbCircle
 10
67.67238286617271
 20
297.7776160095814
 30
0.0
 40
0.5
100
AcDbArc
 50
49.65070900487789
 51
134.9999999999905
  0
ARC
  5
1C6D
330
1E
100
AcDbEntity
  8
0
100
AcDbCircle
 10
67.2673153693014
 20
297.3725485127101
 30
0.0
 40
0.5
100
AcDbArc
 50
134.9999999999997
 51
214.1930771251419
  0
ARC
  5
1C6E
330
1E
100
AcDbEntity
  8
0
100
AcDbCircle
 10
60.755683877107
 20
313.8766809917664
 30
0.0
 40
1.0
100
AcDbArc
 50
270.0
 51
353.9576715809457
  0
ARC
  5
1C6F
330
1E
100
AcDbEntity
  8
0
100
AcDbCircle
 10
60.755683877107
 20
309.8766809917665
 30
0.0
 40
1.0
100
AcDbArc
 50
6.042328419054287
 51
90.0
  0
LINE
  5
1C70
330
1E
100
AcDbEntity
  8
0
100
AcDbLine
 10
57.15012750479809
 20
312.8766809917664
 30
0.0
 11
60.755683877107
 21
312.8766809917664
 31
0.0
  0
LINE
  5
1C71
330
1E
100
AcDbEntity
  8
0
100
AcDbLine
 10
57.15012750479809
 20
310.8766809917665
 30
0.0
 11
60.755683877107
 21
310.8766809917665
 31
0.0
  0
ARC
  5
1C72
330
1E
100
AcDbEntity
  8
0
100
AcDbCircle
 10
57.15012750479809
 20
313.8766809917664
 30
0.0
 40
1.0
100
AcDbArc
 50
180.0
 51
270.0
  0
ARC
  5
1C73
330
1E
100
AcDbEntity
  8
0
100
AcDbCircle
 10
57.15012750479809
 20
309.8766809917665
 30
0.0
 40
1.0
100
AcDbArc
 50
90.0
 51
180.0
  0
ARC
  5
1C74
330
1E
100
AcDbEntity
  8
0
 62
     2
100
AcDbCircle
 10
60.65012750479809
 20
330.8766809917665
 30
0.0
 40
3.000000000000003
100
AcDbArc
 50
255.0000000000055
 51
194.9999999999944
  0
CIRCLE
  5
1C75
330
1E
100
AcDbEntity
  8
0
100
AcDbCircle
 10
60.65012750479809
 20
330.8766809917665
 30
0.0
 40
2.5
  0
CIRCLE
  5
1C76
330
1E
100
AcDbEntity
  8
0
100
AcDbCircle
 10
60.65012750479809
 20
330.8766809917665
 30
0.0
 40
5.5
  0
CIRCLE
  5
1C77
330
1E
100
AcDbEntity
  8
0
100
AcDbCircle
 10
60.65012750479809
 20
330.8766809917665
 30
0.0
 40
5.0
  0
ARC
  5
1C78
330
1E
100
AcDbEntity
  8
0
100
AcDbCircle
 10
60.65012750479809
 20
330.8766809917665
 30
0.0
 40
7.5
100
AcDbArc
 50
325.8069228748601
 51
24.31573917117262
  0
LINE
  5
1C79
330
1E
100
AcDbEntity
  8
CENTER
  6
CENTER
100
AcDbLine
 10
60.65012750479809
 20
324.3766809917665
 30
0.0
 11
60.65012750479809
 21
337.3766809917664
 31
0.0
  0
POLYLINE
  5
1C7A
330
1E
100
AcDbEntity
  8
0
100
AcDb2dPolyline
 66
     1
 10
0.0
 20
0.0
 30
0.0
 70
     1
  0
VERTEX
  5
27F8
330
1C7A
100
AcDbEntity
  8
0
100
AcDbVertex
100
AcDb2dVertex
 10
63.65012750479803
 20
329.1446301841975
 30
0.0
  0
VERTEX
  5
27F9
330
1C7A
100
AcDbEntity
  8
0
100
AcDbVertex
100
AcDb2dVertex
 10
63.65012750479803
 20
332.6087317993353
 30
0.0
  0
VERTEX
  5
27FA
330
1C7A
100
AcDbEntity
  8
0
100
AcDbVertex
100
AcDb2dVertex
 10
60.65012750479809
 20
334.3407826069042
 30
0.0
  0
VERTEX
  5
27FB
330
1C7A
100
AcDbEntity
  8
0
100
AcDbVertex
100
AcDb2dVertex
 10
57.65012750479809
 20
332.6087317993353
 30
0.0
  0
VERTEX
  5
27FC
330
1C7A
100
AcDbEntity
  8
0
100
AcDbVertex
100
AcDb2dVertex
 10
57.65012750479809
 20
329.1446301841975
 30
0.0
  0
VERTEX
  5
27FD
330
1C7A
100
AcDbEntity
  8
0
100
AcDbVertex
100
AcDb2dVertex
 10
60.65012750479809
 20
327.4125793766287
 30
0.0
  0
SEQEND
  5
27FE
330
1C7A
100
AcDbEntity
  8
0
  0
LINE
  5
1C7B
330
1E
100
AcDbEntity
  8
0
100
AcDbLine
 10
57.15012750479809
 20
319.8766809917664
 30
0.0
 11
62.91692697411668
 21
319.8766809917664
 31
0.0
  0
ARC
  5
1C7C
330
1E
100
AcDbEntity
  8
0
100
AcDbCircle
 10
60.65012750479809
 20
330.8766809917664
 30
0.0
 40
7.5
100
AcDbArc
 50
245.684260828828
 51
304.1930771251401
  0
ARC
  5
1C7D
330
1E
100
AcDbEntity
  8
0
100
AcDbCircle
 10
57.15012750479809
 20
323.1307142993513
 30
0.0
 40
1.0
100
AcDbArc
 50
65.68426082881427
 51
180.0
  0
ARC
  5
1C7E
330
1E
100
AcDbEntity
  8
0
100
AcDbCircle
 10
57.15012750479809
 20
320.8766809917664
 30
0.0
 40
1.0
100
AcDbArc
 50
180.0
 51
270.0
  0
ARC
  5
1C7F
330
1E
100
AcDbEntity
  8
0
100
AcDbCircle
 10
67.2673153693014
 20
326.3808134708229
 30
0.0
 40
0.5
100
AcDbArc
 50
145.8069228748581
 51
225.0000000000003
  0
ARC
  5
1C80
330
1E
100
AcDbEntity
  8
0
100
AcDbCircle
 10
65.55106252261305
 20
323.8544256303918
 30
0.0
 40
0.5
100
AcDbArc
 50
319.6507090048781
 51
45.00000000000029
  0
LINE
  5
1C81
330
1E
100
AcDbEntity
  8
0
100
AcDbLine
 10
65.90461591320639
 20
324.207979020985
 30
0.0
 11
65.49954841633496
 21
324.6130465178564
 31
0.0
  0
ARC
  5
1C82
330
1E
100
AcDbEntity
  8
0
100
AcDbCircle
 10
65.14599502574174
 20
324.2594931272631
 30
0.0
 40
0.5
100
AcDbArc
 50
45.00000000000029
 51
124.1930771251426
  0
ARC
  5
1C83
330
1E
100
AcDbEntity
  8
0
100
AcDbCircle
 10
65.14599502574163
 20
324.259493127263
 30
0.0
 40
0.5
100
AcDbArc
 50
45.00000000000029
 51
124.19307712514
  0
LINE
  5
1C84
330
1E
100
AcDbEntity
  8
0
100
AcDbLine
 10
67.31882947557949
 20
325.6221925833583
 30
0.0
 11
66.91376197870818
 21
326.0272600802296
 31
0.0
  0
ARC
  5
1C85
330
1E
100
AcDbEntity
  8
0
100
AcDbCircle
 10
67.67238286617271
 20
325.9757459739515
 30
0.0
 40
0.5
100
AcDbArc
 50
225.0000000000095
 51
310.3492909951221
  0
ARC
  5
1C86
330
1E
100
AcDbEntity
  8
0
100
AcDbCircle
 10
62.91692697411668
 20
320.8766809917664
 30
0.0
 40
1.0
100
AcDbArc
 50
270.0
 51
331.7262863686359
  0
LINE
  5
1C87
330
1E
100
AcDbEntity
  8
CENTER
  6
CENTER
100
AcDbLine
 10
67.15012750479809
 20
330.8766809917665
 30
0.0
 11
54.15012750479809
 21
330.8766809917665
 31
0.0
  0
ARC
  5
1C88
330
1E
100
AcDbEntity
  8
0
100
AcDbCircle
 10
68.3960941972133
 20
334.3766809917665
 30
0.0
 40
1.0
100
AcDbArc
 50
90.0
 51
204.3157391711851
  0
CIRCLE
  5
1C89
330
1E
100
AcDbEntity
  8
0
  6
CONTINUOUS
100
AcDbCircle
 10
60.6501275047982
 20
355.3766809917664
 30
0.0
 40
3.5
  0
CIRCLE
  5
1C8A
330
1E
100
AcDbEntity
  8
0
  6
CONTINUOUS
100
AcDbCircle
 10
60.6501275047982
 20
355.3766809917664
 30
0.0
 40
3.153579676674365
  0
POLYLINE
  5
1C8B
330
1E
100
AcDbEntity
  8
0
  6
CONTINUOUS
100
AcDb2dPolyline
 66
     1
 10
0.0
 20
0.0
 30
0.0
 70
     1
  0
VERTEX
  5
27FF
330
1C8B
100
AcDbEntity
  8
0
  6
CONTINUOUS
100
AcDbVertex
100
AcDb2dVertex
 10
59.78410210101412
 20
356.8766809917664
 30
0.0
  0
VERTEX
  5
2800
330
1C8B
100
AcDbEntity
  8
0
  6
CONTINUOUS
100
AcDbVertex
100
AcDb2dVertex
 10
58.91807669723005
 20
355.3766809917664
 30
0.0
  0
VERTEX
  5
2801
330
1C8B
100
AcDbEntity
  8
0
  6
CONTINUOUS
100
AcDbVertex
100
AcDb2dVertex
 10
59.78410210101412
 20
353.8766809917664
 30
0.0
  0
VERTEX
  5
2802
330
1C8B
100
AcDbEntity
  8
0
  6
CONTINUOUS
100
AcDbVertex
100
AcDb2dVertex
 10
61.51615290858228
 20
353.8766809917664
 30
0.0
  0
VERTEX
  5
2803
330
1C8B
100
AcDbEntity
  8
0
  6
CONTINUOUS
100
AcDbVertex
100
AcDb2dVertex
 10
62.38217831236636
 20
355.3766809917664
 30
0.0
  0
VERTEX
  5
2804
330
1C8B
100
AcDbEntity
  8
0
  6
CONTINUOUS
100
AcDbVertex
100
AcDb2dVertex
 10
61.51615290858228
 20
356.8766809917664
 30
0.0
  0
SEQEND
  5
2805
330
1C8B
100
AcDbEntity
  8
0
  6
CONTINUOUS
  0
LINE
  5
1C8C
330
1E
100
AcDbEntity
  8
0
100
AcDbLine
 10
103.150127504798
 20
313.8766809917665
 30
0.0
 11
103.150127504798
 21
323.1307142993514
 31
0.0
  0
ARC
  5
1C8D
330
1E
100
AcDbEntity
  8
0
100
AcDbCircle
 10
79.65012750479809
 20
311.8766809917665
 30
0.0
 40
17.99999999999997
100
AcDbArc
 50
6.042328419054287
 51
40.34929099511981
  0
ARC
  5
1C8E
330
1E
100
AcDbEntity
  8
0
100
AcDbCircle
 10
102.1501275047981
 20
317.8670822090699
 30
0.0
 40
1.0
100
AcDbArc
 50
270.0
 51
0.0
  0
ARC
  5
1C8F
330
1E
100
AcDbEntity
  8
0
100
AcDbCircle
 10
102.1501275047981
 20
313.8766809917665
 30
0.0
 40
1.0
100
AcDbArc
 50
270.0
 51
0.0
  0
ARC
  5
1C90
330
1E
100
AcDbEntity
  8
0
100
AcDbCircle
 10
102.1501275047981
 20
309.8766809917666
 30
0.0
 40
1.0
100
AcDbArc
 50
0.0
 51
90.0
  0
ARC
  5
1C91
330
1E
100
AcDbEntity
  8
0
100
AcDbCircle
 10
102.1501275047981
 20
300.6226476841817
 30
0.0
 40
1.0
100
AcDbArc
 50
245.6842608288142
 51
0.0
  0
LINE
  5
1C92
330
1E
100
AcDbEntity
  8
CENTER
  6
CENTER
100
AcDbLine
 10
110.7187146646934
 20
307.8766809917666
 30
0.0
 11
97.20005627958233
 21
307.8766809917666
 31
0.0
  0
LINE
  5
1C93
330
1E
100
AcDbEntity
  8
CENTER
  6
CENTER
100
AcDbLine
 10
105.150127504798
 20
292.8766809917665
 30
0.0
 11
92.15012750479809
 21
292.8766809917665
 31
0.0
  0
CIRCLE
  5
1C94
330
1E
100
AcDbEntity
  8
0
100
AcDbCircle
 10
98.65012750479809
 20
292.8766809917665
 30
0.0
 40
5.0
  0
CIRCLE
  5
1C95
330
1E
100
AcDbEntity
  8
0
100
AcDbCircle
 10
98.65012750479809
 20
292.8766809917665
 30
0.0
 40
5.5
  0
ARC
  5
1C96
330
1E
100
AcDbEntity
  8
0
 62
     2
100
AcDbCircle
 10
98.65012750479809
 20
292.8766809917665
 30
0.0
 40
3.000000000000003
100
AcDbArc
 50
255.0000000000055
 51
194.9999999999944
  0
CIRCLE
  5
1C97
330
1E
100
AcDbEntity
  8
0
100
AcDbCircle
 10
98.65012750479809
 20
292.8766809917665
 30
0.0
 40
2.5
  0
LINE
  5
1C98
330
1E
100
AcDbEntity
  8
CENTER
  6
CENTER
100
AcDbLine
 10
98.65012750479809
 20
286.3766809917665
 30
0.0
 11
98.65012750479809
 21
299.3766809917665
 31
0.0
  0
ARC
  5
1C99
330
1E
100
AcDbEntity
  8
0
100
AcDbCircle
 10
98.65012750479809
 20
292.8766809917665
 30
0.0
 40
7.5
100
AcDbArc
 50
145.8069228748601
 51
204.3157391711724
  0
LINE
  5
1C9A
330
1E
100
AcDbEntity
  8
0
100
AcDbLine
 10
87.6501275047981
 20
289.3766809917665
 30
0.0
 11
87.6501275047981
 21
295.1434804610851
 31
0.0
  0
ARC
  5
1C9B
330
1E
100
AcDbEntity
  8
0
100
AcDbCircle
 10
79.65012750479809
 20
311.8766809917665
 30
0.0
 40
17.99999999999997
100
AcDbArc
 50
276.0423284190542
 51
310.3492909951198
  0
POLYLINE
  5
1C9C
330
1E
100
AcDbEntity
  8
0
100
AcDb2dPolyline
 66
     1
 10
0.0
 20
0.0
 30
0.0
 70
     1
  0
VERTEX
  5
2806
330
1C9C
100
AcDbEntity
  8
0
100
AcDbVertex
100
AcDb2dVertex
 10
101.650127504798
 20
291.1446301841976
 30
0.0
  0
VERTEX
  5
2807
330
1C9C
100
AcDbEntity
  8
0
100
AcDbVertex
100
AcDb2dVertex
 10
101.650127504798
 20
294.6087317993353
 30
0.0
  0
VERTEX
  5
2808
330
1C9C
100
AcDbEntity
  8
0
100
AcDbVertex
100
AcDb2dVertex
 10
98.65012750479809
 20
296.3407826069042
 30
0.0
  0
VERTEX
  5
2809
330
1C9C
100
AcDbEntity
  8
0
100
AcDbVertex
100
AcDb2dVertex
 10
95.65012750479809
 20
294.6087317993353
 30
0.0
  0
VERTEX
  5
280A
330
1C9C
100
AcDbEntity
  8
0
100
AcDbVertex
100
AcDb2dVertex
 10
95.65012750479809
 20
291.1446301841976
 30
0.0
  0
VERTEX
  5
280B
330
1C9C
100
AcDbEntity
  8
0
100
AcDbVertex
100
AcDb2dVertex
 10
98.65012750479809
 20
289.4125793766287
 30
0.0
  0
SEQEND
  5
280C
330
1C9C
100
AcDbEntity
  8
0
  0
LINE
  5
1C9D
330
1E
100
AcDbEntity
  8
0
100
AcDbLine
 10
71.65012750479809
 20
289.3766809917665
 30
0.0
 11
71.65012750479809
 21
295.1434804610851
 31
0.0
  0
LINE
  5
1C9E
330
1E
100
AcDbEntity
  8
0
100
AcDbLine
 10
81.65012750479808
 20
288.3766809917665
 30
0.0
 11
90.90416081238288
 21
288.3766809917665
 31
0.0
  0
ARC
  5
1C9F
330
1E
100
AcDbEntity
  8
0
100
AcDbCircle
 10
77.65012750479809
 20
292.9822373640754
 30
0.0
 40
1.0
100
AcDbArc
 50
0.0
 51
83.95767158094571
  0
ARC
  5
1CA0
330
1E
100
AcDbEntity
  8
0
100
AcDbCircle
 10
77.65012750479809
 20
289.3766809917665
 30
0.0
 40
1.0
100
AcDbArc
 50
270.0
 51
0.0
  0
ARC
  5
1CA1
330
1E
100
AcDbEntity
  8
0
100
AcDbCircle
 10
70.65012750479809
 20
289.3766809917665
 30
0.0
 40
1.0
100
AcDbArc
 50
270.0
 51
0.0
  0
ARC
  5
1CA2
330
1E
100
AcDbEntity
  8
0
100
AcDbCircle
 10
81.65012750479808
 20
292.9822373640754
 30
0.0
 40
1.0
100
AcDbArc
 50
96.04232841905428
 51
180.0
  0
ARC
  5
1CA3
330
1E
100
AcDbEntity
  8
0
100
AcDbCircle
 10
81.65012750479808
 20
289.3766809917665
 30
0.0
 40
1.0
100
AcDbArc
 50
180.0
 51
270.0
  0
LINE
  5
1CA4
330
1E
100
AcDbEntity
  8
0
100
AcDbLine
 10
80.65012750479809
 20
289.3766809917665
 30
0.0
 11
80.65012750479809
 21
292.9822373640754
 31
0.0
  0
LINE
  5
1CA5
330
1E
100
AcDbEntity
  8
0
100
AcDbLine
 10
78.65012750479809
 20
289.3766809917665
 30
0.0
 11
78.65012750479809
 21
292.9822373640754
 31
0.0
  0
ARC
  5
1CA6
330
1E
100
AcDbEntity
  8
0
100
AcDbCircle
 10
88.65012750479809
 20
289.3766809917665
 30
0.0
 40
1.0
100
AcDbArc
 50
180.0
 51
270.0
  0
ARC
  5
1CA7
330
1E
100
AcDbEntity
  8
0
100
AcDbCircle
 10
90.90416081238288
 20
289.3766809917665
 30
0.0
 40
1.0
100
AcDbArc
 50
270.0
 51
24.31573917118866
  0
ARC
  5
1CA8
330
1E
100
AcDbEntity
  8
0
100
AcDbCircle
 10
70.65012750479809
 20
295.1434804610851
 30
0.0
 40
1.0
100
AcDbArc
 50
0.0
 51
61.72628636863394
  0
ARC
  5
1CA9
330
1E
100
AcDbEntity
  8
0
100
AcDbCircle
 10
79.65012750479809
 20
311.8766809917665
 30
0.0
 40
17.99999999999997
100
AcDbArc
 50
319.6507090048801
 51
353.9576715809457
  0
ARC
  5
1CAA
330
1E
100
AcDbEntity
  8
0
100
AcDbCircle
 10
94.15425998385456
 20
299.4938688562699
 30
0.0
 40
0.5
100
AcDbArc
 50
225.0000000000003
 51
304.1930771251426
  0
ARC
  5
1CAB
330
1E
100
AcDbEntity
  8
0
100
AcDbCircle
 10
98.65012750479809
 20
292.8766809917666
 30
0.0
 40
7.5
100
AcDbArc
 50
65.68426082882808
 51
124.19307712514
  0
LINE
  5
1CAC
330
1E
100
AcDbEntity
  8
0
100
AcDbLine
 10
91.9814255340167
 20
298.1311694001747
 30
0.0
 11
92.386493030888
 21
297.7261019033034
 31
0.0
  0
ARC
  5
1CAD
330
1E
100
AcDbEntity
  8
0
100
AcDbCircle
 10
91.62787214342348
 20
297.7776160095814
 30
0.0
 40
0.5
100
AcDbArc
 50
45.00000000000949
 51
130.349290995122
  0
LINE
  5
1CAE
330
1E
100
AcDbEntity
  8
0
100
AcDbLine
 10
93.39563909638991
 20
299.5453829625479
 30
0.0
 11
93.80070659326122
 21
299.1403154656766
 31
0.0
  0
ARC
  5
1CAF
330
1E
100
AcDbEntity
  8
0
100
AcDbCircle
 10
93.74919248698313
 20
299.8989363531411
 30
0.0
 40
0.5
100
AcDbArc
 50
139.6507090048781
 51
224.9999999999933
  0
ARC
  5
1CB0
330
1E
100
AcDbEntity
  8
0
100
AcDbCircle
 10
88.65012750479809
 20
295.1434804610851
 30
0.0
 40
1.0
100
AcDbArc
 50
118.2737136313671
 51
180.0
  0
ARC
  5
1CB1
330
1E
100
AcDbEntity
  8
0
100
AcDbCircle
 10
92.03293964029478
 20
297.3725485127101
 30
0.0
 40
0.5
100
AcDbArc
 50
325.8069228748601
 51
45.00000000000029
  0
LINE
  5
1CB2
330
1E
100
AcDbEntity
  8
0
100
AcDbLine
 10
97.68107571213683
 20
316.8670822090699
 30
0.0
 11
102.1501275047981
 21
316.8670822090699
 31
0.0
  0
ARC
  5
1CB3
330
1E
100
AcDbEntity
  8
0
100
AcDbCircle
 10
97.68107571213683
 20
317.8670822090699
 30
0.0
 40
1.0
100
AcDbArc
 50
198.3779760395942
 51
270.0
  0
ARC
  5
1CB4
330
1E
100
AcDbEntity
  8
0
100
AcDbCircle
 10
98.54457113248919
 20
313.8766809917665
 30
0.0
 40
1.0
100
AcDbArc
 50
186.0423284190542
 51
270.0
  0
ARC
  5
1CB5
330
1E
100
AcDbEntity
  8
0
100
AcDbCircle
 10
98.54457113248919
 20
309.8766809917666
 30
0.0
 40
1.0
100
AcDbArc
 50
90.0
 51
173.9576715809457
  0
LINE
  5
1CB6
330
1E
100
AcDbEntity
  8
0
100
AcDbLine
 10
102.1501275047981
 20
312.8766809917665
 30
0.0
 11
98.54457113248919
 21
312.8766809917665
 31
0.0
  0
LINE
  5
1CB7
330
1E
100
AcDbEntity
  8
0
100
AcDbLine
 10
102.1501275047981
 20
310.8766809917665
 30
0.0
 11
98.54457113248919
 21
310.8766809917665
 31
0.0
  0
LINE
  5
1CB8
330
1E
100
AcDbEntity
  8
0
100
AcDbLine
 10
106.1501275047981
 20
294.3766809917665
 30
0.0
 11
105.650127504798
 21
294.3766809917665
 31
0.0
  0
LINE
  5
1CB9
330
1E
100
AcDbEntity
  8
0
100
AcDbLine
 10
103.150127504798
 20
309.8766809917666
 30
0.0
 11
103.150127504798
 21
300.6226476841817
 31
0.0
  0
ARC
  5
1CBA
330
1E
100
AcDbEntity
  8
0
100
AcDbCircle
 10
102.1501275047981
 20
323.1307142993514
 30
0.0
 40
1.0
100
AcDbArc
 50
0.0
 51
114.3157391711879
  0
LINE
  5
1CBB
330
1E
100
AcDbEntity
  8
CENTER
  6
CENTER
100
AcDbLine
 10
110.7216074222373
 20
319.3766809917665
 30
0.0
 11
96.99366695370498
 21
319.3766809917665
 31
0.0
  0
LINE
  5
1CBC
330
1E
100
AcDbEntity
  8
CENTER
  6
CENTER
100
AcDbLine
 10
105.150127504798
 20
330.8766809917665
 30
0.0
 11
92.15012750479809
 21
330.8766809917665
 31
0.0
  0
CIRCLE
  5
1CBD
330
1E
100
AcDbEntity
  8
0
100
AcDbCircle
 10
98.65012750479809
 20
330.8766809917665
 30
0.0
 40
5.5
  0
CIRCLE
  5
1CBE
330
1E
100
AcDbEntity
  8
0
100
AcDbCircle
 10
98.65012750479809
 20
330.8766809917665
 30
0.0
 40
5.0
  0
LINE
  5
1CBF
330
1E
100
AcDbEntity
  8
0
100
AcDbLine
 10
81.65012750479808
 20
335.3766809917664
 30
0.0
 11
90.90416081238288
 21
335.3766809917664
 31
0.0
  0
ARC
  5
1CC0
330
1E
100
AcDbEntity
  8
0
100
AcDbCircle
 10
79.65012750479809
 20
311.8766809917665
 30
0.0
 40
17.99999999999997
100
AcDbArc
 50
49.65070900488019
 51
83.95767158094571
  0
ARC
  5
1CC1
330
1E
100
AcDbEntity
  8
0
100
AcDbCircle
 10
81.65012750479808
 20
330.7711246194576
 30
0.0
 40
1.0
100
AcDbArc
 50
180.0
 51
263.9576715809457
  0
ARC
  5
1CC2
330
1E
100
AcDbEntity
  8
0
100
AcDbCircle
 10
77.65012750479809
 20
330.7711246194576
 30
0.0
 40
1.0
100
AcDbArc
 50
276.0423284190542
 51
0.0
  0
LINE
  5
1CC3
330
1E
100
AcDbEntity
  8
0
100
AcDbLine
 10
71.65012750479809
 20
334.3766809917665
 30
0.0
 11
71.65012750479809
 21
328.6098815224479
 31
0.0
  0
ARC
  5
1CC4
330
1E
100
AcDbEntity
  8
0
100
AcDbCircle
 10
70.65012750479809
 20
328.6098815224479
 30
0.0
 40
1.0
100
AcDbArc
 50
298.2737136313671
 51
0.0
  0
ARC
  5
1CC5
330
1E
100
AcDbEntity
  8
0
100
AcDbCircle
 10
77.65012750479809
 20
334.3766809917665
 30
0.0
 40
1.0
100
AcDbArc
 50
0.0
 51
90.0
  0
ARC
  5
1CC6
330
1E
100
AcDbEntity
  8
0
100
AcDbCircle
 10
70.65012750479809
 20
334.3766809917665
 30
0.0
 40
1.0
100
AcDbArc
 50
0.0
 51
90.0
  0
ARC
  5
1CC7
330
1E
100
AcDbEntity
  8
0
100
AcDbCircle
 10
81.65012750479808
 20
334.3766809917665
 30
0.0
 40
1.0
100
AcDbArc
 50
90.0
 51
180.0
  0
LINE
  5
1CC8
330
1E
100
AcDbEntity
  8
0
100
AcDbLine
 10
80.65012750479809
 20
334.3766809917665
 30
0.0
 11
80.65012750479809
 21
330.7711246194576
 31
0.0
  0
LINE
  5
1CC9
330
1E
100
AcDbEntity
  8
0
100
AcDbLine
 10
78.65012750479809
 20
334.3766809917665
 30
0.0
 11
78.65012750479809
 21
330.7711246194576
 31
0.0
  0
ARC
  5
1CCA
330
1E
100
AcDbEntity
  8
0
 62
     2
100
AcDbCircle
 10
98.65012750479809
 20
330.8766809917665
 30
0.0
 40
3.000000000000003
100
AcDbArc
 50
255.0000000000055
 51
194.9999999999944
  0
CIRCLE
  5
1CCB
330
1E
100
AcDbEntity
  8
0
100
AcDbCircle
 10
98.65012750479809
 20
330.8766809917665
 30
0.0
 40
2.5
  0
LINE
  5
1CCC
330
1E
100
AcDbEntity
  8
CENTER
  6
CENTER
100
AcDbLine
 10
98.65012750479809
 20
324.3766809917665
 30
0.0
 11
98.65012750479809
 21
337.3766809917664
 31
0.0
  0
ARC
  5
1CCD
330
1E
100
AcDbEntity
  8
0
100
AcDbCircle
 10
98.65012750479809
 20
330.8766809917665
 30
0.0
 40
7.5
100
AcDbArc
 50
155.6842608288292
 51
214.1930771251398
  0
LINE
  5
1CCE
330
1E
100
AcDbEntity
  8
0
100
AcDbLine
 10
87.6501275047981
 20
334.3766809917665
 30
0.0
 11
87.6501275047981
 21
328.6098815224479
 31
0.0
  0
POLYLINE
  5
1CCF
330
1E
100
AcDbEntity
  8
0
100
AcDb2dPolyline
 66
     1
 10
0.0
 20
0.0
 30
0.0
 70
     1
  0
VERTEX
  5
280D
330
1CCF
100
AcDbEntity
  8
0
100
AcDbVertex
100
AcDb2dVertex
 10
101.650127504798
 20
329.1446301841975
 30
0.0
  0
VERTEX
  5
280E
330
1CCF
100
AcDbEntity
  8
0
100
AcDbVertex
100
AcDb2dVertex
 10
101.650127504798
 20
332.6087317993353
 30
0.0
  0
VERTEX
  5
280F
330
1CCF
100
AcDbEntity
  8
0
100
AcDbVertex
100
AcDb2dVertex
 10
98.65012750479809
 20
334.3407826069042
 30
0.0
  0
VERTEX
  5
2810
330
1CCF
100
AcDbEntity
  8
0
100
AcDbVertex
100
AcDb2dVertex
 10
95.65012750479809
 20
332.6087317993353
 30
0.0
  0
VERTEX
  5
2811
330
1CCF
100
AcDbEntity
  8
0
100
AcDbVertex
100
AcDb2dVertex
 10
95.65012750479809
 20
329.1446301841975
 30
0.0
  0
VERTEX
  5
2812
330
1CCF
100
AcDbEntity
  8
0
100
AcDbVertex
100
AcDb2dVertex
 10
98.65012750479809
 20
327.4125793766287
 30
0.0
  0
SEQEND
  5
2813
330
1CCF
100
AcDbEntity
  8
0
  0
ARC
  5
1CD0
330
1E
100
AcDbEntity
  8
0
100
AcDbCircle
 10
94.15425998385456
 20
324.2594931272632
 30
0.0
 40
0.5
100
AcDbArc
 50
55.80692287485991
 51
134.9999999999997
  0
ARC
  5
1CD1
330
1E
100
AcDbEntity
  8
0
100
AcDbCircle
 10
98.65012750479809
 20
330.8766809917665
 30
0.0
 40
7.5
100
AcDbArc
 50
235.8069228748598
 51
294.3157391711744
  0
LINE
  5
1CD2
330
1E
100
AcDbEntity
  8
0
100
AcDbLine
 10
91.9814255340167
 20
325.6221925833583
 30
0.0
 11
92.386493030888
 21
326.0272600802296
 31
0.0
  0
ARC
  5
1CD3
330
1E
100
AcDbEntity
  8
0
100
AcDbCircle
 10
91.62787214342348
 20
325.9757459739515
 30
0.0
 40
0.5
100
AcDbArc
 50
229.6507090048779
 51
314.9999999999905
  0
ARC
  5
1CD4
330
1E
100
AcDbEntity
  8
0
100
AcDbCircle
 10
92.03293964029478
 20
326.3808134708229
 30
0.0
 40
0.5
100
AcDbArc
 50
314.9999999999997
 51
34.19307712513986
  0
ARC
  5
1CD5
330
1E
100
AcDbEntity
  8
0
100
AcDbCircle
 10
93.74919248698313
 20
323.8544256303919
 30
0.0
 40
0.5
100
AcDbArc
 50
135.0000000000089
 51
220.3492909951218
  0
LINE
  5
1CD6
330
1E
100
AcDbEntity
  8
0
100
AcDbLine
 10
93.39563909638991
 20
324.2079790209851
 30
0.0
 11
93.80070659326122
 21
324.6130465178564
 31
0.0
  0
ARC
  5
1CD7
330
1E
100
AcDbEntity
  8
0
100
AcDbCircle
 10
88.65012750479809
 20
328.6098815224479
 30
0.0
 40
1.0
100
AcDbArc
 50
180.0
 51
241.7262863686314
  0
ARC
  5
1CD8
330
1E
100
AcDbEntity
  8
0
100
AcDbCircle
 10
88.65012750479809
 20
334.3766809917665
 30
0.0
 40
1.0
100
AcDbArc
 50
90.0
 51
180.0
  0
ARC
  5
1CD9
330
1E
100
AcDbEntity
  8
0
100
AcDbCircle
 10
90.90416081238288
 20
334.3766809917665
 30
0.0
 40
1.0
100
AcDbArc
 50
335.6842608288184
 51
90.0
  0
CIRCLE
  5
1CDA
330
1E
100
AcDbEntity
  8
0
100
AcDbCircle
 10
79.65012750479814
 20
355.3766809917665
 30
0.0
 40
8.0
  0
CIRCLE
  5
1CDB
330
1E
100
AcDbEntity
  8
0
100
AcDbCircle
 10
79.65012750479814
 20
355.3766809917665
 30
0.0
 40
7.0
  0
CIRCLE
  5
1CDC
330
1E
100
AcDbEntity
  8
0
  6
CONTINUOUS
100
AcDbCircle
 10
98.6501275047982
 20
355.3766809917665
 30
0.0
 40
3.5
  0
CIRCLE
  5
1CDD
330
1E
100
AcDbEntity
  8
0
  6
CONTINUOUS
100
AcDbCircle
 10
98.6501275047982
 20
355.3766809917665
 30
0.0
 40
3.153579676674365
  0
POLYLINE
  5
1CDE
330
1E
100
AcDbEntity
  8
0
  6
CONTINUOUS
100
AcDb2dPolyline
 66
     1
 10
0.0
 20
0.0
 30
0.0
 70
     1
  0
VERTEX
  5
2814
330
1CDE
100
AcDbEntity
  8
0
  6
CONTINUOUS
100
AcDbVertex
100
AcDb2dVertex
 10
97.78410210101412
 20
356.8766809917665
 30
0.0
  0
VERTEX
  5
2815
330
1CDE
100
AcDbEntity
  8
0
  6
CONTINUOUS
100
AcDbVertex
100
AcDb2dVertex
 10
96.91807669723004
 20
355.3766809917665
 30
0.0
  0
VERTEX
  5
2816
330
1CDE
100
AcDbEntity
  8
0
  6
CONTINUOUS
100
AcDbVertex
100
AcDb2dVertex
 10
97.78410210101412
 20
353.8766809917666
 30
0.0
  0
VERTEX
  5
2817
330
1CDE
100
AcDbEntity
  8
0
  6
CONTINUOUS
100
AcDbVertex
100
AcDb2dVertex
 10
99.51615290858228
 20
353.8766809917666
 30
0.0
  0
VERTEX
  5
2818
330
1CDE
100
AcDbEntity
  8
0
  6
CONTINUOUS
100
AcDbVertex
100
AcDb2dVertex
 10
100.3821783123663
 20
355.3766809917665
 30
0.0
  0
VERTEX
  5
2819
330
1CDE
100
AcDbEntity
  8
0
  6
CONTINUOUS
100
AcDbVertex
100
AcDb2dVertex
 10
99.51615290858228
 20
356.8766809917665
 30
0.0
  0
SEQEND
  5
281A
330
1CDE
100
AcDbEntity
  8
0
  6
CONTINUOUS
  0
LINE
  5
1CDF
330
1E
100
AcDbEntity
  8
0
100
AcDbLine
 10
106.1501275047981
 20
329.3766809917665
 30
0.0
 11
105.6501275047982
 21
329.3766809917665
 31
0.0
  0
LINE
  5
1CE0
330
1E
100
AcDbEntity
  8
0
  6
CONTINUOUS
100
AcDbLine
 10
51.65012750479803
 20
391.8766809917665
 30
0.0
 11
107.6501275047979
 21
391.8766809917665
 31
0.0
  0
LINE
  5
1CE1
330
1E
100
AcDbEntity
  8
CENTER
  6
CENTER
100
AcDbLine
 10
60.65012750479809
 20
389.3766809917665
 30
0.0
 11
60.65012750479809
 21
374.3766809917665
 31
0.0
  0
LINE
  5
1CE2
330
1E
100
AcDbEntity
  8
CENTER
  6
CENTER
100
AcDbLine
 10
53.15012750479809
 20
381.8766809917665
 30
0.0
 11
68.15012750479809
 21
381.8766809917665
 31
0.0
  0
CIRCLE
  5
1CE3
330
1E
100
AcDbEntity
  8
0
  6
CONTINUOUS
100
AcDbCircle
 10
60.65012750479809
 20
381.8766809917665
 30
0.0
 40
4.5
  0
LINE
  5
1CE4
330
1E
100
AcDbEntity
  8
CENTER
  6
CENTER
100
AcDbLine
 10
91.15012750479815
 20
381.8766809917665
 30
0.0
 11
106.1501275047981
 21
381.8766809917665
 31
0.0
  0
CIRCLE
  5
1CE5
330
1E
100
AcDbEntity
  8
0
  6
CONTINUOUS
100
AcDbCircle
 10
98.65012750479815
 20
381.8766809917665
 30
0.0
 40
4.5
  0
LINE
  5
1CE6
330
1E
100
AcDbEntity
  8
CENTER
  6
CENTER
100
AcDbLine
 10
98.65012750479815
 20
389.3766809917665
 30
0.0
 11
98.65012750479809
 21
374.3766809917665
 31
0.0
  0
CIRCLE
  5
1CE7
330
1E
100
AcDbEntity
  8
0
  6
CONTINUOUS
100
AcDbCircle
 10
79.65012750479821
 20
374.3766809917665
 30
0.0
 40
3.5
  0
CIRCLE
  5
1CE8
330
1E
100
AcDbEntity
  8
0
  6
CONTINUOUS
100
AcDbCircle
 10
79.65012750479821
 20
374.3766809917665
 30
0.0
 40
3.153579676674365
  0
POLYLINE
  5
1CE9
330
1E
100
AcDbEntity
  8
0
  6
CONTINUOUS
100
AcDb2dPolyline
 66
     1
 10
0.0
 20
0.0
 30
0.0
 70
     1
  0
VERTEX
  5
281B
330
1CE9
100
AcDbEntity
  8
0
  6
CONTINUOUS
100
AcDbVertex
100
AcDb2dVertex
 10
78.78410210101413
 20
375.8766809917665
 30
0.0
  0
VERTEX
  5
281C
330
1CE9
100
AcDbEntity
  8
0
  6
CONTINUOUS
100
AcDbVertex
100
AcDb2dVertex
 10
77.91807669723005
 20
374.3766809917665
 30
0.0
  0
VERTEX
  5
281D
330
1CE9
100
AcDbEntity
  8
0
  6
CONTINUOUS
100
AcDbVertex
100
AcDb2dVertex
 10
78.78410210101413
 20
372.8766809917665
 30
0.0
  0
VERTEX
  5
281E
330
1CE9
100
AcDbEntity
  8
0
  6
CONTINUOUS
100
AcDbVertex
100
AcDb2dVertex
 10
80.51615290858228
 20
372.8766809917665
 30
0.0
  0
VERTEX
  5
281F
330
1CE9
100
AcDbEntity
  8
0
  6
CONTINUOUS
100
AcDbVertex
100
AcDb2dVertex
 10
81.38217831236636
 20
374.3766809917665
 30
0.0
  0
VERTEX
  5
2820
330
1CE9
100
AcDbEntity
  8
0
  6
CONTINUOUS
100
AcDbVertex
100
AcDb2dVertex
 10
80.51615290858228
 20
375.8766809917665
 30
0.0
  0
SEQEND
  5
2821
330
1CE9
100
AcDbEntity
  8
0
  6
CONTINUOUS
  0
LINE
  5
1CEA
330
1E
100
AcDbEntity
  8
0
100
AcDbLine
 10
243.5057805792343
 20
369.3766809917664
 30
0.0
 11
243.5057805792343
 21
341.3766809917663
 31
0.0
  0
LINE
  5
1CEC
330
1E
100
AcDbEntity
  8
0
100
AcDbLine
 10
245.5057805792342
 20
336.0766809917664
 30
0.0
 11
200.5057805792342
 21
336.0766809917664
 31
0.0
  0
LINE
  5
1CED
330
1E
100
AcDbEntity
  8
DIM
100
AcDbLine
 10
202.5057805792342
 20
276.3766809917665
 30
0.0
 11
194.5057805792342
 21
276.3766809917665
 31
0.0
  0
LINE
  5
1CEF
330
1E
100
AcDbEntity
  8
0
100
AcDbLine
 10
245.5057805792342
 20
287.6766809917664
 30
0.0
 11
200.5057805792342
 21
287.6766809917666
 31
0.0
  0
POLYLINE
  5
1CF0
330
1E
100
AcDbEntity
  8
0
  6
CONTINUOUS
100
AcDb2dPolyline
 66
     1
 10
0.0
 20
0.0
 30
0.0
 70
     1
  0
VERTEX
  5
2822
330
1CF0
100
AcDbEntity
  8
0
  6
CONTINUOUS
100
AcDbVertex
100
AcDb2dVertex
 10
193.1397551754497
 20
320.8766809917665
 30
0.0
  0
VERTEX
  5
2823
330
1CF0
100
AcDbEntity
  8
0
  6
CONTINUOUS
100
AcDbVertex
100
AcDb2dVertex
 10
192.2737297716653
 20
319.3766809917665
 30
0.0
  0
VERTEX
  5
2824
330
1CF0
100
AcDbEntity
  8
0
  6
CONTINUOUS
100
AcDbVertex
100
AcDb2dVertex
 10
193.1397551754497
 20
317.8766809917665
 30
0.0
  0
VERTEX
  5
2825
330
1CF0
100
AcDbEntity
  8
0
  6
CONTINUOUS
100
AcDbVertex
100
AcDb2dVertex
 10
194.8718059830185
 20
317.8766809917665
 30
0.0
  0
VERTEX
  5
2826
330
1CF0
100
AcDbEntity
  8
0
  6
CONTINUOUS
100
AcDbVertex
100
AcDb2dVertex
 10
195.737831386803
 20
319.3766809917665
 30
0.0
  0
VERTEX
  5
2827
330
1CF0
100
AcDbEntity
  8
0
  6
CONTINUOUS
100
AcDbVertex
100
AcDb2dVertex
 10
194.8718059830185
 20
320.8766809917665
 30
0.0
  0
SEQEND
  5
2828
330
1CF0
100
AcDbEntity
  8
0
  6
CONTINUOUS
  0
LINE
  5
1CF1
330
1E
100
AcDbEntity
  8
0
  6
CONTINUOUS
100
AcDbLine
 10
189.4473585943307
 20
317.3222251008922
 30
0.0
 11
190.7557805792341
 21
318.0776428860898
 31
0.0
  0
CIRCLE
  5
1CF2
330
1E
100
AcDbEntity
  8
0
  6
CONTINUOUS
100
AcDbCircle
 10
194.0057805792341
 20
319.3766809917665
 30
0.0
 40
2.5
  0
CIRCLE
  5
1CF3
330
1E
100
AcDbEntity
  8
0
100
AcDbCircle
 10
194.0057805792341
 20
319.3766809917665
 30
0.0
 40
5.0
  0
LINE
  5
1CF4
330
1E
100
AcDbEntity
  8
0
  6
CONTINUOUS
100
AcDbLine
 10
198.5642025641377
 20
317.3222251008922
 30
0.0
 11
197.2557805792341
 21
318.0776428860898
 31
0.0
  0
LINE
  5
1CF5
330
1E
100
AcDbEntity
  8
0
100
AcDbLine
 10
165.5057805792342
 20
295.3766809917665
 30
0.0
 11
165.5057805792342
 21
328.3766809917665
 31
0.0
  0
LINE
  5
1CF6
330
1E
100
AcDbEntity
  8
0
100
AcDbLine
 10
170.5057805792342
 20
285.8766809917665
 30
0.0
 11
170.5057805792342
 21
337.8766809917665
 31
0.0
  0
LINE
  5
1CF7
330
1E
100
AcDbEntity
  8
0
100
AcDbLine
 10
200.5057805792342
 20
285.3766809917665
 30
0.0
 11
200.5057805792341
 21
338.3766809917665
 31
0.0
  0
CIRCLE
  5
1CF8
330
1E
100
AcDbEntity
  8
0
100
AcDbCircle
 10
194.0057805792341
 20
319.3766809917665
 30
0.0
 40
5.299999999999999
  0
LINE
  5
1CF9
330
1E
100
AcDbEntity
  8
CENTER
  6
CENTER
100
AcDbLine
 10
194.0057805792341
 20
326.2406512260326
 30
0.0
 11
194.0057805792341
 21
312.5127107575004
 31
0.0
  0
LINE
  5
1CFA
330
1E
100
AcDbEntity
  8
0
100
AcDbLine
 10
170.5057805792342
 20
294.3766809917665
 30
0.0
 11
166.5057805792342
 21
294.3766809917665
 31
0.0
  0
LINE
  5
1CFB
330
1E
100
AcDbEntity
  8
DIM
100
AcDbLine
 10
176.7340512501878
 20
303.9867430577857
 30
0.0
 11
157.7277015952959
 21
296.5643626469277
 31
0.0
  0
ARC
  5
1CFC
330
1E
100
AcDbEntity
  8
0
100
AcDbCircle
 10
166.5057805792342
 20
295.3766809917665
 30
0.0
 40
1.0
100
AcDbArc
 50
180.0
 51
270.0
  0
LINE
  5
1CFD
330
1E
100
AcDbEntity
  8
DIM
100
AcDbLine
 10
157.7277015952959
 20
296.5643626469277
 30
0.0
 11
138.2277015952959
 21
296.5643626469277
 31
0.0
  0
TEXT
  5
1CFE
330
1E
100
AcDbEntity
  8
DIM
100
AcDbText
 10
136.5848444524387
 20
298.0643626469277
 30
0.0
 40
3.0
  1
2-G1/4
  7
ROMANSS
 72
     2
 11
153.7277015952959
 21
299.5643626469277
 31
0.0
100
AcDbText
 73
     2
  0
LINE
  5
1CFF
330
1E
100
AcDbEntity
  8
DIM
100
AcDbLine
 10
156.7277015952959
 20
296.5643626469277
 30
0.0
 11
153.7277015952959
 21
296.5643626469277
 31
0.0
  0
LINE
  5
1D00
330
1E
100
AcDbEntity
  8
HIDDEN
  6
HIDDEN
100
AcDbLine
 10
188.5057805792342
 20
295.2766809917665
 30
0.0
 11
189.8914212252893
 21
292.8766809917665
 31
0.0
  0
LINE
  5
1D01
330
1E
100
AcDbEntity
  8
HIDDEN
  6
HIDDEN
100
AcDbLine
 10
188.5057805792342
 20
295.2766809917665
 30
0.0
 11
188.5057805792342
 21
290.4766809917665
 31
0.0
  0
LINE
  5
1D02
330
1E
100
AcDbEntity
  8
HIDDEN
  6
HIDDEN
100
AcDbLine
 10
185.5057805792342
 20
295.8766809917665
 30
0.0
 11
185.5057805792342
 21
289.8766809917665
 31
0.0
  0
LINE
  5
1D03
330
1E
100
AcDbEntity
  8
HIDDEN
  6
HIDDEN
100
AcDbLine
 10
176.5057805792342
 20
295.8766809917665
 30
0.0
 11
176.5057805792342
 21
289.8766809917665
 31
0.0
  0
LINE
  5
1D04
330
1E
100
AcDbEntity
  8
CENTER
  6
CENTER
100
AcDbLine
 10
169.5057805792342
 20
292.8766809917665
 30
0.0
 11
200.5057805792342
 21
292.8766809917665
 31
0.0
  0
LINE
  5
1D05
330
1E
100
AcDbEntity
  8
HIDDEN
  6
HIDDEN
100
AcDbLine
 10
170.5057805792342
 20
289.8766809917665
 30
0.0
 11
185.5057805792342
 21
289.8766809917665
 31
0.0
  0
LINE
  5
1D06
330
1E
100
AcDbEntity
  8
0
100
AcDbLine
 10
200.5057805792342
 20
285.3766809917665
 30
0.0
 11
170.5057805792342
 21
285.8766809917665
 31
0.0
  0
LINE
  5
1D07
330
1E
100
AcDbEntity
  8
HIDDEN
  6
HIDDEN
100
AcDbLine
 10
176.5057805792342
 20
290.4766809917665
 30
0.0
 11
188.5057805792342
 21
290.4766809917665
 31
0.0
  0
SOLID
  5
1D08
330
1E
100
AcDbEntity
  8
DIM
100
AcDbTrace
 10
195.0057805792342
 20
273.3766809917665
 30
0.0
 11
196.0057805792342
 21
273.3766809917665
 31
0.0
 12
195.5057805792342
 22
276.3766809917665
 32
0.0
 13
195.5057805792342
 23
276.3766809917665
 33
0.0
  0
LINE
  5
1D09
330
1E
100
AcDbEntity
  8
HIDDEN
  6
HIDDEN
100
AcDbLine
 10
188.5057805792342
 20
290.4766809917665
 30
0.0
 11
189.8914212252894
 21
292.8766809917665
 31
0.0
  0
LINE
  5
1D0A
330
1E
100
AcDbEntity
  8
HIDDEN
  6
HIDDEN
100
AcDbLine
 10
170.5057805792342
 20
295.8766809917665
 30
0.0
 11
185.5057805792342
 21
295.8766809917665
 31
0.0
  0
LINE
  5
1D0B
330
1E
100
AcDbEntity
  8
HIDDEN
  6
HIDDEN
100
AcDbLine
 10
176.5057805792342
 20
295.2766809917665
 30
0.0
 11
188.5057805792342
 21
295.2766809917665
 31
0.0
  0
CIRCLE
  5
1D0C
330
1E
100
AcDbEntity
  8
0
100
AcDbCircle
 10
185.5057805792342
 20
307.8766809917666
 30
0.0
 40
3.999999999999971
  0
CIRCLE
  5
1D0D
330
1E
100
AcDbEntity
  8
0
100
AcDbCircle
 10
185.5057805792342
 20
307.8766809917666
 30
0.0
 40
5.700000000000001
  0
LINE
  5
1D0E
330
1E
100
AcDbEntity
  8
CENTER
  6
CENTER
100
AcDbLine
 10
195.2057805792342
 20
307.8766809917666
 30
0.0
 11
175.8057805792342
 21
307.8766809917666
 31
0.0
  0
CIRCLE
  5
1D0F
330
1E
100
AcDbEntity
  8
0
100
AcDbCircle
 10
185.5057805792342
 20
307.8766809917666
 30
0.0
 40
8.699999999999999
  0
CIRCLE
  5
1D10
330
1E
100
AcDbEntity
  8
0
100
AcDbCircle
 10
185.5057805792342
 20
307.8766809917666
 30
0.0
 40
6.700000000000003
  0
ARC
  5
1D11
330
1E
100
AcDbEntity
  8
0
 62
     2
100
AcDbCircle
 10
185.5057805792342
 20
307.8766809917666
 30
0.0
 40
6.6
100
AcDbArc
 50
333.8611037766975
 51
284.9974520806068
  0
SOLID
  5
1D12
330
1E
100
AcDbEntity
  8
DIM
100
AcDbTrace
 10
176.5521679754053
 20
304.4524881322142
 30
0.0
 11
176.9159345249702
 21
303.5209979833572
 31
0.0
 12
179.5285216967588
 22
305.0780427064803
 32
0.0
 13
179.5285216967588
 23
305.0780427064803
 33
0.0
  0
LINE
  5
1D13
330
1E
100
AcDbEntity
  8
CENTER
  6
CENTER
100
AcDbLine
 10
185.5057805792342
 20
317.5766809917665
 30
0.0
 11
185.5057805792342
 21
298.1766809917666
 31
0.0
  0
ARC
  5
1D14
330
1E
100
AcDbEntity
  8
0
  6
CONTINUOUS
100
AcDbCircle
 10
194.0057805792341
 20
319.3766809917665
 30
0.0
 40
3.5
100
AcDbArc
 50
218.2132107017378
 51
261.7867892982619
  0
LINE
  5
1D15
330
1E
100
AcDbEntity
  8
0
  6
CONTINUOUS
100
AcDbLine
 10
189.9473585943306
 20
316.4561996971077
 30
0.0
 11
191.2557805792341
 21
317.2116174823054
 31
0.0
  0
LINE
  5
1D16
330
1E
100
AcDbEntity
  8
0
  6
CONTINUOUS
100
AcDbLine
 10
194.5057805792341
 20
315.9125793766287
 30
0.0
 11
194.5057805792341
 21
314.4017438062334
 31
0.0
  0
LINE
  5
1D17
330
1E
100
AcDbEntity
  8
0
  6
CONTINUOUS
100
AcDbLine
 10
193.5057805792341
 20
315.9125793766287
 30
0.0
 11
193.5057805792341
 21
314.4017438062334
 31
0.0
  0
ARC
  5
1D18
330
1E
100
AcDbEntity
  8
0
  6
CONTINUOUS
100
AcDbCircle
 10
194.0057805792341
 20
319.3766809917665
 30
0.0
 40
3.5
100
AcDbArc
 50
278.213210701738
 51
321.7867892982622
  0
LINE
  5
1D19
330
1E
100
AcDbEntity
  8
0
  6
CONTINUOUS
100
AcDbLine
 10
198.0642025641376
 20
316.4561996971077
 30
0.0
 11
196.7557805792341
 21
317.2116174823054
 31
0.0
  0
LINE
  5
1D1A
330
1E
100
AcDbEntity
  8
0
100
AcDbLine
 10
170.5057805792342
 20
329.3766809917665
 30
0.0
 11
166.5057805792342
 21
329.3766809917665
 31
0.0
  0
ARC
  5
1D1B
330
1E
100
AcDbEntity
  8
0
100
AcDbCircle
 10
166.5057805792342
 20
328.3766809917665
 30
0.0
 40
1.0
100
AcDbArc
 50
90.0
 51
180.0
  0
LINE
  5
1D1C
330
1E
100
AcDbEntity
  8
CENTER
  6
CENTER
100
AcDbLine
 10
169.5057805792342
 20
330.8766809917665
 30
0.0
 11
200.5057805792342
 21
330.8766809917665
 31
0.0
  0
LINE
  5
1D1D
330
1E
100
AcDbEntity
  8
HIDDEN
  6
HIDDEN
100
AcDbLine
 10
170.5057805792342
 20
333.8766809917665
 30
0.0
 11
185.5057805792342
 21
333.8766809917665
 31
0.0
  0
LINE
  5
1D1E
330
1E
100
AcDbEntity
  8
HIDDEN
  6
HIDDEN
100
AcDbLine
 10
170.5057805792342
 20
327.8766809917665
 30
0.0
 11
185.5057805792342
 21
327.8766809917665
 31
0.0
  0
LINE
  5
1D1F
330
1E
100
AcDbEntity
  8
0
100
AcDbLine
 10
200.5057805792341
 20
338.3766809917665
 30
0.0
 11
170.5057805792341
 21
337.8766809917665
 31
0.0
  0
LINE
  5
1D20
330
1E
100
AcDbEntity
  8
HIDDEN
  6
HIDDEN
100
AcDbLine
 10
176.5057805792342
 20
333.2766809917665
 30
0.0
 11
188.5057805792342
 21
333.2766809917665
 31
0.0
  0
LINE
  5
1D21
330
1E
100
AcDbEntity
  8
HIDDEN
  6
HIDDEN
100
AcDbLine
 10
176.5057805792342
 20
328.4766809917665
 30
0.0
 11
188.5057805792342
 21
328.4766809917665
 31
0.0
  0
LINE
  5
1D22
330
1E
100
AcDbEntity
  8
HIDDEN
  6
HIDDEN
100
AcDbLine
 10
176.5057805792342
 20
333.8766809917665
 30
0.0
 11
176.5057805792342
 21
327.8766809917665
 31
0.0
  0
LINE
  5
1D23
330
1E
100
AcDbEntity
  8
HIDDEN
  6
HIDDEN
100
AcDbLine
 10
188.5057805792342
 20
333.2766809917665
 30
0.0
 11
188.5057805792342
 21
328.4766809917665
 31
0.0
  0
LINE
  5
1D24
330
1E
100
AcDbEntity
  8
HIDDEN
  6
HIDDEN
100
AcDbLine
 10
188.5057805792342
 20
328.4766809917665
 30
0.0
 11
189.8914212252894
 21
330.8766809917665
 31
0.0
  0
LINE
  5
1D25
330
1E
100
AcDbEntity
  8
HIDDEN
  6
HIDDEN
100
AcDbLine
 10
185.5057805792342
 20
333.8766809917665
 30
0.0
 11
185.5057805792342
 21
327.8766809917665
 31
0.0
  0
ARC
  5
1D26
330
1E
100
AcDbEntity
  8
0
  6
CONTINUOUS
100
AcDbCircle
 10
194.0057805792341
 20
319.3766809917665
 30
0.0
 40
3.5
100
AcDbArc
 50
98.21321070173805
 51
141.7867892982627
  0
LINE
  5
1D27
330
1E
100
AcDbEntity
  8
CENTER
  6
CENTER
100
AcDbLine
 10
200.8697508135003
 20
319.3766809917665
 30
0.0
 11
187.141810344968
 21
319.3766809917665
 31
0.0
  0
LINE
  5
1D28
330
1E
100
AcDbEntity
  8
0
  6
CONTINUOUS
100
AcDbLine
 10
190.7557805792341
 20
320.6757190974432
 30
0.0
 11
189.4473585943307
 21
321.4311368826408
 31
0.0
  0
ARC
  5
1D29
330
1E
100
AcDbEntity
  8
0
  6
CONTINUOUS
100
AcDbCircle
 10
194.0057805792341
 20
319.3766809917665
 30
0.0
 40
3.5
100
AcDbArc
 50
158.213210701738
 51
201.7867892982619
  0
LINE
  5
1D2A
330
1E
100
AcDbEntity
  8
0
  6
CONTINUOUS
100
AcDbLine
 10
191.2557805792341
 20
321.5417445012275
 30
0.0
 11
189.9473585943306
 21
322.2971622864253
 31
0.0
  0
LINE
  5
1D2B
330
1E
100
AcDbEntity
  8
0
  6
CONTINUOUS
100
AcDbLine
 10
194.5057805792341
 20
324.3516181772996
 30
0.0
 11
194.5057805792341
 21
322.8407826069043
 31
0.0
  0
LINE
  5
1D2C
330
1E
100
AcDbEntity
  8
0
  6
CONTINUOUS
100
AcDbLine
 10
193.5057805792341
 20
324.3516181772996
 30
0.0
 11
193.5057805792341
 21
322.8407826069043
 31
0.0
  0
ARC
  5
1D2D
330
1E
100
AcDbEntity
  8
0
  6
CONTINUOUS
100
AcDbCircle
 10
194.0057805792341
 20
319.3766809917665
 30
0.0
 40
3.5
100
AcDbArc
 50
338.2132107017381
 51
21.78678929826192
  0
ARC
  5
1D2E
330
1E
100
AcDbEntity
  8
0
  6
CONTINUOUS
100
AcDbCircle
 10
194.0057805792341
 20
319.3766809917665
 30
0.0
 40
3.5
100
AcDbArc
 50
38.2132107017378
 51
81.78678929826196
  0
LINE
  5
1D2F
330
1E
100
AcDbEntity
  8
0
  6
CONTINUOUS
100
AcDbLine
 10
197.2557805792341
 20
320.6757190974432
 30
0.0
 11
198.5642025641377
 21
321.4311368826408
 31
0.0
  0
LINE
  5
1D30
330
1E
100
AcDbEntity
  8
0
  6
CONTINUOUS
100
AcDbLine
 10
196.7557805792341
 20
321.5417445012276
 30
0.0
 11
198.0642025641376
 21
322.2971622864253
 31
0.0
  0
LINE
  5
1D31
330
1E
100
AcDbEntity
  8
HIDDEN
  6
HIDDEN
100
AcDbLine
 10
188.5057805792342
 20
333.2766809917665
 30
0.0
 11
189.8914212252893
 21
330.8766809917665
 31
0.0
  0
POLYLINE
  5
1D32
330
1E
100
AcDbEntity
  8
0
  6
CONTINUOUS
100
AcDb2dPolyline
 66
     1
 10
0.0
 20
0.0
 30
0.0
 70
     1
  0
VERTEX
  5
2829
330
1D32
100
AcDbEntity
  8
0
  6
CONTINUOUS
100
AcDbVertex
100
AcDb2dVertex
 10
251.1397551754499
 20
320.8766809917666
 30
0.0
  0
VERTEX
  5
282A
330
1D32
100
AcDbEntity
  8
0
  6
CONTINUOUS
100
AcDbVertex
100
AcDb2dVertex
 10
250.2737297716655
 20
319.3766809917665
 30
0.0
  0
VERTEX
  5
282B
330
1D32
100
AcDbEntity
  8
0
  6
CONTINUOUS
100
AcDbVertex
100
AcDb2dVertex
 10
251.1397551754499
 20
317.8766809917665
 30
0.0
  0
VERTEX
  5
282C
330
1D32
100
AcDbEntity
  8
0
  6
CONTINUOUS
100
AcDbVertex
100
AcDb2dVertex
 10
252.8718059830188
 20
317.8766809917665
 30
0.0
  0
VERTEX
  5
282D
330
1D32
100
AcDbEntity
  8
0
  6
CONTINUOUS
100
AcDbVertex
100
AcDb2dVertex
 10
253.7378313868032
 20
319.3766809917665
 30
0.0
  0
VERTEX
  5
282E
330
1D32
100
AcDbEntity
  8
0
  6
CONTINUOUS
100
AcDbVertex
100
AcDb2dVertex
 10
252.8718059830188
 20
320.8766809917666
 30
0.0
  0
SEQEND
  5
282F
330
1D32
100
AcDbEntity
  8
0
  6
CONTINUOUS
  0
LINE
  5
1D33
330
1E
100
AcDbEntity
  8
0
  6
CONTINUOUS
100
AcDbLine
 10
247.4473585943309
 20
317.3222251008922
 30
0.0
 11
248.7557805792344
 21
318.0776428860899
 31
0.0
  0
CIRCLE
  5
1D34
330
1E
100
AcDbEntity
  8
0
  6
CONTINUOUS
100
AcDbCircle
 10
252.0057805792343
 20
319.3766809917665
 30
0.0
 40
2.5
  0
LINE
  5
1D35
330
1E
100
AcDbEntity
  8
0
  6
CONTINUOUS
100
AcDbLine
 10
256.5642025641379
 20
317.3222251008922
 30
0.0
 11
255.2557805792344
 21
318.0776428860899
 31
0.0
  0
CIRCLE
  5
1D36
330
1E
100
AcDbEntity
  8
0
100
AcDbCircle
 10
252.0057805792343
 20
319.3766809917665
 30
0.0
 40
5.0
  0
LINE
  5
1D37
330
1E
100
AcDbEntity
  8
0
100
AcDbLine
 10
245.5057805792342
 20
338.3766809917665
 30
0.0
 11
245.5057805792343
 21
285.3766809917665
 31
0.0
  0
LINE
  5
1D38
330
1E
100
AcDbEntity
  8
CENTER
  6
CENTER
100
AcDbLine
 10
252.0057805792343
 20
312.5127107575004
 30
0.0
 11
252.0057805792343
 21
326.2406512260327
 31
0.0
  0
CIRCLE
  5
1D39
330
1E
100
AcDbEntity
  8
0
100
AcDbCircle
 10
252.0057805792343
 20
319.3766809917665
 30
0.0
 40
5.299999999999999
  0
LINE
  5
1D3A
330
1E
100
AcDbEntity
  8
0
100
AcDbLine
 10
204.5057805792342
 20
276.3766809917666
 30
0.0
 11
243.5057805792343
 21
276.3766809917665
 31
0.0
  0
LINE
  5
1D3B
330
1E
100
AcDbEntity
  8
0
100
AcDbLine
 10
204.5057805792342
 20
276.3766809917666
 30
0.0
 11
203.5057805792342
 21
275.3766809917666
 31
0.0
  0
ARC
  5
1D3C
330
1E
100
AcDbEntity
  8
0
  6
CONTINUOUS
100
AcDbCircle
 10
252.0057805792343
 20
319.3766809917665
 30
0.0
 40
3.5
100
AcDbArc
 50
218.2132107017372
 51
261.7867892982619
  0
LINE
  5
1D3D
330
1E
100
AcDbEntity
  8
0
  6
CONTINUOUS
100
AcDbLine
 10
247.9473585943308
 20
316.4561996971078
 30
0.0
 11
249.2557805792344
 21
317.2116174823055
 31
0.0
  0
CIRCLE
  5
1D3E
330
1E
100
AcDbEntity
  8
0
100
AcDbCircle
 10
260.5057805792343
 20
307.8766809917666
 30
0.0
 40
3.999999999999971
  0
CIRCLE
  5
1D3F
330
1E
100
AcDbEntity
  8
0
100
AcDbCircle
 10
260.5057805792343
 20
307.8766809917666
 30
0.0
 40
5.700000000000001
  0
LINE
  5
1D40
330
1E
100
AcDbEntity
  8
CENTER
  6
CENTER
100
AcDbLine
 10
260.5057805792343
 20
317.5766809917665
 30
0.0
 11
260.5057805792343
 21
298.1766809917666
 31
0.0
  0
LINE
  5
1D41
330
1E
100
AcDbEntity
  8
0
  6
CONTINUOUS
100
AcDbLine
 10
256.0642025641379
 20
316.4561996971078
 30
0.0
 11
254.7557805792343
 21
317.2116174823055
 31
0.0
  0
ARC
  5
1D42
330
1E
100
AcDbEntity
  8
0
  6
CONTINUOUS
100
AcDbCircle
 10
252.0057805792343
 20
319.3766809917665
 30
0.0
 40
3.5
100
AcDbArc
 50
278.213210701738
 51
321.7867892982626
  0
LINE
  5
1D43
330
1E
100
AcDbEntity
  8
0
  6
CONTINUOUS
100
AcDbLine
 10
251.5057805792344
 20
315.9125793766288
 30
0.0
 11
251.5057805792344
 21
314.4017438062335
 31
0.0
  0
LINE
  5
1D44
330
1E
100
AcDbEntity
  8
0
  6
CONTINUOUS
100
AcDbLine
 10
252.5057805792343
 20
315.9125793766288
 30
0.0
 11
252.5057805792343
 21
314.4017438062335
 31
0.0
  0
LINE
  5
1D45
330
1E
100
AcDbEntity
  8
0
100
AcDbLine
 10
204.5057805792342
 20
347.3766809917664
 30
0.0
 11
243.5057805792343
 21
347.3766809917664
 31
0.0
  0
LINE
  5
1D46
330
1E
100
AcDbEntity
  8
0
100
AcDbLine
 10
204.5057805792342
 20
363.3766809917665
 30
0.0
 11
243.5057805792343
 21
363.3766809917664
 31
0.0
  0
LINE
  5
1D47
330
1E
100
AcDbEntity
  8
0
100
AcDbLine
 10
203.5057805792342
 20
362.3766809917664
 30
0.0
 11
203.5057805792342
 21
348.3766809917664
 31
0.0
  0
LINE
  5
1D48
330
1E
100
AcDbEntity
  8
0
100
AcDbLine
 10
204.5057805792342
 20
363.3766809917665
 30
0.0
 11
204.5057805792342
 21
347.3766809917664
 31
0.0
  0
LINE
  5
1D49
330
1E
100
AcDbEntity
  8
0
100
AcDbLine
 10
203.5057805792342
 20
348.3766809917664
 30
0.0
 11
204.5057805792342
 21
347.3766809917664
 31
0.0
  0
LINE
  5
1D4A
330
1E
100
AcDbEntity
  8
0
100
AcDbLine
 10
204.5057805792342
 20
363.3766809917665
 30
0.0
 11
203.5057805792342
 21
362.3766809917664
 31
0.0
  0
ARC
  5
1D4B
330
1E
100
AcDbEntity
  8
0
  6
CONTINUOUS
100
AcDbCircle
 10
252.0057805792343
 20
319.3766809917665
 30
0.0
 40
3.5
100
AcDbArc
 50
98.21321070173805
 51
141.7867892982627
  0
LINE
  5
1D4C
330
1E
100
AcDbEntity
  8
CENTER
  6
CENTER
100
AcDbLine
 10
245.1418103449682
 20
319.3766809917665
 30
0.0
 11
258.8697508135005
 21
319.3766809917665
 31
0.0
  0
ARC
  5
1D4D
330
1E
100
AcDbEntity
  8
0
  6
CONTINUOUS
100
AcDbCircle
 10
252.0057805792343
 20
319.3766809917665
 30
0.0
 40
3.5
100
AcDbArc
 50
158.213210701738
 51
201.7867892982617
  0
LINE
  5
1D4E
330
1E
100
AcDbEntity
  8
0
  6
CONTINUOUS
100
AcDbLine
 10
248.7557805792344
 20
320.6757190974432
 30
0.0
 11
247.4473585943309
 21
321.4311368826409
 31
0.0
  0
LINE
  5
1D4F
330
1E
100
AcDbEntity
  8
0
  6
CONTINUOUS
100
AcDbLine
 10
249.2557805792344
 20
321.5417445012276
 30
0.0
 11
247.9473585943308
 21
322.2971622864253
 31
0.0
  0
LINE
  5
1D50
330
1E
100
AcDbEntity
  8
0
  6
CONTINUOUS
100
AcDbLine
 10
251.5057805792344
 20
324.3516181772996
 30
0.0
 11
251.5057805792344
 21
322.8407826069043
 31
0.0
  0
LINE
  5
1D51
330
1E
100
AcDbEntity
  8
0
  6
CONTINUOUS
100
AcDbLine
 10
252.5057805792343
 20
324.3516181772996
 30
0.0
 11
252.5057805792343
 21
322.8407826069043
 31
0.0
  0
ARC
  5
1D52
330
1E
100
AcDbEntity
  8
0
  6
CONTINUOUS
100
AcDbCircle
 10
252.0057805792343
 20
319.3766809917665
 30
0.0
 40
3.5
100
AcDbArc
 50
338.2132107017382
 51
21.78678929826177
  0
LINE
  5
1D53
330
1E
100
AcDbEntity
  8
0
  6
CONTINUOUS
100
AcDbLine
 10
254.7557805792343
 20
321.5417445012277
 30
0.0
 11
256.0642025641379
 21
322.2971622864253
 31
0.0
  0
ARC
  5
1D54
330
1E
100
AcDbEntity
  8
0
  6
CONTINUOUS
100
AcDbCircle
 10
252.0057805792343
 20
319.3766809917665
 30
0.0
 40
3.5
100
AcDbArc
 50
38.2132107017378
 51
81.78678929826196
  0
LINE
  5
1D55
330
1E
100
AcDbEntity
  8
0
  6
CONTINUOUS
100
AcDbLine
 10
255.2557805792344
 20
320.6757190974432
 30
0.0
 11
256.5642025641379
 21
321.4311368826409
 31
0.0
  0
LINE
  5
1D56
330
1E
100
AcDbEntity
  8
0
100
AcDbLine
 10
244.5057805792342
 20
437.8314893628193
 30
0.0
 11
200.5057805792342
 21
437.8314893628193
 31
0.0
  0
LINE
  5
1D57
330
1E
100
AcDbEntity
  8
0
100
AcDbLine
 10
245.5057805792342
 20
425.4337136654711
 30
0.0
 11
200.5057805792342
 21
425.4337136654712
 31
0.0
  0
LINE
  5
1D58
330
1E
100
AcDbEntity
  8
0
100
AcDbLine
 10
170.5057805792344
 20
432.1337136654712
 30
0.0
 11
166.5057805792342
 21
432.1337136654712
 31
0.0
  0
ARC
  5
1D59
330
1E
100
AcDbEntity
  8
0
100
AcDbCircle
 10
166.5057805792342
 20
433.1337136654711
 30
0.0
 40
1.0
100
AcDbArc
 50
180.0
 51
270.0
  0
LINE
  5
1D5A
330
1E
100
AcDbEntity
  8
CENTER
  6
CENTER
100
AcDbLine
 10
185.5057805792342
 20
419.0318420371213
 30
0.0
 11
185.5057805792342
 21
438.4318420371213
 31
0.0
  0
LINE
  5
1D5B
330
1E
100
AcDbEntity
  8
HIDDEN
  6
HIDDEN
100
AcDbLine
 10
170.5057805792342
 20
433.6337136654711
 30
0.0
 11
185.5057805792342
 21
433.6337136654711
 31
0.0
  0
LINE
  5
1D5C
330
1E
100
AcDbEntity
  8
HIDDEN
  6
HIDDEN
100
AcDbLine
 10
170.5057805792342
 20
427.6337136654712
 30
0.0
 11
185.5057805792342
 21
427.6337136654712
 31
0.0
  0
LINE
  5
1D5D
330
1E
100
AcDbEntity
  8
0
100
AcDbLine
 10
200.5057805792342
 20
423.1337136654713
 30
0.0
 11
170.5057805792341
 21
423.6337136654713
 31
0.0
  0
LINE
  5
1D5E
330
1E
100
AcDbEntity
  8
HIDDEN
  6
HIDDEN
100
AcDbLine
 10
176.5057805792342
 20
433.0337136654712
 30
0.0
 11
188.5057805792342
 21
433.0337136654711
 31
0.0
  0
LINE
  5
1D5F
330
1E
100
AcDbEntity
  8
HIDDEN
  6
HIDDEN
100
AcDbLine
 10
176.5057805792342
 20
428.2337136654712
 30
0.0
 11
188.5057805792342
 21
428.2337136654712
 31
0.0
  0
LINE
  5
1D60
330
1E
100
AcDbEntity
  8
HIDDEN
  6
HIDDEN
100
AcDbLine
 10
176.5057805792342
 20
427.6337136654712
 30
0.0
 11
176.5057805792342
 21
433.6337136654711
 31
0.0
  0
LINE
  5
1D61
330
1E
100
AcDbEntity
  8
CENTER
  6
CENTER
100
AcDbLine
 10
194.0057805792341
 20
418.5909042632458
 30
0.0
 11
194.0057805792341
 21
432.3188447317781
 31
0.0
  0
LINE
  5
1D62
330
1E
100
AcDbEntity
  8
HIDDEN
  6
HIDDEN
100
AcDbLine
 10
188.5057805792342
 20
433.0337136654712
 30
0.0
 11
189.8914212252894
 21
430.6337136654711
 31
0.0
  0
LINE
  5
1D63
330
1E
100
AcDbEntity
  8
HIDDEN
  6
HIDDEN
100
AcDbLine
 10
188.5057805792342
 20
428.2337136654712
 30
0.0
 11
189.8914212252893
 21
430.6337136654711
 31
0.0
  0
LINE
  5
1D64
330
1E
100
AcDbEntity
  8
HIDDEN
  6
HIDDEN
100
AcDbLine
 10
188.5057805792342
 20
428.2337136654712
 30
0.0
 11
188.5057805792342
 21
433.0337136654711
 31
0.0
  0
LINE
  5
1D65
330
1E
100
AcDbEntity
  8
HIDDEN
  6
HIDDEN
100
AcDbLine
 10
185.5057805792342
 20
427.6337136654712
 30
0.0
 11
185.5057805792342
 21
433.6337136654711
 31
0.0
  0
LINE
  5
1D66
330
1E
100
AcDbEntity
  8
DIM
100
AcDbLine
 10
203.5057805792342
 20
365.0485527059789
 30
0.0
 11
203.5057805792342
 21
400.8766809917664
 31
0.0
  0
SOLID
  5
1D67
330
1E
100
AcDbEntity
  8
DIM
100
AcDbTrace
 10
206.5057805792342
 20
399.3766809917665
 30
0.0
 11
206.5057805792342
 21
400.3766809917665
 31
0.0
 12
203.5057805792342
 22
399.8766809917665
 32
0.0
 13
203.5057805792342
 23
399.8766809917665
 33
0.0
  0
LINE
  5
1D68
330
1E
100
AcDbEntity
  8
0
100
AcDbLine
 10
204.5057805792342
 20
441.6337136654711
 30
0.0
 11
244.5057805792342
 21
441.6337136654711
 31
0.0
  0
LINE
  5
1D69
330
1E
100
AcDbEntity
  8
0
100
AcDbLine
 10
203.5057805792342
 20
456.6337136654712
 30
0.0
 11
203.5057805792342
 21
442.6337136654711
 31
0.0
  0
LINE
  5
1D6A
330
1E
100
AcDbEntity
  8
0
100
AcDbLine
 10
203.5057805792342
 20
442.6337136654711
 30
0.0
 11
204.5057805792342
 21
441.6337136654711
 31
0.0
  0
LINE
  5
1D6B
330
1E
100
AcDbEntity
  8
CENTER
  6
CENTER
100
AcDbLine
 10
260.5057805792343
 20
419.0318420371213
 30
0.0
 11
260.5057805792343
 21
438.4318420371213
 31
0.0
  0
LINE
  5
1D6C
330
1E
100
AcDbEntity
  8
0
100
AcDbLine
 10
245.5057805792343
 20
435.633713665471
 30
0.0
 11
245.5057805792343
 21
423.1337136654712
 31
0.0
  0
LINE
  5
1D6D
330
1E
100
AcDbEntity
  8
CENTER
  6
CENTER
100
AcDbLine
 10
252.0057805792343
 20
418.5909042632458
 30
0.0
 11
252.0057805792343
 21
432.3188447317781
 31
0.0
  0
LINE
  5
1D6E
330
1E
100
AcDbEntity
  8
0
100
AcDbLine
 10
245.5057805792342
 20
473.8337136654711
 30
0.0
 11
200.5057805792342
 21
473.8337136654711
 31
0.0
  0
LINE
  5
1D6F
330
1E
100
AcDbEntity
  8
0
100
AcDbLine
 10
244.5057805792342
 20
461.4359379681229
 30
0.0
 11
200.5057805792342
 21
461.4359379681229
 31
0.0
  0
LINE
  5
1D70
330
1E
100
AcDbEntity
  8
0
100
AcDbLine
 10
170.5057805792342
 20
467.133713665471
 30
0.0
 11
166.5057805792342
 21
467.1337136654711
 31
0.0
  0
ARC
  5
1D71
330
1E
100
AcDbEntity
  8
0
100
AcDbCircle
 10
166.5057805792342
 20
466.1337136654712
 30
0.0
 40
1.0
100
AcDbArc
 50
90.0
 51
180.0
  0
LINE
  5
1D72
330
1E
100
AcDbEntity
  8
HIDDEN
  6
HIDDEN
100
AcDbLine
 10
170.5057805792342
 20
471.6337136654711
 30
0.0
 11
185.5057805792342
 21
471.6337136654711
 31
0.0
  0
LINE
  5
1D73
330
1E
100
AcDbEntity
  8
HIDDEN
  6
HIDDEN
100
AcDbLine
 10
170.5057805792342
 20
465.6337136654712
 30
0.0
 11
185.5057805792342
 21
465.6337136654712
 31
0.0
  0
LINE
  5
1D74
330
1E
100
AcDbEntity
  8
0
100
AcDbLine
 10
200.5057805792341
 20
476.1337136654711
 30
0.0
 11
170.5057805792342
 21
475.6337136654711
 31
0.0
  0
LINE
  5
1D75
330
1E
100
AcDbEntity
  8
HIDDEN
  6
HIDDEN
100
AcDbLine
 10
176.5057805792342
 20
471.0337136654713
 30
0.0
 11
188.5057805792342
 21
471.0337136654711
 31
0.0
  0
LINE
  5
1D76
330
1E
100
AcDbEntity
  8
HIDDEN
  6
HIDDEN
100
AcDbLine
 10
176.5057805792342
 20
466.2337136654712
 30
0.0
 11
188.5057805792342
 21
466.2337136654712
 31
0.0
  0
LINE
  5
1D77
330
1E
100
AcDbEntity
  8
HIDDEN
  6
HIDDEN
100
AcDbLine
 10
176.5057805792342
 20
465.6337136654712
 30
0.0
 11
176.5057805792342
 21
471.6337136654711
 31
0.0
  0
LINE
  5
1D78
330
1E
100
AcDbEntity
  8
HIDDEN
  6
HIDDEN
100
AcDbLine
 10
188.5057805792342
 20
466.2337136654712
 30
0.0
 11
188.5057805792342
 21
471.0337136654711
 31
0.0
  0
LINE
  5
1D79
330
1E
100
AcDbEntity
  8
HIDDEN
  6
HIDDEN
100
AcDbLine
 10
188.5057805792342
 20
471.0337136654713
 30
0.0
 11
189.8914212252894
 21
468.6337136654712
 31
0.0
  0
LINE
  5
1D7A
330
1E
100
AcDbEntity
  8
HIDDEN
  6
HIDDEN
100
AcDbLine
 10
185.5057805792342
 20
465.6337136654712
 30
0.0
 11
185.5057805792342
 21
471.6337136654711
 31
0.0
  0
LINE
  5
1D7B
330
1E
100
AcDbEntity
  8
HIDDEN
  6
HIDDEN
100
AcDbLine
 10
188.5057805792342
 20
466.2337136654712
 30
0.0
 11
189.8914212252893
 21
468.6337136654712
 31
0.0
  0
LINE
  5
1D7C
330
1E
100
AcDbEntity
  8
0
100
AcDbLine
 10
204.5057805792342
 20
457.6337136654712
 30
0.0
 11
244.5057805792342
 21
457.6337136654712
 31
0.0
  0
LINE
  5
1D7D
330
1E
100
AcDbEntity
  8
0
100
AcDbLine
 10
245.5057805792342
 20
476.1337136654711
 30
0.0
 11
245.5057805792342
 21
463.633713665471
 31
0.0
  0
LINE
  5
1D7E
330
1E
100
AcDbEntity
  8
HIDDEN
  6
HIDDEN
100
AcDbLine
 10
343.0057805792343
 20
264.6266809917664
 30
0.0
 11
343.0057805792343
 21
275.1266809917666
 31
0.0
  0
CIRCLE
  5
1D7F
330
1E
100
AcDbEntity
  8
0
100
AcDbCircle
 10
451.257086075323
 20
268.3766809917665
 30
0.0
 40
5.922632794457276
  0
CIRCLE
  5
1D80
330
1E
100
AcDbEntity
  8
0
100
AcDbCircle
 10
451.257086075323
 20
268.3766809917665
 30
0.0
 40
6.5
  0
SOLID
  5
1D81
330
1E
100
AcDbEntity
  8
DIM
100
AcDbTrace
 10
502.757086075323
 20
272.8766809917665
 30
0.0
 11
503.7570860753231
 21
272.8766809917665
 31
0.0
 12
503.2570860753231
 22
269.8766809917665
 32
0.0
 13
503.2570860753231
 23
269.8766809917665
 33
0.0
  0
CIRCLE
  5
1D82
330
1E
100
AcDbEntity
  8
0
100
AcDbCircle
 10
470.2570860753231
 20
269.8766809917665
 30
0.0
 40
3.25
  0
CIRCLE
  5
1D83
330
1E
100
AcDbEntity
  8
HIDDEN
  6
HIDDEN
100
AcDbCircle
 10
470.2570860753231
 20
269.8766809917665
 30
0.0
 40
5.25
  0
CIRCLE
  5
1D84
330
1E
100
AcDbEntity
  8
0
100
AcDbCircle
 10
432.257086075323
 20
269.8766809917665
 30
0.0
 40
3.25
  0
CIRCLE
  5
1D85
330
1E
100
AcDbEntity
  8
HIDDEN
  6
HIDDEN
100
AcDbCircle
 10
432.257086075323
 20
269.8766809917665
 30
0.0
 40
5.25
  0
LINE
  5
1D86
330
1E
100
AcDbEntity
  8
0
100
AcDbLine
 10
313.5057805792342
 20
282.3766809917665
 30
0.0
 11
313.5057805792342
 21
254.3766809917665
 31
0.0
  0
LINE
  5
1D87
330
1E
100
AcDbEntity
  8
0
100
AcDbLine
 10
426.257086075323
 20
369.3766809917666
 30
0.0
 11
426.2570860753229
 21
254.3766809917665
 31
0.0
  0
LINE
  5
1D88
330
1E
100
AcDbEntity
  8
0
100
AcDbLine
 10
351.5057805792342
 20
369.3766809917666
 30
0.0
 11
351.5057805792343
 21
254.3766809917665
 31
0.0
  0
LINE
  5
1D89
330
1E
100
AcDbEntity
  8
0
100
AcDbLine
 10
336.5057805792343
 20
369.3766809917666
 30
0.0
 11
336.5057805792343
 21
254.3766809917665
 31
0.0
  0
LINE
  5
1D8A
330
1E
100
AcDbEntity
  8
CENTER
  6
CENTER
100
AcDbLine
 10
451.2570860753231
 20
394.8766809917665
 30
0.0
 11
451.257086075323
 21
228.8766809917665
 31
0.0
  0
LINE
  5
1D8B
330
1E
100
AcDbEntity
  8
0
100
AcDbLine
 10
476.2570860753229
 20
369.3766809917666
 30
0.0
 11
476.257086075323
 21
254.3766809917665
 31
0.0
  0
LINE
  5
1D8C
330
1E
100
AcDbEntity
  8
CENTER
  6
CENTER
100
AcDbLine
 10
470.2570860753231
 20
394.8766809917665
 30
0.0
 11
470.2570860753231
 21
231.8766809917665
 31
0.0
  0
LINE
  5
1D8D
330
1E
100
AcDbEntity
  8
CENTER
  6
CENTER
100
AcDbLine
 10
432.257086075323
 20
394.8766809917665
 30
0.0
 11
432.257086075323
 21
231.8766809917665
 31
0.0
  0
LINE
  5
1D8E
330
1E
100
AcDbEntity
  8
0
100
AcDbLine
 10
478.7570860753229
 20
391.8766809917666
 30
0.0
 11
478.7570860753229
 21
231.8766809917665
 31
0.0
  0
LINE
  5
1D8F
330
1E
100
AcDbEntity
  8
0
100
AcDbLine
 10
423.757086075323
 20
391.8766809917665
 30
0.0
 11
423.7570860753229
 21
231.8766809917665
 31
0.0
  0
LINE
  5
1D90
330
1E
100
AcDbEntity
  8
DIM
100
AcDbLine
 10
359.5057805792342
 20
271.3766809917665
 30
0.0
 11
359.5057805792342
 21
352.3766809917665
 31
0.0
  0
LINE
  5
1D91
330
1E
100
AcDbEntity
  8
DIM
100
AcDbLine
 10
511.2570860753228
 20
257.3766809917665
 30
0.0
 11
511.2570860753228
 21
366.3766809917666
 31
0.0
  0
LINE
  5
1D92
330
1E
100
AcDbEntity
  8
DIM
100
AcDbLine
 10
519.257086075323
 20
241.8766809917665
 30
0.0
 11
519.257086075323
 21
381.8766809917665
 31
0.0
  0
LINE
  5
1D93
330
1E
100
AcDbEntity
  8
0
100
AcDbLine
 10
290.5057805792342
 20
391.8766809917665
 30
0.0
 11
290.5057805792342
 21
231.8766809917665
 31
0.0
  0
LINE
  5
1D94
330
1E
100
AcDbEntity
  8
DIM
100
AcDbLine
 10
367.5057805792342
 20
257.3766809917665
 30
0.0
 11
367.5057805792342
 21
366.3766809917665
 31
0.0
  0
LINE
  5
1D95
330
1E
100
AcDbEntity
  8
DIM
100
AcDbLine
 10
527.257086075323
 20
231.8766809917665
 30
0.0
 11
527.257086075323
 21
391.8766809917665
 31
0.0
  0
LINE
  5
1D96
330
1E
100
AcDbEntity
  8
0
100
AcDbLine
 10
275.5057805792342
 20
391.8766809917665
 30
0.0
 11
275.5057805792342
 21
231.8766809917665
 31
0.0
  0
LINE
  5
1D97
330
1E
100
AcDbEntity
  8
0
100
AcDbLine
 10
290.5057805792342
 20
202.0077711925985
 30
0.0
 11
290.5057805792342
 21
146.0077711925982
 31
0.0
  0
LINE
  5
1D98
330
1E
100
AcDbEntity
  8
0
100
AcDbLine
 10
275.5057805792342
 20
202.0077711925985
 30
0.0
 11
275.5057805792342
 21
146.0077711925982
 31
0.0
  0
LINE
  5
1D99
330
1E
100
AcDbEntity
  8
0
100
AcDbLine
 10
322.5057805792343
 20
196.5077711925984
 30
0.0
 11
322.5057805792343
 21
151.5077711925984
 31
0.0
  0
LINE
  5
1D9A
330
1E
100
AcDbEntity
  8
0
100
AcDbLine
 10
336.5057805792344
 20
199.0077711925985
 30
0.0
 11
336.5057805792343
 21
149.0077711925984
 31
0.0
  0
LINE
  5
1D9B
330
1E
100
AcDbEntity
  8
0
100
AcDbLine
 10
351.5057805792342
 20
199.0077711925985
 30
0.0
 11
351.5057805792342
 21
149.0077711925984
 31
0.0
  0
LINE
  5
1D9C
330
1E
100
AcDbEntity
  8
0
100
AcDbLine
 10
312.5057805792343
 20
188.0077711925983
 30
0.0
 11
312.5057805792343
 21
160.0077711925983
 31
0.0
  0
LINE
  5
1D9D
330
1E
100
AcDbEntity
  8
0
100
AcDbLine
 10
322.5057805792343
 20
151.5077711925984
 30
0.0
 11
336.5057805792343
 21
151.5077711925984
 31
0.0
  0
LINE
  5
1D9E
330
1E
100
AcDbEntity
  8
0
100
AcDbLine
 10
290.5057805792342
 20
160.0077711925983
 30
0.0
 11
312.5057805792343
 21
160.0077711925983
 31
0.0
  0
LINE
  5
1D9F
330
1E
100
AcDbEntity
  8
0
100
AcDbLine
 10
275.5057805792342
 20
146.0077711925982
 30
0.0
 11
290.5057805792342
 21
146.0077711925982
 31
0.0
  0
LINE
  5
1DA0
330
1E
100
AcDbEntity
  8
HIDDEN
  6
HIDDEN
100
AcDbLine
 10
275.5057805792342
 20
150.5077711925984
 30
0.0
 11
290.5057805792342
 21
150.5077711925984
 31
0.0
  0
LINE
  5
1DA1
330
1E
100
AcDbEntity
  8
HIDDEN
  6
HIDDEN
100
AcDbLine
 10
275.5057805792342
 20
159.5077711925984
 30
0.0
 11
290.5057805792342
 21
159.5077711925984
 31
0.0
  0
LINE
  5
1DA2
330
1E
100
AcDbEntity
  8
0
100
AcDbLine
 10
290.5057805792342
 20
157.5077711925984
 30
0.0
 11
294.5057805792342
 21
157.5077711925984
 31
0.0
  0
LINE
  5
1DA3
330
1E
100
AcDbEntity
  8
0
100
AcDbLine
 10
295.5057805792342
 20
160.0077711925983
 30
0.0
 11
295.5057805792342
 21
158.5077711925984
 31
0.0
  0
LINE
  5
1DA4
330
1E
100
AcDbEntity
  8
0
100
AcDbLine
 10
294.5057805792342
 20
160.0077711925983
 30
0.0
 11
294.5057805792342
 21
157.5077711925984
 31
0.0
  0
LINE
  5
1DA5
330
1E
100
AcDbEntity
  8
0
100
AcDbLine
 10
294.5057805792342
 20
157.5077711925984
 30
0.0
 11
295.5057805792342
 21
158.5077711925984
 31
0.0
  0
LINE
  5
1DA6
330
1E
100
AcDbEntity
  8
0
100
AcDbLine
 10
312.5057805792343
 20
166.0077711925984
 30
0.0
 11
322.5057805792343
 21
166.0077711925984
 31
0.0
  0
ARC
  5
1DA7
330
1E
100
AcDbEntity
  8
0
  6
CONTINUOUS
100
AcDbCircle
 10
305.2729416472752
 20
169.2577711925984
 30
0.0
 40
10.35460945916689
100
AcDbArc
 50
332.6946261222341
 51
341.7073972028096
  0
LINE
  5
1DA8
330
1E
100
AcDbEntity
  8
0
  6
CONTINUOUS
100
AcDbLine
 10
314.4737805792351
 20
164.5077711925984
 30
0.0
 11
312.5057805792343
 21
164.5077711925984
 31
0.0
  0
LINE
  5
1DA9
330
1E
100
AcDbEntity
  8
HIDDEN
  6
HIDDEN
100
AcDbLine
 10
343.0057805792343
 20
160.2577711925985
 30
0.0
 11
343.0057805792343
 21
149.7577711925984
 31
0.0
  0
LINE
  5
1DAA
330
1E
100
AcDbEntity
  8
HIDDEN
  6
HIDDEN
100
AcDbLine
 10
343.0057805792344
 20
151.7577711925984
 30
0.0
 11
351.5057805792343
 21
151.7577711925984
 31
0.0
  0
LINE
  5
1DAB
330
1E
100
AcDbEntity
  8
CENTER
  6
CENTER
100
AcDbLine
 10
332.9727168893659
 20
155.0077711925984
 30
0.0
 11
355.1630811237525
 21
155.0077711925984
 31
0.0
  0
LINE
  5
1DAC
330
1E
100
AcDbEntity
  8
0
100
AcDbLine
 10
336.5057805792343
 20
149.0077711925984
 30
0.0
 11
351.5057805792342
 21
149.0077711925984
 31
0.0
  0
LINE
  5
1DAD
330
1E
100
AcDbEntity
  8
HIDDEN
  6
HIDDEN
100
AcDbLine
 10
336.5057805792343
 20
149.7577711925984
 30
0.0
 11
343.0057805792344
 21
149.7577711925984
 31
0.0
  0
LINE
  5
1DAE
330
1E
100
AcDbEntity
  8
HIDDEN
  6
HIDDEN
100
AcDbLine
 10
343.0057805792344
 20
158.2577711925984
 30
0.0
 11
351.5057805792343
 21
158.2577711925984
 31
0.0
  0
LINE
  5
1DAF
330
1E
100
AcDbEntity
  8
HIDDEN
  6
HIDDEN
100
AcDbLine
 10
336.5057805792343
 20
160.2577711925984
 30
0.0
 11
343.0057805792344
 21
160.2577711925985
 31
0.0
  0
LINE
  5
1DB0
330
1E
100
AcDbEntity
  8
0
100
AcDbLine
 10
313.5057805792343
 20
260.3766809917665
 30
0.0
 11
336.5057805792343
 21
260.3766809917666
 31
0.0
  0
LINE
  5
1DB1
330
1E
100
AcDbEntity
  8
DIM
100
AcDbLine
 10
314.7639841343731
 20
254.3766809917665
 30
0.0
 11
335.5057805792343
 21
254.3766809917665
 31
0.0
  0
LINE
  5
1DB2
330
1E
100
AcDbEntity
  8
0
100
AcDbLine
 10
322.5057805792343
 20
196.5077711925985
 30
0.0
 11
336.5057805792343
 21
196.5077711925984
 31
0.0
  0
LINE
  5
1DB3
330
1E
100
AcDbEntity
  8
DIM
100
AcDbLine
 10
348.5057805792343
 20
215.8766809917665
 30
0.0
 11
278.5057805792342
 21
215.8766809917665
 31
0.0
  0
LINE
  5
1DB4
330
1E
100
AcDbEntity
  8
DIM
100
AcDbLine
 10
290.5057805792342
 20
230.2137395875283
 30
0.0
 11
290.5057805792342
 21
214.8766809917665
 31
0.0
  0
LINE
  5
1DB5
330
1E
100
AcDbEntity
  8
DIM
100
AcDbLine
 10
275.5057805792342
 20
230.2137395875284
 30
0.0
 11
275.5057805792342
 21
214.8766809917665
 31
0.0
  0
LINE
  5
1DB6
330
1E
100
AcDbEntity
  8
0
100
AcDbLine
 10
290.5057805792342
 20
188.0077711925984
 30
0.0
 11
312.5057805792343
 21
188.0077711925984
 31
0.0
  0
LINE
  5
1DB7
330
1E
100
AcDbEntity
  8
HIDDEN
  6
HIDDEN
100
AcDbLine
 10
275.5057805792342
 20
197.5077711925984
 30
0.0
 11
290.5057805792342
 21
197.5077711925984
 31
0.0
  0
LINE
  5
1DB8
330
1E
100
AcDbEntity
  8
HIDDEN
  6
HIDDEN
100
AcDbLine
 10
275.5057805792342
 20
188.5077711925984
 30
0.0
 11
290.5057805792342
 21
188.5077711925984
 31
0.0
  0
LINE
  5
1DB9
330
1E
100
AcDbEntity
  8
0
100
AcDbLine
 10
275.5057805792342
 20
202.0077711925986
 30
0.0
 11
290.5057805792342
 21
202.0077711925986
 31
0.0
  0
LINE
  5
1DBA
330
1E
100
AcDbEntity
  8
0
100
AcDbLine
 10
294.5057805792342
 20
190.5077711925984
 30
0.0
 11
294.5057805792342
 21
188.0077711925984
 31
0.0
  0
LINE
  5
1DBB
330
1E
100
AcDbEntity
  8
0
100
AcDbLine
 10
294.5057805792342
 20
190.5077711925984
 30
0.0
 11
295.5057805792342
 21
189.5077711925984
 31
0.0
  0
LINE
  5
1DBC
330
1E
100
AcDbEntity
  8
0
100
AcDbLine
 10
295.5057805792342
 20
189.5077711925984
 30
0.0
 11
295.5057805792342
 21
188.0077711925984
 31
0.0
  0
LINE
  5
1DBD
330
1E
100
AcDbEntity
  8
0
100
AcDbLine
 10
290.5057805792342
 20
190.5077711925984
 30
0.0
 11
294.5057805792342
 21
190.5077711925984
 31
0.0
  0
TEXT
  5
1DBE
330
1E
100
AcDbEntity
  8
DIM
100
AcDbText
 10
280.8629234363771
 20
217.3766809917665
 30
0.0
 40
3.0
  1
15
  7
ROMANSS
 72
     1
 11
283.0057805792342
 21
218.8766809917665
 31
0.0
100
AcDbText
 73
     2
  0
SOLID
  5
1DBF
330
1E
100
AcDbEntity
  8
DIM
100
AcDbTrace
 10
272.5057805792342
 20
224.3766809917665
 30
0.0
 11
272.5057805792342
 21
223.3766809917665
 31
0.0
 12
275.5057805792342
 22
223.8766809917665
 32
0.0
 13
275.5057805792342
 23
223.8766809917665
 33
0.0
  0
SOLID
  5
1DC0
330
1E
100
AcDbEntity
  8
DIM
100
AcDbTrace
 10
272.5057805792342
 20
216.3766809917665
 30
0.0
 11
272.5057805792342
 21
215.3766809917665
 31
0.0
 12
275.5057805792342
 22
215.8766809917665
 32
0.0
 13
275.5057805792342
 23
215.8766809917665
 33
0.0
  0
SOLID
  5
1DC1
330
1E
100
AcDbEntity
  8
DIM
100
AcDbTrace
 10
278.5057805792342
 20
216.3766809917665
 30
0.0
 11
278.5057805792342
 21
215.3766809917665
 31
0.0
 12
275.5057805792342
 22
215.8766809917665
 32
0.0
 13
275.5057805792342
 23
215.8766809917665
 33
0.0
  0
SOLID
  5
1DC2
330
1E
100
AcDbEntity
  8
DIM
100
AcDbTrace
 10
293.5057805792343
 20
216.3766809917665
 30
0.0
 11
293.5057805792343
 21
215.3766809917665
 31
0.0
 12
290.5057805792342
 22
215.8766809917665
 32
0.0
 13
290.5057805792342
 23
215.8766809917665
 33
0.0
  0
SOLID
  5
1DC3
330
1E
100
AcDbEntity
  8
DIM
100
AcDbTrace
 10
287.5057805792343
 20
216.3766809917665
 30
0.0
 11
287.5057805792343
 21
215.3766809917665
 31
0.0
 12
290.5057805792342
 22
215.8766809917665
 32
0.0
 13
290.5057805792342
 23
215.8766809917665
 33
0.0
  0
LINE
  5
1DC4
330
1E
100
AcDbEntity
  8
0
100
AcDbLine
 10
312.5057805792343
 20
182.0077711925984
 30
0.0
 11
322.5057805792343
 21
182.0077711925985
 31
0.0
  0
LINE
  5
1DC5
330
1E
100
AcDbEntity
  8
0
  6
CONTINUOUS
100
AcDbLine
 10
314.4737805792351
 20
183.5077711925984
 30
0.0
 11
312.5057805792343
 21
183.5077711925984
 31
0.0
  0
ARC
  5
1DC6
330
1E
100
AcDbEntity
  8
0
  6
CONTINUOUS
100
AcDbCircle
 10
305.2729416472752
 20
178.7577711925984
 30
0.0
 40
10.35460945916689
100
AcDbArc
 50
18.29260279719036
 51
27.30537387776577
  0
TEXT
  5
1DC7
330
1E
100
AcDbEntity
  8
DIM
100
AcDbText
 10
319.563519155838
 20
217.3766809917665
 30
0.0
 40
3.0
  1
61
  7
ROMANSS
 72
     1
 11
321.3492334415523
 21
218.8766809917665
 31
0.0
100
AcDbText
 73
     2
  0
LINE
  5
1DC8
330
1E
100
AcDbEntity
  8
0
100
AcDbLine
 10
290.5057805792342
 20
254.3766809917665
 30
0.0
 11
313.5057805792342
 21
254.3766809917665
 31
0.0
  0
LINE
  5
1DC9
330
1E
100
AcDbEntity
  8
0
  6
CONTINUOUS
100
AcDbLine
 10
275.5057805792342
 20
231.8766809917665
 30
0.0
 11
290.5057805792342
 21
231.8766809917665
 31
0.0
  0
LINE
  5
1DCA
330
1E
100
AcDbEntity
  8
CENTER
  6
CENTER
100
AcDbLine
 10
272.5057805792342
 20
241.8766809917665
 30
0.0
 11
293.7257812762732
 21
241.8766809917665
 31
0.0
  0
LINE
  5
1DCB
330
1E
100
AcDbEntity
  8
HIDDEN
  6
HIDDEN
100
AcDbLine
 10
275.5057805792342
 20
246.3766809917665
 30
0.0
 11
290.5057805792342
 21
246.3766809917665
 31
0.0
  0
LINE
  5
1DCC
330
1E
100
AcDbEntity
  8
HIDDEN
  6
HIDDEN
100
AcDbLine
 10
275.5057805792342
 20
237.3766809917665
 30
0.0
 11
290.5057805792342
 21
237.3766809917665
 31
0.0
  0
LINE
  5
1DCD
330
1E
100
AcDbEntity
  8
DIM
100
AcDbLine
 10
336.5057805792343
 20
253.0396291403259
 30
0.0
 11
336.5057805792343
 21
222.8766809917665
 31
0.0
  0
LINE
  5
1DCE
330
1E
100
AcDbEntity
  8
DIM
100
AcDbLine
 10
351.5057805792343
 20
253.0396291403259
 30
0.0
 11
351.5057805792343
 21
213.8638561666041
 31
0.0
  0
LINE
  5
1DCF
330
1E
100
AcDbEntity
  8
HIDDEN
  6
HIDDEN
100
AcDbLine
 10
343.0057805792343
 20
196.2577711925984
 30
0.0
 11
351.5057805792342
 21
196.2577711925984
 31
0.0
  0
LINE
  5
1DD0
330
1E
100
AcDbEntity
  8
HIDDEN
  6
HIDDEN
100
AcDbLine
 10
343.0057805792343
 20
189.7577711925984
 30
0.0
 11
351.5057805792342
 21
189.7577711925984
 31
0.0
  0
LINE
  5
1DD1
330
1E
100
AcDbEntity
  8
CENTER
  6
CENTER
100
AcDbLine
 10
332.9727168893658
 20
193.0077711925984
 30
0.0
 11
355.1630811237525
 21
193.0077711925984
 31
0.0
  0
LINE
  5
1DD2
330
1E
100
AcDbEntity
  8
0
100
AcDbLine
 10
336.5057805792344
 20
199.0077711925985
 30
0.0
 11
351.5057805792342
 21
199.0077711925985
 31
0.0
  0
LINE
  5
1DD3
330
1E
100
AcDbEntity
  8
HIDDEN
  6
HIDDEN
100
AcDbLine
 10
343.0057805792342
 20
198.2577711925985
 30
0.0
 11
343.0057805792342
 21
187.7577711925983
 31
0.0
  0
LINE
  5
1DD4
330
1E
100
AcDbEntity
  8
HIDDEN
  6
HIDDEN
100
AcDbLine
 10
336.5057805792342
 20
187.7577711925983
 30
0.0
 11
343.0057805792343
 21
187.7577711925983
 31
0.0
  0
LINE
  5
1DD5
330
1E
100
AcDbEntity
  8
HIDDEN
  6
HIDDEN
100
AcDbLine
 10
336.5057805792342
 20
198.2577711925984
 30
0.0
 11
343.0057805792343
 21
198.2577711925985
 31
0.0
  0
SOLID
  5
1DD6
330
1E
100
AcDbEntity
  8
DIM
100
AcDbTrace
 10
348.5057805792343
 20
224.3766809917665
 30
0.0
 11
348.5057805792343
 21
223.3766809917665
 31
0.0
 12
351.5057805792343
 22
223.8766809917665
 32
0.0
 13
351.5057805792343
 23
223.8766809917665
 33
0.0
  0
SOLID
  5
1DD7
330
1E
100
AcDbEntity
  8
DIM
100
AcDbTrace
 10
348.5057805792343
 20
216.3766809917665
 30
0.0
 11
348.5057805792343
 21
215.3766809917665
 31
0.0
 12
351.5057805792343
 22
215.8766809917665
 32
0.0
 13
351.5057805792343
 23
215.8766809917665
 33
0.0
  0
LINE
  5
1DD8
330
1E
100
AcDbEntity
  8
DIM
100
AcDbLine
 10
348.5057805792343
 20
223.8766809917665
 30
0.0
 11
339.5057805792343
 21
223.8766809917665
 31
0.0
  0
SOLID
  5
1DD9
330
1E
100
AcDbEntity
  8
DIM
100
AcDbTrace
 10
339.5057805792343
 20
224.3766809917665
 30
0.0
 11
339.5057805792343
 21
223.3766809917665
 31
0.0
 12
336.5057805792343
 22
223.8766809917665
 32
0.0
 13
336.5057805792343
 23
223.8766809917665
 33
0.0
  0
LINE
  5
1DDA
330
1E
100
AcDbEntity
  8
DIM
100
AcDbLine
 10
352.5057805792343
 20
254.3766809917665
 30
0.0
 11
368.5057805792343
 21
254.3766809917665
 31
0.0
  0
TEXT
  5
1DDB
330
1E
100
AcDbEntity
  8
DIM
100
AcDbText
 10
341.8629234363771
 20
225.3766809917665
 30
0.0
 40
3.0
  1
15
  7
ROMANSS
 72
     1
 11
344.0057805792343
 21
226.8766809917665
 31
0.0
100
AcDbText
 73
     2
  0
LINE
  5
1DDC
330
1E
100
AcDbEntity
  8
HIDDEN
  6
HIDDEN
100
AcDbLine
 10
343.0057805792344
 20
266.6266809917665
 30
0.0
 11
351.5057805792343
 21
266.6266809917665
 31
0.0
  0
LINE
  5
1DDD
330
1E
100
AcDbEntity
  8
CENTER
  6
CENTER
100
AcDbLine
 10
332.9727168893659
 20
269.8766809917665
 30
0.0
 11
355.1630811237525
 21
269.8766809917665
 31
0.0
  0
LINE
  5
1DDE
330
1E
100
AcDbEntity
  8
0
100
AcDbLine
 10
336.5057805792344
 20
254.3766809917666
 30
0.0
 11
351.5057805792344
 21
254.3766809917666
 31
0.0
  0
LINE
  5
1DDF
330
1E
100
AcDbEntity
  8
HIDDEN
  6
HIDDEN
100
AcDbLine
 10
336.5057805792343
 20
264.6266809917665
 30
0.0
 11
343.0057805792344
 21
264.6266809917664
 31
0.0
  0
LINE
  5
1DE0
330
1E
100
AcDbEntity
  8
DIM
100
AcDbLine
 10
355.5057805792343
 20
268.3766809917665
 30
0.0
 11
360.5057805792343
 21
268.3766809917665
 31
0.0
  0
SOLID
  5
1DE1
330
1E
100
AcDbEntity
  8
DIM
100
AcDbTrace
 10
359.0057805792342
 20
271.3766809917665
 30
0.0
 11
360.0057805792342
 21
271.3766809917665
 31
0.0
 12
359.5057805792342
 22
268.3766809917665
 32
0.0
 13
359.5057805792342
 23
268.3766809917665
 33
0.0
  0
SOLID
  5
1DE2
330
1E
100
AcDbEntity
  8
DIM
100
AcDbTrace
 10
367.0057805792342
 20
257.3766809917665
 30
0.0
 11
368.0057805792342
 21
257.3766809917665
 31
0.0
 12
367.5057805792342
 22
254.3766809917665
 32
0.0
 13
367.5057805792342
 23
254.3766809917665
 33
0.0
  0
LINE
  5
1DE3
330
1E
100
AcDbEntity
  8
CENTER
  6
CENTER
100
AcDbLine
 10
462.007086075323
 20
269.8766809917665
 30
0.0
 11
479.257086075323
 21
269.8766809917665
 31
0.0
  0
LINE
  5
1DE4
330
1E
100
AcDbEntity
  8
0
100
AcDbLine
 10
426.2570860753229
 20
254.3766809917666
 30
0.0
 11
476.257086075323
 21
254.3766809917666
 31
0.0
  0
LINE
  5
1DE5
330
1E
100
AcDbEntity
  8
CENTER
  6
CENTER
100
AcDbLine
 10
462.757086075323
 20
241.8766809917665
 30
0.0
 11
477.757086075323
 21
241.8766809917665
 31
0.0
  0
LINE
  5
1DE6
330
1E
100
AcDbEntity
  8
DIM
100
AcDbLine
 10
435.257086075323
 20
223.8766809917665
 30
0.0
 11
467.257086075323
 21
223.8766809917665
 31
0.0
  0
LINE
  5
1DE7
330
1E
100
AcDbEntity
  8
DIM
100
AcDbLine
 10
429.2570860753229
 20
215.8766809917665
 30
0.0
 11
473.257086075323
 21
215.8766809917665
 31
0.0
  0
LINE
  5
1DE8
330
1E
100
AcDbEntity
  8
DIM
100
AcDbLine
 10
423.7570860753228
 20
207.8766809917665
 30
0.0
 11
478.7570860753231
 21
207.8766809917665
 31
0.0
  0
LINE
  5
1DE9
330
1E
100
AcDbEntity
  8
0
  6
CONTINUOUS
100
AcDbLine
 10
423.7570860753229
 20
231.8766809917665
 30
0.0
 11
478.7570860753229
 21
231.8766809917665
 31
0.0
  0
LINE
  5
1DEA
330
1E
100
AcDbEntity
  8
DIM
100
AcDbLine
 10
432.257086075323
 20
230.4265313565719
 30
0.0
 11
432.257086075323
 21
222.8766809917665
 31
0.0
  0
LINE
  5
1DEB
330
1E
100
AcDbEntity
  8
DIM
100
AcDbLine
 10
423.7570860753229
 20
230.8766809917665
 30
0.0
 11
423.7570860753229
 21
206.8766809917665
 31
0.0
  0
LINE
  5
1DEC
330
1E
100
AcDbEntity
  8
DIM
100
AcDbLine
 10
426.2570860753229
 20
252.8231050597655
 30
0.0
 11
426.2570860753229
 21
214.8766809917665
 31
0.0
  0
SOLID
  5
1DED
330
1E
100
AcDbEntity
  8
DIM
100
AcDbTrace
 10
426.7570860753229
 20
208.3766809917665
 30
0.0
 11
426.7570860753229
 21
207.3766809917665
 31
0.0
 12
423.7570860753229
 22
207.8766809917665
 32
0.0
 13
423.7570860753229
 23
207.8766809917665
 33
0.0
  0
SOLID
  5
1DEE
330
1E
100
AcDbEntity
  8
DIM
100
AcDbTrace
 10
429.2570860753229
 20
216.3766809917665
 30
0.0
 11
429.2570860753229
 21
215.3766809917665
 31
0.0
 12
426.2570860753229
 22
215.8766809917665
 32
0.0
 13
426.2570860753229
 23
215.8766809917665
 33
0.0
  0
SOLID
  5
1DEF
330
1E
100
AcDbEntity
  8
DIM
100
AcDbTrace
 10
435.257086075323
 20
224.3766809917665
 30
0.0
 11
435.257086075323
 21
223.3766809917665
 31
0.0
 12
432.257086075323
 22
223.8766809917665
 32
0.0
 13
432.257086075323
 23
223.8766809917665
 33
0.0
  0
TEXT
  5
1DF0
330
1E
100
AcDbEntity
  8
DIM
100
AcDbText
 10
448.8285146467514
 20
209.3766809917665
 30
0.0
 40
3.0
  1
55
  7
ROMANSS
 72
     1
 11
451.2570860753229
 21
210.8766809917665
 31
0.0
100
AcDbText
 73
     2
  0
TEXT
  5
1DF1
330
1E
100
AcDbEntity
  8
DIM
100
AcDbText
 10
448.8285146467514
 20
217.3766809917665
 30
0.0
 40
3.0
  1
50
  7
ROMANSS
 72
     1
 11
451.2570860753229
 21
218.8766809917665
 31
0.0
100
AcDbText
 73
     2
  0
LINE
  5
1DF2
330
1E
100
AcDbEntity
  8
CENTER
  6
CENTER
100
AcDbLine
 10
423.2570860753229
 20
269.8766809917665
 30
0.0
 11
440.507086075323
 21
269.8766809917665
 31
0.0
  0
CIRCLE
  5
1DF3
330
1E
100
AcDbEntity
  8
0
  6
CONTINUOUS
100
AcDbCircle
 10
432.257086075323
 20
241.8766809917665
 30
0.0
 40
4.5
  0
LINE
  5
1DF4
330
1E
100
AcDbEntity
  8
CENTER
  6
CENTER
100
AcDbLine
 10
424.757086075323
 20
241.8766809917665
 30
0.0
 11
439.757086075323
 21
241.8766809917665
 31
0.0
  0
TEXT
  5
1DF5
330
1E
100
AcDbEntity
  8
DIM
100
AcDbText
 10
448.8285146467516
 20
225.3766809917665
 30
0.0
 40
3.0
  1
38
  7
ROMANSS
 72
     1
 11
451.257086075323
 21
226.8766809917665
 31
0.0
100
AcDbText
 73
     2
  0
LINE
  5
1DF6
330
1E
100
AcDbEntity
  8
CENTER
  6
CENTER
100
AcDbLine
 10
441.2570860753231
 20
268.3766809917665
 30
0.0
 11
461.257086075323
 21
268.3766809917665
 31
0.0
  0
POLYLINE
  5
1DF7
330
1E
100
AcDbEntity
  8
0
100
AcDb2dPolyline
 66
     1
 10
0.0
 20
0.0
 30
0.0
 70
     1
  0
VERTEX
  5
2830
330
1DF7
100
AcDbEntity
  8
0
100
AcDbVertex
100
AcDb2dVertex
 10
449.5250352677548
 20
271.3766809917665
 30
0.0
  0
VERTEX
  5
2831
330
1DF7
100
AcDbEntity
  8
0
100
AcDbVertex
100
AcDb2dVertex
 10
447.7929844601849
 20
268.3766809917665
 30
0.0
  0
VERTEX
  5
2832
330
1DF7
100
AcDbEntity
  8
0
100
AcDbVertex
100
AcDb2dVertex
 10
449.5250352677548
 20
265.3766809917665
 30
0.0
  0
VERTEX
  5
2833
330
1DF7
100
AcDbEntity
  8
0
100
AcDbVertex
100
AcDb2dVertex
 10
452.9891368828912
 20
265.3766809917665
 30
0.0
  0
VERTEX
  5
2834
330
1DF7
100
AcDbEntity
  8
0
100
AcDbVertex
100
AcDb2dVertex
 10
454.7211876904611
 20
268.3766809917665
 30
0.0
  0
VERTEX
  5
2835
330
1DF7
100
AcDbEntity
  8
0
100
AcDbVertex
100
AcDb2dVertex
 10
452.9891368828912
 20
271.3766809917665
 30
0.0
  0
SEQEND
  5
2836
330
1DF7
100
AcDbEntity
  8
0
  0
LINE
  5
1DF8
330
1E
100
AcDbEntity
  8
DIM
100
AcDbLine
 10
470.2570860753231
 20
230.643974295748
 30
0.0
 11
470.2570860753231
 21
222.8766809917665
 31
0.0
  0
LINE
  5
1DF9
330
1E
100
AcDbEntity
  8
DIM
100
AcDbLine
 10
478.7570860753231
 20
230.8766809917665
 30
0.0
 11
478.7570860753231
 21
206.8766809917665
 31
0.0
  0
LINE
  5
1DFA
330
1E
100
AcDbEntity
  8
DIM
100
AcDbLine
 10
476.257086075323
 20
253.0405470183028
 30
0.0
 11
476.257086075323
 21
214.8766809917665
 31
0.0
  0
SOLID
  5
1DFB
330
1E
100
AcDbEntity
  8
DIM
100
AcDbTrace
 10
475.757086075323
 20
208.3766809917665
 30
0.0
 11
475.757086075323
 21
207.3766809917665
 31
0.0
 12
478.7570860753231
 22
207.8766809917665
 32
0.0
 13
478.7570860753231
 23
207.8766809917665
 33
0.0
  0
SOLID
  5
1DFC
330
1E
100
AcDbEntity
  8
DIM
100
AcDbTrace
 10
467.257086075323
 20
224.3766809917665
 30
0.0
 11
467.257086075323
 21
223.3766809917665
 31
0.0
 12
470.2570860753231
 22
223.8766809917665
 32
0.0
 13
470.2570860753231
 23
223.8766809917665
 33
0.0
  0
SOLID
  5
1DFD
330
1E
100
AcDbEntity
  8
DIM
100
AcDbTrace
 10
473.257086075323
 20
216.3766809917665
 30
0.0
 11
473.257086075323
 21
215.3766809917665
 31
0.0
 12
476.257086075323
 22
215.8766809917665
 32
0.0
 13
476.257086075323
 23
215.8766809917665
 33
0.0
  0
LINE
  5
1DFE
330
1E
100
AcDbEntity
  8
DIM
100
AcDbLine
 10
480.257086075323
 20
269.8766809917665
 30
0.0
 11
504.257086075323
 21
269.8766809917665
 31
0.0
  0
LINE
  5
1DFF
330
1E
100
AcDbEntity
  8
DIM
100
AcDbLine
 10
477.257086075323
 20
254.3766809917666
 30
0.0
 11
512.2570860753228
 21
254.3766809917666
 31
0.0
  0
LINE
  5
1E00
330
1E
100
AcDbEntity
  8
DIM
100
AcDbLine
 10
479.257086075323
 20
241.8766809917665
 30
0.0
 11
520.2570860753231
 21
241.8766809917665
 31
0.0
  0
LINE
  5
1E01
330
1E
100
AcDbEntity
  8
DIM
100
AcDbLine
 10
480.257086075323
 20
231.8766809917665
 30
0.0
 11
528.2570860753231
 21
231.8766809917665
 31
0.0
  0
CIRCLE
  5
1E02
330
1E
100
AcDbEntity
  8
0
  6
CONTINUOUS
100
AcDbCircle
 10
470.2570860753231
 20
241.8766809917665
 30
0.0
 40
4.5
  0
SOLID
  5
1E03
330
1E
100
AcDbEntity
  8
DIM
100
AcDbTrace
 10
526.757086075323
 20
234.8766809917665
 30
0.0
 11
527.757086075323
 21
234.8766809917665
 31
0.0
 12
527.257086075323
 22
231.8766809917665
 32
0.0
 13
527.257086075323
 23
231.8766809917665
 33
0.0
  0
SOLID
  5
1E04
330
1E
100
AcDbEntity
  8
DIM
100
AcDbTrace
 10
518.757086075323
 20
244.8766809917665
 30
0.0
 11
519.757086075323
 21
244.8766809917665
 31
0.0
 12
519.257086075323
 22
241.8766809917665
 32
0.0
 13
519.257086075323
 23
241.8766809917665
 33
0.0
  0
SOLID
  5
1E05
330
1E
100
AcDbEntity
  8
DIM
100
AcDbTrace
 10
510.7570860753228
 20
257.3766809917665
 30
0.0
 11
511.7570860753228
 21
257.3766809917665
 31
0.0
 12
511.2570860753228
 22
254.3766809917666
 32
0.0
 13
511.2570860753228
 23
254.3766809917666
 33
0.0
  0
TEXT
  5
1E06
330
1E
100
AcDbEntity
  8
DIM
100
AcDbText
 10
507.070074059149
 20
402.3152254073945
 30
0.0
 40
3.0
  1
4-M6x12L
  7
ROMANSS
 11
507.070074059149
 21
403.8152254073946
 31
0.0
100
AcDbText
 73
     2
  0
LINE
  5
1E07
330
1E
100
AcDbEntity
  8
0
100
AcDbLine
 10
351.5057805792342
 20
474.6337136654712
 30
0.0
 11
351.5057805792342
 21
424.6337136654712
 31
0.0
  0
LINE
  5
1E08
330
1E
100
AcDbEntity
  8
0
100
AcDbLine
 10
336.5057805792344
 20
474.6337136654712
 30
0.0
 11
336.5057805792343
 21
424.6337136654712
 31
0.0
  0
LINE
  5
1E09
330
1E
100
AcDbEntity
  8
0
100
AcDbLine
 10
290.5057805792342
 20
477.6337136654713
 30
0.0
 11
290.5057805792342
 21
421.6337136654711
 31
0.0
  0
LINE
  5
1E0A
330
1E
100
AcDbEntity
  8
0
100
AcDbLine
 10
312.5057805792343
 20
463.633713665471
 30
0.0
 11
312.5057805792343
 21
435.633713665471
 31
0.0
  0
LINE
  5
1E0B
330
1E
100
AcDbEntity
  8
0
100
AcDbLine
 10
322.5057805792343
 20
472.1337136654711
 30
0.0
 11
322.5057805792343
 21
427.1337136654712
 31
0.0
  0
LINE
  5
1E0C
330
1E
100
AcDbEntity
  8
0
100
AcDbLine
 10
275.5057805792342
 20
477.6337136654713
 30
0.0
 11
275.5057805792342
 21
421.6337136654711
 31
0.0
  0
LINE
  5
1E0D
330
1E
100
AcDbEntity
  8
DIM
100
AcDbLine
 10
416.5262359049525
 20
400.4638323805153
 30
0.0
 11
390.3317325149438
 21
400.4638323805154
 31
0.0
  0
TEXT
  5
1E0E
330
1E
100
AcDbEntity
  8
DIM
100
AcDbText
 10
393.7505680484258
 20
401.9638323805152
 30
0.0
 40
3.0
  1
4-%%c6.5
  7
ROMANSS
 72
     2
 11
409.3219966198544
 21
403.4638323805153
 31
0.0
100
AcDbText
 73
     2
  0
TEXT
  5
1E0F
330
1E
100
AcDbEntity
  8
DIM
100
AcDbText
 10
388.6252786795722
 20
396.4486085686832
 30
0.0
 40
3.0
  1
%%c10.5x6.5dp
  7
ROMANSS
 72
     2
 11
414.7681358224294
 21
397.9486085686831
 31
0.0
100
AcDbText
 73
     2
  0
LINE
  5
1E10
330
1E
100
AcDbEntity
  8
DIM
100
AcDbLine
 10
406.9055899264383
 20
386.6880092192437
 30
0.0
 11
384.1504621869964
 21
386.6880092192437
 31
0.0
  0
TEXT
  5
1E11
330
1E
100
AcDbEntity
  8
DIM
100
AcDbText
 10
380.8038872023664
 20
388.1880092192437
 30
0.0
 40
3.0
  1
4-%%c6H7x6L
  7
ROMANSS
 72
     2
 11
405.9467443452235
 21
389.6880092192438
 31
0.0
100
AcDbText
 73
     2
  0
LINE
  5
1E12
330
1E
100
AcDbEntity
  8
0
100
AcDbLine
 10
313.5057805792342
 20
369.3766809917664
 30
0.0
 11
313.5057805792342
 21
341.3766809917663
 31
0.0
  0
LINE
  5
1E13
330
1E
100
AcDbEntity
  8
0
100
AcDbLine
 10
322.5057805792343
 20
334.3766809917665
 30
0.0
 11
336.5057805792343
 21
334.3766809917665
 31
0.0
  0
LINE
  5
1E14
330
1E
100
AcDbEntity
  8
0
100
AcDbLine
 10
313.5057805792343
 20
347.3766809917664
 30
0.0
 11
336.5057805792343
 21
347.3766809917664
 31
0.0
  0
LINE
  5
1E15
330
1E
100
AcDbEntity
  8
0
100
AcDbLine
 10
313.5057805792343
 20
363.3766809917664
 30
0.0
 11
336.5057805792343
 21
363.3766809917665
 31
0.0
  0
LINE
  5
1E16
330
1E
100
AcDbEntity
  8
0
100
AcDbLine
 10
322.5057805792343
 20
289.3766809917665
 30
0.0
 11
336.5057805792343
 21
289.3766809917665
 31
0.0
  0
LINE
  5
1E17
330
1E
100
AcDbEntity
  8
0
100
AcDbLine
 10
313.5057805792343
 20
276.3766809917665
 30
0.0
 11
336.5057805792343
 21
276.3766809917666
 31
0.0
  0
LINE
  5
1E18
330
1E
100
AcDbEntity
  8
0
100
AcDbLine
 10
304.5057805792342
 20
319.8766809917664
 30
0.0
 11
304.5057805792342
 21
315.7496643379739
 31
0.0
  0
LINE
  5
1E19
330
1E
100
AcDbEntity
  8
0
100
AcDbLine
 10
305.5057805792342
 20
318.8766809917664
 30
0.0
 11
305.5057805792342
 21
304.8766809917665
 31
0.0
  0
LINE
  5
1E1A
330
1E
100
AcDbEntity
  8
0
100
AcDbLine
 10
322.5057805792343
 20
334.3766809917665
 30
0.0
 11
322.5057805792343
 21
289.3766809917665
 31
0.0
  0
LINE
  5
1E1B
330
1E
100
AcDbEntity
  8
0
100
AcDbLine
 10
315.5057805792342
 20
318.8766809917665
 30
0.0
 11
315.5057805792343
 21
304.8766809917665
 31
0.0
  0
POLYLINE
  5
1E1C
330
1E
100
AcDbEntity
  8
0
  6
CONTINUOUS
100
AcDb2dPolyline
 66
     1
 10
0.0
 20
0.0
 30
0.0
  0
VERTEX
  5
2837
330
1E1C
100
AcDbEntity
  8
0
  6
CONTINUOUS
100
AcDbVertex
100
AcDb2dVertex
 10
314.942847553831
 20
321.8516809918023
 30
0.0
 42
-0.391085173590417
  0
VERTEX
  5
2838
330
1E1C
100
AcDbEntity
  8
0
  6
CONTINUOUS
100
AcDbVertex
100
AcDb2dVertex
 10
314.473780579235
 20
317.8766809918019
 30
0.0
 42
-0.0851703918331015
  0
VERTEX
  5
2839
330
1E1C
100
AcDbEntity
  8
0
  6
CONTINUOUS
100
AcDbVertex
100
AcDb2dVertex
 10
315.5057805792342
 20
311.8766809918019
 30
0.0
  0
SEQEND
  5
283A
330
1E1C
100
AcDbEntity
  8
0
  6
CONTINUOUS
  0
LINE
  5
1E1D
330
1E
100
AcDbEntity
  8
0
  6
CONTINUOUS
100
AcDbLine
 10
315.5057805792342
 20
320.8766809918019
 30
0.0
 11
315.5057805792342
 21
302.8766809918019
 31
0.0
  0
LINE
  5
1E1E
330
1E
100
AcDbEntity
  8
0
  6
CONTINUOUS
100
AcDbLine
 10
308.5057805792343
 20
320.8766809917665
 30
0.0
 11
308.5057805792343
 21
302.8766809917665
 31
0.0
  0
POLYLINE
  5
1E1F
330
1E
100
AcDbEntity
  8
0
  6
CONTINUOUS
100
AcDb2dPolyline
 66
     1
 10
0.0
 20
0.0
 30
0.0
  0
VERTEX
  5
283B
330
1E1F
100
AcDbEntity
  8
0
  6
CONTINUOUS
100
AcDbVertex
100
AcDb2dVertex
 10
309.0687136046375
 20
321.8516809917669
 30
0.0
 42
0.391085173590417
  0
VERTEX
  5
283C
330
1E1F
100
AcDbEntity
  8
0
  6
CONTINUOUS
100
AcDbVertex
100
AcDb2dVertex
 10
309.5377805792335
 20
317.8766809917665
 30
0.0
 42
0.0851703918331015
  0
VERTEX
  5
283D
330
1E1F
100
AcDbEntity
  8
0
  6
CONTINUOUS
100
AcDbVertex
100
AcDb2dVertex
 10
308.5057805792343
 20
311.8766809917665
 30
0.0
  0
SEQEND
  5
283E
330
1E1F
100
AcDbEntity
  8
0
  6
CONTINUOUS
  0
LINE
  5
1E20
330
1E
100
AcDbEntity
  8
0
100
AcDbLine
 10
295.5057805792342
 20
327.3766809917665
 30
0.0
 11
295.5057805792342
 21
296.3766809917665
 31
0.0
  0
LINE
  5
1E21
330
1E
100
AcDbEntity
  8
0
100
AcDbLine
 10
294.5057805792342
 20
328.3766809917665
 30
0.0
 11
294.5057805792342
 21
295.3766809917665
 31
0.0
  0
LINE
  5
1E22
330
1E
100
AcDbEntity
  8
0
100
AcDbLine
 10
275.5057805792342
 20
339.3766809917665
 30
0.0
 11
275.5057805792342
 21
284.3766809917665
 31
0.0
  0
LINE
  5
1E23
330
1E
100
AcDbEntity
  8
0
100
AcDbLine
 10
305.5057805792342
 20
315.7496643379739
 30
0.0
 11
297.5057805792342
 21
315.7496643379739
 31
0.0
  0
LINE
  5
1E24
330
1E
100
AcDbEntity
  8
0
100
AcDbLine
 10
305.5057805792342
 20
308.0036976455591
 30
0.0
 11
297.5057805792342
 21
308.0036976455591
 31
0.0
  0
LINE
  5
1E25
330
1E
100
AcDbEntity
  8
0
100
AcDbLine
 10
304.5057805792342
 20
303.8766809917664
 30
0.0
 11
295.5057805792342
 21
303.8766809917665
 31
0.0
  0
LINE
  5
1E26
330
1E
100
AcDbEntity
  8
0
100
AcDbLine
 10
290.5057805792342
 20
282.3766809917665
 30
0.0
 11
313.5057805792342
 21
282.3766809917665
 31
0.0
  0
LINE
  5
1E27
330
1E
100
AcDbEntity
  8
0
 62
     4
100
AcDbLine
 10
305.5057805792342
 20
308.0036976455591
 30
0.0
 11
297.5057805792342
 21
315.7496643379739
 31
0.0
  0
LINE
  5
1E28
330
1E
100
AcDbEntity
  8
0
 62
     4
100
AcDbLine
 10
305.5057805792342
 20
315.7496643379739
 30
0.0
 11
297.5057805792342
 21
308.0036976455591
 31
0.0
  0
LINE
  5
1E29
330
1E
100
AcDbEntity
  8
0
100
AcDbLine
 10
290.5057805792342
 20
295.3766809917665
 30
0.0
 11
294.5057805792342
 21
295.3766809917665
 31
0.0
  0
LINE
  5
1E2A
330
1E
100
AcDbEntity
  8
0
100
AcDbLine
 10
294.5057805792342
 20
295.3766809917665
 30
0.0
 11
295.5057805792342
 21
296.3766809917665
 31
0.0
  0
ARC
  5
1E2B
330
1E
100
AcDbEntity
  8
0
100
AcDbCircle
 10
304.5057805792343
 20
311.8766809917665
 30
0.0
 40
8.000000000000095
100
AcDbArc
 50
151.0449756281409
 51
208.955024371859
  0
LINE
  5
1E2C
330
1E
100
AcDbEntity
  8
0
100
AcDbLine
 10
297.5057805792342
 20
315.7496643379739
 30
0.0
 11
297.5057805792342
 21
308.0036976455591
 31
0.0
  0
LINE
  5
1E2D
330
1E
100
AcDbEntity
  8
0
100
AcDbLine
 10
322.5057805792343
 20
317.5335352412589
 30
0.0
 11
315.5057805792343
 21
317.5335352412589
 31
0.0
  0
LINE
  5
1E2E
330
1E
100
AcDbEntity
  8
0
100
AcDbLine
 10
322.5057805792343
 20
306.2198267422741
 30
0.0
 11
315.5057805792343
 21
306.2198267422741
 31
0.0
  0
LINE
  5
1E2F
330
1E
100
AcDbEntity
  8
0
100
AcDbLine
 10
315.5057805792343
 20
304.8766809917665
 30
0.0
 11
322.5057805792343
 21
304.8766809917665
 31
0.0
  0
LINE
  5
1E30
330
1E
100
AcDbEntity
  8
0
 62
     4
100
AcDbLine
 10
315.5057805792342
 20
317.5335352412589
 30
0.0
 11
322.5057805792343
 21
306.2198267422741
 31
0.0
  0
LINE
  5
1E31
330
1E
100
AcDbEntity
  8
0
 62
     4
100
AcDbLine
 10
315.5057805792343
 20
306.2198267422741
 30
0.0
 11
322.5057805792343
 21
317.5335352412589
 31
0.0
  0
POLYLINE
  5
1E32
330
1E
100
AcDbEntity
  8
0
  6
CONTINUOUS
100
AcDb2dPolyline
 66
     1
 10
0.0
 20
0.0
 30
0.0
  0
VERTEX
  5
283F
330
1E32
100
AcDbEntity
  8
0
  6
CONTINUOUS
100
AcDbVertex
100
AcDb2dVertex
 10
314.942847553831
 20
301.9016809918015
 30
0.0
 42
0.391085173590417
  0
VERTEX
  5
2840
330
1E32
100
AcDbEntity
  8
0
  6
CONTINUOUS
100
AcDbVertex
100
AcDb2dVertex
 10
314.473780579235
 20
305.8766809918019
 30
0.0
 42
0.0851703918331015
  0
VERTEX
  5
2841
330
1E32
100
AcDbEntity
  8
0
  6
CONTINUOUS
100
AcDbVertex
100
AcDb2dVertex
 10
315.5057805792342
 20
311.8766809918019
 30
0.0
  0
SEQEND
  5
2842
330
1E32
100
AcDbEntity
  8
0
  6
CONTINUOUS
  0
LINE
  5
1E33
330
1E
100
AcDbEntity
  8
0
100
AcDbLine
 10
304.5057805792342
 20
308.0036976455591
 30
0.0
 11
304.5057805792342
 21
303.8766809917664
 31
0.0
  0
POLYLINE
  5
1E34
330
1E
100
AcDbEntity
  8
0
  6
CONTINUOUS
100
AcDb2dPolyline
 66
     1
 10
0.0
 20
0.0
 30
0.0
  0
VERTEX
  5
2843
330
1E34
100
AcDbEntity
  8
0
  6
CONTINUOUS
100
AcDbVertex
100
AcDb2dVertex
 10
309.0687136046375
 20
301.9016809917661
 30
0.0
 42
-0.391085173590417
  0
VERTEX
  5
2844
330
1E34
100
AcDbEntity
  8
0
  6
CONTINUOUS
100
AcDbVertex
100
AcDb2dVertex
 10
309.5377805792335
 20
305.8766809917665
 30
0.0
 42
-0.0851703918331015
  0
VERTEX
  5
2845
330
1E34
100
AcDbEntity
  8
0
  6
CONTINUOUS
100
AcDbVertex
100
AcDb2dVertex
 10
308.5057805792343
 20
311.8766809917665
 30
0.0
  0
SEQEND
  5
2846
330
1E34
100
AcDbEntity
  8
0
  6
CONTINUOUS
  0
LINE
  5
1E35
330
1E
100
AcDbEntity
  8
0
100
AcDbLine
 10
307.5057805792342
 20
317.8766809917665
 30
0.0
 11
307.5057805792342
 21
305.8766809917665
 31
0.0
  0
LINE
  5
1E36
330
1E
100
AcDbEntity
  8
0
100
AcDbLine
 10
308.5057805792343
 20
305.8766809917665
 30
0.0
 11
307.5057805792342
 21
305.8766809917665
 31
0.0
  0
LINE
  5
1E37
330
1E
100
AcDbEntity
  8
0
100
AcDbLine
 10
304.5057805792342
 20
303.8766809917664
 30
0.0
 11
305.5057805792342
 21
304.8766809917665
 31
0.0
  0
LINE
  5
1E38
330
1E
100
AcDbEntity
  8
0
  6
CONTINUOUS
100
AcDbLine
 10
315.5057805792342
 20
302.8766809918019
 30
0.0
 11
314.3799145284259
 21
300.9266809918012
 31
0.0
  0
LINE
  5
1E39
330
1E
100
AcDbEntity
  8
0
  6
CONTINUOUS
100
AcDbLine
 10
308.5057805792343
 20
302.8766809917665
 30
0.0
 11
309.6316466300426
 21
300.9266809917658
 31
0.0
  0
LINE
  5
1E3A
330
1E
100
AcDbEntity
  8
0
  6
CONTINUOUS
100
AcDbLine
 10
309.6316466300426
 20
300.9266809917658
 30
0.0
 11
314.3799145284259
 21
300.9266809917657
 31
0.0
  0
LINE
  5
1E3B
330
1E
100
AcDbEntity
  8
0
  6
CONTINUOUS
100
AcDbLine
 10
309.5377805792335
 20
305.8766809917665
 30
0.0
 11
314.379914528426
 21
305.8766809917664
 31
0.0
  0
LINE
  5
1E3C
330
1E
100
AcDbEntity
  8
0
 62
     2
100
AcDbLine
 10
308.5057805792343
 20
317.2766809917665
 30
0.0
 11
307.5057805792342
 21
317.2766809917665
 31
0.0
  0
LINE
  5
1E3D
330
1E
100
AcDbEntity
  8
0
100
AcDbLine
 10
308.5057805792343
 20
317.8766809917665
 30
0.0
 11
307.5057805792342
 21
317.8766809917665
 31
0.0
  0
LINE
  5
1E3E
330
1E
100
AcDbEntity
  8
0
 62
     2
100
AcDbLine
 10
308.5057805792343
 20
306.4766809917665
 30
0.0
 11
307.5057805792342
 21
306.4766809917665
 31
0.0
  0
LINE
  5
1E3F
330
1E
100
AcDbEntity
  8
0
100
AcDbLine
 10
307.5057805792342
 20
316.8766809917665
 30
0.0
 11
305.5057805792342
 21
316.8766809917665
 31
0.0
  0
LINE
  5
1E40
330
1E
100
AcDbEntity
  8
0
100
AcDbLine
 10
307.5057805792342
 20
306.8766809917665
 30
0.0
 11
305.5057805792342
 21
306.8766809917665
 31
0.0
  0
LINE
  5
1E41
330
1E
100
AcDbEntity
  8
0
  6
CONTINUOUS
100
AcDbLine
 10
309.5377805792335
 20
317.8766809917665
 30
0.0
 11
314.379914528426
 21
317.8766809917664
 31
0.0
  0
LINE
  5
1E42
330
1E
100
AcDbEntity
  8
0
100
AcDbLine
 10
304.5057805792342
 20
319.8766809917664
 30
0.0
 11
295.5057805792342
 21
319.8766809917665
 31
0.0
  0
LINE
  5
1E43
330
1E
100
AcDbEntity
  8
0
100
AcDbLine
 10
290.5057805792342
 20
341.3766809917663
 30
0.0
 11
313.5057805792342
 21
341.3766809917663
 31
0.0
  0
LINE
  5
1E44
330
1E
100
AcDbEntity
  8
0
100
AcDbLine
 10
290.5057805792342
 20
328.3766809917665
 30
0.0
 11
294.5057805792342
 21
328.3766809917665
 31
0.0
  0
LINE
  5
1E45
330
1E
100
AcDbEntity
  8
0
100
AcDbLine
 10
294.5057805792342
 20
328.3766809917665
 30
0.0
 11
295.5057805792342
 21
327.3766809917665
 31
0.0
  0
LINE
  5
1E46
330
1E
100
AcDbEntity
  8
0
100
AcDbLine
 10
315.5057805792343
 20
318.8766809917665
 30
0.0
 11
322.5057805792343
 21
318.8766809917665
 31
0.0
  0
LINE
  5
1E47
330
1E
100
AcDbEntity
  8
0
100
AcDbLine
 10
305.5057805792342
 20
318.8766809917664
 30
0.0
 11
304.5057805792342
 21
319.8766809917664
 31
0.0
  0
LINE
  5
1E48
330
1E
100
AcDbEntity
  8
0
  6
CONTINUOUS
100
AcDbLine
 10
315.5057805792342
 20
320.8766809918019
 30
0.0
 11
314.3799145284259
 21
322.8266809918026
 31
0.0
  0
LINE
  5
1E49
330
1E
100
AcDbEntity
  8
0
  6
CONTINUOUS
100
AcDbLine
 10
308.5057805792343
 20
320.8766809917665
 30
0.0
 11
309.6316466300426
 21
322.8266809917672
 31
0.0
  0
LINE
  5
1E4A
330
1E
100
AcDbEntity
  8
0
  6
CONTINUOUS
100
AcDbLine
 10
309.6316466300426
 20
322.8266809917672
 30
0.0
 11
314.3799145284259
 21
322.8266809917672
 31
0.0
  0
TEXT
  5
1E4B
330
1E
100
AcDbEntity
  8
DIM
100
AcDbText
 10
366.0057805792342
 20
308.5909667060521
 30
0.0
 40
3.0
  1
115
 50
90.0
  7
ROMANSS
 72
     1
 11
364.5057805792343
 21
311.8766809917664
 31
0.0
100
AcDbText
 73
     2
  0
LINE
  5
1E4C
330
1E
100
AcDbEntity
  8
HIDDEN
  6
HIDDEN
100
AcDbLine
 10
336.5057805792343
 20
289.8766809917664
 30
0.0
 11
351.5057805792343
 21
289.8766809917664
 31
0.0
  0
LINE
  5
1E4D
330
1E
100
AcDbEntity
  8
HIDDEN
  6
HIDDEN
100
AcDbLine
 10
336.5057805792343
 20
290.3766809917665
 30
0.0
 11
351.5057805792343
 21
290.3766809917665
 31
0.0
  0
LINE
  5
1E4E
330
1E
100
AcDbEntity
  8
HIDDEN
  6
HIDDEN
100
AcDbLine
 10
343.0057805792344
 20
273.1266809917665
 30
0.0
 11
351.5057805792343
 21
273.1266809917665
 31
0.0
  0
LINE
  5
1E4F
330
1E
100
AcDbEntity
  8
CENTER
  6
CENTER
100
AcDbLine
 10
333.3095416571575
 20
292.8766809917665
 30
0.0
 11
354.5972049627106
 21
292.8766809917665
 31
0.0
  0
LINE
  5
1E50
330
1E
100
AcDbEntity
  8
HIDDEN
  6
HIDDEN
100
AcDbLine
 10
336.5057805792343
 20
275.1266809917666
 30
0.0
 11
343.0057805792344
 21
275.1266809917666
 31
0.0
  0
LINE
  5
1E51
330
1E
100
AcDbEntity
  8
HIDDEN
  6
HIDDEN
100
AcDbLine
 10
336.5057805792343
 20
295.3766809917666
 30
0.0
 11
351.5057805792343
 21
295.3766809917665
 31
0.0
  0
LINE
  5
1E52
330
1E
100
AcDbEntity
  8
HIDDEN
  6
HIDDEN
100
AcDbLine
 10
336.5057805792343
 20
295.8766809917665
 30
0.0
 11
351.5057805792343
 21
295.8766809917665
 31
0.0
  0
LINE
  5
1E53
330
1E
100
AcDbEntity
  8
HIDDEN
  6
HIDDEN
100
AcDbLine
 10
345.5057805792343
 20
305.3766809917664
 30
0.0
 11
351.5057805792341
 21
305.3766809917665
 31
0.0
  0
LINE
  5
1E54
330
1E
100
AcDbEntity
  8
HIDDEN
  6
HIDDEN
100
AcDbLine
 10
345.5057805792343
 20
299.3766809917665
 30
0.0
 11
351.5057805792341
 21
299.3766809917665
 31
0.0
  0
LINE
  5
1E55
330
1E
100
AcDbEntity
  8
CENTER
  6
CENTER
100
AcDbLine
 10
332.9727168893658
 20
302.3766809917665
 30
0.0
 11
354.5972049627106
 21
302.3766809917665
 31
0.0
  0
LINE
  5
1E56
330
1E
100
AcDbEntity
  8
HIDDEN
  6
HIDDEN
100
AcDbLine
 10
345.5057805792343
 20
299.3766809917664
 30
0.0
 11
345.5057805792343
 21
305.3766809917664
 31
0.0
  0
TEXT
  5
1E57
330
1E
100
AcDbEntity
  8
DIM
100
AcDbText
 10
358.0057805792343
 20
309.4481095631951
 30
0.0
 40
3.0
  1
87
 50
90.0
  7
ROMANSS
 72
     1
 11
356.5057805792342
 21
311.8766809917666
 31
0.0
100
AcDbText
 73
     2
  0
LINE
  5
1E58
330
1E
100
AcDbEntity
  8
HIDDEN
  6
HIDDEN
100
AcDbLine
 10
336.5057805792343
 20
328.3766809917664
 30
0.0
 11
351.5057805792343
 21
328.3766809917665
 31
0.0
  0
LINE
  5
1E59
330
1E
100
AcDbEntity
  8
HIDDEN
  6
HIDDEN
100
AcDbLine
 10
336.5057805792343
 20
327.8766809917665
 30
0.0
 11
351.5057805792343
 21
327.8766809917665
 31
0.0
  0
LINE
  5
1E5A
330
1E
100
AcDbEntity
  8
HIDDEN
  6
HIDDEN
100
AcDbLine
 10
336.5057805792343
 20
333.8766809917665
 30
0.0
 11
351.5057805792343
 21
333.8766809917665
 31
0.0
  0
LINE
  5
1E5B
330
1E
100
AcDbEntity
  8
HIDDEN
  6
HIDDEN
100
AcDbLine
 10
336.5057805792343
 20
333.3766809917664
 30
0.0
 11
351.5057805792343
 21
333.3766809917665
 31
0.0
  0
LINE
  5
1E5C
330
1E
100
AcDbEntity
  8
HIDDEN
  6
HIDDEN
100
AcDbLine
 10
345.5057805792343
 20
318.3766809917666
 30
0.0
 11
351.5057805792341
 21
318.3766809917665
 31
0.0
  0
LINE
  5
1E5D
330
1E
100
AcDbEntity
  8
HIDDEN
  6
HIDDEN
100
AcDbLine
 10
345.5057805792343
 20
324.3766809917665
 30
0.0
 11
351.5057805792341
 21
324.3766809917665
 31
0.0
  0
LINE
  5
1E5E
330
1E
100
AcDbEntity
  8
CENTER
  6
CENTER
100
AcDbLine
 10
333.3095416571575
 20
330.8766809917665
 30
0.0
 11
354.5972049627106
 21
330.8766809917665
 31
0.0
  0
LINE
  5
1E5F
330
1E
100
AcDbEntity
  8
CENTER
  6
CENTER
100
AcDbLine
 10
332.9727168893658
 20
321.3766809917665
 30
0.0
 11
354.5972049627106
 21
321.3766809917665
 31
0.0
  0
LINE
  5
1E60
330
1E
100
AcDbEntity
  8
HIDDEN
  6
HIDDEN
100
AcDbLine
 10
345.5057805792343
 20
324.3766809917666
 30
0.0
 11
345.5057805792343
 21
318.3766809917666
 31
0.0
  0
LINE
  5
1E61
330
1E
100
AcDbEntity
  8
HIDDEN
  6
HIDDEN
100
AcDbLine
 10
343.0057805792344
 20
357.1266809917665
 30
0.0
 11
351.5057805792343
 21
357.1266809917665
 31
0.0
  0
LINE
  5
1E62
330
1E
100
AcDbEntity
  8
HIDDEN
  6
HIDDEN
100
AcDbLine
 10
343.0057805792344
 20
350.6266809917665
 30
0.0
 11
351.5057805792343
 21
350.6266809917665
 31
0.0
  0
LINE
  5
1E63
330
1E
100
AcDbEntity
  8
CENTER
  6
CENTER
100
AcDbLine
 10
332.9727168893659
 20
353.8766809917665
 30
0.0
 11
355.1630811237525
 21
353.8766809917665
 31
0.0
  0
LINE
  5
1E64
330
1E
100
AcDbEntity
  8
HIDDEN
  6
HIDDEN
100
AcDbLine
 10
343.0057805792343
 20
359.1266809917665
 30
0.0
 11
343.0057805792343
 21
348.6266809917665
 31
0.0
  0
LINE
  5
1E65
330
1E
100
AcDbEntity
  8
HIDDEN
  6
HIDDEN
100
AcDbLine
 10
336.5057805792343
 20
348.6266809917665
 30
0.0
 11
343.0057805792344
 21
348.6266809917665
 31
0.0
  0
LINE
  5
1E66
330
1E
100
AcDbEntity
  8
HIDDEN
  6
HIDDEN
100
AcDbLine
 10
336.5057805792343
 20
359.1266809917665
 30
0.0
 11
343.0057805792344
 21
359.1266809917665
 31
0.0
  0
SOLID
  5
1E67
330
1E
100
AcDbEntity
  8
DIM
100
AcDbTrace
 10
359.0057805792342
 20
352.3766809917665
 30
0.0
 11
360.0057805792342
 21
352.3766809917665
 31
0.0
 12
359.5057805792342
 22
355.3766809917665
 32
0.0
 13
359.5057805792342
 23
355.3766809917665
 33
0.0
  0
LINE
  5
1E68
330
1E
100
AcDbEntity
  8
DIM
100
AcDbLine
 10
355.5057805792342
 20
355.3766809917665
 30
0.0
 11
360.5057805792343
 21
355.3766809917665
 31
0.0
  0
LINE
  5
1E69
330
1E
100
AcDbEntity
  8
0
100
AcDbLine
 10
322.5057805792343
 20
427.1337136654712
 30
0.0
 11
336.5057805792343
 21
427.1337136654712
 31
0.0
  0
LINE
  5
1E6A
330
1E
100
AcDbEntity
  8
DIM
100
AcDbLine
 10
314.7639841343731
 20
369.3766809917665
 30
0.0
 11
335.5057805792343
 21
369.3766809917665
 31
0.0
  0
LINE
  5
1E6B
330
1E
100
AcDbEntity
  8
0
100
AcDbLine
 10
290.5057805792342
 20
369.3766809917664
 30
0.0
 11
313.5057805792342
 21
369.3766809917664
 31
0.0
  0
LINE
  5
1E6C
330
1E
100
AcDbEntity
  8
CENTER
  6
CENTER
100
AcDbLine
 10
272.5057805792342
 20
381.8766809917665
 30
0.0
 11
293.7257812762732
 21
381.8766809917665
 31
0.0
  0
LINE
  5
1E6D
330
1E
100
AcDbEntity
  8
HIDDEN
  6
HIDDEN
100
AcDbLine
 10
275.5057805792342
 20
386.3766809917665
 30
0.0
 11
290.5057805792342
 21
386.3766809917665
 31
0.0
  0
LINE
  5
1E6E
330
1E
100
AcDbEntity
  8
HIDDEN
  6
HIDDEN
100
AcDbLine
 10
275.5057805792342
 20
377.3766809917665
 30
0.0
 11
290.5057805792342
 21
377.3766809917665
 31
0.0
  0
LINE
  5
1E6F
330
1E
100
AcDbEntity
  8
0
  6
CONTINUOUS
100
AcDbLine
 10
275.5057805792342
 20
391.8766809917665
 30
0.0
 11
290.5057805792342
 21
391.8766809917665
 31
0.0
  0
TEXT
  5
1E70
330
1E
100
AcDbEntity
  8
DIM
100
AcDbText
 10
270.8743245890917
 20
401.3766809917665
 30
0.0
 40
3.0
  1
148+Stroke
  7
ROMANSS
 72
     1
 11
283.5171817319489
 21
402.8766809917665
 31
0.0
100
AcDbText
 73
     2
  0
LINE
  5
1E71
330
1E
100
AcDbEntity
  8
0
100
AcDbLine
 10
290.5057805792342
 20
435.633713665471
 30
0.0
 11
312.5057805792343
 21
435.633713665471
 31
0.0
  0
LINE
  5
1E72
330
1E
100
AcDbEntity
  8
0
100
AcDbLine
 10
294.5057805792342
 20
433.1337136654711
 30
0.0
 11
295.5057805792342
 21
434.1337136654711
 31
0.0
  0
LINE
  5
1E73
330
1E
100
AcDbEntity
  8
0
100
AcDbLine
 10
294.5057805792342
 20
435.633713665471
 30
0.0
 11
294.5057805792342
 21
433.1337136654711
 31
0.0
  0
LINE
  5
1E74
330
1E
100
AcDbEntity
  8
0
100
AcDbLine
 10
275.5057805792342
 20
421.6337136654711
 30
0.0
 11
290.5057805792342
 21
421.6337136654711
 31
0.0
  0
LINE
  5
1E75
330
1E
100
AcDbEntity
  8
HIDDEN
  6
HIDDEN
100
AcDbLine
 10
275.5057805792342
 20
426.1337136654711
 30
0.0
 11
290.5057805792342
 21
426.1337136654711
 31
0.0
  0
LINE
  5
1E76
330
1E
100
AcDbEntity
  8
0
100
AcDbLine
 10
290.5057805792342
 20
433.1337136654711
 30
0.0
 11
294.5057805792342
 21
433.1337136654711
 31
0.0
  0
LINE
  5
1E77
330
1E
100
AcDbEntity
  8
HIDDEN
  6
HIDDEN
100
AcDbLine
 10
275.5057805792342
 20
435.1337136654712
 30
0.0
 11
290.5057805792342
 21
435.1337136654712
 31
0.0
  0
LINE
  5
1E78
330
1E
100
AcDbEntity
  8
0
100
AcDbLine
 10
295.5057805792342
 20
435.633713665471
 30
0.0
 11
295.5057805792342
 21
434.1337136654711
 31
0.0
  0
LINE
  5
1E79
330
1E
100
AcDbEntity
  8
0
100
AcDbLine
 10
312.5057805792343
 20
441.6337136654711
 30
0.0
 11
322.5057805792343
 21
441.6337136654711
 31
0.0
  0
ARC
  5
1E7A
330
1E
100
AcDbEntity
  8
0
  6
CONTINUOUS
100
AcDbCircle
 10
305.2729416472752
 20
444.8837136654711
 30
0.0
 40
10.35460945916689
100
AcDbArc
 50
332.6946261222341
 51
341.7073972028096
  0
LINE
  5
1E7B
330
1E
100
AcDbEntity
  8
0
  6
CONTINUOUS
100
AcDbLine
 10
314.4737805792351
 20
440.1337136654712
 30
0.0
 11
312.5057805792343
 21
440.1337136654712
 31
0.0
  0
LINE
  5
1E7C
330
1E
100
AcDbEntity
  8
DIM
100
AcDbLine
 10
352.5057805792342
 20
369.3766809917665
 30
0.0
 11
368.5057805792343
 21
369.3766809917665
 31
0.0
  0
LINE
  5
1E7D
330
1E
100
AcDbEntity
  8
DIM
100
AcDbLine
 10
351.5057805792343
 20
370.7137328432071
 30
0.0
 11
351.5057805792343
 21
400.8766809917664
 31
0.0
  0
LINE
  5
1E7E
330
1E
100
AcDbEntity
  8
0
100
AcDbLine
 10
336.5057805792343
 20
369.3766809917666
 30
0.0
 11
351.5057805792343
 21
369.3766809917666
 31
0.0
  0
SOLID
  5
1E7F
330
1E
100
AcDbEntity
  8
DIM
100
AcDbTrace
 10
348.5057805792343
 20
399.3766809917665
 30
0.0
 11
348.5057805792343
 21
400.3766809917665
 31
0.0
 12
351.5057805792343
 22
399.8766809917665
 32
0.0
 13
351.5057805792343
 23
399.8766809917665
 33
0.0
  0
SOLID
  5
1E80
330
1E
100
AcDbEntity
  8
DIM
100
AcDbTrace
 10
367.0057805792342
 20
366.3766809917665
 30
0.0
 11
368.0057805792342
 21
366.3766809917665
 31
0.0
 12
367.5057805792342
 22
369.3766809917665
 32
0.0
 13
367.5057805792342
 23
369.3766809917665
 33
0.0
  0
LINE
  5
1E81
330
1E
100
AcDbEntity
  8
HIDDEN
  6
HIDDEN
100
AcDbLine
 10
343.0057805792343
 20
435.8837136654712
 30
0.0
 11
343.0057805792343
 21
425.3837136654711
 31
0.0
  0
LINE
  5
1E82
330
1E
100
AcDbEntity
  8
HIDDEN
  6
HIDDEN
100
AcDbLine
 10
343.0057805792344
 20
433.8837136654712
 30
0.0
 11
351.5057805792343
 21
433.8837136654712
 31
0.0
  0
LINE
  5
1E83
330
1E
100
AcDbEntity
  8
HIDDEN
  6
HIDDEN
100
AcDbLine
 10
343.0057805792344
 20
427.3837136654711
 30
0.0
 11
351.5057805792343
 21
427.3837136654711
 31
0.0
  0
LINE
  5
1E84
330
1E
100
AcDbEntity
  8
CENTER
  6
CENTER
100
AcDbLine
 10
332.9727168893659
 20
430.6337136654711
 30
0.0
 11
355.1630811237525
 21
430.6337136654711
 31
0.0
  0
LINE
  5
1E85
330
1E
100
AcDbEntity
  8
0
100
AcDbLine
 10
336.5057805792343
 20
424.6337136654712
 30
0.0
 11
351.5057805792342
 21
424.6337136654712
 31
0.0
  0
LINE
  5
1E86
330
1E
100
AcDbEntity
  8
HIDDEN
  6
HIDDEN
100
AcDbLine
 10
336.5057805792343
 20
425.3837136654711
 30
0.0
 11
343.0057805792344
 21
425.3837136654711
 31
0.0
  0
LINE
  5
1E87
330
1E
100
AcDbEntity
  8
HIDDEN
  6
HIDDEN
100
AcDbLine
 10
336.5057805792343
 20
435.8837136654711
 30
0.0
 11
343.0057805792344
 21
435.8837136654712
 31
0.0
  0
LINE
  5
1E88
330
1E
100
AcDbEntity
  8
DIM
100
AcDbLine
 10
429.7890101959474
 20
361.7471636085952
 30
0.0
 11
416.5262359049525
 21
400.4638323805153
 31
0.0
  0
LINE
  5
1E89
330
1E
100
AcDbEntity
  8
DIM
100
AcDbLine
 10
429.94512185813
 20
326.9108397041575
 30
0.0
 11
406.9055899264383
 21
386.6880092192437
 31
0.0
  0
LINE
  5
1E8A
330
1E
100
AcDbEntity
  8
DIM
100
AcDbLine
 10
473.2088556672812
 20
336.0948108302666
 30
0.0
 11
506.4590389464556
 21
400.8152254073945
 31
0.0
  0
LINE
  5
1E8B
330
1E
100
AcDbEntity
  8
CENTER
  6
CENTER
100
AcDbLine
 10
462.007086075323
 20
353.8766809917665
 30
0.0
 11
479.257086075323
 21
353.8766809917665
 31
0.0
  0
LINE
  5
1E8C
330
1E
100
AcDbEntity
  8
CENTER
  6
CENTER
100
AcDbLine
 10
420.2570860753231
 20
311.8766809917665
 30
0.0
 11
482.2570860753229
 21
311.8766809917665
 31
0.0
  0
ARC
  5
1E8D
330
1E
100
AcDbEntity
  8
0
 62
     2
100
AcDbCircle
 10
432.257086075323
 20
292.8766809917665
 30
0.0
 40
3.000000000000003
100
AcDbArc
 50
255.0000000000055
 51
194.9999999999944
  0
CIRCLE
  5
1E8E
330
1E
100
AcDbEntity
  8
0
100
AcDbCircle
 10
432.257086075323
 20
292.8766809917665
 30
0.0
 40
2.5
  0
CIRCLE
  5
1E8F
330
1E
100
AcDbEntity
  8
0
100
AcDbCircle
 10
432.257086075323
 20
302.3766809917665
 30
0.0
 40
3.0
  0
LINE
  5
1E90
330
1E
100
AcDbEntity
  8
CENTER
  6
CENTER
100
AcDbLine
 10
426.257086075323
 20
302.3766809917665
 30
0.0
 11
438.257086075323
 21
302.3766809917665
 31
0.0
  0
LINE
  5
1E91
330
1E
100
AcDbEntity
  8
CENTER
  6
CENTER
100
AcDbLine
 10
426.257086075323
 20
292.8766809917665
 30
0.0
 11
438.257086075323
 21
292.8766809917665
 31
0.0
  0
POLYLINE
  5
1E92
330
1E
100
AcDbEntity
  8
0
100
AcDb2dPolyline
 66
     1
 10
0.0
 20
0.0
 30
0.0
 70
     1
  0
VERTEX
  5
2847
330
1E92
100
AcDbEntity
  8
0
100
AcDbVertex
100
AcDb2dVertex
 10
449.813710402349
 20
296.3766809917665
 30
0.0
  0
VERTEX
  5
2848
330
1E92
100
AcDbEntity
  8
0
100
AcDbVertex
100
AcDb2dVertex
 10
448.3703347293749
 20
293.8766809917665
 30
0.0
  0
VERTEX
  5
2849
330
1E92
100
AcDbEntity
  8
0
100
AcDbVertex
100
AcDb2dVertex
 10
449.813710402349
 20
291.3766809917665
 30
0.0
  0
VERTEX
  5
284A
330
1E92
100
AcDbEntity
  8
0
100
AcDbVertex
100
AcDb2dVertex
 10
452.7004617482971
 20
291.3766809917665
 30
0.0
  0
VERTEX
  5
284B
330
1E92
100
AcDbEntity
  8
0
100
AcDbVertex
100
AcDb2dVertex
 10
454.1438374212711
 20
293.8766809917665
 30
0.0
  0
VERTEX
  5
284C
330
1E92
100
AcDbEntity
  8
0
100
AcDbVertex
100
AcDb2dVertex
 10
452.7004617482971
 20
296.3766809917665
 30
0.0
  0
SEQEND
  5
284D
330
1E92
100
AcDbEntity
  8
0
  0
CIRCLE
  5
1E93
330
1E
100
AcDbEntity
  8
0
100
AcDbCircle
 10
451.257086075323
 20
293.8766809917665
 30
0.0
 40
4.53810623556582
  0
CIRCLE
  5
1E94
330
1E
100
AcDbEntity
  8
0
100
AcDbCircle
 10
451.257086075323
 20
293.8766809917665
 30
0.0
 40
5.0
  0
LINE
  5
1E95
330
1E
100
AcDbEntity
  8
CENTER
  6
CENTER
100
AcDbLine
 10
442.757086075323
 20
293.8766809917665
 30
0.0
 11
459.757086075323
 21
293.8766809917665
 31
0.0
  0
POLYLINE
  5
1E96
330
1E
100
AcDbEntity
  8
0
100
AcDb2dPolyline
 66
     1
 10
0.0
 20
0.0
 30
0.0
 70
     1
  0
VERTEX
  5
284E
330
1E96
100
AcDbEntity
  8
0
100
AcDbVertex
100
AcDb2dVertex
 10
450.1023855369431
 20
313.8766809917665
 30
0.0
  0
VERTEX
  5
284F
330
1E96
100
AcDbEntity
  8
0
100
AcDbVertex
100
AcDb2dVertex
 10
448.9476849985648
 20
311.8766809917665
 30
0.0
  0
VERTEX
  5
2850
330
1E96
100
AcDbEntity
  8
0
100
AcDbVertex
100
AcDb2dVertex
 10
450.1023855369431
 20
309.8766809917665
 30
0.0
  0
VERTEX
  5
2851
330
1E96
100
AcDbEntity
  8
0
100
AcDbVertex
100
AcDb2dVertex
 10
452.411786613703
 20
309.8766809917665
 30
0.0
  0
VERTEX
  5
2852
330
1E96
100
AcDbEntity
  8
0
100
AcDbVertex
100
AcDb2dVertex
 10
453.5664871520812
 20
311.8766809917665
 30
0.0
  0
VERTEX
  5
2853
330
1E96
100
AcDbEntity
  8
0
100
AcDbVertex
100
AcDb2dVertex
 10
452.411786613703
 20
313.8766809917665
 30
0.0
  0
SEQEND
  5
2854
330
1E96
100
AcDbEntity
  8
0
  0
CIRCLE
  5
1E97
330
1E
100
AcDbEntity
  8
0
100
AcDbCircle
 10
451.257086075323
 20
311.8766809917665
 30
0.0
 40
3.399999999999999
  0
CIRCLE
  5
1E98
330
1E
100
AcDbEntity
  8
0
100
AcDbCircle
 10
451.257086075323
 20
311.8766809917665
 30
0.0
 40
4.0
  0
ARC
  5
1E99
330
1E
100
AcDbEntity
  8
0
 62
     2
100
AcDbCircle
 10
432.257086075323
 20
330.8766809917665
 30
0.0
 40
3.000000000000003
100
AcDbArc
 50
255.0000000000055
 51
194.9999999999944
  0
CIRCLE
  5
1E9A
330
1E
100
AcDbEntity
  8
0
100
AcDbCircle
 10
432.257086075323
 20
330.8766809917665
 30
0.0
 40
2.5
  0
SOLID
  5
1E9B
330
1E
100
AcDbEntity
  8
DIM
100
AcDbTrace
 10
430.2620263021008
 20
361.9091999110693
 30
0.0
 11
429.3159940897941
 21
361.585127306121
 31
0.0
 12
430.7612280107924
 22
358.9090669716748
 32
0.0
 13
430.7612280107924
 23
358.9090669716748
 33
0.0
  0
CIRCLE
  5
1E9C
330
1E
100
AcDbEntity
  8
0
100
AcDbCircle
 10
432.257086075323
 20
353.8766809917665
 30
0.0
 40
3.25
  0
CIRCLE
  5
1E9D
330
1E
100
AcDbEntity
  8
HIDDEN
  6
HIDDEN
100
AcDbCircle
 10
432.257086075323
 20
353.8766809917665
 30
0.0
 40
5.25
  0
LINE
  5
1E9E
330
1E
100
AcDbEntity
  8
CENTER
  6
CENTER
100
AcDbLine
 10
426.257086075323
 20
330.8766809917665
 30
0.0
 11
438.257086075323
 21
330.8766809917665
 31
0.0
  0
SOLID
  5
1E9F
330
1E
100
AcDbEntity
  8
DIM
100
AcDbTrace
 10
430.4116682076068
 20
327.0906576782032
 30
0.0
 11
429.4785755086532
 21
326.7310217301119
 31
0.0
 12
431.0240297024038
 22
324.1115616072967
 32
0.0
 13
431.0240297024038
 23
324.1115616072967
 33
0.0
  0
CIRCLE
  5
1EA0
330
1E
100
AcDbEntity
  8
0
100
AcDbCircle
 10
432.257086075323
 20
321.3766809917665
 30
0.0
 40
3.0
  0
LINE
  5
1EA1
330
1E
100
AcDbEntity
  8
CENTER
  6
CENTER
100
AcDbLine
 10
426.257086075323
 20
321.3766809917665
 30
0.0
 11
438.257086075323
 21
321.3766809917665
 31
0.0
  0
LINE
  5
1EA2
330
1E
100
AcDbEntity
  8
CENTER
  6
CENTER
100
AcDbLine
 10
423.2570860753229
 20
353.8766809917665
 30
0.0
 11
440.507086075323
 21
353.8766809917665
 31
0.0
  0
CIRCLE
  5
1EA3
330
1E
100
AcDbEntity
  8
0
100
AcDbCircle
 10
451.257086075323
 20
329.8766809917665
 30
0.0
 40
4.53810623556582
  0
CIRCLE
  5
1EA4
330
1E
100
AcDbEntity
  8
0
100
AcDbCircle
 10
451.257086075323
 20
329.8766809917665
 30
0.0
 40
5.0
  0
LINE
  5
1EA5
330
1E
100
AcDbEntity
  8
CENTER
  6
CENTER
100
AcDbLine
 10
442.757086075323
 20
329.8766809917665
 30
0.0
 11
459.757086075323
 21
329.8766809917665
 31
0.0
  0
POLYLINE
  5
1EA6
330
1E
100
AcDbEntity
  8
0
100
AcDb2dPolyline
 66
     1
 10
0.0
 20
0.0
 30
0.0
 70
     1
  0
VERTEX
  5
2855
330
1EA6
100
AcDbEntity
  8
0
100
AcDbVertex
100
AcDb2dVertex
 10
449.813710402349
 20
332.3766809917665
 30
0.0
  0
VERTEX
  5
2856
330
1EA6
100
AcDbEntity
  8
0
100
AcDbVertex
100
AcDb2dVertex
 10
448.3703347293749
 20
329.8766809917665
 30
0.0
  0
VERTEX
  5
2857
330
1EA6
100
AcDbEntity
  8
0
100
AcDbVertex
100
AcDb2dVertex
 10
449.813710402349
 20
327.3766809917665
 30
0.0
  0
VERTEX
  5
2858
330
1EA6
100
AcDbEntity
  8
0
100
AcDbVertex
100
AcDb2dVertex
 10
452.7004617482971
 20
327.3766809917665
 30
0.0
  0
VERTEX
  5
2859
330
1EA6
100
AcDbEntity
  8
0
100
AcDbVertex
100
AcDb2dVertex
 10
454.1438374212711
 20
329.8766809917665
 30
0.0
  0
VERTEX
  5
285A
330
1EA6
100
AcDbEntity
  8
0
100
AcDbVertex
100
AcDb2dVertex
 10
452.7004617482971
 20
332.3766809917665
 30
0.0
  0
SEQEND
  5
285B
330
1EA6
100
AcDbEntity
  8
0
  0
CIRCLE
  5
1EA7
330
1E
100
AcDbEntity
  8
0
100
AcDbCircle
 10
451.257086075323
 20
355.3766809917665
 30
0.0
 40
5.922632794457276
  0
CIRCLE
  5
1EA8
330
1E
100
AcDbEntity
  8
0
100
AcDbCircle
 10
451.257086075323
 20
355.3766809917665
 30
0.0
 40
6.5
  0
LINE
  5
1EA9
330
1E
100
AcDbEntity
  8
CENTER
  6
CENTER
100
AcDbLine
 10
441.2570860753231
 20
355.3766809917665
 30
0.0
 11
461.257086075323
 21
355.3766809917665
 31
0.0
  0
POLYLINE
  5
1EAA
330
1E
100
AcDbEntity
  8
0
100
AcDb2dPolyline
 66
     1
 10
0.0
 20
0.0
 30
0.0
 70
     1
  0
VERTEX
  5
285C
330
1EAA
100
AcDbEntity
  8
0
100
AcDbVertex
100
AcDb2dVertex
 10
449.5250352677548
 20
358.3766809917665
 30
0.0
  0
VERTEX
  5
285D
330
1EAA
100
AcDbEntity
  8
0
100
AcDbVertex
100
AcDb2dVertex
 10
447.7929844601849
 20
355.3766809917665
 30
0.0
  0
VERTEX
  5
285E
330
1EAA
100
AcDbEntity
  8
0
100
AcDbVertex
100
AcDb2dVertex
 10
449.5250352677548
 20
352.3766809917665
 30
0.0
  0
VERTEX
  5
285F
330
1EAA
100
AcDbEntity
  8
0
100
AcDbVertex
100
AcDb2dVertex
 10
452.9891368828912
 20
352.3766809917665
 30
0.0
  0
VERTEX
  5
2860
330
1EAA
100
AcDbEntity
  8
0
100
AcDbVertex
100
AcDb2dVertex
 10
454.7211876904611
 20
355.3766809917665
 30
0.0
  0
VERTEX
  5
2861
330
1EAA
100
AcDbEntity
  8
0
100
AcDbVertex
100
AcDb2dVertex
 10
452.9891368828912
 20
358.3766809917665
 30
0.0
  0
SEQEND
  5
2862
330
1EAA
100
AcDbEntity
  8
0
  0
LINE
  5
1EAB
330
1E
100
AcDbEntity
  8
DIM
100
AcDbLine
 10
487.2570860753229
 20
318.3766809917665
 30
0.0
 11
487.2570860753229
 21
305.3766809917665
 31
0.0
  0
LINE
  5
1EAC
330
1E
100
AcDbEntity
  8
DIM
100
AcDbLine
 10
495.2570860753231
 20
327.8766809917665
 30
0.0
 11
495.2570860753231
 21
295.8766809917665
 31
0.0
  0
LINE
  5
1EAD
330
1E
100
AcDbEntity
  8
DIM
100
AcDbLine
 10
503.2570860753231
 20
272.8766809917665
 30
0.0
 11
503.2570860753231
 21
350.8766809917665
 31
0.0
  0
ARC
  5
1EAE
330
1E
100
AcDbEntity
  8
0
 62
     2
100
AcDbCircle
 10
470.2570860753231
 20
292.8766809917665
 30
0.0
 40
3.000000000000003
100
AcDbArc
 50
255.0000000000055
 51
194.9999999999944
  0
CIRCLE
  5
1EAF
330
1E
100
AcDbEntity
  8
0
100
AcDbCircle
 10
470.2570860753231
 20
292.8766809917665
 30
0.0
 40
2.5
  0
SOLID
  5
1EB0
330
1E
100
AcDbEntity
  8
DIM
100
AcDbTrace
 10
494.7570860753232
 20
295.8766809917665
 30
0.0
 11
495.7570860753231
 21
295.8766809917665
 31
0.0
 12
495.2570860753231
 22
292.8766809917665
 32
0.0
 13
495.2570860753231
 23
292.8766809917665
 33
0.0
  0
LINE
  5
1EB1
330
1E
100
AcDbEntity
  8
DIM
100
AcDbLine
 10
477.257086075323
 20
292.8766809917665
 30
0.0
 11
496.2570860753231
 21
292.8766809917665
 31
0.0
  0
LINE
  5
1EB2
330
1E
100
AcDbEntity
  8
CENTER
  6
CENTER
100
AcDbLine
 10
464.257086075323
 20
292.8766809917665
 30
0.0
 11
476.257086075323
 21
292.8766809917665
 31
0.0
  0
CIRCLE
  5
1EB3
330
1E
100
AcDbEntity
  8
0
100
AcDbCircle
 10
470.2570860753231
 20
302.3766809917665
 30
0.0
 40
3.0
  0
LINE
  5
1EB4
330
1E
100
AcDbEntity
  8
CENTER
  6
CENTER
100
AcDbLine
 10
464.257086075323
 20
302.3766809917665
 30
0.0
 11
479.257086075323
 21
302.3766809917665
 31
0.0
  0
LINE
  5
1EB5
330
1E
100
AcDbEntity
  8
DIM
100
AcDbLine
 10
480.257086075323
 20
302.3766809917665
 30
0.0
 11
488.2570860753229
 21
302.3766809917665
 31
0.0
  0
SOLID
  5
1EB6
330
1E
100
AcDbEntity
  8
DIM
100
AcDbTrace
 10
486.7570860753229
 20
305.3766809917665
 30
0.0
 11
487.7570860753229
 21
305.3766809917665
 31
0.0
 12
487.2570860753229
 22
302.3766809917665
 32
0.0
 13
487.2570860753229
 23
302.3766809917665
 33
0.0
  0
TEXT
  5
1EB7
330
1E
100
AcDbEntity
  8
DIM
100
AcDbText
 10
485.7570860753229
 20
309.8052524203379
 30
0.0
 40
3.0
  1
19
 50
90.0
  7
ROMANSS
 72
     1
 11
484.2570860753229
 21
311.8766809917665
 31
0.0
100
AcDbText
 73
     2
  0
TEXT
  5
1EB8
330
1E
100
AcDbEntity
  8
DIM
100
AcDbText
 10
493.7570860753232
 20
309.448109563195
 30
0.0
 40
3.0
  1
38
 50
90.0
  7
ROMANSS
 72
     1
 11
492.2570860753231
 21
311.8766809917665
 31
0.0
100
AcDbText
 73
     2
  0
TEXT
  5
1EB9
330
1E
100
AcDbEntity
  8
DIM
100
AcDbText
 10
501.757086075323
 20
309.3766809917665
 30
0.0
 40
3.0
  1
84
 50
90.0
  7
ROMANSS
 72
     1
 11
500.257086075323
 21
311.8766809917665
 31
0.0
100
AcDbText
 73
     2
  0
TEXT
  5
1EBA
330
1E
100
AcDbEntity
  8
DIM
100
AcDbText
 10
509.7570860753228
 20
308.5909667060522
 30
0.0
 40
3.0
  1
115
 50
90.0
  7
ROMANSS
 72
     1
 11
508.2570860753228
 21
311.8766809917665
 31
0.0
100
AcDbText
 73
     2
  0
TEXT
  5
1EBB
330
1E
100
AcDbEntity
  8
DIM
100
AcDbText
 10
517.757086075323
 20
308.3052524203379
 30
0.0
 40
3.0
  1
140
 50
90.0
  7
ROMANSS
 72
     1
 11
516.2570860753231
 21
311.8766809917665
 31
0.0
100
AcDbText
 73
     2
  0
TEXT
  5
1EBC
330
1E
100
AcDbEntity
  8
DIM
100
AcDbText
 10
525.757086075323
 20
308.3052524203379
 30
0.0
 40
3.0
  1
160
 50
90.0
  7
ROMANSS
 72
     1
 11
524.2570860753231
 21
311.8766809917665
 31
0.0
100
AcDbText
 73
     2
  0
LINE
  5
1EBD
330
1E
100
AcDbEntity
  8
DIM
100
AcDbLine
 10
480.257086075323
 20
353.8766809917665
 30
0.0
 11
504.257086075323
 21
353.8766809917665
 31
0.0
  0
LINE
  5
1EBE
330
1E
100
AcDbEntity
  8
DIM
100
AcDbLine
 10
477.257086075323
 20
330.8766809917665
 30
0.0
 11
496.2570860753231
 21
330.8766809917665
 31
0.0
  0
ARC
  5
1EBF
330
1E
100
AcDbEntity
  8
0
 62
     2
100
AcDbCircle
 10
470.2570860753231
 20
330.8766809917665
 30
0.0
 40
3.000000000000003
100
AcDbArc
 50
255.0000000000055
 51
194.9999999999944
  0
CIRCLE
  5
1EC0
330
1E
100
AcDbEntity
  8
0
100
AcDbCircle
 10
470.2570860753231
 20
330.8766809917665
 30
0.0
 40
2.5
  0
CIRCLE
  5
1EC1
330
1E
100
AcDbEntity
  8
0
100
AcDbCircle
 10
470.2570860753231
 20
321.3766809917665
 30
0.0
 40
3.0
  0
LINE
  5
1EC2
330
1E
100
AcDbEntity
  8
CENTER
  6
CENTER
100
AcDbLine
 10
464.257086075323
 20
321.3766809917665
 30
0.0
 11
479.257086075323
 21
321.3766809917665
 31
0.0
  0
LINE
  5
1EC3
330
1E
100
AcDbEntity
  8
CENTER
  6
CENTER
100
AcDbLine
 10
464.257086075323
 20
330.8766809917665
 30
0.0
 11
476.257086075323
 21
330.8766809917665
 31
0.0
  0
SOLID
  5
1EC4
330
1E
100
AcDbEntity
  8
DIM
100
AcDbTrace
 10
473.6535962334203
 20
335.8663248813983
 30
0.0
 11
472.7641151011421
 21
336.323296779135
 31
0.0
 12
471.8379399740711
 22
333.4263674334321
 32
0.0
 13
471.8379399740711
 23
333.4263674334321
 33
0.0
  0
SOLID
  5
1EC5
330
1E
100
AcDbEntity
  8
DIM
100
AcDbTrace
 10
494.7570860753232
 20
327.8766809917665
 30
0.0
 11
495.7570860753231
 21
327.8766809917665
 31
0.0
 12
495.2570860753231
 22
330.8766809917665
 32
0.0
 13
495.2570860753231
 23
330.8766809917665
 33
0.0
  0
LINE
  5
1EC6
330
1E
100
AcDbEntity
  8
DIM
100
AcDbLine
 10
480.257086075323
 20
321.3766809917665
 30
0.0
 11
488.2570860753229
 21
321.3766809917665
 31
0.0
  0
SOLID
  5
1EC7
330
1E
100
AcDbEntity
  8
DIM
100
AcDbTrace
 10
486.7570860753229
 20
318.3766809917665
 30
0.0
 11
487.7570860753229
 21
318.3766809917665
 31
0.0
 12
487.2570860753229
 22
321.3766809917665
 32
0.0
 13
487.2570860753229
 23
321.3766809917665
 33
0.0
  0
CIRCLE
  5
1EC8
330
1E
100
AcDbEntity
  8
0
100
AcDbCircle
 10
470.2570860753231
 20
353.8766809917665
 30
0.0
 40
3.25
  0
CIRCLE
  5
1EC9
330
1E
100
AcDbEntity
  8
HIDDEN
  6
HIDDEN
100
AcDbCircle
 10
470.2570860753231
 20
353.8766809917665
 30
0.0
 40
5.25
  0
SOLID
  5
1ECA
330
1E
100
AcDbEntity
  8
DIM
100
AcDbTrace
 10
502.757086075323
 20
350.8766809917665
 30
0.0
 11
503.7570860753231
 21
350.8766809917665
 31
0.0
 12
503.2570860753231
 22
353.8766809917665
 32
0.0
 13
503.2570860753231
 23
353.8766809917665
 33
0.0
  0
LINE
  5
1ECB
330
1E
100
AcDbEntity
  8
CENTER
  6
CENTER
100
AcDbLine
 10
462.757086075323
 20
381.8766809917665
 30
0.0
 11
477.757086075323
 21
381.8766809917665
 31
0.0
  0
LINE
  5
1ECC
330
1E
100
AcDbEntity
  8
DIM
100
AcDbLine
 10
467.0920797129447
 20
388.6759649964029
 30
0.0
 11
461.4186606102164
 21
400.6097849319688
 31
0.0
  0
LINE
  5
1ECD
330
1E
100
AcDbEntity
  8
0
  6
CONTINUOUS
100
AcDbLine
 10
423.757086075323
 20
391.8766809917665
 30
0.0
 11
478.7570860753229
 21
391.8766809917666
 31
0.0
  0
LINE
  5
1ECE
330
1E
100
AcDbEntity
  8
0
100
AcDbLine
 10
426.257086075323
 20
369.3766809917666
 30
0.0
 11
476.257086075323
 21
369.3766809917666
 31
0.0
  0
LINE
  5
1ECF
330
1E
100
AcDbEntity
  8
CENTER
  6
CENTER
100
AcDbLine
 10
424.757086075323
 20
381.8766809917665
 30
0.0
 11
439.757086075323
 21
381.8766809917665
 31
0.0
  0
CIRCLE
  5
1ED0
330
1E
100
AcDbEntity
  8
0
  6
CONTINUOUS
100
AcDbCircle
 10
432.257086075323
 20
381.8766809917665
 30
0.0
 40
4.5
  0
LINE
  5
1ED1
330
1E
100
AcDbEntity
  8
DIM
100
AcDbLine
 10
461.4186606102164
 20
400.6097849319688
 30
0.0
 11
445.1838011550848
 21
400.6097849319688
 31
0.0
  0
TEXT
  5
1ED2
330
1E
100
AcDbEntity
  8
DIM
100
AcDbText
 10
444.1015945375797
 20
402.1097849319688
 30
0.0
 40
3.0
  1
4-%%c9
  7
ROMANSS
 72
     2
 11
455.2444516804369
 21
403.6097849319689
 31
0.0
100
AcDbText
 73
     2
  0
LINE
  5
1ED3
330
1E
100
AcDbEntity
  8
DIM
100
AcDbLine
 10
477.2570860753229
 20
369.3766809917666
 30
0.0
 11
512.2570860753228
 21
369.3766809917666
 31
0.0
  0
LINE
  5
1ED4
330
1E
100
AcDbEntity
  8
DIM
100
AcDbLine
 10
479.257086075323
 20
381.8766809917665
 30
0.0
 11
520.2570860753231
 21
381.8766809917665
 31
0.0
  0
LINE
  5
1ED5
330
1E
100
AcDbEntity
  8
DIM
100
AcDbLine
 10
480.257086075323
 20
391.8766809917665
 30
0.0
 11
528.2570860753231
 21
391.8766809917665
 31
0.0
  0
SOLID
  5
1ED6
330
1E
100
AcDbEntity
  8
DIM
100
AcDbTrace
 10
467.54364724752
 20
388.8906432713111
 30
0.0
 11
466.6405121783693
 21
388.4612867214948
 31
0.0
 12
468.3801493623937
 22
385.9665597889509
 32
0.0
 13
468.3801493623937
 23
385.9665597889509
 33
0.0
  0
CIRCLE
  5
1ED7
330
1E
100
AcDbEntity
  8
0
  6
CONTINUOUS
100
AcDbCircle
 10
470.2570860753231
 20
381.8766809917665
 30
0.0
 40
4.5
  0
SOLID
  5
1ED8
330
1E
100
AcDbEntity
  8
DIM
100
AcDbTrace
 10
510.7570860753228
 20
366.3766809917666
 30
0.0
 11
511.7570860753228
 21
366.3766809917666
 31
0.0
 12
511.2570860753228
 22
369.3766809917666
 32
0.0
 13
511.2570860753228
 23
369.3766809917666
 33
0.0
  0
SOLID
  5
1ED9
330
1E
100
AcDbEntity
  8
DIM
100
AcDbTrace
 10
518.757086075323
 20
378.8766809917665
 30
0.0
 11
519.757086075323
 21
378.8766809917665
 31
0.0
 12
519.257086075323
 22
381.8766809917665
 32
0.0
 13
519.257086075323
 23
381.8766809917665
 33
0.0
  0
LINE
  5
1EDA
330
1E
100
AcDbEntity
  8
DIM
100
AcDbLine
 10
506.4590389464556
 20
400.8152254073945
 30
0.0
 11
528.7400123522855
 21
400.8152254073945
 31
0.0
  0
SOLID
  5
1EDB
330
1E
100
AcDbEntity
  8
DIM
100
AcDbTrace
 10
526.757086075323
 20
388.8766809917665
 30
0.0
 11
527.757086075323
 21
388.8766809917665
 31
0.0
 12
527.257086075323
 22
391.8766809917665
 32
0.0
 13
527.257086075323
 23
391.8766809917665
 33
0.0
  0
LINE
  5
1EDC
330
1E
100
AcDbEntity
  8
0
100
AcDbLine
 10
322.5057805792343
 20
472.1337136654711
 30
0.0
 11
336.5057805792343
 21
472.1337136654711
 31
0.0
  0
LINE
  5
1EDD
330
1E
100
AcDbEntity
  8
0
100
AcDbLine
 10
290.5057805792342
 20
463.6337136654711
 30
0.0
 11
312.5057805792343
 21
463.6337136654711
 31
0.0
  0
LINE
  5
1EDE
330
1E
100
AcDbEntity
  8
0
100
AcDbLine
 10
275.5057805792342
 20
477.6337136654713
 30
0.0
 11
290.5057805792342
 21
477.6337136654713
 31
0.0
  0
LINE
  5
1EDF
330
1E
100
AcDbEntity
  8
HIDDEN
  6
HIDDEN
100
AcDbLine
 10
275.5057805792342
 20
464.1337136654711
 30
0.0
 11
290.5057805792342
 21
464.1337136654711
 31
0.0
  0
LINE
  5
1EE0
330
1E
100
AcDbEntity
  8
HIDDEN
  6
HIDDEN
100
AcDbLine
 10
275.5057805792342
 20
473.1337136654712
 30
0.0
 11
290.5057805792342
 21
473.1337136654712
 31
0.0
  0
LINE
  5
1EE1
330
1E
100
AcDbEntity
  8
0
100
AcDbLine
 10
290.5057805792342
 20
466.1337136654712
 30
0.0
 11
294.5057805792342
 21
466.1337136654712
 31
0.0
  0
LINE
  5
1EE2
330
1E
100
AcDbEntity
  8
0
100
AcDbLine
 10
294.5057805792342
 20
466.1337136654712
 30
0.0
 11
294.5057805792342
 21
463.6337136654711
 31
0.0
  0
LINE
  5
1EE3
330
1E
100
AcDbEntity
  8
0
100
AcDbLine
 10
295.5057805792342
 20
465.1337136654712
 30
0.0
 11
295.5057805792342
 21
463.6337136654711
 31
0.0
  0
LINE
  5
1EE4
330
1E
100
AcDbEntity
  8
0
100
AcDbLine
 10
294.5057805792342
 20
466.1337136654712
 30
0.0
 11
295.5057805792342
 21
465.1337136654712
 31
0.0
  0
LINE
  5
1EE5
330
1E
100
AcDbEntity
  8
0
100
AcDbLine
 10
312.5057805792343
 20
457.6337136654712
 30
0.0
 11
322.5057805792343
 21
457.6337136654712
 31
0.0
  0
ARC
  5
1EE6
330
1E
100
AcDbEntity
  8
0
  6
CONTINUOUS
100
AcDbCircle
 10
305.2729416472752
 20
454.3837136654712
 30
0.0
 40
10.35460945916689
100
AcDbArc
 50
18.29260279719036
 51
27.30537387776577
  0
LINE
  5
1EE7
330
1E
100
AcDbEntity
  8
0
  6
CONTINUOUS
100
AcDbLine
 10
314.4737805792351
 20
459.1337136654711
 30
0.0
 11
312.5057805792343
 21
459.1337136654711
 31
0.0
  0
LINE
  5
1EE8
330
1E
100
AcDbEntity
  8
HIDDEN
  6
HIDDEN
100
AcDbLine
 10
343.0057805792343
 20
471.8837136654712
 30
0.0
 11
351.5057805792342
 21
471.8837136654712
 31
0.0
  0
LINE
  5
1EE9
330
1E
100
AcDbEntity
  8
HIDDEN
  6
HIDDEN
100
AcDbLine
 10
343.0057805792343
 20
465.3837136654711
 30
0.0
 11
351.5057805792342
 21
465.3837136654711
 31
0.0
  0
LINE
  5
1EEA
330
1E
100
AcDbEntity
  8
CENTER
  6
CENTER
100
AcDbLine
 10
332.9727168893658
 20
468.6337136654712
 30
0.0
 11
355.1630811237525
 21
468.6337136654712
 31
0.0
  0
LINE
  5
1EEB
330
1E
100
AcDbEntity
  8
0
100
AcDbLine
 10
336.5057805792344
 20
474.6337136654712
 30
0.0
 11
351.5057805792342
 21
474.6337136654712
 31
0.0
  0
LINE
  5
1EEC
330
1E
100
AcDbEntity
  8
HIDDEN
  6
HIDDEN
100
AcDbLine
 10
343.0057805792342
 20
473.8837136654712
 30
0.0
 11
343.0057805792342
 21
463.3837136654711
 31
0.0
  0
LINE
  5
1EED
330
1E
100
AcDbEntity
  8
HIDDEN
  6
HIDDEN
100
AcDbLine
 10
336.5057805792342
 20
463.3837136654711
 30
0.0
 11
343.0057805792343
 21
463.3837136654711
 31
0.0
  0
LINE
  5
1EEE
330
1E
100
AcDbEntity
  8
HIDDEN
  6
HIDDEN
100
AcDbLine
 10
336.5057805792342
 20
473.8837136654711
 30
0.0
 11
343.0057805792343
 21
473.8837136654712
 31
0.0
  0
TEXT
  5
1EEF
330
1E
100
AcDbEntity
  8
LOGO
  6
CONTINUOUS
 62
     7
100
AcDbText
 10
409.9104041215462
 20
93.94568564787746
 30
0.0
 40
17.1806167400881
  1
MGTX
  7
CHINESET
 72
     1
 11
441.4082014783744
 21
102.5359940179215
 31
0.0
100
AcDbText
 73
     2
  0
LINE
  5
295A
330
1E
100
AcDbEntity
  8
AM_VIS
100
AcDbLine
 10
200.5057805792342
 20
298.5416579747818
 30
0.0
 11
245.5057805792343
 21
298.5416579747817
 31
0.0
  0
LINE
  5
295B
330
1E
100
AcDbEntity
  8
AM_VIS
100
AcDbLine
 10
200.5057805792342
 20
303.6165456813384
 30
0.0
 11
245.5057805792343
 21
303.6165456813384
 31
0.0
  0
LINE
  5
295C
330
1E
100
AcDbEntity
  8
AM_VIS
100
AcDbLine
 10
200.5057805792342
 20
298.5446964241793
 30
0.0
 11
245.5057805792343
 21
298.5446964241793
 31
0.0
  0
ENDSEC
  0
SECTION
  2
OBJECTS
  0
DICTIONARY
  5
C
330
0
100
AcDbDictionary
  3
ACAD_GROUP
350
D
  3
ACAD_LAYOUT
350
19
  3
ACAD_MLINESTYLE
350
16
  3
ACAD_PLOTSETTINGS
350
18
  3
ACMDICTIONARY
350
2886
  3
AMG
350
286C
  3
AMGSNAPSETTINGS
350
28BA
  3
DWGPROPS
350
2972
1001
ACAD
1000
TREAT_AS_HARD
1070
     0
  0
DICTIONARY
  5
2393
330
1E
100
AcDbDictionary
  3
ACAD_INDEX
350
28C1
  3
ACAD_LAYOUTSELFREF
350
29C9
1001
ACAD
1000
TREAT_AS_HARD
1070
     1
  0
DICTIONARY
  5
2395
330
1A
100
AcDbDictionary
  3
ACAD_LAYOUTSELFREF
350
29C8
1001
ACAD
1000
TREAT_AS_HARD
1070
     1
  0
DICTIONARY
  5
D
102
{ACAD_REACTORS
330
C
102
}
330
C
100
AcDbDictionary
1001
ACAD
1000
TREAT_AS_HARD
1070
     0
  0
DICTIONARY
  5
19
102
{ACAD_REACTORS
330
C
102
}
330
C
100
AcDbDictionary
1001
ACAD
1000
TREAT_AS_HARD
1070
     0
  0
DICTIONARY
  5
16
102
{ACAD_REACTORS
330
C
102
}
330
C
100
AcDbDictionary
  3
STANDARD
350
17
1001
ACAD
1000
TREAT_AS_HARD
1070
     0
  0
DICTIONARY
  5
18
102
{ACAD_REACTORS
330
C
102
}
330
C
100
AcDbDictionary
1001
ACAD
1000
TREAT_AS_HARD
1070
     0
  0
DICTIONARY
  5
2886
102
{ACAD_REACTORS
330
C
102
}
330
C
100
AcDbDictionary
  3
ACMSTDDICTIONARY
350
288C
1001
ACAD
1000
TREAT_AS_HARD
1070
     0
  0
DICTIONARY
  5
286C
102
{ACAD_REACTORS
330
C
102
}
330
C
100
AcDbDictionary
  3
ACMGSETTINGS
350
286D
1001
ACAD
1000
TREAT_AS_HARD
1070
     0
  0
DICTIONARY
  5
28BA
102
{ACAD_REACTORS
330
C
102
}
330
C
100
AcDbDictionary
1001
ACAD
1000
TREAT_AS_HARD
1070
     0
  0
XRECORD
  5
2972
102
{ACAD_REACTORS
330
C
102
}
330
C
100
AcDbXrecord
  1
DWGPROPS COOKIE
  2

  3

  4

  6

  7

  8

  9

300
AmdtFileType=84
301
=
302
=
303
=
304
=
305
=
306
=
307
=
308
=
309
=
 40
0.1044302430555555
 41
2450580.703446064
 42
2453335.474240521
  1

 90
        1
  0
DICTIONARY
  5
28C1
102
{ACAD_REACTORS
330
2393
102
}
330
2393
100
AcDbDictionary
  3
*A1
350
28C2
1001
ACAD
1000
TREAT_AS_HARD
1070
     0
  0
XRECORD
  5
29C9
102
{ACAD_REACTORS
330
2393
102
}
330
2393
100
AcDbXrecord
340
1E
  0
XRECORD
  5
29C8
102
{ACAD_REACTORS
330
2395
102
}
330
2395
100
AcDbXrecord
340
1A
  0
MLINESTYLE
  5
17
102
{ACAD_REACTORS
330
16
102
}
330
16
100
AcDbMlineStyle
  2
STANDARD
 70
     0
  3

 62
   256
 51
90.0
 52
90.0
 71
     2
 49
0.5
 62
   256
  6
BYLAYER
 49
-0.5
 62
   256
  6
BYLAYER
  0
DICTIONARY
  5
288C
102
{ACAD_REACTORS
330
2886
102
}
330
2886
100
AcDbDictionary
1001
ACAD
1000
TREAT_AS_HARD
1070
     0
  0
DICTIONARY
  5
286D
102
{ACAD_REACTORS
330
286C
102
}
330
286C
100
AcDbDictionary
  3
DWGSETTINGS
350
2927
1001
ACAD
1000
TREAT_AS_HARD
1070
     0
  0
LAYER_INDEX
  5
28C2
102
{ACAD_REACTORS
330
28C1
102
}
330
28C1
100
AcDbIndex
 40
2453335.496857592
100
AcDbLayerIndex
  8
0
360
28C3
 90
      530
  8
HIDDEN
360
28C4
 90
      115
  8
DIM
360
28C5
 90
      164
  8
CENTER
360
28C6
 90
      100
  8
LOGO
360
28C7
 90
      114
  8
AM_VIS
360
295E
 90
        3
  0
XRECORD
  5
2927
102
{ACAD_REACTORS
330
286D
102
}
330
286D
100
AcDbXrecord
  1
VERSION
140
15.0
  1
PRODUCT
  2
AutoCAD Mechanical 2000
  0
IDBUFFER
  5
28C3
330
0
100
AcDbIdBuffer
330
B2E
330
B2F
330
B30
330
B32
330
F5F
330
FCF
330
FD0
330
FD2
330
FD3
330
FD6
330
FD7
330
FDA
330
FDE
330
FDF
330
FE0
330
FE1
330
FE4
330
FE5
330
FE7
330
FE8
330
FEA
330
FEB
330
FEC
330
FED
330
FEE
330
FEF
330
FF0
330
FF1
330
FF2
330
FF3
330
FF9
330
FFA
330
FFB
330
FFC
330
1002
330
1003
330
1008
330
100B
330
100E
330
1012
330
1013
330
1014
330
1016
330
101A
330
101B
330
101D
330
101E
330
1020
330
1021
330
1022
330
1023
330
1024
330
1025
330
1026
330
1027
330
1028
330
1029
330
102A
330
102F
330
1030
330
1031
330
1032
330
1033
330
1BCD
330
1BCE
330
1BCF
330
1BD0
330
1BD1
330
1BD2
330
1BD3
330
1BD4
330
1BD6
330
1BD7
330
1BD9
330
1BDA
330
1BDC
330
1BDD
330
1BDE
330
1BDF
330
1BE0
330
1BEB
330
1BEE
330
1BEF
330
1BF0
330
1BF3
330
1BF4
330
1BF5
330
1BF6
330
1BF8
330
1BFA
330
1BFB
330
1BFD
330
1C00
330
1C01
330
1C02
330
1C03
330
1C06
330
1C07
330
1C08
330
1C09
330
1C0A
330
1C0B
330
1C0C
330
1C0D
330
1C0E
330
1C0F
330
1C10
330
1C11
330
1C12
330
1C13
330
1C14
330
1C1A
330
1C1F
330
1C20
330
1C21
330
1C23
330
1C24
330
1C26
330
1C28
330
1C2E
330
1C3B
330
1C3C
330
1C3F
330
1C41
330
1C42
330
1C44
330
1C45
330
1C46
330
1C47
330
1C48
330
1C49
330
1C4A
330
1C4B
330
1C4E
330
1C4F
330
1C51
330
1C52
330
1C53
330
1C54
330
1C55
330
1C56
330
1C57
330
1C58
330
1C59
330
1C5A
330
1C5B
330
1C5D
330
1C5E
330
1C60
330
1C61
330
1C62
330
1C63
330
1C64
330
1C65
330
1C66
330
1C67
330
1C68
330
1C69
330
1C6A
330
1C6B
330
1C6C
330
1C6D
330
1C6E
330
1C6F
330
1C70
330
1C71
330
1C72
330
1C73
330
1C74
330
1C75
330
1C76
330
1C77
330
1C78
330
1C7A
330
1C7B
330
1C7C
330
1C7D
330
1C7E
330
1C7F
330
1C80
330
1C81
330
1C82
330
1C83
330
1C84
330
1C85
330
1C86
330
1C88
330
1C89
330
1C8A
330
1C8B
330
1C8C
330
1C8D
330
1C8E
330
1C8F
330
1C90
330
1C91
330
1C94
330
1C95
330
1C96
330
1C97
330
1C99
330
1C9A
330
1C9B
330
1C9C
330
1C9D
330
1C9E
330
1C9F
330
1CA0
330
1CA1
330
1CA2
330
1CA3
330
1CA4
330
1CA5
330
1CA6
330
1CA7
330
1CA8
330
1CA9
330
1CAA
330
1CAB
330
1CAC
330
1CAD
330
1CAE
330
1CAF
330
1CB0
330
1CB1
330
1CB2
330
1CB3
330
1CB4
330
1CB5
330
1CB6
330
1CB7
330
1CB8
330
1CB9
330
1CBA
330
1CBD
330
1CBE
330
1CBF
330
1CC0
330
1CC1
330
1CC2
330
1CC3
330
1CC4
330
1CC5
330
1CC6
330
1CC7
330
1CC8
330
1CC9
330
1CCA
330
1CCB
330
1CCD
330
1CCE
330
1CCF
330
1CD0
330
1CD1
330
1CD2
330
1CD3
330
1CD4
330
1CD5
330
1CD6
330
1CD7
330
1CD8
330
1CD9
330
1CDA
330
1CDB
330
1CDC
330
1CDD
330
1CDE
330
1CDF
330
1CE0
330
1CE3
330
1CE5
330
1CE7
330
1CE8
330
1CE9
330
1CEA
330
1CEC
330
1CEF
330
1CF0
330
1CF1
330
1CF2
330
1CF3
330
1CF4
330
1CF5
330
1CF6
330
1CF7
330
1CF8
330
1CFA
330
1CFC
330
1D06
330
1D0C
330
1D0D
330
1D0F
330
1D10
330
1D11
330
1D14
330
1D15
330
1D16
330
1D17
330
1D18
330
1D19
330
1D1A
330
1D1B
330
1D1F
330
1D26
330
1D28
330
1D29
330
1D2A
330
1D2B
330
1D2C
330
1D2D
330
1D2E
330
1D2F
330
1D30
330
1D32
330
1D33
330
1D34
330
1D35
330
1D36
330
1D37
330
1D39
330
1D3A
330
1D3B
330
1D3C
330
1D3D
330
1D3E
330
1D3F
330
1D41
330
1D42
330
1D43
330
1D44
330
1D45
330
1D46
330
1D47
330
1D48
330
1D49
330
1D4A
330
1D4B
330
1D4D
330
1D4E
330
1D4F
330
1D50
330
1D51
330
1D52
330
1D53
330
1D54
330
1D55
330
1D56
330
1D57
330
1D58
330
1D59
330
1D5D
330
1D68
330
1D69
330
1D6A
330
1D6C
330
1D6E
330
1D6F
330
1D70
330
1D71
330
1D74
330
1D7C
330
1D7D
330
1D7F
330
1D80
330
1D82
330
1D84
330
1D86
330
1D87
330
1D88
330
1D89
330
1D8B
330
1D8E
330
1D8F
330
1D93
330
1D96
330
1D97
330
1D98
330
1D99
330
1D9A
330
1D9B
330
1D9C
330
1D9D
330
1D9E
330
1D9F
330
1DA2
330
1DA3
330
1DA4
330
1DA5
330
1DA6
330
1DA7
330
1DA8
330
1DAC
330
1DB0
330
1DB2
330
1DB6
330
1DB9
330
1DBA
330
1DBB
330
1DBC
330
1DBD
330
1DC4
330
1DC5
330
1DC6
330
1DC8
330
1DC9
330
1DD2
330
1DDE
330
1DE4
330
1DE9
330
1DF3
330
1DF7
330
1E02
330
1E07
330
1E08
330
1E09
330
1E0A
330
1E0B
330
1E0C
330
1E12
330
1E13
330
1E14
330
1E15
330
1E16
330
1E17
330
1E18
330
1E19
330
1E1A
330
1E1B
330
1E1C
330
1E1D
330
1E1E
330
1E1F
330
1E20
330
1E21
330
1E22
330
1E23
330
1E24
330
1E25
330
1E26
330
1E27
330
1E28
330
1E29
330
1E2A
330
1E2B
330
1E2C
330
1E2D
330
1E2E
330
1E2F
330
1E30
330
1E31
330
1E32
330
1E33
330
1E34
330
1E35
330
1E36
330
1E37
330
1E38
330
1E39
330
1E3A
330
1E3B
330
1E3C
330
1E3D
330
1E3E
330
1E3F
330
1E40
330
1E41
330
1E42
330
1E43
330
1E44
330
1E45
330
1E46
330
1E47
330
1E48
330
1E49
330
1E4A
330
1E69
330
1E6B
330
1E6F
330
1E71
330
1E72
330
1E73
330
1E74
330
1E76
330
1E78
330
1E79
330
1E7A
330
1E7B
330
1E7E
330
1E85
330
1E8D
330
1E8E
330
1E8F
330
1E92
330
1E93
330
1E94
330
1E96
330
1E97
330
1E98
330
1E99
330
1E9A
330
1E9C
330
1EA0
330
1EA3
330
1EA4
330
1EA6
330
1EA7
330
1EA8
330
1EAA
330
1EAE
330
1EAF
330
1EB3
330
1EBF
330
1EC0
330
1EC1
330
1EC8
330
1ECD
330
1ECE
330
1ED0
330
1ED7
330
1EDC
330
1EDD
330
1EDE
330
1EE1
330
1EE2
330
1EE3
330
1EE4
330
1EE5
330
1EE6
330
1EE7
330
1EEB
  0
IDBUFFER
  5
28C4
330
0
100
AcDbIdBuffer
330
100F
330
1C15
330
1C16
330
1C17
330
1C18
330
1C19
330
1C1B
330
1C1C
330
1C1D
330
1C1E
330
1C2C
330
1C2D
330
1C2F
330
1C30
330
1C31
330
1C32
330
1C33
330
1C34
330
1C35
330
1D00
330
1D01
330
1D02
330
1D03
330
1D05
330
1D07
330
1D09
330
1D0A
330
1D0B
330
1D1D
330
1D1E
330
1D20
330
1D21
330
1D22
330
1D23
330
1D24
330
1D25
330
1D31
330
1D5B
330
1D5C
330
1D5E
330
1D5F
330
1D60
330
1D62
330
1D63
330
1D64
330
1D65
330
1D72
330
1D73
330
1D75
330
1D76
330
1D77
330
1D78
330
1D79
330
1D7A
330
1D7B
330
1D7E
330
1D83
330
1D85
330
1DA0
330
1DA1
330
1DA9
330
1DAA
330
1DAD
330
1DAE
330
1DAF
330
1DB7
330
1DB8
330
1DCB
330
1DCC
330
1DCF
330
1DD0
330
1DD3
330
1DD4
330
1DD5
330
1DDC
330
1DDF
330
1E4C
330
1E4D
330
1E4E
330
1E50
330
1E51
330
1E52
330
1E53
330
1E54
330
1E56
330
1E58
330
1E59
330
1E5A
330
1E5B
330
1E5C
330
1E5D
330
1E60
330
1E61
330
1E62
330
1E64
330
1E65
330
1E66
330
1E6D
330
1E6E
330
1E75
330
1E77
330
1E81
330
1E82
330
1E83
330
1E86
330
1E87
330
1E9D
330
1EC9
330
1EDF
330
1EE0
330
1EE8
330
1EE9
330
1EEC
330
1EED
330
1EEE
  0
IDBUFFER
  5
28C5
330
0
100
AcDbIdBuffer
330
FCD
330
FCE
330
FD4
330
FD8
330
FD9
330
FDB
330
FDC
330
FDD
330
FF5
330
FF6
330
FF7
330
FF8
330
FFD
330
FFE
330
FFF
330
1000
330
1001
330
1004
330
1005
330
1006
330
1007
330
1009
330
100A
330
100C
330
100D
330
1017
330
1018
330
1019
330
102B
330
102C
330
102D
330
102E
330
1BD8
330
1BDB
330
1BE7
330
1BEC
330
1BED
330
1BF1
330
1BF2
330
1C22
330
1C25
330
1C27
330
1C29
330
1C36
330
1C37
330
1C38
330
1C39
330
1C3A
330
1C40
330
1C43
330
1CED
330
1CFB
330
1CFD
330
1CFE
330
1CFF
330
1D08
330
1D12
330
1D66
330
1D67
330
1D81
330
1D90
330
1D91
330
1D92
330
1D94
330
1D95
330
1DB1
330
1DB3
330
1DB4
330
1DB5
330
1DBE
330
1DBF
330
1DC0
330
1DC1
330
1DC2
330
1DC3
330
1DC7
330
1DCD
330
1DCE
330
1DD6
330
1DD7
330
1DD8
330
1DD9
330
1DDA
330
1DDB
330
1DE0
330
1DE1
330
1DE2
330
1DE6
330
1DE7
330
1DE8
330
1DEA
330
1DEB
330
1DEC
330
1DED
330
1DEE
330
1DEF
330
1DF0
330
1DF1
330
1DF5
330
1DF8
330
1DF9
330
1DFA
330
1DFB
330
1DFC
330
1DFD
330
1DFE
330
1DFF
330
1E00
330
1E01
330
1E03
330
1E04
330
1E05
330
1E06
330
1E0D
330
1E0E
330
1E0F
330
1E10
330
1E11
330
1E4B
330
1E57
330
1E67
330
1E68
330
1E6A
330
1E70
330
1E7C
330
1E7D
330
1E7F
330
1E80
330
1E88
330
1E89
330
1E8A
330
1E9B
330
1E9F
330
1EAB
330
1EAC
330
1EAD
330
1EB0
330
1EB1
330
1EB5
330
1EB6
330
1EB7
330
1EB8
330
1EB9
330
1EBA
330
1EBB
330
1EBC
330
1EBD
330
1EBE
330
1EC4
330
1EC5
330
1EC6
330
1EC7
330
1ECA
330
1ECC
330
1ED1
330
1ED2
330
1ED3
330
1ED4
330
1ED5
330
1ED6
330
1ED8
330
1ED9
330
1EDA
330
1EDB
  0
IDBUFFER
  5
28C6
330
0
100
AcDbIdBuffer
330
FCC
330
FD1
330
FD5
330
FE2
330
FE3
330
FE6
330
FE9
330
FF4
330
1010
330
1011
330
1015
330
101C
330
101F
330
1BD5
330
1BE1
330
1BE2
330
1BE3
330
1BE4
330
1BE5
330
1BE6
330
1BE8
330
1BE9
330
1BEA
330
1BF7
330
1BF9
330
1BFC
330
1BFE
330
1BFF
330
1C04
330
1C05
330
1C2A
330
1C2B
330
1C3D
330
1C3E
330
1C4C
330
1C4D
330
1C50
330
1C5C
330
1C5F
330
1C79
330
1C87
330
1C92
330
1C93
330
1C98
330
1CBB
330
1CBC
330
1CCC
330
1CE1
330
1CE2
330
1CE4
330
1CE6
330
1CF9
330
1D04
330
1D0E
330
1D13
330
1D1C
330
1D27
330
1D38
330
1D40
330
1D4C
330
1D5A
330
1D61
330
1D6B
330
1D6D
330
1D8A
330
1D8C
330
1D8D
330
1DAB
330
1DCA
330
1DD1
330
1DDD
330
1DE3
330
1DE5
330
1DF2
330
1DF4
330
1DF6
330
1E4F
330
1E55
330
1E5E
330
1E5F
330
1E63
330
1E6C
330
1E84
330
1E8B
330
1E8C
330
1E90
330
1E91
330
1E95
330
1E9E
330
1EA1
330
1EA2
330
1EA5
330
1EA9
330
1EB2
330
1EB4
330
1EC2
330
1EC3
330
1ECB
330
1ECF
330
1EEA
  0
IDBUFFER
  5
28C7
330
0
100
AcDbIdBuffer
330
1038
330
1039
330
103A
330
103B
330
103C
330
103D
330
103E
330
103F
330
1040
330
1041
330
1042
330
1043
330
1044
330
1045
330
1046
330
1047
330
1048
330
1049
330
104A
330
104B
330
104C
330
104D
330
104E
330
104F
330
1050
330
1051
330
1052
330
1053
330
1054
330
1055
330
1056
330
1057
330
1058
330
1059
330
105A
330
105B
330
105C
330
105D
330
105E
330
105F
330
1060
330
1061
330
1062
330
1063
330
1064
330
1065
330
1066
330
1067
330
1068
330
1069
330
106A
330
106B
330
106C
330
106D
330
106E
330
106F
330
1070
330
1071
330
1072
330
1073
330
1074
330
1075
330
1076
330
1077
330
1078
330
1079
330
107A
330
107B
330
107C
330
107D
330
107E
330
107F
330
1080
330
1081
330
1082
330
1083
330
1084
330
1085
330
1086
330
1087
330
1088
330
1089
330
108A
330
108B
330
108C
330
108D
330
108E
330
108F
330
1090
330
1091
330
1092
330
1093
330
1094
330
1095
330
1096
330
1097
330
1098
330
1099
330
109A
330
109B
330
109C
330
109D
330
109E
330
109F
330
10A0
330
10A1
330
10A2
330
10A3
330
10A4
330
10A5
330
10A6
330
10A7
330
10AB
330
1EEF
  0
IDBUFFER
  5
295E
330
0
100
AcDbIdBuffer
330
295A
330
295B
330
295C
  0
ENDSEC
  0
EOF
