  0
SECTION
  2
HEADER
  9
$ACADVER
  1
AC1012
  9
$DWGCODEPAGE
  3
big5
  9
$INSBASE
 10
0.0
 20
0.0
 30
0.0
  9
$EXTMIN
 10
29.9670430062888
 20
-19.42384292068436
 30
-0.0000000000000058
  9
$EXTMAX
 10
835.026857418738
 20
521.4801205720818
 30
0.0000000000000104
  9
$LIMMIN
 10
0.0
 20
0.0
  9
$LIMMAX
 10
840.0
 20
594.0
  9
$ORTHOMODE
 70
     0
  9
$REGENMODE
 70
     1
  9
$FILLMODE
 70
     1
  9
$QTEXTMODE
 70
     0
  9
$MIRRTEXT
 70
     1
  9
$DRAGMODE
 70
     2
  9
$LTSCALE
 40
1.0
  9
$OSMODE
 70
    55
  9
$ATTMODE
 70
     1
  9
$TEXTSIZE
 40
3.0
  9
$TRACEWID
 40
0.05
  9
$TEXTSTYLE
  7
ITALICT
  9
$CLAYER
  8
0
  9
$CELTYPE
  6
CONTINUOUS
  9
$CECOLOR
 62
   256
  9
$CELTSCALE
 40
1.0
  9
$DELOBJ
 70
     1
  9
$DISPSILH
 70
     0
  9
$DIMSCALE
 40
1.0
  9
$DIMASZ
 40
3.0
  9
$DIMEXO
 40
1.0
  9
$DIMDLI
 40
1647129056757192
  9
$DIMRND
 40
0.0
  9
$DIMDLE
 40
0.0
  9
$DIMEXE
 40
1.0
  9
$DIMTP
 40
0.15
  9
$DIMTM
 40
-0.1
  9
$DIMTXT
 40
3.0
  9
$DIMCEN
 40
2.0
  9
$DIMTSZ
 40
0.0
  9
$DIMTOL
 70
     1
  9
$DIMLIM
 70
     0
  9
$DIMTIH
 70
     0
  9
$DIMTOH
 70
     0
  9
$DIMSE1
 70
     0
  9
$DIMSE2
 70
     0
  9
$DIMTAD
 70
     1
  9
$DIMZIN
 70
     0
  9
$DIMBLK
  1

  9
$DIMASO
 70
     0
  9
$DIMSHO
 70
     0
  9
$DIMPOST
  1

  9
$DIMAPOST
  1

  9
$DIMALT
 70
     0
  9
$DIMALTD
 70
     2
  9
$DIMALTF
 40
25.4
  9
$DIMLFAC
 40
1.0
  9
$DIMTOFL
 70
     1
  9
$DIMTVP
 40
1.0
  9
$DIMTIX
 70
     0
  9
$DIMSOXD
 70
     0
  9
$DIMSAH
 70
     0
  9
$DIMBLK1
  1

  9
$DIMBLK2
  1

  9
$DIMSTYLE
  2
STANDARD
  9
$DIMCLRD
 70
     0
  9
$DIMCLRE
 70
     0
  9
$DIMCLRT
 70
     0
  9
$DIMTFAC
 40
1.0
  9
$DIMGAP
 40
0.09
  9
$DIMJUST
 70
     0
  9
$DIMSD1
 70
     0
  9
$DIMSD2
 70
     0
  9
$DIMTOLJ
 70
     1
  9
$DIMTZIN
 70
     0
  9
$DIMALTZ
 70
     0
  9
$DIMALTTZ
 70
     0
  9
$DIMFIT
 70
     5
  9
$DIMUPT
 70
     0
  9
$DIMUNIT
 70
     2
  9
$DIMDEC
 70
     2
  9
$DIMTDEC
 70
     8
  9
$DIMALTU
 70
     2
  9
$DIMALTTD
 70
     2
  9
$DIMTXSTY
  7
STANDARD
  9
$DIMAUNIT
 70
     0
  9
$LUNITS
 70
     2
  9
$LUPREC
 70
     2
  9
$SKETCHINC
 40
0.1
  9
$FILLETRAD
 40
0.75
  9
$AUNITS
 70
     0
  9
$AUPREC
 70
     2
  9
$MENU
  1
ACAD
  9
$ELEVATION
 40
0.0
  9
$PELEVATION
 40
0.0
  9
$THICKNESS
 40
0.0
  9
$LIMCHECK
 70
     0
  9
$BLIPMODE
 70
     0
  9
$CHAMFERA
 40
1.0
  9
$CHAMFERB
 40
1.0
  9
$CHAMFERC
 40
0.0
  9
$CHAMFERD
 40
0.0
  9
$SKPOLY
 70
     1
  9
$TDCREATE
 40
2450580.703446064
  9
$TDUPDATE
 40
2453335.496234421
  9
$TDINDWG
 40
0.1224342477
  9
$TDUSRTIMER
 40
0.1224342477
  9
$USRTIMER
 70
     1
  9
$ANGBASE
 50
0.0
  9
$ANGDIR
 70
     0
  9
$PDMODE
 70
     0
  9
$PDSIZE
 40
0.0
  9
$PLINEWID
 40
0.0
  9
$COORDS
 70
     1
  9
$SPLFRAME
 70
     0
  9
$SPLINETYPE
 70
     6
  9
$SPLINESEGS
 70
     8
  9
$ATTDIA
 70
     1
  9
$ATTREQ
 70
     1
  9
$HANDLING
 70
 22529
  9
$HANDSEED
  5
31FB
  9
$SURFTAB1
 70
     6
  9
$SURFTAB2
 70
     6
  9
$SURFTYPE
 70
     6
  9
$SURFU
 70
     6
  9
$SURFV
 70
     6
  9
$UCSNAME
  2

  9
$UCSORG
 10
0.0
 20
0.0
 30
0.0
  9
$UCSXDIR
 10
1.0
 20
0.0
 30
0.0
  9
$UCSYDIR
 10
0.0
 20
1.0
 30
0.0
  9
$PUCSNAME
  2

  9
$PUCSORG
 10
0.0
 20
0.0
 30
0.0
  9
$PUCSXDIR
 10
1.0
 20
0.0
 30
0.0
  9
$PUCSYDIR
 10
0.0
 20
1.0
 30
0.0
  9
$USERI1
 70
     0
  9
$USERI2
 70
-31485
  9
$USERI3
 70
     0
  9
$USERI4
 70
     0
  9
$USERI5
 70
     0
  9
$USERR1
 40
0.0
  9
$USERR2
 40
0.0
  9
$USERR3
 40
0.0
  9
$USERR4
 40
0.0
  9
$USERR5
 40
0.0
  9
$WORLDVIEW
 70
     1
  9
$SHADEDGE
 70
     3
  9
$SHADEDIF
 70
    70
  9
$TILEMODE
 70
     1
  9
$MAXACTVP
 70
    48
  9
$PINSBASE
 10
0.0
 20
0.0
 30
0.0
  9
$PLIMCHECK
 70
     0
  9
$PEXTMIN
 10
1.000000000000000E+20
 20
1.000000000000000E+20
 30
1.000000000000000E+20
  9
$PEXTMAX
 10
-1.000000000000000E+20
 20
-1.000000000000000E+20
 30
-1.000000000000000E+20
  9
$PLIMMIN
 10
0.0
 20
0.0
  9
$PLIMMAX
 10
12.0
 20
9.0
  9
$UNITMODE
 70
     0
  9
$VISRETAIN
 70
     1
  9
$PLINEGEN
 70
     0
  9
$PSLTSCALE
 70
     0
  9
$TREEDEPTH
 70
  3020
  9
$PICKSTYLE
 70
     1
  9
$CMLSTYLE
  2
STANDARD
  9
$CMLJUST
 70
     0
  9
$CMLSCALE
 40
1.0
  9
$SAVEIMAGES
 70
     1
  0
ENDSEC
  0
SECTION
  2
CLASSES
  0
CLASS
  1
ACDBDICTIONARYWDFLT
  2
AcDbDictionaryWithDefault
  3
AutoCAD 2000
 90
    32768
280
     0
281
     0
  0
CLASS
  1
ACDBPLACEHOLDER
  2
AcDbPlaceHolder
  3
AutoCAD 2000
 90
    32768
280
     0
281
     0
  0
CLASS
  1
LAYOUT
  2
AcDbLayout
  3
AutoCAD 2000
 90
    32768
280
     0
281
     0
  0
CLASS
  1
LONG_TRANSACTION
  2
AcDbLongTransaction
  3
AutoCAD 2000
 90
    32768
280
     0
281
     0
  0
CLASS
  1
LWPOLYLINE
  2
AcDbPolyline
  3
AutoCAD 2000
 90
    32768
280
     0
281
     1
  0
CLASS
  1
HATCH
  2
AcDbHatch
  3
AutoCAD 2000
 90
    32768
280
     0
281
     1
  0
CLASS
  1
XRECORD
  2
AcDbXrecord
  3
AutoCAD 2000
 90
    32768
280
     0
281
     0
  0
CLASS
  1
ACME_DOCUMENT
  2
AcMeDbDoc
  3
AcMeServices
 90
    32768
280
     0
281
     0
  0
CLASS
  1
AMGSETTINGSOBJ
  2
AmgSettingsObj
  3
"AcadM|Product Description: AutoCAD Mechanical 2000|Company: Autodesk"
 90
    32768
280
     0
281
     0
  0
CLASS
  1
ACMESCOPE
  2
AcMeScope
  3
AcMeServices
 90
    32768
280
     0
281
     0
  0
CLASS
  1
ACMECOMMANDHISTORY
  2
AcMeCommandHistory
  3
AcMeServices
 90
    32768
280
     0
281
     0
  0
CLASS
  1
ACIMSYSVARMAN
  2
AcImSysVarManager
  3
AcMeServices
 90
    32768
280
     0
281
     0
  0
CLASS
  1
ACIMREALSYSVAR
  2
AcImRealSysVar
  3
AcMeServices
 90
    32768
280
     0
281
     0
  0
CLASS
  1
ACIMINTSYSVAR
  2
AcImIntSysVar
  3
AcMeServices
 90
    32768
280
     0
281
     0
  0
CLASS
  1
ACMEDRAWINGMAN
  2
AcMeDrawingMan
  3
AcMeServices
 90
    32768
280
     0
281
     0
  0
CLASS
  1
ACMEVIEW
  2
AcMeView
  3
AcMeServices
 90
    32768
280
     0
281
     0
  0
CLASS
  1
ACDBENTITYCACHE
  2
AcMeEntityCache
  3
AcMeServices
 90
    32768
280
     0
281
     0
  0
CLASS
  1
GSMANAGER
  2
AcMeGSManager
  3
AcMeServices
 90
    32768
280
     0
281
     0
  0
CLASS
  1
AMDTINTERNALREACTOR
  2
AmdtInternalReactor
  3
AcMeServices
 90
    32768
280
     0
281
     0
  0
CLASS
  1
ACMESTATEMGR
  2
AcMeStateMgr
  3
AcMeServices
 90
    32768
280
     0
281
     0
  0
CLASS
  1
ACGREFMASTER
  2
AcGrefMaster
  3
AcAttribServices
 90
    32768
280
     0
281
     0
  0
CLASS
  1
ACME_DATABASE
  2
AcMeDbDatabase
  3
AcMeServices
 90
    32768
280
     0
281
     0
  0
CLASS
  1
ACRFINSADJUSTERMGR
  2
AcRfInsAdjusterMgr
  3
AcMeServices
 90
    32768
280
     0
281
     0
  0
CLASS
  1
ACGREFACADMASTER
  2
AcGrefacadMaster
  3
AcGrefServices
 90
    32768
280
     0
281
     0
  0
CLASS
  1
AMIMASTER
  2
AmiMaster
  3
AmiServices
 90
    32768
280
     0
281
     0
  0
CLASS
  1
ACMDATADICTIONARY
  2
AcmDataDictionary
  3
"AcmSymBB|Product Description: AutoCAD Mechanical 2000|Company: Autodesk"
 90
    32768
280
     0
281
     0
  0
CLASS
  1
ACMDATAENTRYBLOCK
  2
AcmDataEntryBlock
  3
"AcmSymBB|Product Description: AutoCAD Mechanical 2000|Company: Autodesk"
 90
    32768
280
     0
281
     0
  0
CLASS
  1
ACIMSTRSYSVAR
  2
AcImStrSysVar
  3
AcMeServices
 90
    32768
280
     0
281
     0
  0
CLASS
  1
ACMSTANDARDANSI
  2
AcmStandardANSI
  3
"Amdt_StdImp|Product Description: AutoCAD Mechanical 2000|Company: Autodesk"
 90
    32768
280
     0
281
     0
  0
CLASS
  1
AMGOBJPROPCFG
  2
AmgObjPropCfg
  3
"AmgLay|Product Description: AutoCAD Mechanical 2000|Company: Autodesk"
 90
    32769
280
     0
281
     0
  0
CLASS
  1
ACMSURFSTANDARDANSI
  2
AcmSurfTextStdANSI
  3
"Amdt_StdImp|Product Description: AutoCAD Mechanical 2000|Company: Autodesk"
 90
    32768
280
     0
281
     0
  0
CLASS
  1
ACMFCFSTANDARDANSI
  2
AcmFCFStdANSI
  3
"Amdt_StdImp|Product Description: AutoCAD Mechanical 2000|Company: Autodesk"
 90
    32768
280
     0
281
     0
  0
CLASS
  1
ACMWELDSTANDARDANSI
  2
AcmWeldingStdANSI
  3
"Amdt_StdImp|Product Description: AutoCAD Mechanical 2000|Company: Autodesk"
 90
    32768
280
     0
281
     0
  0
CLASS
  1
ACMIDSTANDARDANSI
  2
AcmIdStdANSI
  3
"Amdt_StdImp|Product Description: AutoCAD Mechanical 2000|Company: Autodesk"
 90
    32768
280
     0
281
     0
  0
CLASS
  1
ACMDATUMSTANDARDANSI
  2
AcmDatumStdANSI
  3
"Amdt_StdImp|Product Description: AutoCAD Mechanical 2000|Company: Autodesk"
 90
    32768
280
     0
281
     0
  0
CLASS
  1
ACMBOMSTANDARDANSI
  2
AcmBOMStdANSI
  3
"Amdt_StdImp|Product Description: AutoCAD Mechanical 2000|Company: Autodesk"
 90
    32768
280
     0
281
     0
  0
CLASS
  1
ACMDETAILSTANDARDANSI
  2
AmdtDetailSymStdANSI
  3
"Amdt_StdImp|Product Description: AutoCAD Mechanical 2000|Company: Autodesk"
 90
    32768
280
     0
281
     0
  0
CLASS
  1
ACMSECTIONSTANDARDANSI
  2
AmdtSectionSymStdANSI
  3
"Amdt_StdImp|Product Description: AutoCAD Mechanical 2000|Company: Autodesk"
 90
    32768
280
     0
281
     0
  0
CLASS
  1
ACMCENTERLINESTANDARDANSI
  2
AmdtCenterLineStdANSI
  3
"Amdt_StdImp|Product Description: AutoCAD Mechanical 2000|Company: Autodesk"
 90
    32768
280
     0
281
     0
  0
CLASS
  1
ACMNOTESTANDARDANSI
  2
AmdtNoteStdANSI
  3
"Amdt_StdImp|Product Description: AutoCAD Mechanical 2000|Company: Autodesk"
 90
    32768
280
     0
281
     0
  0
CLASS
  1
ACAMGLAYSTD
  2
AcAmgLayStd
  3
"AcAmgLayStd|Product Description: AutoCAD Mechanical 2000|Company: Autodesk"
 90
    32768
280
     0
281
     0
  0
CLASS
  1
ACAMGDIMSTD
  2
AcAmgDimStd
  3
"AcAmgDimStd|Product Description: AutoCAD Mechanical 2000|Company: Autodesk"
 90
    32768
280
     0
281
     0
  0
CLASS
  1
ACAMGHOLECHARTSTDANSI
  2
AcAmgHoleChartStdANSI
  3
ACMSYMBB_MODULE_NAME
 90
    32768
280
     0
281
     0
  0
CLASS
  1
ACAMGTITLESTD
  2
AcAmgTitleStd
  3
"TITLEAPP"
 90
    32768
280
     0
281
     0
  0
CLASS
  1
ACAMGFILTERDAT
  2
AcAmgFilterDat
  3
"AcadM|Product Description: AutoCAD Mechanical 2000|Company: Autodesk"
 90
    32768
280
     0
281
     0
  0
CLASS
  1
AMDTFORMULAUPDATEDISPATCHER
  2
AmdtFormulaUpdateDispatcher
  3
AcMeServices
 90
    32768
280
     0
281
     0
  0
CLASS
  1
LAYER_INDEX
  2
AcDbLayerIndex
  3
AutoCAD 2000
 90
    32768
280
     0
281
     0
  0
CLASS
  1
IDBUFFER
  2
AcDbIdBuffer
  3
AutoCAD 2000
 90
    32768
280
     0
281
     0
  0
CLASS
  1
DICTIONARYVAR
  2
AcDbDictionaryVar
  3
AutoCAD 2000
 90
    32768
280
     0
281
     0
  0
CLASS
  1
LONG_TRANSACTION
  2
AcDbLongTransaction
  3
AutoCAD 2000
 90
    32768
280
     0
281
     0
  0
CLASS
  1
LWPOLYLINE
  2
AcDbPolyline
  3
AutoCAD 2000
 90
    32768
280
     0
281
     1
  0
CLASS
  1
HATCH
  2
AcDbHatch
  3
AutoCAD 2000
 90
    32768
280
     0
281
     1
  0
CLASS
  1
XRECORD
  2
AcDbXrecord
  3
AutoCAD 2000
 90
    32768
280
     0
281
     0
  0
ENDSEC
  0
SECTION
  2
TABLES
  0
TABLE
  2
VPORT
  5
8
330
0
100
AcDbSymbolTable
 70
     4
  0
VPORT
  5
31F8
330
8
100
AcDbSymbolTableRecord
100
AcDbViewportTableRecord
  2
*ACTIVE
 70
     0
 10
0.0
 20
0.0
 11
1.0
 21
1.0
 12
432.4969502125134
 22
251.0358379222862
 13
0.0
 23
0.0
 14
1.0
 24
1.0
 15
0.0
 25
0.0
 16
0.0
 26
0.0
 36
1.0
 17
0.0
 27
0.0
 37
0.0
 40
546.947890781643
 41
1.756554307116104
 42
1.0
 43
0.0
 44
0.0
 50
0.0
 51
0.0
 71
     0
 72
   100
 73
     1
 74
     1
 75
     0
 76
     0
 77
     0
 78
     0
  0
ENDTAB
  0
TABLE
  2
LTYPE
  5
5
330
0
100
AcDbSymbolTable
 70
    16
  0
LTYPE
  5
13
330
5
100
AcDbSymbolTableRecord
100
AcDbLinetypeTableRecord
  2
BYBLOCK
 70
     0
  3

 72
    65
 73
     0
 40
0.0
  0
LTYPE
  5
14
330
5
100
AcDbSymbolTableRecord
100
AcDbLinetypeTableRecord
  2
BYLAYER
 70
     0
  3

 72
    65
 73
     0
 40
0.0
  0
LTYPE
  5
15
330
5
100
AcDbSymbolTableRecord
100
AcDbLinetypeTableRecord
  2
CONTINUOUS
 70
     0
  3
Solid line
 72
    65
 73
     0
 40
0.0
  0
LTYPE
  5
35
330
5
100
AcDbSymbolTableRecord
100
AcDbLinetypeTableRecord
  2
CENTER
 70
     0
  3
_______________ _ _______________ _ ___________
 72
    65
 73
     4
 40
18.0
 49
15.0
 74
     0
 49
-1.0
 74
     0
 49
1.0
 74
     0
 49
-1.0
 74
     0
  0
LTYPE
  5
36
330
5
100
AcDbSymbolTableRecord
100
AcDbLinetypeTableRecord
  2
HIDDEN
 70
     0
  3
___ ___ ___ ___ ___ ___ ___ ___ ___ ___ 
 72
    65
 73
     2
 40
4.0
 49
3.0
 74
     0
 49
-1.0
 74
     0
  0
LTYPE
  5
314F
330
5
100
AcDbSymbolTableRecord
100
AcDbLinetypeTableRecord
  2
AMCONSTR
 70
     0
  3
_______________________
 72
    65
 73
     2
 40
9999.0
 49
9999.0
 74
     0
 49
0.0
 74
     0
  0
LTYPE
  5
3155
330
5
100
AcDbSymbolTableRecord
100
AcDbLinetypeTableRecord
  2
PHANTOM2
 70
     0
  3
Phantom (.5x) ___ _ _ ___ _ _ ___ _ _ ___ _ _
 72
    65
 73
     6
 40
1.25
 49
0.625
 74
     0
 49
-0.125
 74
     0
 49
0.125
 74
     0
 49
-0.125
 74
     0
 49
0.125
 74
     0
 49
-0.125
 74
     0
  0
LTYPE
  5
3156
330
5
100
AcDbSymbolTableRecord
100
AcDbLinetypeTableRecord
  2
CENTER2
 70
     0
  3
Center (.5x) ___ _ ___ _ ___ _ ___ _ ___ _ ___
 72
    65
 73
     4
 40
1.125
 49
0.75
 74
     0
 49
-0.125
 74
     0
 49
0.125
 74
     0
 49
-0.125
 74
     0
  0
LTYPE
  5
3157
330
5
100
AcDbSymbolTableRecord
100
AcDbLinetypeTableRecord
  2
HIDDEN2
 70
     0
  3
Hidden (.5x) _ _ _ _ _ _ _ _ _ _ _ _ _ _ _ _ _
 72
    65
 73
     2
 40
0.1875
 49
0.125
 74
     0
 49
-0.0625
 74
     0
  0
LTYPE
  5
3158
330
5
100
AcDbSymbolTableRecord
100
AcDbLinetypeTableRecord
  2
AMZIGZAG2
 70
     0
  3
/\/-/\/-/\/-/\/-/\/-/\/
 72
    65
 73
     2
 40
0.4401
 49
0.0001
 74
     4
 75
   135
340
3153
 46
0.0016
 50
0.0
 44
0.0
 45
0.0
 49
-0.4400000000000001
 74
     0
  0
LTYPE
  5
3165
330
5
100
AcDbSymbolTableRecord
100
AcDbLinetypeTableRecord
  2
ACANSTGB
 70
     0
  3
__ . . __ . .
 72
    65
 73
     6
 40
0.35433070866
 49
0.15748031496
 74
     0
 49
-0.03937007874
 74
     0
 49
0.03937007874
 74
     0
 49
-0.03937007874
 74
     0
 49
0.03937007874
 74
     0
 49
-0.03937007874
 74
     0
  0
LTYPE
  5
3166
330
5
100
AcDbSymbolTableRecord
100
AcDbLinetypeTableRecord
  2
ACANSTGL
 70
     0
  3
_ _ _ _ _
 72
    65
 73
     2
 40
0.11811023622
 49
0.07874015748
 74
     0
 49
-0.03937007874
 74
     0
  0
ENDTAB
  0
TABLE
  2
LAYER
  5
2
330
0
100
AcDbSymbolTable
 70
     6
  0
LAYER
  5
10
330
2
100
AcDbSymbolTableRecord
100
AcDbLayerTableRecord
  2
0
 70
     0
 62
     7
  6
CONTINUOUS
  0
LAYER
  5
39
330
2
100
AcDbSymbolTableRecord
100
AcDbLayerTableRecord
  2
HIDDEN
 70
     0
 62
     6
  6
HIDDEN
  0
LAYER
  5
3A
330
2
100
AcDbSymbolTableRecord
100
AcDbLayerTableRecord
  2
DIM
 70
     0
 62
     5
  6
CONTINUOUS
  0
LAYER
  5
3B
330
2
100
AcDbSymbolTableRecord
100
AcDbLayerTableRecord
  2
CENTER
 70
     0
 62
     1
  6
CENTER
  0
LAYER
  5
FF1
330
2
100
AcDbSymbolTableRecord
100
AcDbLayerTableRecord
  2
LOGO
 70
     0
 62
     7
  6
CONTINUOUS
  0
LAYER
  5
3180
330
2
100
AcDbSymbolTableRecord
100
AcDbLayerTableRecord
  2
AM_VIS
 70
     0
 62
     7
  6
CONTINUOUS
  0
ENDTAB
  0
TABLE
  2
STYLE
  5
3
330
0
100
AcDbSymbolTable
 70
     9
  0
STYLE
  5
11
330
3
100
AcDbSymbolTableRecord
100
AcDbTextStyleTableRecord
  2
STANDARD
 70
     0
 40
0.0
 41
1.0
 50
0.0
 71
     0
 42
3.0
  3

  4

  0
STYLE
  5
30
330
3
100
AcDbSymbolTableRecord
100
AcDbTextStyleTableRecord
  2
ITALICT
 70
     0
 40
0.0
 41
1.0
 50
0.0
 71
     0
 42
3.0
  3
ITALICT.SHX
  4

  0
STYLE
  5
31
330
3
100
AcDbSymbolTableRecord
100
AcDbTextStyleTableRecord
  2
ROMANS
 70
     0
 40
0.0
 41
1.0
 50
0.0
 71
     0
 42
3.0
  3
ROMANS.SHX
  4
LMP
  0
STYLE
  5
34
330
3
100
AcDbSymbolTableRecord
100
AcDbTextStyleTableRecord
  2
ROMANSS
 70
     0
 40
0.0
 41
1.0
 50
0.0
 71
     0
 42
3.0
  3
ROMANSS.SHX
  4
LMP
  0
STYLE
  5
FF2
330
3
100
AcDbSymbolTableRecord
100
AcDbTextStyleTableRecord
  2
CHINESET
 70
     0
 40
0.0
 41
1.0
 50
0.0
 71
     0
 42
4.0
  3
C:\r13\com\fonts\simplex.shx
  4
C:\r13\com\fonts\chineset.shx
  0
STYLE
  5
FF3
330
3
100
AcDbSymbolTableRecord
100
AcDbTextStyleTableRecord
  2
LOGO
 70
     0
 40
0.0
 41
1.0
 50
0.0
 71
     0
 42
5.0
  3
LEI00DP.TTF
  4

1001
ACAD
1000
文鼎中粗隸
1071
    34865
  0
STYLE
  5
3153
330
3
100
AcDbSymbolTableRecord
100
AcDbTextStyleTableRecord
  2

 70
     1
 40
0.0
 41
1.0
 50
0.0
 71
     0
 42
3.0
  3
ltypeshp.shx
  4

  0
STYLE
  5
3159
330
3
100
AcDbSymbolTableRecord
100
AcDbTextStyleTableRecord
  2
ACANSTS
 70
     0
 40
1.0
 41
1.0
 50
0.0
 71
     0
 42
3.0
  3
romans.shx
  4
chineset.shx
  0
STYLE
  5
3164
330
3
100
AcDbSymbolTableRecord
100
AcDbTextStyleTableRecord
  2
ACANSGDT
 70
     0
 40
0.0
 41
1.0
 50
0.0
 71
     0
 42
3.0
  3
amgdtans.shx
  4

  0
ENDTAB
  0
TABLE
  2
VIEW
  5
6
330
0
100
AcDbSymbolTable
 70
     0
  0
ENDTAB
  0
TABLE
  2
UCS
  5
7
330
0
100
AcDbSymbolTable
 70
     0
  0
ENDTAB
  0
TABLE
  2
APPID
  5
9
330
0
100
AcDbSymbolTable
 70
     5
  0
APPID
  5
12
330
9
100
AcDbSymbolTableRecord
100
AcDbRegAppTableRecord
  2
ACAD
 70
     0
  0
APPID
  5
38
330
9
100
AcDbSymbolTableRecord
100
AcDbRegAppTableRecord
  2
TCAD
 70
     0
  0
APPID
  5
312E
330
9
100
AcDbSymbolTableRecord
100
AcDbRegAppTableRecord
  2
MCAD_NO_VIS
 70
     0
  0
APPID
  5
312F
330
9
100
AcDbSymbolTableRecord
100
AcDbRegAppTableRecord
  2
ACAD_TEMP_GRAPHIC
 70
     0
  0
APPID
  5
3140
330
9
100
AcDbSymbolTableRecord
100
AcDbRegAppTableRecord
  2
ACATTRIBSERVICES
 70
     0
  0
ENDTAB
  0
TABLE
  2
DIMSTYLE
  5
A
330
0
100
AcDbSymbolTable
 70
     7
  0
DIMSTYLE
105
F1B
330
A
100
AcDbSymbolTableRecord
100
AcDbDimStyleTableRecord
  2
STANDARD
 70
     0
  3

  4

  5

  6

  7

 40
1.0
 41
0.18
 42
0.0625
 43
0.38
 44
0.18
 45
0.0
 46
0.0
 47
0.0
 48
0.0
140
0.18
141
0.09
142
0.0
143
25.4
144
1.0
145
0.0
146
1.0
147
0.09
 71
     0
 72
     0
 73
     1
 74
     1
 75
     0
 76
     0
 77
     0
 78
     0
170
     0
171
     2
172
     0
173
     0
174
     0
175
     0
176
     0
177
     0
178
     0
270
     2
271
     4
272
     4
273
     2
274
     2
340
11
275
     0
280
     0
281
     0
282
     0
283
     1
284
     0
285
     0
286
     0
287
     3
288
     0
  0
DIMSTYLE
105
316A
330
A
100
AcDbSymbolTableRecord
100
AcDbDimStyleTableRecord
  2
AM_ANSI
 70
     0
  3

  4
mm
  5

  6

  7

 40
1.0
 41
0.1
 42
0.05
 43
0.5
 44
0.1
 45
0.0
 46
0.0
 47
0.1
 48
0.1
140
0.12
141
0.0
142
0.0
143
25.4
144
1.0
145
0.0
146
0.71
147
0.06
 71
     0
 72
     0
 73
     1
 74
     1
 75
     0
 76
     0
 77
     0
 78
     7
170
     0
171
     2
172
     0
173
     0
174
     0
175
     0
176
   256
177
   256
178
     2
270
     2
271
     4
272
     4
273
     2
274
     4
340
11
275
     0
280
     0
281
     0
282
     0
283
     1
284
     7
285
     0
286
     0
287
     3
288
     0
  0
DIMSTYLE
105
316B
330
A
100
AcDbSymbolTableRecord
100
AcDbDimStyleTableRecord
  2
AM_ANSI$3
 70
     0
  3

  4
mm
  5

  6

  7

 40
1.0
 41
0.1
 42
0.05
 43
0.5
 44
0.1
 45
0.0
 46
0.0
 47
0.1
 48
0.1
140
0.12
141
0.0
142
0.0
143
25.4
144
1.0
145
0.0
146
0.71
147
0.06
 71
     0
 72
     0
 73
     1
 74
     1
 75
     0
 76
     0
 77
     0
 78
     7
170
     0
171
     2
172
     0
173
     0
174
     0
175
     0
176
   256
177
   256
178
     2
270
     2
271
     4
272
     4
273
     2
274
     4
340
11
275
     0
280
     0
281
     0
282
     0
283
     1
284
     7
285
     0
286
     0
287
     0
288
     1
  0
DIMSTYLE
105
316C
330
A
100
AcDbSymbolTableRecord
100
AcDbDimStyleTableRecord
  2
AM_ANSI$4
 70
     0
  3

  4
mm
  5

  6

  7

 40
1.0
 41
0.1
 42
0.05
 43
0.5
 44
0.1
 45
0.0
 46
0.0
 47
0.1
 48
0.1
140
0.12
141
0.0
142
0.0
143
25.4
144
1.0
145
0.0
146
0.71
147
0.06
 71
     0
 72
     0
 73
     1
 74
     1
 75
     0
 76
     0
 77
     0
 78
     7
170
     0
171
     2
172
     0
173
     0
174
     0
175
     0
176
   256
177
   256
178
     2
270
     2
271
     4
272
     4
273
     2
274
     4
340
11
275
     0
280
     0
281
     0
282
     0
283
     1
284
     7
285
     0
286
     0
287
     0
288
     1
  0
DIMSTYLE
105
316D
330
A
100
AcDbSymbolTableRecord
100
AcDbDimStyleTableRecord
  2
AM_ANSI$7
 70
     0
  3

  4
mm
  5

  6

  7

 40
1.0
 41
0.1
 42
0.05
 43
0.5
 44
0.1
 45
0.0
 46
0.0
 47
0.1
 48
0.1
140
0.24
141
0.0
142
0.0
143
25.4
144
1.0
145
0.0
146
0.71
147
0.06
 71
     0
 72
     0
 73
     1
 74
     1
 75
     0
 76
     0
 77
     0
 78
     7
170
     0
171
     2
172
     0
173
     0
174
     0
175
     0
176
   256
177
   256
178
     2
270
     2
271
     4
272
     4
273
     2
274
     4
340
11
275
     0
280
     0
281
     0
282
     0
283
     1
284
     7
285
     0
286
     0
287
     3
288
     0
  0
DIMSTYLE
105
316E
330
A
100
AcDbSymbolTableRecord
100
AcDbDimStyleTableRecord
  2
AM_ANSI$SF
 70
     0
  3

  4
mm
  5

  6

  7

 40
1.0
 41
0.1
 42
0.05
 43
0.5
 44
0.1
 45
0.0
 46
0.0
 47
0.1
 48
0.1
140
0.12
141
0.0
142
0.0
143
25.4
144
1.0
145
0.0
146
0.71
147
0.06
 71
     0
 72
     0
 73
     1
 74
     1
 75
     1
 76
     1
 77
     0
 78
     7
170
     0
171
     2
172
     0
173
     0
174
     0
175
     0
176
   256
177
   256
178
     2
270
     2
271
     4
272
     4
273
     2
274
     4
340
11
275
     0
280
     0
281
     0
282
     0
283
     1
284
     7
285
     0
286
     0
287
     3
288
     0
  0
DIMSTYLE
105
3173
330
A
100
AcDbSymbolTableRecord
100
AcDbDimStyleTableRecord
  2
AM_ANSI$SH
 70
     0
  3

  4
mm
  5

  6
GENAXEH
  7

 40
1.0
 41
0.1
 42
0.05
 43
0.5
 44
0.1
 45
0.0
 46
0.0
 47
0.1
 48
0.1
140
0.12
141
0.0
142
0.0
143
25.4
144
1.0
145
0.0
146
0.71
147
0.06
 71
     0
 72
     0
 73
     1
 74
     1
 75
     1
 76
     1
 77
     0
 78
     7
170
     0
171
     2
172
     0
173
     1
174
     0
175
     0
176
   256
177
   256
178
     2
270
     2
271
     4
272
     4
273
     2
274
     4
340
11
275
     0
280
     0
281
     0
282
     0
283
     1
284
     7
285
     0
286
     0
287
     3
288
     0
  0
ENDTAB
  0
TABLE
  2
BLOCK_RECORD
  5
1
330
0
100
AcDbSymbolTable
 70
     1
  0
BLOCK_RECORD
  5
1E
102
{ACAD_XDICTIONARY
360
2C74
102
}
330
1
100
AcDbSymbolTableRecord
100
AcDbBlockTableRecord
  2
*MODEL_SPACE
  0
BLOCK_RECORD
  5
1A
102
{ACAD_XDICTIONARY
360
2C76
102
}
330
1
100
AcDbSymbolTableRecord
100
AcDbBlockTableRecord
  2
*PAPER_SPACE
  0
BLOCK_RECORD
  5
316F
330
1
100
AcDbSymbolTableRecord
100
AcDbBlockTableRecord
  2
GENAXEH
  0
ENDTAB
  0
ENDSEC
  0
SECTION
  2
BLOCKS
  0
BLOCK
  5
3E
330
1E
100
AcDbEntity
  8
0
100
AcDbBlockBegin
  2
*MODEL_SPACE
 70
     0
 10
0.0
 20
0.0
 30
0.0
  3
*MODEL_SPACE
  1

  0
ENDBLK
  5
3F
330
1E
100
AcDbEntity
  8
0
100
AcDbBlockEnd
  0
BLOCK
  5
3C
330
1A
100
AcDbEntity
 67
     1
  8
0
100
AcDbBlockBegin
  2
*PAPER_SPACE
 70
     0
 10
0.0
 20
0.0
 30
0.0
  3
*PAPER_SPACE
  1

  0
ENDBLK
  5
3D
330
1A
100
AcDbEntity
 67
     1
  8
0
100
AcDbBlockEnd
  0
BLOCK
  5
3171
330
316F
100
AcDbEntity
  8
0
100
AcDbBlockBegin
  2
GENAXEH
 70
     0
 10
0.0
 20
0.0
 30
0.0
  3
GENAXEH
  1

  0
LINE
  5
3170
330
316F
100
AcDbEntity
  8
0
100
AcDbLine
 10
-1.0
 20
0.0
 30
0.0
 11
1.0
 21
0.0
 31
0.0
  0
ENDBLK
  5
3172
330
316F
100
AcDbEntity
  8
0
100
AcDbBlockEnd
  0
ENDSEC
  0
SECTION
  2
ENTITIES
  0
LINE
  5
B2E
330
1E
100
AcDbEntity
  8
0
 62
     4
100
AcDbLine
 10
835.0
 20
521.4338523162
 30
0.0
 11
835.0
 21
87.0
 31
0.0
  0
LINE
  5
B2F
330
1E
100
AcDbEntity
  8
0
 62
     4
100
AcDbLine
 10
30.0
 20
87.0
 30
0.0
 11
30.0
 21
521.4338523162
 31
0.0
  0
LINE
  5
B30
330
1E
100
AcDbEntity
  8
0
 62
     4
100
AcDbLine
 10
835.0
 20
87.0
 30
0.0
 11
30.0
 21
87.0
 31
0.0
  0
LINE
  5
B32
330
1E
100
AcDbEntity
  8
0
 62
     4
100
AcDbLine
 10
30.0
 20
521.4338523162
 30
0.0
 11
835.0
 21
521.4338523162
 31
0.0
  0
LINE
  5
F1C
330
1E
100
AcDbEntity
  8
0
 62
     4
100
AcDbLine
 10
610.6262322329939
 20
521.4338523162
 30
0.0
 11
610.6262322329939
 21
87.0
 31
0.0
  0
LINE
  5
F89
330
1E
100
AcDbEntity
  8
CENTER
  6
CENTER
100
AcDbLine
 10
629.070037871812
 20
383.1996516912818
 30
0.0
 11
768.5285393796099
 21
383.1996516912819
 31
0.0
  0
LINE
  5
F8A
330
1E
100
AcDbEntity
  8
DIM
100
AcDbLine
 10
646.5700378718119
 20
252.0862079190184
 30
0.0
 11
750.570037871812
 21
252.0862079190184
 31
0.0
  0
LINE
  5
F8B
330
1E
100
AcDbEntity
  8
DIM
100
AcDbLine
 10
631.070037871812
 20
244.0862079190184
 30
0.0
 11
766.070037871812
 21
244.0862079190184
 31
0.0
  0
LINE
  5
F8C
330
1E
100
AcDbEntity
  8
0
100
AcDbLine
 10
631.570037871812
 20
393.1996516912818
 30
0.0
 11
765.570037871812
 21
393.1996516912818
 31
0.0
  0
LINE
  5
F8D
330
1E
100
AcDbEntity
  8
0
100
AcDbLine
 10
631.570037871812
 20
373.1996516912818
 30
0.0
 11
765.570037871812
 21
373.1996516912818
 31
0.0
  0
LINE
  5
F8E
330
1E
100
AcDbEntity
  8
CENTER
  6
CENTER
100
AcDbLine
 10
628.5003478220466
 20
327.5862079190184
 30
0.0
 11
768.070037871812
 21
327.5862079190184
 31
0.0
  0
LINE
  5
F8F
330
1E
100
AcDbEntity
  8
0
100
AcDbLine
 10
633.0700378718121
 20
260.0862079190185
 30
0.0
 11
764.070037871812
 21
260.0862079190184
 31
0.0
  0
LINE
  5
F90
330
1E
100
AcDbEntity
  8
0
100
AcDbLine
 10
673.070037871812
 20
292.5862079190185
 30
0.0
 11
724.070037871812
 21
292.5862079190185
 31
0.0
  0
LINE
  5
F91
330
1E
100
AcDbEntity
  8
DIM
100
AcDbLine
 10
646.5700378718122
 20
312.3041991668729
 30
0.0
 11
646.5700378718119
 21
251.0862079190184
 31
0.0
  0
LINE
  5
F92
330
1E
100
AcDbEntity
  8
CENTER
  6
CENTER
100
AcDbLine
 10
698.570037871812
 20
259.0862079190184
 30
0.0
 11
698.570037871812
 21
361.0862079190184
 31
0.0
  0
LINE
  5
F93
330
1E
100
AcDbEntity
  8
0
100
AcDbLine
 10
663.5700378718119
 20
302.0862079190184
 30
0.0
 11
663.5700378718119
 21
359.0862079190184
 31
0.0
  0
LINE
  5
F94
330
1E
100
AcDbEntity
  8
0
100
AcDbLine
 10
631.0700378718121
 20
262.0862079190185
 30
0.0
 11
631.070037871812
 21
359.5862079190184
 31
0.0
  0
LINE
  5
F95
330
1E
100
AcDbEntity
  8
DIM
100
AcDbLine
 10
631.070037871812
 20
259.3426790799522
 30
0.0
 11
631.070037871812
 21
243.0862079190184
 31
0.0
  0
SOLID
  5
F96
330
1E
100
AcDbEntity
  8
DIM
100
AcDbTrace
 10
634.0700378718119
 20
244.5862079190184
 30
0.0
 11
634.0700378718119
 21
243.5862079190184
 31
0.0
 12
631.070037871812
 22
244.0862079190184
 32
0.0
 13
631.070037871812
 23
244.0862079190184
 33
0.0
  0
ARC
  5
F97
330
1E
100
AcDbEntity
  8
0
100
AcDbCircle
 10
673.070037871812
 20
302.0862079190185
 30
0.0
 40
9.5
100
AcDbArc
 50
180.0
 51
270.0
  0
LINE
  5
F98
330
1E
100
AcDbEntity
  8
0
100
AcDbLine
 10
633.0700378718121
 20
260.0862079190185
 30
0.0
 11
631.0700378718121
 21
262.0862079190185
 31
0.0
  0
SOLID
  5
F99
330
1E
100
AcDbEntity
  8
DIM
100
AcDbTrace
 10
649.570037871812
 20
252.5862079190184
 30
0.0
 11
649.570037871812
 21
251.5862079190184
 31
0.0
 12
646.5700378718119
 22
252.0862079190184
 32
0.0
 13
646.5700378718119
 23
252.0862079190184
 33
0.0
  0
TEXT
  5
F9A
330
1E
100
AcDbEntity
  8
DIM
100
AcDbText
 10
694.6017886850419
 20
245.2862079190184
 30
0.0
 40
3.0
  1
135
  7
ROMANS
 72
     1
 11
699.1017886850419
 21
246.7862079190184
 31
0.0
100
AcDbText
 73
     2
  0
TEXT
  5
F9B
330
1E
100
AcDbEntity
  8
DIM
100
AcDbText
 10
694.3766670111649
 20
253.3526440583658
 30
0.0
 40
3.0
  1
104
  7
ROMANS
 72
     1
 11
698.9480955825935
 21
254.8526440583658
 31
0.0
100
AcDbText
 73
     2
  0
LINE
  5
F9C
330
1E
100
AcDbEntity
  8
0
100
AcDbLine
 10
647.3200378718121
 20
373.1996516912818
 30
0.0
 11
647.320037871812
 21
393.1996516912818
 31
0.0
  0
LINE
  5
F9D
330
1E
100
AcDbEntity
  8
0
100
AcDbLine
 10
645.8200378718121
 20
373.1996516912818
 30
0.0
 11
645.820037871812
 21
393.1996516912818
 31
0.0
  0
LINE
  5
F9E
330
1E
100
AcDbEntity
  8
0
100
AcDbLine
 10
663.5700378718119
 20
373.1996516912818
 30
0.0
 11
663.5700378718119
 21
393.1996516912818
 31
0.0
  0
LINE
  5
F9F
330
1E
100
AcDbEntity
  8
CENTER
  6
CENTER
100
AcDbLine
 10
646.5700378718119
 20
371.1996516912818
 30
0.0
 11
646.5700378718119
 21
395.1996516912818
 31
0.0
  0
LINE
  5
FA0
330
1E
100
AcDbEntity
  8
CENTER
  6
CENTER
100
AcDbLine
 10
698.570037871812
 20
371.1996516912818
 30
0.0
 11
698.570037871812
 21
395.8255789869167
 31
0.0
  0
LINE
  5
FA1
330
1E
100
AcDbEntity
  8
0
100
AcDbLine
 10
631.070037871812
 20
373.6996516912818
 30
0.0
 11
631.070037871812
 21
392.6996516912818
 31
0.0
  0
LINE
  5
FA2
330
1E
100
AcDbEntity
  8
0
100
AcDbLine
 10
645.820037871812
 20
337.558043256608
 30
0.0
 11
645.820037871812
 21
360.0862079190184
 31
0.0
  0
LINE
  5
FA3
330
1E
100
AcDbEntity
  8
0
100
AcDbLine
 10
647.320037871812
 20
337.558043256608
 30
0.0
 11
647.320037871812
 21
360.0862079190184
 31
0.0
  0
LINE
  5
FA4
330
1E
100
AcDbEntity
  8
CENTER
  6
CENTER
100
AcDbLine
 10
646.5700378718119
 20
314.5862079190184
 30
0.0
 11
646.5700378718119
 21
361.9720710681177
 31
0.0
  0
ARC
  5
FA5
330
1E
100
AcDbEntity
  8
0
100
AcDbCircle
 10
646.5700378718119
 20
327.5862079190184
 30
0.0
 40
10.0
100
AcDbArc
 50
94.30122230467302
 51
85.69877769532698
  0
LINE
  5
FA6
330
1E
100
AcDbEntity
  8
0
100
AcDbLine
 10
645.820037871812
 20
360.0862079190184
 30
0.0
 11
631.570037871812
 21
360.0862079190184
 31
0.0
  0
LINE
  5
FA7
330
1E
100
AcDbEntity
  8
CENTER
  6
CENTER
100
AcDbLine
 10
628.178287533463
 20
347.8362079190184
 30
0.0
 11
666.7170193196883
 21
347.8362079190184
 31
0.0
  0
LINE
  5
FA8
330
1E
100
AcDbEntity
  8
0
100
AcDbLine
 10
631.070037871812
 20
359.5862079190184
 30
0.0
 11
631.570037871812
 21
360.0862079190184
 31
0.0
  0
LINE
  5
FA9
330
1E
100
AcDbEntity
  8
0
100
AcDbLine
 10
631.070037871812
 20
373.6996516912818
 30
0.0
 11
631.570037871812
 21
373.1996516912818
 31
0.0
  0
LINE
  5
FAA
330
1E
100
AcDbEntity
  8
0
100
AcDbLine
 10
645.820037871812
 20
342.8362079190183
 30
0.0
 11
647.320037871812
 21
342.8362079190183
 31
0.0
  0
LINE
  5
FAB
330
1E
100
AcDbEntity
  8
0
100
AcDbLine
 10
645.820037871812
 20
352.8362079190184
 30
0.0
 11
647.320037871812
 21
352.8362079190183
 31
0.0
  0
LINE
  5
FAC
330
1E
100
AcDbEntity
  8
0
100
AcDbLine
 10
662.570037871812
 20
360.0862079190184
 30
0.0
 11
647.320037871812
 21
360.0862079190184
 31
0.0
  0
LINE
  5
FAD
330
1E
100
AcDbEntity
  8
0
100
AcDbLine
 10
662.570037871812
 20
360.0862079190184
 30
0.0
 11
663.5700378718119
 21
359.0862079190184
 31
0.0
  0
LINE
  5
FAE
330
1E
100
AcDbEntity
  8
0
100
AcDbLine
 10
631.070037871812
 20
392.6996516912818
 30
0.0
 11
631.570037871812
 21
393.1996516912818
 31
0.0
  0
LINE
  5
FAF
330
1E
100
AcDbEntity
  8
0
100
AcDbLine
 10
645.8200378718121
 20
378.1996516912818
 30
0.0
 11
647.320037871812
 21
378.1996516912818
 31
0.0
  0
LINE
  5
FB0
330
1E
100
AcDbEntity
  8
0
100
AcDbLine
 10
645.820037871812
 20
388.1996516912818
 30
0.0
 11
647.320037871812
 21
388.1996516912818
 31
0.0
  0
LINE
  5
FB1
330
1E
100
AcDbEntity
  8
CENTER
  6
CENTER
100
AcDbLine
 10
807.5573547528076
 20
362.0862079190184
 30
0.0
 11
807.5573547528076
 21
257.8279687087395
 31
0.0
  0
LINE
  5
FB2
330
1E
100
AcDbEntity
  8
DIM
100
AcDbLine
 10
750.570037871812
 20
312.3607187311672
 30
0.0
 11
750.570037871812
 21
251.0862079190184
 31
0.0
  0
TEXT
  5
FB3
330
1E
100
AcDbEntity
  8
DIM
100
AcDbText
 10
781.1700378718121
 20
305.5017593756995
 30
0.0
 40
3.0
  1
100
 50
90.0
  7
ROMANS
 72
     1
 11
779.6700378718122
 21
310.0017593756995
 31
0.0
100
AcDbText
 73
     2
  0
LINE
  5
FB4
330
1E
100
AcDbEntity
  8
DIM
100
AcDbLine
 10
782.070037871812
 20
260.0862079190185
 30
0.0
 11
782.070037871812
 21
360.0862079190184
 31
0.0
  0
LINE
  5
FB5
330
1E
100
AcDbEntity
  8
DIM
100
AcDbLine
 10
774.070037871812
 20
260.0862079190185
 30
0.0
 11
774.070037871812
 21
360.0862079190184
 31
0.0
  0
LINE
  5
FB6
330
1E
100
AcDbEntity
  8
0
100
AcDbLine
 10
733.570037871812
 20
302.0862079190185
 30
0.0
 11
733.570037871812
 21
359.0862079190184
 31
0.0
  0
LINE
  5
FB7
330
1E
100
AcDbEntity
  8
0
100
AcDbLine
 10
817.5573547528076
 20
359.5862079190184
 30
0.0
 11
817.5573547528076
 21
260.5862079190185
 31
0.0
  0
LINE
  5
FB8
330
1E
100
AcDbEntity
  8
0
100
AcDbLine
 10
797.5573547528076
 20
359.5862079190184
 30
0.0
 11
797.5573547528076
 21
260.5862079190185
 31
0.0
  0
LINE
  5
FB9
330
1E
100
AcDbEntity
  8
0
100
AcDbLine
 10
766.070037871812
 20
262.0862079190184
 30
0.0
 11
766.070037871812
 21
359.5862079190184
 31
0.0
  0
LINE
  5
FBA
330
1E
100
AcDbEntity
  8
HIDDEN
  6
HIDDEN
100
AcDbLine
 10
797.5573547528076
 20
292.5862079190185
 30
0.0
 11
817.5573547528076
 21
292.5862079190185
 31
0.0
  0
TEXT
  5
FBB
330
1E
100
AcDbEntity
  8
DIM
100
AcDbText
 10
805.1098404807063
 20
253.2862079190184
 30
0.0
 40
3.0
  1
20
  7
ROMANS
 72
     1
 11
807.9669833378494
 21
254.7862079190184
 31
0.0
100
AcDbText
 73
     2
  0
LINE
  5
FBC
330
1E
100
AcDbEntity
  8
DIM
100
AcDbLine
 10
800.5573547528076
 20
252.0862079190184
 30
0.0
 11
814.5573547528076
 21
252.0862079190184
 31
0.0
  0
LINE
  5
FBD
330
1E
100
AcDbEntity
  8
0
100
AcDbLine
 10
798.0573547528076
 20
260.0862079190185
 30
0.0
 11
817.0573547528077
 21
260.0862079190185
 31
0.0
  0
LINE
  5
FBE
330
1E
100
AcDbEntity
  8
DIM
100
AcDbLine
 10
766.070037871812
 20
259.4585215709827
 30
0.0
 11
766.070037871812
 21
243.0862079190184
 31
0.0
  0
SOLID
  5
FBF
330
1E
100
AcDbEntity
  8
DIM
100
AcDbTrace
 10
763.070037871812
 20
244.5862079190184
 30
0.0
 11
763.070037871812
 21
243.5862079190184
 31
0.0
 12
766.070037871812
 22
244.0862079190184
 32
0.0
 13
766.070037871812
 23
244.0862079190184
 33
0.0
  0
SOLID
  5
FC0
330
1E
100
AcDbEntity
  8
DIM
100
AcDbTrace
 10
747.570037871812
 20
252.5862079190184
 30
0.0
 11
747.570037871812
 21
251.5862079190184
 31
0.0
 12
750.570037871812
 22
252.0862079190184
 32
0.0
 13
750.570037871812
 23
252.0862079190184
 33
0.0
  0
ARC
  5
FC1
330
1E
100
AcDbEntity
  8
0
100
AcDbCircle
 10
724.070037871812
 20
302.0862079190185
 30
0.0
 40
9.5
100
AcDbArc
 50
270.0
 51
0.0
  0
SOLID
  5
FC2
330
1E
100
AcDbEntity
  8
DIM
100
AcDbTrace
 10
774.4867045384787
 20
262.5862079190183
 30
0.0
 11
773.6533712051453
 21
262.5862079190183
 31
0.0
 12
774.070037871812
 22
260.0862079190183
 32
0.0
 13
774.070037871812
 23
260.0862079190183
 33
0.0
  0
SOLID
  5
FC3
330
1E
100
AcDbEntity
  8
DIM
100
AcDbTrace
 10
782.4867045384787
 20
262.5862079190185
 30
0.0
 11
781.6533712051453
 21
262.5862079190185
 31
0.0
 12
782.070037871812
 22
260.0862079190185
 32
0.0
 13
782.070037871812
 23
260.0862079190185
 33
0.0
  0
LINE
  5
FC4
330
1E
100
AcDbEntity
  8
0
100
AcDbLine
 10
766.070037871812
 20
262.0862079190184
 30
0.0
 11
764.070037871812
 21
260.0862079190184
 31
0.0
  0
LINE
  5
FC5
330
1E
100
AcDbEntity
  8
DIM
100
AcDbLine
 10
765.070037871812
 20
260.0862079190185
 30
0.0
 11
783.070037871812
 21
260.0862079190185
 31
0.0
  0
LINE
  5
FC6
330
1E
100
AcDbEntity
  8
0
100
AcDbLine
 10
797.5573547528076
 20
260.5862079190185
 30
0.0
 11
798.0573547528076
 21
260.0862079190185
 31
0.0
  0
LINE
  5
FC7
330
1E
100
AcDbEntity
  8
DIM
100
AcDbLine
 10
797.5573547528076
 20
259.5862079190184
 30
0.0
 11
797.5573547528076
 21
251.0862079190184
 31
0.0
  0
SOLID
  5
FC8
330
1E
100
AcDbEntity
  8
DIM
100
AcDbTrace
 10
800.5573547528076
 20
251.5862079190184
 30
0.0
 11
800.5573547528076
 21
252.5862079190184
 31
0.0
 12
797.5573547528076
 22
252.0862079190184
 32
0.0
 13
797.5573547528076
 23
252.0862079190184
 33
0.0
  0
TEXT
  5
FC9
330
1E
100
AcDbEntity
  8
DIM
100
AcDbText
 10
773.1700378718121
 20
290.2653942744805
 30
0.0
 40
3.0
  1
67.5
 50
90.0
  7
ROMANS
 72
     1
 11
771.6700378718122
 21
295.3368228459091
 31
0.0
100
AcDbText
 73
     2
  0
LINE
  5
FCA
330
1E
100
AcDbEntity
  8
0
100
AcDbLine
 10
817.5573547528076
 20
260.5862079190185
 30
0.0
 11
817.0573547528077
 21
260.0862079190185
 31
0.0
  0
SOLID
  5
FCB
330
1E
100
AcDbEntity
  8
DIM
100
AcDbTrace
 10
814.5573547528076
 20
251.5862079190184
 30
0.0
 11
814.5573547528076
 21
252.5862079190184
 31
0.0
 12
817.5573547528076
 22
252.0862079190184
 32
0.0
 13
817.5573547528076
 23
252.0862079190184
 33
0.0
  0
LINE
  5
FCC
330
1E
100
AcDbEntity
  8
DIM
100
AcDbLine
 10
817.5573547528076
 20
259.5862079190184
 30
0.0
 11
817.5573547528076
 21
251.0862079190184
 31
0.0
  0
POLYLINE
  5
FCD
330
1E
100
AcDbEntity
  8
0
100
AcDb2dPolyline
 66
     1
 10
0.0
 20
0.0
 30
0.0
 70
     1
  0
VERTEX
  5
2FF6
330
FCD
100
AcDbEntity
  8
0
100
AcDbVertex
100
AcDb2dVertex
 10
811.5573547528077
 20
345.5268068422599
 30
0.0
  0
VERTEX
  5
2FF7
330
FCD
100
AcDbEntity
  8
0
100
AcDbVertex
100
AcDb2dVertex
 10
811.5573547528075
 20
350.1456089957769
 30
0.0
  0
VERTEX
  5
2FF8
330
FCD
100
AcDbEntity
  8
0
100
AcDbVertex
100
AcDb2dVertex
 10
807.5573547528076
 20
352.4550100725353
 30
0.0
  0
VERTEX
  5
2FF9
330
FCD
100
AcDbEntity
  8
0
100
AcDbVertex
100
AcDb2dVertex
 10
803.5573547528077
 20
350.1456089957769
 30
0.0
  0
VERTEX
  5
2FFA
330
FCD
100
AcDbEntity
  8
0
100
AcDbVertex
100
AcDb2dVertex
 10
803.5573547528077
 20
345.5268068422599
 30
0.0
  0
VERTEX
  5
2FFB
330
FCD
100
AcDbEntity
  8
0
100
AcDbVertex
100
AcDb2dVertex
 10
807.5573547528076
 20
343.2174057655014
 30
0.0
  0
SEQEND
  5
2FFC
330
FCD
100
AcDbEntity
  8
0
  0
CIRCLE
  5
FCE
330
1E
100
AcDbEntity
  8
0
100
AcDbCircle
 10
807.5573547528076
 20
347.8362079190184
 30
0.0
 40
7.0
  0
CIRCLE
  5
FCF
330
1E
100
AcDbEntity
  8
0
100
AcDbCircle
 10
807.5573547528076
 20
347.8362079190184
 30
0.0
 40
8.0
  0
CIRCLE
  5
FD0
330
1E
100
AcDbEntity
  8
0
100
AcDbCircle
 10
807.5573547528076
 20
347.8362079190184
 30
0.0
 40
8.5
  0
LINE
  5
FD1
330
1E
100
AcDbEntity
  8
CENTER
  6
CENTER
100
AcDbLine
 10
795.5573547528075
 20
347.8362079190184
 30
0.0
 11
819.5573547528075
 21
347.8362079190184
 31
0.0
  0
LINE
  5
FD2
330
1E
100
AcDbEntity
  8
CENTER
  6
CENTER
100
AcDbLine
 10
795.5573547528076
 20
327.5862079190184
 30
0.0
 11
820.1832820484424
 21
327.5862079190184
 31
0.0
  0
LINE
  5
FD3
330
1E
100
AcDbEntity
  8
0
100
AcDbLine
 10
798.0573547528076
 20
360.0862079190184
 30
0.0
 11
817.0573547528077
 21
360.0862079190184
 31
0.0
  0
LINE
  5
FD4
330
1E
100
AcDbEntity
  8
0
100
AcDbLine
 10
751.320037871812
 20
373.1996516912818
 30
0.0
 11
751.320037871812
 21
393.1996516912818
 31
0.0
  0
LINE
  5
FD5
330
1E
100
AcDbEntity
  8
0
100
AcDbLine
 10
749.820037871812
 20
373.1996516912818
 30
0.0
 11
749.820037871812
 21
393.1996516912818
 31
0.0
  0
LINE
  5
FD6
330
1E
100
AcDbEntity
  8
0
100
AcDbLine
 10
733.570037871812
 20
373.1996516912818
 30
0.0
 11
733.570037871812
 21
393.1996516912818
 31
0.0
  0
LINE
  5
FD7
330
1E
100
AcDbEntity
  8
CENTER
  6
CENTER
100
AcDbLine
 10
750.570037871812
 20
371.1996516912818
 30
0.0
 11
750.570037871812
 21
395.1996516912818
 31
0.0
  0
LINE
  5
FD8
330
1E
100
AcDbEntity
  8
0
100
AcDbLine
 10
766.070037871812
 20
373.6996516912818
 30
0.0
 11
766.070037871812
 21
392.6996516912818
 31
0.0
  0
LINE
  5
FD9
330
1E
100
AcDbEntity
  8
CENTER
  6
CENTER
100
AcDbLine
 10
730.5695179867454
 20
347.8362079190184
 30
0.0
 11
769.1082497729706
 21
347.8362079190184
 31
0.0
  0
LINE
  5
FDA
330
1E
100
AcDbEntity
  8
0
100
AcDbLine
 10
751.320037871812
 20
360.0862079190184
 30
0.0
 11
765.570037871812
 21
360.0862079190184
 31
0.0
  0
LINE
  5
FDB
330
1E
100
AcDbEntity
  8
0
100
AcDbLine
 10
749.820037871812
 20
337.558043256608
 30
0.0
 11
749.820037871812
 21
360.0862079190184
 31
0.0
  0
LINE
  5
FDC
330
1E
100
AcDbEntity
  8
0
100
AcDbLine
 10
751.320037871812
 20
337.558043256608
 30
0.0
 11
751.320037871812
 21
360.0862079190184
 31
0.0
  0
LINE
  5
FDD
330
1E
100
AcDbEntity
  8
CENTER
  6
CENTER
100
AcDbLine
 10
750.570037871812
 20
314.5862079190184
 30
0.0
 11
750.570037871812
 21
361.9720710681177
 31
0.0
  0
ARC
  5
FDE
330
1E
100
AcDbEntity
  8
0
100
AcDbCircle
 10
750.570037871812
 20
327.5862079190184
 30
0.0
 40
10.0
100
AcDbArc
 50
94.30122230467302
 51
85.69877769532698
  0
LINE
  5
FDF
330
1E
100
AcDbEntity
  8
0
100
AcDbLine
 10
734.570037871812
 20
360.0862079190184
 30
0.0
 11
749.820037871812
 21
360.0862079190184
 31
0.0
  0
LINE
  5
FE0
330
1E
100
AcDbEntity
  8
0
100
AcDbLine
 10
733.570037871812
 20
359.0862079190184
 30
0.0
 11
734.570037871812
 21
360.0862079190184
 31
0.0
  0
LINE
  5
FE1
330
1E
100
AcDbEntity
  8
0
100
AcDbLine
 10
749.820037871812
 20
352.8362079190184
 30
0.0
 11
751.320037871812
 21
352.8362079190183
 31
0.0
  0
LINE
  5
FE2
330
1E
100
AcDbEntity
  8
0
100
AcDbLine
 10
749.820037871812
 20
342.8362079190183
 30
0.0
 11
751.320037871812
 21
342.8362079190183
 31
0.0
  0
TEXT
  5
FE3
330
1E
100
AcDbEntity
  8
DIM
100
AcDbText
 10
773.170037871812
 20
338.6319274085779
 30
0.0
 40
3.0
  1
32.5
 50
90.0
  7
ROMANS
 72
     1
 11
771.670037871812
 21
343.6319274085779
 31
0.0
100
AcDbText
 73
     2
  0
SOLID
  5
FE4
330
1E
100
AcDbEntity
  8
DIM
100
AcDbTrace
 10
773.6533712051453
 20
325.0862079190182
 30
0.0
 11
774.4867045384787
 21
325.0862079190182
 31
0.0
 12
774.070037871812
 22
327.5862079190183
 32
0.0
 13
774.070037871812
 23
327.5862079190183
 33
0.0
  0
LINE
  5
FE5
330
1E
100
AcDbEntity
  8
DIM
100
AcDbLine
 10
769.6763901794863
 20
327.5862079190184
 30
0.0
 11
775.070037871812
 21
327.5862079190184
 31
0.0
  0
SOLID
  5
FE6
330
1E
100
AcDbEntity
  8
DIM
100
AcDbTrace
 10
773.6533712051453
 20
330.0862079190184
 30
0.0
 11
774.4867045384787
 21
330.0862079190184
 31
0.0
 12
774.070037871812
 22
327.5862079190184
 32
0.0
 13
774.070037871812
 23
327.5862079190184
 33
0.0
  0
SOLID
  5
FE7
330
1E
100
AcDbEntity
  8
DIM
100
AcDbTrace
 10
782.4867045384787
 20
357.5862079190184
 30
0.0
 11
781.6533712051453
 21
357.5862079190184
 31
0.0
 12
782.070037871812
 22
360.0862079190184
 32
0.0
 13
782.070037871812
 23
360.0862079190184
 33
0.0
  0
SOLID
  5
FE8
330
1E
100
AcDbEntity
  8
DIM
100
AcDbTrace
 10
773.6533712051453
 20
357.5862079190184
 30
0.0
 11
774.4867045384787
 21
357.5862079190184
 31
0.0
 12
774.070037871812
 22
360.0862079190184
 32
0.0
 13
774.070037871812
 23
360.0862079190184
 33
0.0
  0
LINE
  5
FE9
330
1E
100
AcDbEntity
  8
DIM
100
AcDbLine
 10
766.570037871812
 20
360.0862079190184
 30
0.0
 11
783.070037871812
 21
360.0862079190184
 31
0.0
  0
LINE
  5
FEA
330
1E
100
AcDbEntity
  8
0
100
AcDbLine
 10
765.570037871812
 20
360.0862079190184
 30
0.0
 11
766.070037871812
 21
359.5862079190184
 31
0.0
  0
LINE
  5
FEB
330
1E
100
AcDbEntity
  8
0
100
AcDbLine
 10
765.570037871812
 20
373.1996516912818
 30
0.0
 11
766.070037871812
 21
373.6996516912818
 31
0.0
  0
LINE
  5
FEC
330
1E
100
AcDbEntity
  8
0
100
AcDbLine
 10
798.0573547528076
 20
360.0862079190184
 30
0.0
 11
797.5573547528076
 21
359.5862079190184
 31
0.0
  0
LINE
  5
FED
330
1E
100
AcDbEntity
  8
0
100
AcDbLine
 10
749.820037871812
 20
388.1996516912819
 30
0.0
 11
751.320037871812
 21
388.1996516912818
 31
0.0
  0
LINE
  5
FEE
330
1E
100
AcDbEntity
  8
0
100
AcDbLine
 10
749.820037871812
 20
378.1996516912818
 30
0.0
 11
751.320037871812
 21
378.1996516912818
 31
0.0
  0
LINE
  5
FEF
330
1E
100
AcDbEntity
  8
0
100
AcDbLine
 10
765.570037871812
 20
393.1996516912818
 30
0.0
 11
766.070037871812
 21
392.6996516912818
 31
0.0
  0
LINE
  5
FF0
330
1E
100
AcDbEntity
  8
0
100
AcDbLine
 10
817.0573547528077
 20
360.0862079190184
 30
0.0
 11
817.5573547528076
 21
359.5862079190184
 31
0.0
  0
TEXT
  5
FF4
330
1E
100
AcDbEntity
  8
LOGO
 62
     6
100
AcDbText
 10
619.9083537016189
 20
8.982378854625448
 30
0.0
 40
14.18502202643171
  1
行程
 41
0.9
  7
CHINESET
 72
     4
 11
632.6748735254073
 21
16.0748898678413
 31
0.0
100
AcDbText
  0
LINE
  5
FF5
330
1E
100
AcDbEntity
  8
LOGO
 62
     6
100
AcDbLine
 10
669.3048881037465
 20
-10.52202643171804
 30
0.0
 11
596.0448589470684
 21
-10.52202643171817
 31
0.0
  0
LINE
  5
FF6
330
1E
100
AcDbEntity
  8
LOGO
 62
     6
100
AcDbLine
 10
669.3048881037465
 20
28.48678414096916
 30
0.0
 11
596.0448589470684
 21
28.48678414096916
 31
0.0
  0
TEXT
  5
FF7
330
1E
100
AcDbEntity
  8
LOGO
  6
CONTINUOUS
 62
     6
100
AcDbText
 10
616.6322890907524
 20
-6.089207048458262
 30
0.0
 40
8.865638766519824
  1
Stroke
 41
0.8
  7
CHINESET
 72
     4
 11
632.6748735254073
 21
-1.656387665198352
 31
0.0
100
AcDbText
  0
TEXT
  5
FF8
330
1E
100
AcDbEntity
  8
LOGO
  6
CONTINUOUS
 62
     7
100
AcDbText
 10
628.4193673742025
 20
51.33637112939897
 30
0.0
 40
17.73127753303964
  1
0
  7
CHINESET
 72
     1
 11
634.3297932185492
 21
60.20200989591879
 31
0.0
100
AcDbText
 73
     2
  0
LINE
  5
FF9
330
1E
100
AcDbEntity
  8
LOGO
 62
     6
100
AcDbLine
 10
662.2123770905306
 20
76.36123348017623
 30
0.0
 11
603.1373699602842
 21
76.36123348017623
 31
0.0
  0
LINE
  5
FFA
330
1E
100
AcDbEntity
  8
LOGO
 62
     6
100
AcDbLine
 10
662.2123770905305
 20
44.44493392070482
 30
0.0
 11
603.1373699602842
 21
44.44493392070484
 31
0.0
  0
LINE
  5
FFB
330
1E
100
AcDbEntity
  8
LOGO
 62
     1
100
AcDbLine
 10
835.0
 20
87.0
 30
0.0
 11
30.0
 21
87.0
 31
0.0
  0
LINE
  5
FFC
330
1E
100
AcDbEntity
  8
LOGO
 62
     1
100
AcDbLine
 10
835.0
 20
-19.38766519823788
 30
0.0
 11
30.0
 21
-19.38766519823788
 31
0.0
  0
LINE
  5
FFD
330
1E
100
AcDbEntity
  8
LOGO
  6
CONTINUOUS
 62
     6
100
AcDbLine
 10
232.2795769057476
 20
58.7257013049784
 30
0.0
 11
251.6444880351953
 21
61.283575089713
 31
0.0
  0
LINE
  5
FFE
330
1E
100
AcDbEntity
  8
LOGO
  6
CONTINUOUS
 62
     6
100
AcDbLine
 10
232.2795769057476
 20
51.48721237495574
 30
0.0
 11
251.6444880351953
 21
48.92933859022113
 31
0.0
  0
LINE
  5
FFF
330
1E
100
AcDbEntity
  8
LOGO
 62
     1
100
AcDbLine
 10
264.0528634361232
 20
65.72246696035243
 30
0.0
 11
108.0176211453744
 21
65.72246696035243
 31
0.0
  0
LINE
  5
1000
330
1E
100
AcDbEntity
  8
LOGO
 62
     1
100
AcDbLine
 10
264.0528634361232
 20
44.44493392070484
 30
0.0
 11
108.0176211453744
 21
44.44493392070484
 31
0.0
  0
TEXT
  5
1001
330
1E
100
AcDbEntity
  8
LOGO
 62
     6
100
AcDbText
 10
209.0876572751785
 20
71.04185022026434
 30
0.0
 40
10.63876651982378
  1
1 : 1
  7
CHINESET
 72
     1
 11
227.8321506672489
 21
76.36123348017623
 31
0.0
100
AcDbText
 73
     2
  0
TEXT
  5
1002
330
1E
100
AcDbEntity
  8
LOGO
 62
     6
100
AcDbText
 10
209.0876572751785
 20
28.48678414096917
 30
0.0
 40
10.63876651982378
  1
m/m
  7
CHINESET
 72
     1
 11
227.8321506672489
 21
33.80616740088106
 31
0.0
100
AcDbText
 73
     2
  0
LINE
  5
1003
330
1E
100
AcDbEntity
  8
LOGO
 62
     1
100
AcDbLine
 10
264.0528634361232
 20
23.16740088105739
 30
0.0
 11
29.99999999999989
 21
23.16740088105739
 31
0.0
  0
TEXT
  5
1004
330
1E
100
AcDbEntity
  8
LOGO
  6
CONTINUOUS
 62
     5
100
AcDbText
 10
33.48224790800189
 20
1.512031076970245
 30
0.0
 40
15.95814977973568
  1
金器工業股份有限公司
 41
0.8
  7
LOGO
100
AcDbText
  0
TEXT
  5
1005
330
1E
100
AcDbEntity
  8
LOGO
  6
CONTINUOUS
 62
     5
100
AcDbText
 10
38.05169950109547
 20
-14.449245248955
 30
0.0
 40
10.63876651982378
  1
MINDMAN INDUSTRIAL CO.,LTD
 41
0.85
  7
CHINESET
100
AcDbText
  0
SOLID
  5
1006
330
1E
100
AcDbEntity
  8
LOGO
 62
     5
100
AcDbTrace
 10
41.03789100353419
 20
40.85283591109543
 30
0.0
 11
45.63781448547231
 21
40.8528359110939
 31
0.0
 12
64.83059866873365
 22
84.47279996395975
 32
0.0
 13
69.43052215067138
 23
84.47279996395671
 33
0.0
  0
SOLID
  5
1007
330
1E
100
AcDbEntity
  8
LOGO
 62
     5
100
AcDbTrace
 10
47.54123109869097
 20
40.85283591109543
 30
0.0
 11
52.14115458062868
 21
40.85283591109543
 31
0.0
 12
69.43052215067138
 22
80.98320283972901
 32
0.0
 13
64.83059866873365
 23
64.1168167392876
 33
0.0
  0
SOLID
  5
1008
330
1E
100
AcDbEntity
  8
LOGO
 62
     2
100
AcDbTrace
 10
45.63781448547231
 20
40.8528359110939
 30
0.0
 11
47.54123109869097
 21
40.85283591109543
 31
0.0
 12
69.43052215067138
 22
84.47279996395671
 32
0.0
 13
71.33393876388862
 23
84.47279996395671
 33
0.0
  0
SOLID
  5
1009
330
1E
100
AcDbEntity
  8
LOGO
 62
     5
100
AcDbTrace
 10
45.76906219947784
 20
32.92193335602906
 30
0.0
 11
47.35524271048951
 21
32.92193335602906
 31
0.0
 12
45.76906219947784
 22
24.99103080096419
 32
0.0
 13
47.35524271048951
 23
24.99103080096419
 33
0.0
  0
SOLID
  5
100A
330
1E
100
AcDbEntity
  8
LOGO
 62
     5
100
AcDbTrace
 10
33.66308562257272
 20
24.99103080096419
 30
0.0
 11
35.2492661335876
 21
24.99103080096419
 31
0.0
 12
39.71607391102428
 22
32.92193335602906
 32
0.0
 13
41.30225442203634
 23
32.92193335602906
 33
0.0
  0
SOLID
  5
100B
330
1E
100
AcDbEntity
  8
LOGO
 62
     5
100
AcDbTrace
 10
39.71607391102428
 20
32.92193335602906
 30
0.0
 11
41.30225442203634
 21
32.92193335602906
 31
0.0
 12
39.71607391102428
 22
24.99103080096419
 32
0.0
 13
41.30225442203634
 23
24.99103080096419
 33
0.0
  0
SOLID
  5
100C
330
1E
100
AcDbEntity
  8
LOGO
 62
     5
100
AcDbTrace
 10
39.71607391102428
 20
24.99103080096419
 30
0.0
 11
41.30225442203634
 21
24.99103080096419
 31
0.0
 12
45.76906219947784
 22
32.92193335602906
 32
0.0
 13
47.35524271048951
 23
32.92193335602906
 33
0.0
  0
LINE
  5
100D
330
1E
100
AcDbEntity
  8
LOGO
 62
     1
100
AcDbLine
 10
30.0
 20
-19.38766519823788
 30
0.0
 11
30.0
 21
87.0
 31
0.0
  0
TEXT
  5
100E
330
1E
100
AcDbEntity
  8
LOGO
 62
     6
100
AcDbText
 10
116.7898540748898
 20
71.04708583370912
 30
0.0
 40
10.63876651982378
  1
比例 Scale:
 41
0.9
  7
CHINESET
 72
     4
 11
150.5726872246695
 21
76.36123348017623
 31
0.0
100
AcDbText
  0
TEXT
  5
100F
330
1E
100
AcDbEntity
  8
LOGO
 62
     6
100
AcDbText
 10
120.5086729074889
 20
49.9139684649138
 30
0.0
 40
10.63876651982378
  1
投影 View:
 41
0.9
  7
CHINESET
 72
     4
 11
150.5726872246695
 21
55.08370044052863
 31
0.0
100
AcDbText
  0
TEXT
  5
1010
330
1E
100
AcDbEntity
  8
LOGO
 62
     6
100
AcDbText
 10
121.5488023127753
 20
28.48678414096917
 30
0.0
 40
10.63876651982378
  1
單位 Unit:
 41
0.9
  7
CHINESET
 72
     4
 11
150.5726872246695
 21
33.80616740088106
 31
0.0
100
AcDbText
  0
POLYLINE
  5
1011
330
1E
100
AcDbEntity
  8
LOGO
 62
     5
100
AcDb2dPolyline
 66
     1
 10
0.0
 20
0.0
 30
0.0
 70
     1
 40
1.588722466960352
 41
1.588722466960352
  0
VERTEX
  5
2FFD
330
1011
100
AcDbEntity
  8
LOGO
 62
     5
100
AcDbVertex
100
AcDb2dVertex
 10
84.38851347136882
 20
28.95648207849584
 30
0.0
 42
1.0
  0
VERTEX
  5
2FFE
330
1011
100
AcDbEntity
  8
LOGO
 62
     5
100
AcDbVertex
100
AcDb2dVertex
 10
90.74340333921012
 20
28.95648207849584
 30
0.0
 42
1.0
  0
SEQEND
  5
2FFF
330
1011
100
AcDbEntity
  8
LOGO
 62
     5
  0
LINE
  5
1012
330
1E
100
AcDbEntity
  8
LOGO
 62
     5
100
AcDbLine
 10
99.72656991102399
 20
24.99103080096419
 30
0.0
 11
99.72656991102399
 21
29.74957233400246
 31
0.0
  0
SOLID
  5
1013
330
1E
100
AcDbEntity
  8
LOGO
 62
     5
100
AcDbTrace
 10
89.9450705537618
 20
32.92193335602906
 30
0.0
 11
91.53125106477366
 21
32.92193335602906
 31
0.0
 12
89.9450705537618
 22
24.99103080096419
 32
0.0
 13
91.53125106477366
 23
24.99103080096419
 33
0.0
  0
SOLID
  5
1014
330
1E
100
AcDbEntity
  8
LOGO
 62
     5
100
AcDbTrace
 10
93.38184786697089
 20
24.99103080096419
 30
0.0
 11
94.9680283779856
 21
24.99103080096419
 31
0.0
 12
93.38184786697089
 22
32.92193335602906
 32
0.0
 13
94.9680283779856
 23
32.92193335602906
 33
0.0
  0
SOLID
  5
1015
330
1E
100
AcDbEntity
  8
LOGO
 62
     5
100
AcDbTrace
 10
98.14038940001232
 20
29.74957233400246
 30
0.0
 11
99.72656991102399
 21
29.74957233400226
 31
0.0
 12
98.14038940001232
 22
24.99103080096419
 32
0.0
 13
99.72656991102399
 23
24.99103080096419
 33
0.0
  0
SOLID
  5
1016
330
1E
100
AcDbEntity
  8
LOGO
 62
     5
100
AcDbTrace
 10
67.20971081720344
 20
35.30120412254971
 30
0.0
 11
68.79589132821511
 21
35.30120412254971
 31
0.0
 12
67.20971081720344
 22
24.99103080096419
 32
0.0
 13
68.79589132821511
 23
24.99103080096419
 33
0.0
  0
SOLID
  5
1017
330
1E
100
AcDbEntity
  8
LOGO
 62
     5
100
AcDbTrace
 10
70.64648813041697
 20
32.92193335602906
 30
0.0
 11
72.23266864142884
 21
32.92193335602906
 31
0.0
 12
70.64648813041697
 22
24.99103080096419
 32
0.0
 13
72.23266864142884
 23
24.99103080096419
 33
0.0
  0
SOLID
  5
1018
330
1E
100
AcDbEntity
  8
LOGO
 62
     5
100
AcDbTrace
 10
75.40502966345536
 20
29.74957233400246
 30
0.0
 11
76.99121017446724
 21
29.74957233400246
 31
0.0
 12
75.40502966345536
 22
24.99103080096419
 32
0.0
 13
76.99121017446724
 23
24.99103080096419
 33
0.0
  0
SOLID
  5
1019
330
1E
100
AcDbEntity
  8
LOGO
 62
     5
100
AcDbTrace
 10
80.16357119649397
 20
29.74957233400246
 30
0.0
 11
81.74975170750562
 21
29.74957233400246
 31
0.0
 12
80.16357119649397
 22
24.99103080096116
 32
0.0
 13
81.74975170750562
 23
24.99103080096116
 33
0.0
  0
LINE
  5
101A
330
1E
100
AcDbEntity
  8
LOGO
 62
     1
100
AcDbLine
 10
108.0176211453744
 20
23.16740088105727
 30
0.0
 11
108.0176211453744
 21
87.0
 31
0.0
  0
SOLID
  5
101B
330
1E
100
AcDbEntity
  8
LOGO
 62
     5
100
AcDbTrace
 10
52.66966992689863
 20
32.92193335602906
 30
0.0
 11
54.25585043791027
 21
32.92193335602906
 31
0.0
 12
52.66966992689863
 22
24.99103080096419
 32
0.0
 13
54.25585043791027
 23
24.99103080096419
 33
0.0
  0
SOLID
  5
101C
330
1E
100
AcDbEntity
  8
LOGO
 62
     5
100
AcDbTrace
 10
57.42821145993662
 20
29.74957233400246
 30
0.0
 11
59.01439197095131
 21
29.74957233400246
 31
0.0
 12
57.42821145993662
 22
24.99103080096419
 32
0.0
 13
59.01439197095131
 23
24.99103080096419
 33
0.0
  0
SOLID
  5
101D
330
1E
100
AcDbEntity
  8
LOGO
 62
     5
100
AcDbTrace
 10
49.23289261368468
 20
32.92193335602906
 30
0.0
 11
50.81907312470097
 21
32.92193335602906
 31
0.0
 12
49.23289261368468
 22
24.99103080096116
 32
0.0
 13
50.81907312470097
 23
24.99103080096419
 33
0.0
  0
POLYLINE
  5
101E
330
1E
100
AcDbEntity
  8
LOGO
 62
     5
100
AcDb2dPolyline
 66
     1
 10
0.0
 20
0.0
 30
0.0
 70
     1
 40
1.588722466960352
 41
1.588722466960352
  0
VERTEX
  5
3000
330
101E
100
AcDbEntity
  8
LOGO
 62
     5
100
AcDbVertex
100
AcDb2dVertex
 10
61.65315373481186
 20
28.95648207849584
 30
0.0
 42
1.0
  0
VERTEX
  5
3001
330
101E
100
AcDbEntity
  8
LOGO
 62
     5
100
AcDbVertex
100
AcDb2dVertex
 10
68.00804360265338
 20
28.95648207849584
 30
0.0
 42
1.0
  0
SEQEND
  5
3002
330
101E
100
AcDbEntity
  8
LOGO
 62
     5
  0
POLYLINE
  5
101F
330
1E
100
AcDbEntity
  8
LOGO
 62
     5
100
AcDb2dPolyline
 66
     1
 10
0.0
 20
0.0
 30
0.0
 40
1.588722466960352
 41
1.588722466960352
  0
VERTEX
  5
3003
330
101F
100
AcDbEntity
  8
LOGO
 62
     5
100
AcDbVertex
100
AcDb2dVertex
 10
98.93729258943968
 20
29.74957233400249
 30
0.0
 42
1.0
  0
VERTEX
  5
3004
330
101F
100
AcDbEntity
  8
LOGO
 62
     5
100
AcDbVertex
100
AcDb2dVertex
 10
94.17112518855843
 20
29.74957233400249
 30
0.0
 42
1.0
  0
SEQEND
  5
3005
330
101F
100
AcDbEntity
  8
LOGO
 62
     5
  0
SOLID
  5
1020
330
1E
100
AcDbEntity
  8
LOGO
 62
     5
100
AcDbTrace
 10
95.12664642908625
 20
40.8528359110939
 30
0.0
 11
99.72656991102399
 21
40.8528359110939
 31
0.0
 12
95.12664642908625
 22
84.47279996395671
 32
0.0
 13
99.72656991102399
 23
84.47279996395975
 33
0.0
  0
SOLID
  5
1021
330
1E
100
AcDbEntity
  8
LOGO
 62
     5
100
AcDbTrace
 10
71.33393876388862
 20
84.47279996395671
 30
0.0
 11
75.93386224582613
 21
84.47279996395975
 31
0.0
 12
71.33393876388862
 22
44.34243303532313
 32
0.0
 13
75.93386224582613
 23
61.20881913576454
 33
0.0
  0
SOLID
  5
1022
330
1E
100
AcDbEntity
  8
LOGO
 62
     5
100
AcDbTrace
 10
71.33393876388862
 20
44.34243303532313
 30
0.0
 11
75.93386224582613
 21
61.20881913576454
 31
0.0
 12
93.22322981586902
 22
84.47279996395975
 32
0.0
 13
88.6233063339309
 23
84.47279996395975
 33
0.0
  0
SOLID
  5
1023
330
1E
100
AcDbEntity
  8
LOGO
 62
     5
100
AcDbTrace
 10
93.22322981586902
 20
80.98320283972901
 30
0.0
 11
88.6233063339309
 21
64.1168167392876
 31
0.0
 12
93.22322981586902
 22
40.8528359110939
 32
0.0
 13
88.6233063339309
 23
40.8528359110939
 33
0.0
  0
SOLID
  5
1024
330
1E
100
AcDbEntity
  8
LOGO
 62
     2
100
AcDbTrace
 10
93.22322981586902
 20
84.47279996395975
 30
0.0
 11
95.12664642908625
 21
84.47279996395671
 31
0.0
 12
93.22322981586902
 22
40.8528359110939
 32
0.0
 13
95.12664642908625
 23
40.8528359110939
 33
0.0
  0
SOLID
  5
1025
330
1E
100
AcDbEntity
  8
LOGO
 62
     5
100
AcDbTrace
 10
64.83059866873365
 20
40.85283591109543
 30
0.0
 11
69.43052215067138
 21
40.85283591109543
 31
0.0
 12
64.83059866873365
 22
64.1168167392876
 32
0.0
 13
69.43052215067138
 23
80.98320283972901
 33
0.0
  0
SOLID
  5
1026
330
1E
100
AcDbEntity
  8
LOGO
 62
     2
100
AcDbTrace
 10
69.43052215067138
 20
84.47279996395671
 30
0.0
 11
71.33393876388862
 21
84.47279996395671
 31
0.0
 12
69.43052215067138
 22
40.85283591109543
 32
0.0
 13
71.33393876388862
 23
40.85283591109543
 33
0.0
  0
SOLID
  5
1027
330
1E
100
AcDbEntity
  8
LOGO
 62
     5
100
AcDbTrace
 10
71.33393876388862
 20
40.85283591109543
 30
0.0
 11
75.93386224582613
 21
40.85283591109543
 31
0.0
 12
93.22322981586902
 22
80.98320283972901
 32
0.0
 13
88.6233063339309
 23
64.1168167392876
 33
0.0
  0
SOLID
  5
1028
330
1E
100
AcDbEntity
  8
LOGO
 62
     2
100
AcDbTrace
 10
69.43052215067138
 20
40.85283591109543
 30
0.0
 11
71.33393876388862
 21
40.85283591109543
 31
0.0
 12
93.22322981586902
 22
84.47279996395975
 32
0.0
 13
95.12664642908625
 23
84.47279996395671
 33
0.0
  0
POLYLINE
  5
1029
330
1E
100
AcDbEntity
  8
LOGO
 62
     5
100
AcDb2dPolyline
 66
     1
 10
0.0
 20
0.0
 30
0.0
 40
1.588722466960352
 41
1.588722466960352
  0
VERTEX
  5
3006
330
1029
100
AcDbEntity
  8
LOGO
 62
     5
100
AcDbVertex
100
AcDb2dVertex
 10
76.20193285288272
 20
29.74957233400249
 30
0.0
 42
1.0
  0
VERTEX
  5
3007
330
1029
100
AcDbEntity
  8
LOGO
 62
     5
100
AcDbVertex
100
AcDb2dVertex
 10
71.43576545200147
 20
29.74957233400249
 30
0.0
 42
1.0
  0
SEQEND
  5
3008
330
1029
100
AcDbEntity
  8
LOGO
 62
     5
  0
POLYLINE
  5
102A
330
1E
100
AcDbEntity
  8
LOGO
 62
     5
100
AcDb2dPolyline
 66
     1
 10
0.0
 20
0.0
 30
0.0
 40
1.588722466960352
 41
1.588722466960352
  0
VERTEX
  5
3009
330
102A
100
AcDbEntity
  8
LOGO
 62
     5
100
AcDbVertex
100
AcDb2dVertex
 10
58.22511464936437
 20
29.74957233400249
 30
0.0
 42
1.0
  0
VERTEX
  5
300A
330
102A
100
AcDbEntity
  8
LOGO
 62
     5
100
AcDbVertex
100
AcDb2dVertex
 10
53.45894724848314
 20
29.74957233400249
 30
0.0
 42
1.0
  0
SEQEND
  5
300B
330
102A
100
AcDbEntity
  8
LOGO
 62
     5
  0
SOLID
  5
102B
330
1E
100
AcDbEntity
  8
LOGO
 62
     5
100
AcDbTrace
 10
49.23289261368468
 20
34.0322597137376
 30
0.0
 11
50.81907312470097
 21
34.0322597137376
 31
0.0
 12
49.23289261368468
 22
35.30120412254971
 32
0.0
 13
50.81907312470097
 23
35.30120412254971
 33
0.0
  0
POLYLINE
  5
102C
330
1E
100
AcDbEntity
  8
LOGO
 62
     5
100
AcDb2dPolyline
 66
     1
 10
0.0
 20
0.0
 30
0.0
 70
     1
  0
VERTEX
  5
300C
330
102C
100
AcDbEntity
  8
LOGO
 62
     5
100
AcDbVertex
100
AcDb2dVertex
 10
85.18668763877027
 20
28.9564820784966
 30
0.0
 42
1.000000057330635
  0
VERTEX
  5
300D
330
102C
100
AcDbEntity
  8
LOGO
 62
     5
100
AcDbVertex
100
AcDb2dVertex
 10
89.9452291718107
 20
28.9564820784966
 30
0.0
 42
1.000000057330635
  0
SEQEND
  5
300E
330
102C
100
AcDbEntity
  8
LOGO
 62
     5
  0
CIRCLE
  5
102D
330
1E
100
AcDbEntity
  8
LOGO
 62
     5
100
AcDbCircle
 10
87.56595840529039
 20
28.9564820784966
 30
0.0
 40
2.379270766519824
  0
POLYLINE
  5
102E
330
1E
100
AcDbEntity
  8
LOGO
 62
     5
100
AcDb2dPolyline
 66
     1
 10
0.0
 20
0.0
 30
0.0
 40
1.588722466960352
 41
1.588722466960352
  0
VERTEX
  5
300F
330
102E
100
AcDbEntity
  8
LOGO
 62
     5
100
AcDbVertex
100
AcDb2dVertex
 10
80.9604743859211
 20
29.74957233400249
 30
0.0
 42
1.0
  0
VERTEX
  5
3010
330
102E
100
AcDbEntity
  8
LOGO
 62
     5
100
AcDbVertex
100
AcDb2dVertex
 10
76.19430698503989
 20
29.74957233400249
 30
0.0
 42
1.0
  0
SEQEND
  5
3011
330
102E
100
AcDbEntity
  8
LOGO
 62
     5
  0
LINE
  5
102F
330
1E
100
AcDbEntity
  8
LOGO
 62
     1
100
AcDbLine
 10
193.1277533039647
 20
23.16740088105727
 30
0.0
 11
193.1277533039647
 21
87.0
 31
0.0
  0
CIRCLE
  5
1030
330
1E
100
AcDbEntity
  8
LOGO
  6
CONTINUOUS
 62
     6
100
AcDbCircle
 10
212.8267601913
 20
55.10645683996703
 30
0.0
 40
6.17711824974593
  0
CIRCLE
  5
1031
330
1E
100
AcDbEntity
  8
LOGO
  6
CONTINUOUS
 62
     6
100
AcDbCircle
 10
212.8267601913
 20
55.10645683996703
 30
0.0
 40
3.61924446501133
  0
LINE
  5
1032
330
1E
100
AcDbEntity
  8
LOGO
 62
     6
100
AcDbLine
 10
232.2795769057478
 20
51.48721237495571
 30
0.0
 11
232.2795769057476
 21
58.7257013049784
 31
0.0
  0
TEXT
  5
1033
330
1E
100
AcDbEntity
  8
LOGO
  6
CONTINUOUS
 62
     6
100
AcDbText
 10
436.0525102874677
 20
-6.08920704845815
 30
0.0
 40
8.865638766519824
  1
Model
  7
CHINESET
 72
     4
 11
452.939441271315
 21
-1.656387665198238
 31
0.0
100
AcDbText
  0
TEXT
  5
1034
330
1E
100
AcDbEntity
  8
LOGO
  6
CONTINUOUS
 62
     7
100
AcDbText
 10
231.167953858974
 20
70.13250327325711
 30
0.0
 40
8.433748363371437
  1

  7
CHINESET
 72
     1
 11
231.167953858974
 21
74.34937745494284
 31
0.0
100
AcDbText
 73
     2
  0
LINE
  5
1035
330
1E
100
AcDbEntity
  8
LOGO
 62
     6
100
AcDbLine
 10
495.4945073506102
 20
76.36123348017623
 30
0.0
 11
410.38437519202
 21
76.36123348017623
 31
0.0
  0
LINE
  5
1036
330
1E
100
AcDbEntity
  8
LOGO
 62
     6
100
AcDbLine
 10
495.4945073506102
 20
44.44493392070484
 30
0.0
 11
410.38437519202
 21
44.44493392070484
 31
0.0
  0
LINE
  5
1037
330
1E
100
AcDbEntity
  8
LOGO
 62
     6
100
AcDbLine
 10
488.4019963373943
 20
28.48678414096916
 30
0.0
 11
417.4768862052358
 21
28.48678414096916
 31
0.0
  0
LINE
  5
1038
330
1E
100
AcDbEntity
  8
LOGO
 62
     6
100
AcDbLine
 10
488.4019963373943
 20
-10.52202643171809
 30
0.0
 11
417.4768862052358
 21
-10.52202643171817
 31
0.0
  0
TEXT
  5
1039
330
1E
100
AcDbEntity
  8
LOGO
 62
     7
100
AcDbText
 10
272.7612138763382
 20
60.36294818439775
 30
0.0
 40
21.27753303964757
  1
訂購代號:
  7
CHINESET
100
AcDbText
  0
TEXT
  5
103A
330
1E
100
AcDbEntity
  8
LOGO
 62
     7
100
AcDbText
 10
270.2163036194371
 20
40.39337421746902
 30
0.0
 40
14.18502202643171
  1
Order example:
 41
0.8
  7
CHINESET
100
AcDbText
  0
LINE
  5
103B
330
1E
100
AcDbEntity
  8
LOGO
 62
     1
100
AcDbLine
 10
264.0528634361232
 20
-19.38766519823788
 30
0.0
 11
264.0528634361232
 21
87.0
 31
0.0
  0
LINE
  5
103C
330
1E
100
AcDbEntity
  8
LOGO
 62
     6
100
AcDbLine
 10
251.6444880351953
 20
48.92933859022113
 30
0.0
 11
251.6444880351953
 21
61.283575089713
 31
0.0
  0
LINE
  5
103D
330
1E
100
AcDbEntity
  8
LOGO
 62
     6
100
AcDbLine
 10
417.4768862052358
 20
28.48678414096916
 30
0.0
 11
417.4768862052358
 21
-10.52202643171817
 31
0.0
  0
LINE
  5
103E
330
1E
100
AcDbEntity
  8
LOGO
 62
     6
100
AcDbLine
 10
410.38437519202
 20
76.36123348017623
 30
0.0
 11
410.38437519202
 21
44.44493392070484
 31
0.0
  0
TEXT
  5
103F
330
1E
100
AcDbEntity
  8
LOGO
  6
CONTINUOUS
 62
     7
100
AcDbText
 10
536.8589127143645
 20
51.33637112939917
 30
0.0
 40
17.73127753303964
  1
50
  7
CHINESET
 72
     1
 11
551.2128040506346
 21
60.20200989591899
 31
0.0
100
AcDbText
 73
     2
  0
LINE
  5
1040
330
1E
100
AcDbEntity
  8
LOGO
 62
     6
100
AcDbLine
 10
578.0261668107741
 20
-10.52202643171787
 30
0.0
 11
521.0896019042112
 21
-10.52202643171794
 31
0.0
  0
LINE
  5
1041
330
1E
100
AcDbEntity
  8
LOGO
 62
     6
100
AcDbLine
 10
578.0261668107741
 20
44.44493392070506
 30
0.0
 11
521.0896019042112
 21
44.44493392070506
 31
0.0
  0
LINE
  5
1042
330
1E
100
AcDbEntity
  8
LOGO
 62
     6
100
AcDbLine
 10
578.0261668107741
 20
28.48678414096935
 30
0.0
 11
521.0896019042112
 21
28.48678414096935
 31
0.0
  0
LINE
  5
1043
330
1E
100
AcDbEntity
  8
LOGO
 62
     6
100
AcDbLine
 10
578.0261668107741
 20
76.36123348017659
 30
0.0
 11
521.0896019042112
 21
76.36123348017642
 31
0.0
  0
LINE
  5
1044
330
1E
100
AcDbEntity
  8
LOGO
 62
     6
100
AcDbLine
 10
521.0896019042112
 20
28.48678414096935
 30
0.0
 11
521.0896019042112
 21
-10.52202643171787
 31
0.0
  0
LINE
  5
1045
330
1E
100
AcDbEntity
  8
LOGO
 62
     6
100
AcDbLine
 10
488.4019963373944
 20
28.48678414096916
 30
0.0
 11
488.4019963373944
 21
-10.52202643171804
 31
0.0
  0
TEXT
  5
1046
330
1E
100
AcDbEntity
  8
LOGO
 62
     6
100
AcDbText
 10
438.7544192448832
 20
9.345381386798015
 30
0.0
 40
14.18502202643171
  1
型式
  7
CHINESET
 72
     4
 11
452.939441271315
 21
16.0748898678414
 31
0.0
100
AcDbText
  0
LINE
  5
1047
330
1E
100
AcDbEntity
  8
LOGO
 62
     6
100
AcDbLine
 10
452.939441271315
 20
44.44493392070484
 30
0.0
 11
452.939441271315
 21
28.48678414096916
 31
0.0
  0
LINE
  5
1048
330
1E
100
AcDbEntity
  8
LOGO
 62
     6
100
AcDbLine
 10
521.0896019042112
 20
76.36123348017642
 30
0.0
 11
521.0896019042112
 21
44.44493392070506
 31
0.0
  0
LINE
  5
1049
330
1E
100
AcDbEntity
  8
LOGO
 62
     6
100
AcDbLine
 10
495.4945073506102
 20
76.36123348017623
 30
0.0
 11
495.4945073506102
 21
44.44493392070484
 31
0.0
  0
LINE
  5
104A
330
1E
100
AcDbEntity
  8
LOGO
  6
CONTINUOUS
 62
     7
100
AcDbLine
 10
501.4770975148703
 20
60.2900311234335
 30
0.0
 11
515.5701708263097
 21
60.2900311234335
 31
0.0
  0
LINE
  5
104B
330
1E
100
AcDbEntity
  8
LOGO
 62
     6
100
AcDbLine
 10
596.0448589470684
 20
28.48678414096916
 30
0.0
 11
596.0448589470684
 21
-10.52202643171817
 31
0.0
  0
LINE
  5
104C
330
1E
100
AcDbEntity
  8
LOGO
 62
     6
100
AcDbLine
 10
578.0261668107741
 20
28.48678414096935
 30
0.0
 11
578.0261668107741
 21
-10.52202643171774
 31
0.0
  0
TEXT
  5
104D
330
1E
100
AcDbEntity
  8
LOGO
  6
CONTINUOUS
 62
     6
100
AcDbText
 10
538.5813792179919
 20
-6.08920704845805
 30
0.0
 40
8.865638766519824
  1
Bore
 41
0.8
  7
CHINESET
 72
     4
 11
549.5578843574927
 21
-1.656387665198138
 31
0.0
100
AcDbText
  0
TEXT
  5
104E
330
1E
100
AcDbEntity
  8
LOGO
 62
     6
100
AcDbText
 10
535.9934570447173
 20
8.982378854625661
 30
0.0
 40
14.18502202643171
  1
內徑
 41
0.9
  7
CHINESET
 72
     4
 11
549.5578843574927
 21
16.07488986784152
 31
0.0
100
AcDbText
  0
LINE
  5
104F
330
1E
100
AcDbEntity
  8
LOGO
  6
CONTINUOUS
 62
     7
100
AcDbLine
 10
583.5248655709434
 20
60.29003112343369
 30
0.0
 11
597.6179388823831
 21
60.29003112343369
 31
0.0
  0
LINE
  5
1050
330
1E
100
AcDbEntity
  8
LOGO
 62
     6
100
AcDbLine
 10
578.0261668107741
 20
76.36123348017659
 30
0.0
 11
578.0261668107741
 21
44.44493392070506
 31
0.0
  0
LINE
  5
1051
330
1E
100
AcDbEntity
  8
LOGO
 62
     6
100
AcDbLine
 10
549.5578835397812
 20
44.44493392070506
 30
0.0
 11
549.5578835397812
 21
28.48678414096935
 31
0.0
  0
LINE
  5
1052
330
1E
100
AcDbEntity
  8
LOGO
 62
     6
100
AcDbLine
 10
603.1373699602844
 20
76.36123348017623
 30
0.0
 11
603.1373699602842
 21
44.44493392070484
 31
0.0
  0
LINE
  5
1053
330
1E
100
AcDbEntity
  8
LOGO
 62
     6
100
AcDbLine
 10
633.4259382422224
 20
44.44493392070484
 30
0.0
 11
633.4259382422224
 21
28.48678414096916
 31
0.0
  0
TEXT
  5
1054
330
1E
100
AcDbEntity
  8
LOGO
 62
     6
100
AcDbText
 10
719.6457452936162
 20
8.982378854625764
 30
0.0
 40
14.18502202643171
  1
配件
 41
0.9
  7
CHINESET
 72
     4
 11
732.5452496989026
 21
16.07488986784161
 31
0.0
100
AcDbText
  0
LINE
  5
1055
330
1E
100
AcDbEntity
  8
LOGO
 62
     6
100
AcDbLine
 10
784.4092364830435
 20
-10.52202643171774
 30
0.0
 11
680.6812629147615
 21
-10.52202643171787
 31
0.0
  0
LINE
  5
1056
330
1E
100
AcDbEntity
  8
LOGO
 62
     6
100
AcDbLine
 10
784.4092364830435
 20
28.48678414096935
 30
0.0
 11
680.6812629147615
 21
28.48678414096935
 31
0.0
  0
TEXT
  5
1057
330
1E
100
AcDbEntity
  8
LOGO
  6
CONTINUOUS
 62
     6
100
AcDbText
 10
706.3705066739393
 20
-4.611600587371313
 30
0.0
 40
8.865638766519824
  1
Accessory
 41
0.8
  7
CHINESET
 72
     4
 11
732.5452496989026
 21
-1.656387665198039
 31
0.0
100
AcDbText
  0
LINE
  5
1058
330
1E
100
AcDbEntity
  8
LOGO
 62
     6
100
AcDbLine
 10
680.6812629147615
 20
28.48678414096935
 30
0.0
 11
680.6812629147615
 21
-10.52202643171787
 31
0.0
  0
LINE
  5
1059
330
1E
100
AcDbEntity
  8
LOGO
 62
     6
100
AcDbLine
 10
669.3048881037465
 20
28.48678414096916
 30
0.0
 11
669.3048881037465
 21
-10.66911551346251
 31
0.0
  0
LINE
  5
105A
330
1E
100
AcDbEntity
  8
LOGO
 62
     6
100
AcDbLine
 10
662.2123770905306
 20
76.36123348017623
 30
0.0
 11
662.2123770905305
 21
44.44493392070482
 31
0.0
  0
LINE
  5
105B
330
1E
100
AcDbEntity
  8
LOGO
  6
CONTINUOUS
 62
     7
100
AcDbLine
 10
668.495039421045
 20
60.2900311234335
 30
0.0
 11
682.5881127324846
 21
60.2900311234335
 31
0.0
  0
TEXT
  5
105C
330
1E
100
AcDbEntity
  8
LOGO
  6
CONTINUOUS
 62
     7
100
AcDbText
 10
689.639554811262
 20
51.33637112939897
 30
0.0
 40
17.73127753303964
  1
RP
  7
CHINESET
 72
     1
 11
704.4156194221283
 21
60.20200989591879
 31
0.0
100
AcDbText
 73
     2
  0
LINE
  5
105D
330
1E
100
AcDbEntity
  8
LOGO
 62
     6
100
AcDbLine
 10
720.1264436761642
 20
76.36123348017642
 30
0.0
 11
720.1264436761642
 21
44.44493392070484
 31
0.0
  0
LINE
  5
105E
330
1E
100
AcDbEntity
  8
LOGO
 62
     6
100
AcDbLine
 10
687.8339527063529
 20
76.36123348017642
 30
0.0
 11
687.8339527063529
 21
44.44493392070484
 31
0.0
  0
LINE
  5
105F
330
1E
100
AcDbEntity
  8
LOGO
 62
     6
100
AcDbLine
 10
720.1264436761642
 20
44.44493392070484
 30
0.0
 11
687.8339527063529
 21
44.44493392070484
 31
0.0
  0
LINE
  5
1060
330
1E
100
AcDbEntity
  8
LOGO
 62
     6
100
AcDbLine
 10
703.9801981912582
 20
44.44493392070484
 30
0.0
 11
703.9801981912582
 21
28.48678414096935
 31
0.0
  0
LINE
  5
1061
330
1E
100
AcDbEntity
  8
LOGO
 62
     6
100
AcDbLine
 10
720.1264436761642
 20
76.36123348017642
 30
0.0
 11
687.8339527063529
 21
76.36123348017642
 31
0.0
  0
LINE
  5
1062
330
1E
100
AcDbEntity
  8
LOGO
 62
     6
100
AcDbLine
 10
784.4092364830435
 20
28.48678414096935
 30
0.0
 11
784.4092364830435
 21
-10.52202643171774
 31
0.0
  0
LINE
  5
1063
330
1E
100
AcDbEntity
  8
LOGO
 62
     1
100
AcDbLine
 10
835.0
 20
-19.38766519823788
 30
0.0
 11
835.0
 21
87.0
 31
0.0
  0
LINE
  5
1B85
330
1E
100
AcDbEntity
  8
0
100
AcDbLine
 10
271.0281357177033
 20
173.2690819272369
 30
0.0
 11
301.0281357177033
 21
172.7690819272369
 31
0.0
  0
LINE
  5
1B86
330
1E
100
AcDbEntity
  8
0
  6
CONTINUOUS
100
AcDbLine
 10
265.0281357177033
 20
156.7690819272369
 30
0.0
 11
301.0281357177033
 21
156.7690819272369
 31
0.0
  0
LINE
  5
1B87
330
1E
100
AcDbEntity
  8
0
100
AcDbLine
 10
271.0281357177034
 20
108.2690819272368
 30
0.0
 11
301.0281357177033
 21
108.7690819272368
 31
0.0
  0
LINE
  5
1B88
330
1E
100
AcDbEntity
  8
0
  6
CONTINUOUS
100
AcDbLine
 10
265.0281357177033
 20
124.7690819272369
 30
0.0
 11
301.0281357177033
 21
124.7690819272369
 31
0.0
  0
LINE
  5
1B89
330
1E
100
AcDbEntity
  8
CENTER
  6
CENTER
100
AcDbLine
 10
187.0281357177034
 20
140.7690819272369
 30
0.0
 11
398.0281357177033
 21
140.7690819272369
 31
0.0
  0
LINE
  5
1B8A
330
1E
100
AcDbEntity
  8
CENTER
  6
CENTER
100
AcDbLine
 10
192.0281357177034
 20
117.5190819272369
 30
0.0
 11
324.7941208487492
 21
117.5190819272369
 31
0.0
  0
LINE
  5
1B8B
330
1E
100
AcDbEntity
  8
CENTER
  6
CENTER
100
AcDbLine
 10
192.0281357177034
 20
164.0190819272369
 30
0.0
 11
324.2033274322949
 21
164.0190819272369
 31
0.0
  0
LINE
  5
1B8C
330
1E
100
AcDbEntity
  8
CENTER
  6
CENTER
100
AcDbLine
 10
192.0281357177034
 20
448.900000119634
 30
0.0
 11
324.7941208487491
 21
448.900000119634
 31
0.0
  0
LINE
  5
1B8D
330
1E
100
AcDbEntity
  8
CENTER
  6
CENTER
100
AcDbLine
 10
192.0281357177034
 20
495.4000001196341
 30
0.0
 11
324.2033274322948
 21
495.4000001196341
 31
0.0
  0
LINE
  5
1B8E
330
1E
100
AcDbEntity
  8
0
100
AcDbLine
 10
271.0281357177034
 20
439.650000119634
 30
0.0
 11
301.0281357177033
 21
440.150000119634
 31
0.0
  0
LINE
  5
1B8F
330
1E
100
AcDbEntity
  8
0
100
AcDbLine
 10
271.0281357177033
 20
504.6500001196341
 30
0.0
 11
301.0281357177033
 21
504.150000119634
 31
0.0
  0
LINE
  5
1B90
330
1E
100
AcDbEntity
  8
0
  6
CONTINUOUS
100
AcDbLine
 10
265.0281357177033
 20
488.1500001196341
 30
0.0
 11
301.0281357177033
 21
488.1500001196341
 31
0.0
  0
LINE
  5
1B91
330
1E
100
AcDbEntity
  8
0
  6
CONTINUOUS
100
AcDbLine
 10
265.0281357177033
 20
456.1500001196341
 30
0.0
 11
301.0281357177033
 21
456.1500001196341
 31
0.0
  0
LINE
  5
1B92
330
1E
100
AcDbEntity
  8
DIM
100
AcDbLine
 10
392.0281357177033
 20
410.6742491012395
 30
0.0
 11
225.0281357177033
 21
410.6742491012395
 31
0.0
  0
LINE
  5
1B93
330
1E
100
AcDbEntity
  8
0
  6
CONTINUOUS
100
AcDbLine
 10
265.0281357177033
 20
380.6742491012395
 30
0.0
 11
301.0281357177033
 21
380.6742491012395
 31
0.0
  0
LINE
  5
1B94
330
1E
100
AcDbEntity
  8
0
  6
CONTINUOUS
100
AcDbLine
 10
265.0281357177033
 20
348.6742491012396
 30
0.0
 11
301.0281357177033
 21
348.6742491012396
 31
0.0
  0
LINE
  5
1B95
330
1E
100
AcDbEntity
  8
0
  6
CONTINUOUS
100
AcDbLine
 10
265.0281357177033
 20
244.6742491012394
 30
0.0
 11
301.0281357177033
 21
244.6742491012394
 31
0.0
  0
LINE
  5
1B96
330
1E
100
AcDbEntity
  8
0
  6
CONTINUOUS
100
AcDbLine
 10
265.0281357177033
 20
276.6742491012394
 30
0.0
 11
301.0281357177033
 21
276.6742491012394
 31
0.0
  0
LINE
  5
1B97
330
1E
100
AcDbEntity
  8
0
100
AcDbLine
 10
271.0281357177033
 20
345.1742491012395
 30
0.0
 11
301.0281357177033
 21
344.6742491012395
 31
0.0
  0
CIRCLE
  5
1B98
330
1E
100
AcDbEntity
  8
0
100
AcDbCircle
 10
286.0281357177034
 20
308.6742491012395
 30
0.0
 40
8.699999999999999
  0
LINE
  5
1B99
330
1E
100
AcDbEntity
  8
CENTER
  6
CENTER
100
AcDbLine
 10
276.3281357177033
 20
308.6742491012395
 30
0.0
 11
295.7281357177033
 21
308.6742491012395
 31
0.0
  0
LINE
  5
1B9A
330
1E
100
AcDbEntity
  8
0
100
AcDbLine
 10
271.0281357177034
 20
280.1742491012394
 30
0.0
 11
301.0281357177033
 21
280.6742491012394
 31
0.0
  0
LINE
  5
1B9B
330
1E
100
AcDbEntity
  8
DIM
100
AcDbLine
 10
301.0281357177033
 20
214.6742491012395
 30
0.0
 11
265.0281357177033
 21
214.6742491012395
 31
0.0
  0
LINE
  5
1B9C
330
1E
100
AcDbEntity
  8
DIM
100
AcDbLine
 10
298.0281357177033
 20
206.6742491012395
 30
0.0
 11
190.0281357177034
 21
206.6742491012395
 31
0.0
  0
LINE
  5
1B9D
330
1E
100
AcDbEntity
  8
CENTER
  6
CENTER
100
AcDbLine
 10
222.0281357177033
 20
260.6742491012394
 30
0.0
 11
398.0281357177033
 21
260.6742491012394
 31
0.0
  0
LINE
  5
1B9E
330
1E
100
AcDbEntity
  8
CENTER
  6
CENTER
100
AcDbLine
 10
222.0281357177033
 20
364.6742491012394
 30
0.0
 11
398.0281357177033
 21
364.6742491012395
 31
0.0
  0
LINE
  5
1B9F
330
1E
100
AcDbEntity
  8
CENTER
  6
CENTER
100
AcDbLine
 10
187.0281357177034
 20
472.150000119634
 30
0.0
 11
398.0281357177033
 21
472.150000119634
 31
0.0
  0
LINE
  5
1BA0
330
1E
100
AcDbEntity
  8
CENTER
  6
CENTER
100
AcDbLine
 10
188.0281357177034
 20
312.6742491012395
 30
0.0
 11
398.0281357177033
 21
312.6742491012395
 31
0.0
  0
LINE
  5
1BA1
330
1E
100
AcDbEntity
  8
CENTER
  6
CENTER
100
AcDbLine
 10
321.0281357177032
 20
289.4242491012395
 30
0.0
 11
192.0281357177034
 21
289.4242491012393
 31
0.0
  0
LINE
  5
1BA2
330
1E
100
AcDbEntity
  8
CENTER
  6
CENTER
100
AcDbLine
 10
321.0281357177032
 20
335.9242491012395
 30
0.0
 11
192.0281357177034
 21
335.9242491012395
 31
0.0
  0
LINE
  5
1BA3
330
1E
100
AcDbEntity
  8
DIM
100
AcDbLine
 10
190.0281357177034
 20
292.1311072384469
 30
0.0
 11
190.0281357177034
 21
205.5067216492671
 31
0.0
  0
ARC
  5
1BA4
330
1E
100
AcDbEntity
  8
0
100
AcDbCircle
 10
98.27508992058444
 20
260.6742491012394
 30
0.0
 40
27.0
100
AcDbArc
 50
133.7617426926795
 51
46.23825730732042
  0
ARC
  5
1BA5
330
1E
100
AcDbEntity
  8
CENTER
  6
CENTER
100
AcDbCircle
 10
98.27508992058444
 20
260.6742491012394
 30
0.0
 40
21.49999999999999
100
AcDbArc
 50
114.9091527369497
 51
65.09084726305021
  0
CIRCLE
  5
1BA6
330
1E
100
AcDbEntity
  8
0
100
AcDbCircle
 10
98.27508992058444
 20
260.6742491012394
 30
0.0
 40
16.0
  0
LINE
  5
1BA7
330
1E
100
AcDbEntity
  8
0
100
AcDbLine
 10
265.0281357177033
 20
276.6742491012394
 30
0.0
 11
265.0281357177033
 21
244.6742491012394
 31
0.0
  0
LINE
  5
1BA8
330
1E
100
AcDbEntity
  8
DIM
100
AcDbLine
 10
195.0281357177034
 20
279.6742491012394
 30
0.0
 11
195.0281357177034
 21
212.9013611558462
 31
0.0
  0
LINE
  5
1BA9
330
1E
100
AcDbEntity
  8
CENTER
  6
CENTER
100
AcDbLine
 10
98.27508992058438
 20
405.6742491012395
 30
0.0
 11
98.27508992058449
 21
219.6742491012394
 31
0.0
  0
LINE
  5
1BAA
330
1E
100
AcDbEntity
  8
0
100
AcDbLine
 10
63.27508992058449
 20
402.6742491012394
 30
0.0
 11
63.27508992058454
 21
222.6742491012394
 31
0.0
  0
LINE
  5
1BAB
330
1E
100
AcDbEntity
  8
0
100
AcDbLine
 10
133.2750899205844
 20
402.6742491012395
 30
0.0
 11
133.2750899205844
 21
222.6742491012393
 31
0.0
  0
POLYLINE
  5
1BAC
330
1E
100
AcDbEntity
  8
0
  6
CONTINUOUS
100
AcDb2dPolyline
 66
     1
 10
0.0
 20
0.0
 30
0.0
 70
     1
  0
VERTEX
  5
3099
330
1BAC
100
AcDbEntity
  8
0
  6
CONTINUOUS
100
AcDbVertex
100
AcDb2dVertex
 10
97.12038938220452
 20
241.1742491012394
 30
0.0
  0
VERTEX
  5
309A
330
1BAC
100
AcDbEntity
  8
0
  6
CONTINUOUS
100
AcDbVertex
100
AcDb2dVertex
 10
95.96568884382634
 20
239.1742491012394
 30
0.0
  0
VERTEX
  5
309B
330
1BAC
100
AcDbEntity
  8
0
  6
CONTINUOUS
100
AcDbVertex
100
AcDb2dVertex
 10
97.12038938220452
 20
237.1742491012394
 30
0.0
  0
VERTEX
  5
309C
330
1BAC
100
AcDbEntity
  8
0
  6
CONTINUOUS
100
AcDbVertex
100
AcDb2dVertex
 10
99.42979045896448
 20
237.1742491012394
 30
0.0
  0
VERTEX
  5
309D
330
1BAC
100
AcDbEntity
  8
0
  6
CONTINUOUS
100
AcDbVertex
100
AcDb2dVertex
 10
100.5844909973426
 20
239.1742491012394
 30
0.0
  0
VERTEX
  5
309E
330
1BAC
100
AcDbEntity
  8
0
  6
CONTINUOUS
100
AcDbVertex
100
AcDb2dVertex
 10
99.42979045896448
 20
241.1742491012394
 30
0.0
  0
SEQEND
  5
309F
330
1BAC
100
AcDbEntity
  8
0
  6
CONTINUOUS
  0
CIRCLE
  5
1BAD
330
1E
100
AcDbEntity
  8
0
  6
CONTINUOUS
100
AcDbCircle
 10
98.27508992058449
 20
239.1742491012394
 30
0.0
 40
3.903579676674365
  0
CIRCLE
  5
1BAE
330
1E
100
AcDbEntity
  8
0
  6
CONTINUOUS
100
AcDbCircle
 10
98.27508992058449
 20
239.1742491012394
 30
0.0
 40
4.25
  0
LINE
  5
1BAF
330
1E
100
AcDbEntity
  8
0
  6
CONTINUOUS
100
AcDbLine
 10
63.27508992058461
 20
222.6742491012394
 30
0.0
 11
133.2750899205844
 21
222.6742491012393
 31
0.0
  0
CIRCLE
  5
1BB0
330
1E
100
AcDbEntity
  8
0
100
AcDbCircle
 10
98.27508992058444
 20
260.6742491012394
 30
0.0
 40
10.0
  0
LINE
  5
1BB1
330
1E
100
AcDbEntity
  8
CENTER
  6
CENTER
100
AcDbLine
 10
67.27508992058438
 20
260.6742491012394
 30
0.0
 11
129.2750899205844
 21
260.6742491012395
 31
0.0
  0
LINE
  5
1BB2
330
1E
100
AcDbEntity
  8
CENTER
  6
CENTER
100
AcDbLine
 10
75.02508992058466
 20
224.1742491012394
 30
0.0
 11
75.02508992058466
 21
241.1742491012394
 31
0.0
  0
CIRCLE
  5
1BB3
330
1E
100
AcDbEntity
  8
0
  6
CONTINUOUS
100
AcDbCircle
 10
75.0250899205846
 20
232.6742491012394
 30
0.0
 40
4.5
  0
LINE
  5
1BB4
330
1E
100
AcDbEntity
  8
CENTER
  6
CENTER
100
AcDbLine
 10
66.52508992058461
 20
232.6742491012394
 30
0.0
 11
83.5250899205846
 21
232.6742491012394
 31
0.0
  0
CIRCLE
  5
1BB5
330
1E
100
AcDbEntity
  8
0
  6
CONTINUOUS
100
AcDbCircle
 10
76.77508992058443
 20
260.6742491012394
 30
0.0
 40
3.903579676674365
  0
CIRCLE
  5
1BB6
330
1E
100
AcDbEntity
  8
0
  6
CONTINUOUS
100
AcDbCircle
 10
76.77508992058443
 20
260.6742491012394
 30
0.0
 40
4.25
  0
POLYLINE
  5
1BB7
330
1E
100
AcDbEntity
  8
0
  6
CONTINUOUS
100
AcDb2dPolyline
 66
     1
 10
0.0
 20
0.0
 30
0.0
 70
     1
  0
VERTEX
  5
30A0
330
1BB7
100
AcDbEntity
  8
0
  6
CONTINUOUS
100
AcDbVertex
100
AcDb2dVertex
 10
75.62038938220445
 20
262.6742491012394
 30
0.0
  0
VERTEX
  5
30A1
330
1BB7
100
AcDbEntity
  8
0
  6
CONTINUOUS
100
AcDbVertex
100
AcDb2dVertex
 10
74.46568884382628
 20
260.6742491012394
 30
0.0
  0
VERTEX
  5
30A2
330
1BB7
100
AcDbEntity
  8
0
  6
CONTINUOUS
100
AcDbVertex
100
AcDb2dVertex
 10
75.62038938220445
 20
258.6742491012394
 30
0.0
  0
VERTEX
  5
30A3
330
1BB7
100
AcDbEntity
  8
0
  6
CONTINUOUS
100
AcDbVertex
100
AcDb2dVertex
 10
77.92979045896442
 20
258.6742491012394
 30
0.0
  0
VERTEX
  5
30A4
330
1BB7
100
AcDbEntity
  8
0
  6
CONTINUOUS
100
AcDbVertex
100
AcDb2dVertex
 10
79.08449099734259
 20
260.6742491012394
 30
0.0
  0
VERTEX
  5
30A5
330
1BB7
100
AcDbEntity
  8
0
  6
CONTINUOUS
100
AcDbVertex
100
AcDb2dVertex
 10
77.92979045896442
 20
262.6742491012394
 30
0.0
  0
SEQEND
  5
30A6
330
1BB7
100
AcDbEntity
  8
0
  6
CONTINUOUS
  0
LINE
  5
1BB8
330
1E
100
AcDbEntity
  8
CENTER
  6
CENTER
100
AcDbLine
 10
121.5250899205847
 20
224.1742491012394
 30
0.0
 11
121.5250899205847
 21
241.1742491012394
 31
0.0
  0
CIRCLE
  5
1BB9
330
1E
100
AcDbEntity
  8
0
  6
CONTINUOUS
100
AcDbCircle
 10
121.5250899205847
 20
232.6742491012394
 30
0.0
 40
4.5
  0
LINE
  5
1BBA
330
1E
100
AcDbEntity
  8
CENTER
  6
CENTER
100
AcDbLine
 10
113.0250899205847
 20
232.6742491012394
 30
0.0
 11
130.0250899205847
 21
232.6742491012394
 31
0.0
  0
CIRCLE
  5
1BBB
330
1E
100
AcDbEntity
  8
0
  6
CONTINUOUS
100
AcDbCircle
 10
119.7750899205844
 20
260.6742491012395
 30
0.0
 40
3.903579676674365
  0
CIRCLE
  5
1BBC
330
1E
100
AcDbEntity
  8
0
  6
CONTINUOUS
100
AcDbCircle
 10
119.7750899205844
 20
260.6742491012395
 30
0.0
 40
4.25
  0
POLYLINE
  5
1BBD
330
1E
100
AcDbEntity
  8
0
  6
CONTINUOUS
100
AcDb2dPolyline
 66
     1
 10
0.0
 20
0.0
 30
0.0
 70
     1
  0
VERTEX
  5
30A7
330
1BBD
100
AcDbEntity
  8
0
  6
CONTINUOUS
100
AcDbVertex
100
AcDb2dVertex
 10
118.6203893822044
 20
262.6742491012395
 30
0.0
  0
VERTEX
  5
30A8
330
1BBD
100
AcDbEntity
  8
0
  6
CONTINUOUS
100
AcDbVertex
100
AcDb2dVertex
 10
117.4656888438262
 20
260.6742491012395
 30
0.0
  0
VERTEX
  5
30A9
330
1BBD
100
AcDbEntity
  8
0
  6
CONTINUOUS
100
AcDbVertex
100
AcDb2dVertex
 10
118.6203893822044
 20
258.6742491012395
 30
0.0
  0
VERTEX
  5
30AA
330
1BBD
100
AcDbEntity
  8
0
  6
CONTINUOUS
100
AcDbVertex
100
AcDb2dVertex
 10
120.9297904589644
 20
258.6742491012395
 30
0.0
  0
VERTEX
  5
30AB
330
1BBD
100
AcDbEntity
  8
0
  6
CONTINUOUS
100
AcDbVertex
100
AcDb2dVertex
 10
122.0844909973425
 20
260.6742491012395
 30
0.0
  0
VERTEX
  5
30AC
330
1BBD
100
AcDbEntity
  8
0
  6
CONTINUOUS
100
AcDbVertex
100
AcDb2dVertex
 10
120.9297904589644
 20
262.6742491012395
 30
0.0
  0
SEQEND
  5
30AD
330
1BBD
100
AcDbEntity
  8
0
  6
CONTINUOUS
  0
LINE
  5
1BBE
330
1E
100
AcDbEntity
  8
0
  6
CONTINUOUS
100
AcDbLine
 10
265.0281357177033
 20
154.8466748062779
 30
0.0
 11
225.0281357177033
 21
154.8466748062779
 31
0.0
  0
LINE
  5
1BBF
330
1E
100
AcDbEntity
  8
0
  6
CONTINUOUS
100
AcDbLine
 10
265.0281357177033
 20
126.6914890481958
 30
0.0
 11
225.0281357177033
 21
126.6914890481957
 31
0.0
  0
LINE
  5
1BC0
330
1E
100
AcDbEntity
  8
0
100
AcDbLine
 10
271.0281357177033
 20
170.7690819272369
 30
0.0
 11
225.0281357177033
 21
170.7690819272368
 31
0.0
  0
LINE
  5
1BC1
330
1E
100
AcDbEntity
  8
0
100
AcDbLine
 10
271.0281357177033
 20
110.7690819272369
 30
0.0
 11
225.0281357177034
 21
110.7690819272369
 31
0.0
  0
LINE
  5
1BC2
330
1E
100
AcDbEntity
  8
0
100
AcDbLine
 10
226.0281357177033
 20
150.7690819272369
 30
0.0
 11
265.0281357177033
 21
150.7690819272369
 31
0.0
  0
LINE
  5
1BC3
330
1E
100
AcDbEntity
  8
0
100
AcDbLine
 10
226.0281357177033
 20
130.7690819272369
 30
0.0
 11
265.0281357177033
 21
130.7690819272369
 31
0.0
  0
LINE
  5
1BC4
330
1E
100
AcDbEntity
  8
0
100
AcDbLine
 10
225.0281357177033
 20
131.7690819272369
 30
0.0
 11
225.0281357177033
 21
149.7690819272369
 31
0.0
  0
LINE
  5
1BC5
330
1E
100
AcDbEntity
  8
0
100
AcDbLine
 10
226.0281357177033
 20
130.7690819272369
 30
0.0
 11
226.0281357177033
 21
150.7690819272369
 31
0.0
  0
LINE
  5
1BC6
330
1E
100
AcDbEntity
  8
0
100
AcDbLine
 10
225.0281357177034
 20
108.2690819272368
 30
0.0
 11
225.0281357177033
 21
173.2690819272368
 31
0.0
  0
LINE
  5
1BC7
330
1E
100
AcDbEntity
  8
0
100
AcDbLine
 10
190.0281357177034
 20
121.7690819272369
 30
0.0
 11
190.0281357177034
 21
159.7690819272368
 31
0.0
  0
LINE
  5
1BC8
330
1E
100
AcDbEntity
  8
0
100
AcDbLine
 10
195.0281357177034
 20
108.7690819272369
 30
0.0
 11
195.0281357177034
 21
172.7690819272369
 31
0.0
  0
LINE
  5
1BC9
330
1E
100
AcDbEntity
  8
0
100
AcDbLine
 10
225.0281357177034
 20
108.2690819272368
 30
0.0
 11
195.0281357177034
 21
108.7690819272369
 31
0.0
  0
LINE
  5
1BCA
330
1E
100
AcDbEntity
  8
HIDDEN
  6
HIDDEN
100
AcDbLine
 10
195.0281357177033
 20
121.5190819272369
 30
0.0
 11
213.0281357177033
 21
121.5190819272369
 31
0.0
  0
LINE
  5
1BCB
330
1E
100
AcDbEntity
  8
HIDDEN
  6
HIDDEN
100
AcDbLine
 10
195.0281357177033
 20
113.5190819272369
 30
0.0
 11
213.0281357177033
 21
113.5190819272369
 31
0.0
  0
LINE
  5
1BCC
330
1E
100
AcDbEntity
  8
0
100
AcDbLine
 10
195.0281357177034
 20
120.7690819272368
 30
0.0
 11
191.0281357177034
 21
120.7690819272369
 31
0.0
  0
ARC
  5
1BCD
330
1E
100
AcDbEntity
  8
0
100
AcDbCircle
 10
191.0281357177034
 20
121.7690819272369
 30
0.0
 40
1.0
100
AcDbArc
 50
180.0
 51
270.0
  0
LINE
  5
1BCE
330
1E
100
AcDbEntity
  8
HIDDEN
  6
HIDDEN
100
AcDbLine
 10
201.0281357177033
 20
120.9190819272369
 30
0.0
 11
216.0281357177032
 21
120.9190819272369
 31
0.0
  0
LINE
  5
1BCF
330
1E
100
AcDbEntity
  8
HIDDEN
  6
HIDDEN
100
AcDbLine
 10
201.0281357177033
 20
114.1190819272369
 30
0.0
 11
216.0281357177032
 21
114.1190819272369
 31
0.0
  0
LINE
  5
1BD0
330
1E
100
AcDbEntity
  8
HIDDEN
  6
HIDDEN
100
AcDbLine
 10
201.0281357177033
 20
121.5190819272369
 30
0.0
 11
201.0281357177033
 21
113.5190819272369
 31
0.0
  0
LINE
  5
1BD1
330
1E
100
AcDbEntity
  8
HIDDEN
  6
HIDDEN
100
AcDbLine
 10
216.0281357177032
 20
114.1190819272369
 30
0.0
 11
217.9911266329479
 21
117.5190819272369
 31
0.0
  0
LINE
  5
1BD2
330
1E
100
AcDbEntity
  8
HIDDEN
  6
HIDDEN
100
AcDbLine
 10
216.0281357177032
 20
120.9190819272369
 30
0.0
 11
216.0281357177033
 21
114.119081927237
 31
0.0
  0
LINE
  5
1BD3
330
1E
100
AcDbEntity
  8
HIDDEN
  6
HIDDEN
100
AcDbLine
 10
213.0281357177032
 20
121.5190819272369
 30
0.0
 11
213.0281357177033
 21
113.5190819272369
 31
0.0
  0
LINE
  5
1BD4
330
1E
100
AcDbEntity
  8
HIDDEN
  6
HIDDEN
100
AcDbLine
 10
216.0281357177032
 20
120.9190819272369
 30
0.0
 11
217.9911266329479
 21
117.5190819272369
 31
0.0
  0
LINE
  5
1BD5
330
1E
100
AcDbEntity
  8
0
100
AcDbLine
 10
226.0281357177033
 20
130.7690819272369
 30
0.0
 11
225.0281357177033
 21
131.7690819272369
 31
0.0
  0
LINE
  5
1BD6
330
1E
100
AcDbEntity
  8
0
100
AcDbLine
 10
225.0281357177033
 20
173.2690819272368
 30
0.0
 11
195.0281357177034
 21
172.7690819272369
 31
0.0
  0
LINE
  5
1BD7
330
1E
100
AcDbEntity
  8
HIDDEN
  6
HIDDEN
100
AcDbLine
 10
195.0281357177033
 20
168.0190819272368
 30
0.0
 11
213.0281357177033
 21
168.0190819272368
 31
0.0
  0
LINE
  5
1BD8
330
1E
100
AcDbEntity
  8
HIDDEN
  6
HIDDEN
100
AcDbLine
 10
195.0281357177033
 20
160.0190819272368
 30
0.0
 11
213.0281357177033
 21
160.0190819272368
 31
0.0
  0
LINE
  5
1BD9
330
1E
100
AcDbEntity
  8
0
100
AcDbLine
 10
195.0281357177034
 20
160.7690819272368
 30
0.0
 11
191.0281357177034
 21
160.7690819272368
 31
0.0
  0
ARC
  5
1BDA
330
1E
100
AcDbEntity
  8
0
100
AcDbCircle
 10
191.0281357177034
 20
159.7690819272368
 30
0.0
 40
1.0
100
AcDbArc
 50
90.0
 51
180.0
  0
LINE
  5
1BDB
330
1E
100
AcDbEntity
  8
CENTER
  6
CENTER
100
AcDbLine
 10
218.5281357177033
 20
175.522467368685
 30
0.0
 11
218.5281357177033
 21
159.2246363083931
 31
0.0
  0
LINE
  5
1BDC
330
1E
100
AcDbEntity
  8
CENTER
  6
CENTER
100
AcDbLine
 10
210.0281357177034
 20
175.443796821217
 30
0.0
 11
210.0281357177033
 21
158.9795758819984
 31
0.0
  0
LINE
  5
1BDD
330
1E
100
AcDbEntity
  8
0
100
AcDbLine
 10
225.0281357177033
 20
149.7690819272369
 30
0.0
 11
226.0281357177033
 21
150.7690819272369
 31
0.0
  0
LINE
  5
1BDE
330
1E
100
AcDbEntity
  8
HIDDEN
  6
HIDDEN
100
AcDbLine
 10
201.0281357177033
 20
167.4190819272368
 30
0.0
 11
216.0281357177032
 21
167.4190819272369
 31
0.0
  0
LINE
  5
1BDF
330
1E
100
AcDbEntity
  8
HIDDEN
  6
HIDDEN
100
AcDbLine
 10
201.0281357177033
 20
160.6190819272368
 30
0.0
 11
216.0281357177032
 21
160.6190819272368
 31
0.0
  0
LINE
  5
1BE0
330
1E
100
AcDbEntity
  8
HIDDEN
  6
HIDDEN
100
AcDbLine
 10
201.0281357177033
 20
160.0190819272368
 30
0.0
 11
201.0281357177033
 21
168.0190819272368
 31
0.0
  0
LINE
  5
1BE1
330
1E
100
AcDbEntity
  8
HIDDEN
  6
HIDDEN
100
AcDbLine
 10
216.0281357177032
 20
160.6190819272368
 30
0.0
 11
217.9911266329479
 21
164.0190819272368
 31
0.0
  0
LINE
  5
1BE2
330
1E
100
AcDbEntity
  8
HIDDEN
  6
HIDDEN
100
AcDbLine
 10
213.0281357177032
 20
160.0190819272368
 30
0.0
 11
213.0281357177033
 21
168.0190819272368
 31
0.0
  0
LINE
  5
1BE3
330
1E
100
AcDbEntity
  8
HIDDEN
  6
HIDDEN
100
AcDbLine
 10
216.0281357177032
 20
160.6190819272368
 30
0.0
 11
216.0281357177033
 21
167.4190819272366
 31
0.0
  0
LINE
  5
1BE4
330
1E
100
AcDbEntity
  8
HIDDEN
  6
HIDDEN
100
AcDbLine
 10
216.0281357177032
 20
167.4190819272368
 30
0.0
 11
217.9911266329479
 21
164.0190819272368
 31
0.0
  0
LINE
  5
1BE5
330
1E
100
AcDbEntity
  8
0
100
AcDbLine
 10
265.0281357177033
 20
124.7690819272369
 30
0.0
 11
265.0281357177033
 21
156.7690819272369
 31
0.0
  0
LINE
  5
1BE6
330
1E
100
AcDbEntity
  8
0
100
AcDbLine
 10
271.0281357177033
 20
108.2690819272368
 30
0.0
 11
271.0281357177033
 21
124.7690819272369
 31
0.0
  0
LINE
  5
1BE7
330
1E
100
AcDbEntity
  8
CENTER
  6
CENTER
100
AcDbLine
 10
286.0281357177033
 20
175.443796821217
 30
0.0
 11
286.0281357177035
 21
158.2162489351984
 31
0.0
  0
LINE
  5
1BE8
330
1E
100
AcDbEntity
  8
CENTER
  6
CENTER
100
AcDbLine
 10
277.5281357177035
 20
175.522467368685
 30
0.0
 11
277.5281357177035
 21
158.9678021192891
 31
0.0
  0
LINE
  5
1BE9
330
1E
100
AcDbEntity
  8
0
100
AcDbLine
 10
271.0281357177033
 20
156.7690819272369
 30
0.0
 11
271.0281357177033
 21
173.2690819272369
 31
0.0
  0
LINE
  5
1BEA
330
1E
100
AcDbEntity
  8
0
100
AcDbLine
 10
226.0281357177033
 20
250.6742491012395
 30
0.0
 11
265.0281357177033
 21
250.6742491012394
 31
0.0
  0
LINE
  5
1BEB
330
1E
100
AcDbEntity
  8
0
100
AcDbLine
 10
226.0281357177033
 20
270.6742491012395
 30
0.0
 11
265.0281357177033
 21
270.6742491012394
 31
0.0
  0
LINE
  5
1BEC
330
1E
100
AcDbEntity
  8
DIM
100
AcDbLine
 10
201.5455544994295
 20
214.6742491012395
 30
0.0
 11
179.3803083702904
 21
214.6742491012395
 31
0.0
  0
SOLID
  5
1BED
330
1E
100
AcDbEntity
  8
DIM
100
AcDbTrace
 10
198.0281357177034
 20
215.1742491012395
 30
0.0
 11
198.0281357177034
 21
214.1742491012395
 31
0.0
 12
195.0281357177034
 22
214.6742491012395
 32
0.0
 13
195.0281357177034
 23
214.6742491012395
 33
0.0
  0
TEXT
  5
1BEE
330
1E
100
AcDbEntity
  8
DIM
100
AcDbText
 10
182.0895160510276
 20
216.1742491012395
 30
0.0
 40
3.0
  1
5
  7
ROMANSS
 72
     1
 11
183.0895160510276
 21
217.6742491012395
 31
0.0
100
AcDbText
 73
     2
  0
SOLID
  5
1BEF
330
1E
100
AcDbEntity
  8
DIM
100
AcDbTrace
 10
187.0281357177032
 20
215.1742491012395
 30
0.0
 11
187.0281357177032
 21
214.1742491012395
 31
0.0
 12
190.0281357177032
 22
214.6742491012395
 32
0.0
 13
190.0281357177032
 23
214.6742491012395
 33
0.0
  0
SOLID
  5
1BF0
330
1E
100
AcDbEntity
  8
DIM
100
AcDbTrace
 10
193.0281357177036
 20
207.1742491012395
 30
0.0
 11
193.0281357177036
 21
206.1742491012395
 31
0.0
 12
190.0281357177036
 22
206.6742491012395
 32
0.0
 13
190.0281357177036
 23
206.6742491012395
 33
0.0
  0
LINE
  5
1BF1
330
1E
100
AcDbEntity
  8
0
100
AcDbLine
 10
226.0281357177033
 20
270.6742491012395
 30
0.0
 11
226.0281357177033
 21
250.6742491012395
 31
0.0
  0
LINE
  5
1BF2
330
1E
100
AcDbEntity
  8
0
100
AcDbLine
 10
225.0281357177033
 20
269.6742491012395
 30
0.0
 11
225.0281357177033
 21
251.6742491012395
 31
0.0
  0
SOLID
  5
1BF3
330
1E
100
AcDbEntity
  8
DIM
100
AcDbTrace
 10
216.5281357177033
 20
253.6742491012394
 30
0.0
 11
217.5281357177033
 21
253.6742491012394
 31
0.0
 12
217.0281357177033
 22
250.6742491012394
 32
0.0
 13
217.0281357177033
 23
250.6742491012394
 33
0.0
  0
LINE
  5
1BF4
330
1E
100
AcDbEntity
  8
DIM
100
AcDbLine
 10
224.0281357177033
 20
250.6742491012394
 30
0.0
 11
216.0281357177033
 21
250.6742491012394
 31
0.0
  0
LINE
  5
1BF5
330
1E
100
AcDbEntity
  8
0
100
AcDbLine
 10
225.0281357177033
 20
251.6742491012395
 30
0.0
 11
226.0281357177033
 21
250.6742491012395
 31
0.0
  0
TEXT
  5
1BF6
330
1E
100
AcDbEntity
  8
DIM
100
AcDbText
 10
215.5281357177033
 20
256.8885348155252
 30
0.0
 40
3.0
  1
%%c20
 50
90.0
  7
ROMANSS
 72
     1
 11
214.0281357177034
 21
260.6742491012394
 31
0.0
100
AcDbText
 73
     2
  0
LINE
  5
1BF7
330
1E
100
AcDbEntity
  8
DIM
100
AcDbLine
 10
217.0281357177033
 20
253.6742491012394
 30
0.0
 11
217.0281357177033
 21
267.6742491012395
 31
0.0
  0
LINE
  5
1BF8
330
1E
100
AcDbEntity
  8
DIM
100
AcDbLine
 10
224.0281357177033
 20
270.6742491012395
 30
0.0
 11
216.0281357177033
 21
270.6742491012395
 31
0.0
  0
SOLID
  5
1BF9
330
1E
100
AcDbEntity
  8
DIM
100
AcDbTrace
 10
216.5281357177033
 20
267.6742491012395
 30
0.0
 11
217.5281357177033
 21
267.6742491012395
 31
0.0
 12
217.0281357177033
 22
270.6742491012395
 32
0.0
 13
217.0281357177033
 23
270.6742491012395
 33
0.0
  0
LINE
  5
1BFA
330
1E
100
AcDbEntity
  8
0
100
AcDbLine
 10
226.0281357177033
 20
270.6742491012395
 30
0.0
 11
225.0281357177033
 21
269.6742491012395
 31
0.0
  0
LINE
  5
1BFB
330
1E
100
AcDbEntity
  8
DIM
100
AcDbLine
 10
265.0281357177033
 20
243.3909205372054
 30
0.0
 11
265.0281357177033
 21
213.6742491012395
 31
0.0
  0
TEXT
  5
1BFC
330
1E
100
AcDbEntity
  8
DIM
100
AcDbText
 10
235.9567071462747
 20
208.1742491012395
 30
0.0
 40
3.0
  1
111+Stroke
  7
ROMANSS
 72
     1
 11
248.0281357177033
 21
209.6742491012395
 31
0.0
100
AcDbText
 73
     2
  0
SOLID
  5
1BFD
330
1E
100
AcDbEntity
  8
DIM
100
AcDbTrace
 10
268.0281357177033
 20
215.1742491012395
 30
0.0
 11
268.0281357177033
 21
214.1742491012395
 31
0.0
 12
265.0281357177033
 22
214.6742491012395
 32
0.0
 13
265.0281357177033
 23
214.6742491012395
 33
0.0
  0
TEXT
  5
1BFE
330
1E
100
AcDbEntity
  8
DIM
100
AcDbText
 10
280.8644122110515
 20
216.1742491012395
 30
0.0
 40
3.0
  1
36
  7
ROMANSS
 72
     1
 11
283.2215550681943
 21
217.6742491012395
 31
0.0
100
AcDbText
 73
     2
  0
LINE
  5
1BFF
330
1E
100
AcDbEntity
  8
0
100
AcDbLine
 10
225.0281357177034
 20
439.650000119634
 30
0.0
 11
225.0281357177033
 21
504.6500001196339
 31
0.0
  0
LINE
  5
1C00
330
1E
100
AcDbEntity
  8
0
100
AcDbLine
 10
265.0281357177033
 20
456.1500001196341
 30
0.0
 11
265.0281357177033
 21
488.150000119634
 31
0.0
  0
LINE
  5
1C01
330
1E
100
AcDbEntity
  8
0
100
AcDbLine
 10
195.0281357177034
 20
440.150000119634
 30
0.0
 11
195.0281357177034
 21
504.150000119634
 31
0.0
  0
LINE
  5
1C02
330
1E
100
AcDbEntity
  8
0
100
AcDbLine
 10
190.0281357177034
 20
453.1500001196341
 30
0.0
 11
190.0281357177034
 21
491.1500001196339
 31
0.0
  0
TEXT
  5
1C03
330
1E
100
AcDbEntity
  8
DIM
100
AcDbText
 10
157.048691731753
 20
294.5664545941511
 30
0.0
 40
3.0
  1
2-G1/4
  7
ROMANSS
 72
     2
 11
174.1915488746101
 21
296.0664545941511
 31
0.0
100
AcDbText
 73
     2
  0
LINE
  5
1C04
330
1E
100
AcDbEntity
  8
DIM
100
AcDbLine
 10
175.1915488746101
 20
293.0664545941512
 30
0.0
 11
158.6915488746101
 21
293.0664545941512
 31
0.0
  0
CIRCLE
  5
1C05
330
1E
100
AcDbEntity
  8
0
  6
CONTINUOUS
100
AcDbCircle
 10
119.7750899205844
 20
364.6742491012394
 30
0.0
 40
3.903579676674365
  0
CIRCLE
  5
1C06
330
1E
100
AcDbEntity
  8
0
  6
CONTINUOUS
100
AcDbCircle
 10
119.7750899205844
 20
364.6742491012394
 30
0.0
 40
4.25
  0
CIRCLE
  5
1C07
330
1E
100
AcDbEntity
  8
0
  6
CONTINUOUS
100
AcDbCircle
 10
76.77508992058443
 20
364.6742491012394
 30
0.0
 40
3.903579676674365
  0
CIRCLE
  5
1C08
330
1E
100
AcDbEntity
  8
0
  6
CONTINUOUS
100
AcDbCircle
 10
76.77508992058443
 20
364.6742491012394
 30
0.0
 40
4.25
  0
ARC
  5
1C09
330
1E
100
AcDbEntity
  8
0
100
AcDbCircle
 10
98.27508992058444
 20
364.6742491012394
 30
0.0
 40
27.0
100
AcDbArc
 50
313.7617426926793
 51
226.2382573073204
  0
ARC
  5
1C0A
330
1E
100
AcDbEntity
  8
CENTER
  6
CENTER
100
AcDbCircle
 10
98.27508992058444
 20
364.6742491012394
 30
0.0
 40
21.49999999999999
100
AcDbArc
 50
294.9091527369501
 51
245.0908472630483
  0
CIRCLE
  5
1C0B
330
1E
100
AcDbEntity
  8
0
100
AcDbCircle
 10
98.27508992058444
 20
364.6742491012394
 30
0.0
 40
16.0
  0
CIRCLE
  5
1C0C
330
1E
100
AcDbEntity
  8
0
100
AcDbCircle
 10
98.27508992058444
 20
364.6742491012394
 30
0.0
 40
10.0
  0
ARC
  5
1C0D
330
1E
100
AcDbEntity
  8
0
100
AcDbCircle
 10
96.27508992058427
 20
341.2242491012394
 30
0.0
 40
1.0
100
AcDbArc
 50
0.0
 51
90.0
  0
ARC
  5
1C0E
330
1E
100
AcDbEntity
  8
0
100
AcDbCircle
 10
96.27508992058427
 20
334.0810237298471
 30
0.0
 40
1.0
100
AcDbArc
 50
275.3375568494169
 51
0.0
  0
LINE
  5
1C0F
330
1E
100
AcDbEntity
  8
0
100
AcDbLine
 10
75.02508992058444
 20
345.1742491012395
 30
0.0
 11
121.5250899205843
 21
345.1742491012395
 31
0.0
  0
LINE
  5
1C10
330
1E
100
AcDbEntity
  8
0
100
AcDbLine
 10
75.02508992058444
 20
344.6742491012395
 30
0.0
 11
121.5250899205843
 21
344.6742491012395
 31
0.0
  0
LINE
  5
1C11
330
1E
100
AcDbEntity
  8
CENTER
  6
CENTER
100
AcDbLine
 10
67.27508992058421
 20
364.6742491012394
 30
0.0
 11
129.2750899205846
 21
364.6742491012394
 31
0.0
  0
ARC
  5
1C12
330
1E
100
AcDbEntity
  8
0
100
AcDbCircle
 10
96.27508992058427
 20
291.2674744726317
 30
0.0
 40
1.0
100
AcDbArc
 50
0.0
 51
84.66244315058306
  0
ARC
  5
1C13
330
1E
100
AcDbEntity
  8
0
100
AcDbCircle
 10
96.27508992058427
 20
284.1242491012394
 30
0.0
 40
1.0
100
AcDbArc
 50
270.0
 51
0.0
  0
LINE
  5
1C14
330
1E
100
AcDbEntity
  8
CENTER
  6
CENTER
100
AcDbLine
 10
60.27508992058449
 20
312.6742491012395
 30
0.0
 11
136.2750899205845
 21
312.6742491012394
 31
0.0
  0
LINE
  5
1C15
330
1E
100
AcDbEntity
  8
0
100
AcDbLine
 10
121.5250899205843
 20
280.1742491012394
 30
0.0
 11
75.02508992058444
 21
280.1742491012394
 31
0.0
  0
LINE
  5
1C16
330
1E
100
AcDbEntity
  8
0
100
AcDbLine
 10
121.5250899205843
 20
280.6742491012394
 30
0.0
 11
75.02508992058444
 21
280.6742491012394
 31
0.0
  0
CIRCLE
  5
1C17
330
1E
100
AcDbEntity
  8
0
100
AcDbCircle
 10
98.27508992058449
 20
312.6742491012395
 30
0.0
 40
19.99999999999998
  0
LINE
  5
1C18
330
1E
100
AcDbEntity
  8
0
100
AcDbLine
 10
68.72508992058437
 20
314.6742491012395
 30
0.0
 11
68.72508992058437
 21
326.9799771912402
 31
0.0
  0
ARC
  5
1C19
330
1E
100
AcDbEntity
  8
0
100
AcDbCircle
 10
98.27508992058449
 20
312.6742491012395
 30
0.0
 40
20.49999999999998
100
AcDbArc
 50
140.0900604211278
 51
174.6624431505846
  0
LINE
  5
1C1A
330
1E
100
AcDbEntity
  8
0
100
AcDbLine
 10
65.77508992058444
 20
289.4242491012395
 30
0.0
 11
65.77508992058444
 21
335.9242491012395
 31
0.0
  0
LINE
  5
1C1B
330
1E
100
AcDbEntity
  8
0
100
AcDbLine
 10
66.27508992058444
 20
289.4242491012395
 30
0.0
 11
66.27508992058444
 21
335.9242491012395
 31
0.0
  0
ARC
  5
1C1C
330
1E
100
AcDbEntity
  8
0
100
AcDbCircle
 10
81.78343187402544
 20
298.8802208688713
 30
0.0
 40
1.0
100
AcDbArc
 50
315.2474964282878
 51
39.90993957887331
  0
ARC
  5
1C1D
330
1E
100
AcDbEntity
  8
0
100
AcDbCircle
 10
75.22508992058437
 20
289.4242491012393
 30
0.0
 40
9.5
100
AcDbArc
 50
56.22807185589976
 51
121.5881355052006
  0
LINE
  5
1C1E
330
1E
100
AcDbEntity
  8
0
100
AcDbLine
 10
68.72508992058437
 20
310.6742491012393
 30
0.0
 11
68.72508992058437
 21
298.3685210112387
 31
0.0
  0
LINE
  5
1C1F
330
1E
100
AcDbEntity
  8
CENTER
  6
CENTER
100
AcDbLine
 10
82.72508992058437
 20
289.6242491012394
 30
0.0
 11
67.72508992058437
 21
289.6242491012394
 31
0.0
  0
CIRCLE
  5
1C20
330
1E
100
AcDbEntity
  8
0
100
AcDbCircle
 10
75.22508992058437
 20
289.6242491012394
 30
0.0
 40
6.5
  0
CIRCLE
  5
1C21
330
1E
100
AcDbEntity
  8
0
  6
CONTINUOUS
100
AcDbCircle
 10
75.22508992058437
 20
289.6242491012394
 30
0.0
 40
3.35
  0
ARC
  5
1C22
330
1E
100
AcDbEntity
  8
0
  6
CONTINUOUS
 62
     2
100
AcDbCircle
 10
75.22508992058437
 20
289.6242491012394
 30
0.0
 40
4.000000000000004
100
AcDbArc
 50
75.00000000000555
 51
14.99999999999445
  0
POLYLINE
  5
1C23
330
1E
100
AcDbEntity
  8
0
  6
CONTINUOUS
100
AcDb2dPolyline
 66
     1
 10
0.0
 20
0.0
 30
0.0
 70
     1
  0
VERTEX
  5
30AE
330
1C23
100
AcDbEntity
  8
0
  6
CONTINUOUS
100
AcDbVertex
100
AcDb2dVertex
 10
77.53449099734291
 20
285.6242491012394
 30
0.0
  0
VERTEX
  5
30AF
330
1C23
100
AcDbEntity
  8
0
  6
CONTINUOUS
100
AcDbVertex
100
AcDb2dVertex
 10
79.8438920741014
 20
289.6242491012394
 30
0.0
  0
VERTEX
  5
30B0
330
1C23
100
AcDbEntity
  8
0
  6
CONTINUOUS
100
AcDbVertex
100
AcDb2dVertex
 10
77.53449099734291
 20
293.6242491012394
 30
0.0
  0
VERTEX
  5
30B1
330
1C23
100
AcDbEntity
  8
0
  6
CONTINUOUS
100
AcDbVertex
100
AcDb2dVertex
 10
72.91568884382588
 20
293.6242491012394
 30
0.0
  0
VERTEX
  5
30B2
330
1C23
100
AcDbEntity
  8
0
  6
CONTINUOUS
100
AcDbVertex
100
AcDb2dVertex
 10
70.60628776706739
 20
289.6242491012394
 30
0.0
  0
VERTEX
  5
30B3
330
1C23
100
AcDbEntity
  8
0
  6
CONTINUOUS
100
AcDbVertex
100
AcDb2dVertex
 10
72.91568884382588
 20
285.6242491012394
 30
0.0
  0
SEQEND
  5
30B4
330
1C23
100
AcDbEntity
  8
0
  6
CONTINUOUS
  0
LINE
  5
1C24
330
1E
100
AcDbEntity
  8
CENTER
  6
CENTER
100
AcDbLine
 10
75.22508992058437
 20
282.1242491012394
 30
0.0
 11
75.22508992058437
 21
297.1242491012394
 31
0.0
  0
ARC
  5
1C25
330
1E
100
AcDbEntity
  8
0
100
AcDbCircle
 10
75.02508992058444
 20
289.4242491012395
 30
0.0
 40
8.75
100
AcDbArc
 50
180.0
 51
270.0
  0
ARC
  5
1C26
330
1E
100
AcDbEntity
  8
0
100
AcDbCircle
 10
75.02508992058444
 20
289.4242491012395
 30
0.0
 40
9.25
100
AcDbArc
 50
180.0
 51
270.0
  0
ARC
  5
1C27
330
1E
100
AcDbEntity
  8
0
100
AcDbCircle
 10
69.72508992058436
 20
298.3685210112387
 30
0.0
 40
1.0
100
AcDbArc
 50
180.0
 51
301.5881355052006
  0
ARC
  5
1C28
330
1E
100
AcDbEntity
  8
0
100
AcDbCircle
 10
75.02508992058432
 20
289.6242491012394
 30
0.0
 40
9.5
100
AcDbArc
 50
328.4118644947991
 51
33.77192814410116
  0
LINE
  5
1C29
330
1E
100
AcDbEntity
  8
0
100
AcDbLine
 10
88.27508992058444
 20
284.1242491012394
 30
0.0
 11
88.27508992058444
 21
294.2012958993282
 31
0.0
  0
ARC
  5
1C2A
330
1E
100
AcDbEntity
  8
0
100
AcDbCircle
 10
87.27508992058444
 20
284.1242491012394
 30
0.0
 40
1.0
100
AcDbArc
 50
270.0
 51
0.0
  0
LINE
  5
1C2B
330
1E
100
AcDbEntity
  8
0
100
AcDbLine
 10
96.27508992058427
 20
283.1242491012394
 30
0.0
 11
83.96936183058363
 21
283.1242491012394
 31
0.0
  0
ARC
  5
1C2C
330
1E
100
AcDbEntity
  8
0
100
AcDbCircle
 10
83.96936183058363
 20
284.1242491012394
 30
0.0
 40
1.0
100
AcDbArc
 50
148.4118644947991
 51
270.0
  0
ARC
  5
1C2D
330
1E
100
AcDbEntity
  8
0
100
AcDbCircle
 10
98.27508992058449
 20
312.6742491012395
 30
0.0
 40
20.49999999999998
100
AcDbArc
 50
230.0900604211272
 51
264.6624431505847
  0
ARC
  5
1C2E
330
1E
100
AcDbEntity
  8
0
100
AcDbCircle
 10
84.48106168821624
 20
296.1825910546804
 30
0.0
 40
1.0
100
AcDbArc
 50
50.09006042112644
 51
134.752503571713
  0
ARC
  5
1C2F
330
1E
100
AcDbEntity
  8
0
100
AcDbCircle
 10
87.27508992058444
 20
294.2012958993282
 30
0.0
 40
1.0
100
AcDbArc
 50
0.0
 51
59.22767523205518
  0
ARC
  5
1C30
330
1E
100
AcDbEntity
  8
0
100
AcDbCircle
 10
83.75328762795124
 20
295.4610774164392
 30
0.0
 40
1.0
100
AcDbArc
 50
134.752503571713
 51
213.771928144102
  0
ARC
  5
1C31
330
1E
100
AcDbEntity
  8
0
100
AcDbCircle
 10
81.06191823578416
 20
298.1524468086063
 30
0.0
 40
1.0
100
AcDbArc
 50
236.2280718559005
 51
315.2474964282878
  0
LINE
  5
1C32
330
1E
100
AcDbEntity
  8
0
100
AcDbLine
 10
82.49358648664639
 20
298.176175113133
 30
0.0
 11
81.77207284840523
 21
297.448401052868
 31
0.0
  0
LINE
  5
1C33
330
1E
100
AcDbEntity
  8
0
100
AcDbLine
 10
83.77701593247792
 20
296.8927456673014
 30
0.0
 11
83.04924187221292
 21
296.1712320290603
 31
0.0
  0
ARC
  5
1C34
330
1E
100
AcDbEntity
  8
0
100
AcDbCircle
 10
79.80213671867312
 20
301.6742491012395
 30
0.0
 40
1.0
100
AcDbArc
 50
30.77232476794504
 51
90.0
  0
ARC
  5
1C35
330
1E
100
AcDbEntity
  8
0
100
AcDbCircle
 10
98.27508992058449
 20
312.6742491012395
 30
0.0
 40
20.49999999999998
100
AcDbArc
 50
185.3375568494153
 51
219.9099395788733
  0
LINE
  5
1C36
330
1E
100
AcDbEntity
  8
0
100
AcDbLine
 10
69.72508992058436
 20
302.6742491012395
 30
0.0
 11
79.80213671867312
 21
302.6742491012395
 31
0.0
  0
ARC
  5
1C37
330
1E
100
AcDbEntity
  8
0
100
AcDbCircle
 10
69.72508992058436
 20
301.6742491012395
 30
0.0
 40
1.0
100
AcDbArc
 50
90.0
 51
180.0
  0
LINE
  5
1C38
330
1E
100
AcDbEntity
  8
0
100
AcDbLine
 10
69.72508992058436
 20
311.6742491012394
 30
0.0
 11
76.86831529197667
 21
311.6742491012394
 31
0.0
  0
LINE
  5
1C39
330
1E
100
AcDbEntity
  8
0
100
AcDbLine
 10
69.72508992058436
 20
313.6742491012395
 30
0.0
 11
76.86831529197667
 21
313.6742491012395
 31
0.0
  0
ARC
  5
1C3A
330
1E
100
AcDbEntity
  8
0
100
AcDbCircle
 10
69.72508992058436
 20
314.6742491012395
 30
0.0
 40
1.0
100
AcDbArc
 50
180.0
 51
270.0
  0
ARC
  5
1C3B
330
1E
100
AcDbEntity
  8
0
100
AcDbCircle
 10
69.72508992058436
 20
310.6742491012393
 30
0.0
 40
1.0
100
AcDbArc
 50
90.0
 51
180.0
  0
ARC
  5
1C3C
330
1E
100
AcDbEntity
  8
0
100
AcDbCircle
 10
76.86831529197667
 20
314.6742491012395
 30
0.0
 40
1.0
100
AcDbArc
 50
270.0
 51
354.662443150583
  0
ARC
  5
1C3D
330
1E
100
AcDbEntity
  8
0
100
AcDbCircle
 10
76.86831529197667
 20
310.6742491012393
 30
0.0
 40
1.0
100
AcDbArc
 50
5.33755684941691
 51
90.0
  0
ARC
  5
1C3E
330
1E
100
AcDbEntity
  8
0
100
AcDbCircle
 10
75.02508992058444
 20
335.9242491012395
 30
0.0
 40
9.25
100
AcDbArc
 50
90.0
 51
180.0
  0
ARC
  5
1C3F
330
1E
100
AcDbEntity
  8
0
100
AcDbCircle
 10
75.02508992058444
 20
335.9242491012395
 30
0.0
 40
8.75
100
AcDbArc
 50
90.0
 51
180.0
  0
LINE
  5
1C40
330
1E
100
AcDbEntity
  8
CENTER
  6
CENTER
100
AcDbLine
 10
82.72508992058437
 20
335.7242491012395
 30
0.0
 11
67.72508992058437
 21
335.7242491012395
 31
0.0
  0
ARC
  5
1C41
330
1E
100
AcDbEntity
  8
0
100
AcDbCircle
 10
79.80213671867312
 20
323.6742491012395
 30
0.0
 40
1.0
100
AcDbArc
 50
270.0
 51
329.227675232055
  0
ARC
  5
1C42
330
1E
100
AcDbEntity
  8
0
100
AcDbCircle
 10
75.22508992058437
 20
335.9242491012395
 30
0.0
 40
9.5
100
AcDbArc
 50
238.4118644947993
 51
303.7719281441005
  0
CIRCLE
  5
1C43
330
1E
100
AcDbEntity
  8
0
100
AcDbCircle
 10
75.22508992058437
 20
335.7242491012395
 30
0.0
 40
6.5
  0
CIRCLE
  5
1C44
330
1E
100
AcDbEntity
  8
0
  6
CONTINUOUS
100
AcDbCircle
 10
75.22508992058437
 20
335.7242491012395
 30
0.0
 40
3.35
  0
ARC
  5
1C45
330
1E
100
AcDbEntity
  8
0
  6
CONTINUOUS
 62
     2
100
AcDbCircle
 10
75.22508992058437
 20
335.7242491012395
 30
0.0
 40
4.000000000000004
100
AcDbArc
 50
75.00000000000555
 51
14.99999999999445
  0
LINE
  5
1C46
330
1E
100
AcDbEntity
  8
CENTER
  6
CENTER
100
AcDbLine
 10
75.22508992058437
 20
328.2242491012394
 30
0.0
 11
75.22508992058437
 21
343.2242491012394
 31
0.0
  0
POLYLINE
  5
1C47
330
1E
100
AcDbEntity
  8
0
  6
CONTINUOUS
100
AcDb2dPolyline
 66
     1
 10
0.0
 20
0.0
 30
0.0
 70
     1
  0
VERTEX
  5
30B5
330
1C47
100
AcDbEntity
  8
0
  6
CONTINUOUS
100
AcDbVertex
100
AcDb2dVertex
 10
77.53449099734291
 20
331.7242491012394
 30
0.0
  0
VERTEX
  5
30B6
330
1C47
100
AcDbEntity
  8
0
  6
CONTINUOUS
100
AcDbVertex
100
AcDb2dVertex
 10
79.8438920741014
 20
335.7242491012395
 30
0.0
  0
VERTEX
  5
30B7
330
1C47
100
AcDbEntity
  8
0
  6
CONTINUOUS
100
AcDbVertex
100
AcDb2dVertex
 10
77.53449099734291
 20
339.7242491012395
 30
0.0
  0
VERTEX
  5
30B8
330
1C47
100
AcDbEntity
  8
0
  6
CONTINUOUS
100
AcDbVertex
100
AcDb2dVertex
 10
72.91568884382588
 20
339.7242491012395
 30
0.0
  0
VERTEX
  5
30B9
330
1C47
100
AcDbEntity
  8
0
  6
CONTINUOUS
100
AcDbVertex
100
AcDb2dVertex
 10
70.60628776706739
 20
335.7242491012395
 30
0.0
  0
VERTEX
  5
30BA
330
1C47
100
AcDbEntity
  8
0
  6
CONTINUOUS
100
AcDbVertex
100
AcDb2dVertex
 10
72.91568884382588
 20
331.7242491012394
 30
0.0
  0
SEQEND
  5
30BB
330
1C47
100
AcDbEntity
  8
0
  6
CONTINUOUS
  0
LINE
  5
1C48
330
1E
100
AcDbEntity
  8
0
100
AcDbLine
 10
69.72508992058436
 20
322.6742491012395
 30
0.0
 11
79.80213671867312
 21
322.6742491012395
 31
0.0
  0
ARC
  5
1C49
330
1E
100
AcDbEntity
  8
0
100
AcDbCircle
 10
69.72508992058436
 20
326.9799771912402
 30
0.0
 40
1.0
100
AcDbArc
 50
58.41186449479938
 51
180.0
  0
ARC
  5
1C4A
330
1E
100
AcDbEntity
  8
0
100
AcDbCircle
 10
69.72508992058436
 20
323.6742491012395
 30
0.0
 40
1.0
100
AcDbArc
 50
180.0
 51
270.0
  0
ARC
  5
1C4B
330
1E
100
AcDbEntity
  8
0
100
AcDbCircle
 10
75.02508992058432
 20
335.7242491012395
 30
0.0
 40
9.5
100
AcDbArc
 50
326.2280718558991
 51
31.58813550520083
  0
LINE
  5
1C4C
330
1E
100
AcDbEntity
  8
0
100
AcDbLine
 10
88.27508992058444
 20
341.2242491012394
 30
0.0
 11
88.27508992058444
 21
331.1472023031507
 31
0.0
  0
ARC
  5
1C4D
330
1E
100
AcDbEntity
  8
0
100
AcDbCircle
 10
98.27508992058449
 20
312.6742491012395
 30
0.0
 40
20.49999999999998
100
AcDbArc
 50
95.33755684941525
 51
129.909939578873
  0
ARC
  5
1C4E
330
1E
100
AcDbEntity
  8
0
100
AcDbCircle
 10
84.48106168821624
 20
329.1659071477985
 30
0.0
 40
1.0
100
AcDbArc
 50
225.2474964282867
 51
309.9099395788735
  0
ARC
  5
1C4F
330
1E
100
AcDbEntity
  8
0
100
AcDbCircle
 10
87.27508992058444
 20
331.1472023031507
 30
0.0
 40
1.0
100
AcDbArc
 50
300.7723247679452
 51
0.0
  0
ARC
  5
1C50
330
1E
100
AcDbEntity
  8
0
100
AcDbCircle
 10
83.75328762795124
 20
329.8874207860396
 30
0.0
 40
1.0
100
AcDbArc
 50
146.2280718558979
 51
225.2474964282867
  0
ARC
  5
1C51
330
1E
100
AcDbEntity
  8
0
100
AcDbCircle
 10
81.06191823578416
 20
327.1960513938726
 30
0.0
 40
1.0
100
AcDbArc
 50
44.75250357171214
 51
123.7719281440994
  0
LINE
  5
1C52
330
1E
100
AcDbEntity
  8
0
100
AcDbLine
 10
82.49358648664639
 20
327.1723230893459
 30
0.0
 11
81.77207284840523
 21
327.9000971496109
 31
0.0
  0
LINE
  5
1C53
330
1E
100
AcDbEntity
  8
0
100
AcDbLine
 10
83.77701593247792
 20
328.4557525351774
 30
0.0
 11
83.04924187221292
 21
329.1772661734187
 31
0.0
  0
ARC
  5
1C54
330
1E
100
AcDbEntity
  8
0
100
AcDbCircle
 10
81.78343187402544
 20
326.4682773336076
 30
0.0
 40
1.0
100
AcDbArc
 50
320.0900604211266
 51
44.75250357171214
  0
ARC
  5
1C55
330
1E
100
AcDbEntity
  8
0
100
AcDbCircle
 10
87.27508992058444
 20
341.2242491012394
 30
0.0
 40
1.0
100
AcDbArc
 50
0.0
 51
90.0
  0
LINE
  5
1C56
330
1E
100
AcDbEntity
  8
0
100
AcDbLine
 10
96.27508992058427
 20
342.2242491012394
 30
0.0
 11
83.96936183058363
 21
342.2242491012394
 31
0.0
  0
ARC
  5
1C57
330
1E
100
AcDbEntity
  8
0
100
AcDbCircle
 10
83.96936183058363
 20
341.2242491012394
 30
0.0
 40
1.0
100
AcDbArc
 50
90.0
 51
211.5881355052008
  0
POLYLINE
  5
1C58
330
1E
100
AcDbEntity
  8
0
  6
CONTINUOUS
100
AcDb2dPolyline
 66
     1
 10
0.0
 20
0.0
 30
0.0
 70
     1
  0
VERTEX
  5
30BC
330
1C58
100
AcDbEntity
  8
0
  6
CONTINUOUS
100
AcDbVertex
100
AcDb2dVertex
 10
75.62038938220445
 20
366.6742491012394
 30
0.0
  0
VERTEX
  5
30BD
330
1C58
100
AcDbEntity
  8
0
  6
CONTINUOUS
100
AcDbVertex
100
AcDb2dVertex
 10
74.46568884382628
 20
364.6742491012394
 30
0.0
  0
VERTEX
  5
30BE
330
1C58
100
AcDbEntity
  8
0
  6
CONTINUOUS
100
AcDbVertex
100
AcDb2dVertex
 10
75.62038938220445
 20
362.6742491012393
 30
0.0
  0
VERTEX
  5
30BF
330
1C58
100
AcDbEntity
  8
0
  6
CONTINUOUS
100
AcDbVertex
100
AcDb2dVertex
 10
77.92979045896442
 20
362.6742491012393
 30
0.0
  0
VERTEX
  5
30C0
330
1C58
100
AcDbEntity
  8
0
  6
CONTINUOUS
100
AcDbVertex
100
AcDb2dVertex
 10
79.08449099734259
 20
364.6742491012394
 30
0.0
  0
VERTEX
  5
30C1
330
1C58
100
AcDbEntity
  8
0
  6
CONTINUOUS
100
AcDbVertex
100
AcDb2dVertex
 10
77.92979045896442
 20
366.6742491012394
 30
0.0
  0
SEQEND
  5
30C2
330
1C58
100
AcDbEntity
  8
0
  6
CONTINUOUS
  0
ARC
  5
1C59
330
1E
100
AcDbEntity
  8
0
100
AcDbCircle
 10
98.27508992058449
 20
312.6742491012395
 30
0.0
 40
20.49999999999998
100
AcDbArc
 50
5.337556849415289
 51
39.90993957887216
  0
LINE
  5
1C5A
330
1E
100
AcDbEntity
  8
0
100
AcDbLine
 10
127.8250899205843
 20
314.6742491012396
 30
0.0
 11
127.8250899205843
 21
326.9799771912403
 31
0.0
  0
LINE
  5
1C5B
330
1E
100
AcDbEntity
  8
0
100
AcDbLine
 10
130.7750899205843
 20
335.9242491012395
 30
0.0
 11
130.7750899205843
 21
289.4242491012395
 31
0.0
  0
LINE
  5
1C5C
330
1E
100
AcDbEntity
  8
0
100
AcDbLine
 10
130.2750899205843
 20
335.9242491012395
 30
0.0
 11
130.2750899205843
 21
289.4242491012395
 31
0.0
  0
LINE
  5
1C5D
330
1E
100
AcDbEntity
  8
CENTER
  6
CENTER
100
AcDbLine
 10
136.3995577770261
 20
308.6742491012395
 30
0.0
 11
119.9667023803997
 21
308.6742491012395
 31
0.0
  0
ARC
  5
1C5E
330
1E
100
AcDbEntity
  8
0
100
AcDbCircle
 10
121.5250899205843
 20
289.4242491012395
 30
0.0
 40
8.75
100
AcDbArc
 50
270.0
 51
0.0
  0
ARC
  5
1C5F
330
1E
100
AcDbEntity
  8
0
100
AcDbCircle
 10
121.5250899205843
 20
289.4242491012395
 30
0.0
 40
9.25
100
AcDbArc
 50
270.0
 51
0.0
  0
ARC
  5
1C60
330
1E
100
AcDbEntity
  8
0
100
AcDbCircle
 10
114.7667479671433
 20
298.8802208688713
 30
0.0
 40
1.0
100
AcDbArc
 50
140.0900604211266
 51
224.7525035717121
  0
ARC
  5
1C61
330
1E
100
AcDbEntity
  8
0
100
AcDbCircle
 10
121.3250899205843
 20
289.4242491012395
 30
0.0
 40
9.5
100
AcDbArc
 50
58.41186449479938
 51
123.7719281441002
  0
LINE
  5
1C62
330
1E
100
AcDbEntity
  8
0
100
AcDbLine
 10
127.8250899205843
 20
310.6742491012395
 30
0.0
 11
127.8250899205843
 21
298.3685210112387
 31
0.0
  0
LINE
  5
1C63
330
1E
100
AcDbEntity
  8
0
100
AcDbLine
 10
112.7731639086908
 20
296.8927456673014
 30
0.0
 11
113.5009379689557
 21
296.1712320290603
 31
0.0
  0
ARC
  5
1C64
330
1E
100
AcDbEntity
  8
0
100
AcDbCircle
 10
112.5808180105851
 20
284.1242491012394
 30
0.0
 40
1.0
100
AcDbArc
 50
270.0
 51
31.58813550520083
  0
ARC
  5
1C65
330
1E
100
AcDbEntity
  8
0
100
AcDbCircle
 10
121.5250899205843
 20
289.6242491012394
 30
0.0
 40
9.5
100
AcDbArc
 50
146.2280718558988
 51
211.5881355052008
  0
LINE
  5
1C66
330
1E
100
AcDbEntity
  8
0
100
AcDbLine
 10
108.2750899205844
 20
284.1242491012394
 30
0.0
 11
108.2750899205844
 21
294.2012958993282
 31
0.0
  0
LINE
  5
1C67
330
1E
100
AcDbEntity
  8
0
100
AcDbLine
 10
97.27508992058426
 20
284.1242491012394
 30
0.0
 11
97.27508992058426
 21
291.2674744726317
 31
0.0
  0
LINE
  5
1C68
330
1E
100
AcDbEntity
  8
0
100
AcDbLine
 10
99.27508992058449
 20
284.1242491012394
 30
0.0
 11
99.27508992058449
 21
291.2674744726317
 31
0.0
  0
LINE
  5
1C69
330
1E
100
AcDbEntity
  8
0
100
AcDbLine
 10
100.2750899205844
 20
283.1242491012394
 30
0.0
 11
112.5808180105851
 21
283.1242491012394
 31
0.0
  0
ARC
  5
1C6A
330
1E
100
AcDbEntity
  8
0
100
AcDbCircle
 10
100.2750899205844
 20
284.1242491012394
 30
0.0
 40
1.0
100
AcDbArc
 50
180.0
 51
270.0
  0
ARC
  5
1C6B
330
1E
100
AcDbEntity
  8
0
100
AcDbCircle
 10
109.2750899205845
 20
284.1242491012394
 30
0.0
 40
1.0
100
AcDbArc
 50
180.0
 51
270.0
  0
ARC
  5
1C6C
330
1E
100
AcDbEntity
  8
0
100
AcDbCircle
 10
98.27508992058449
 20
312.6742491012395
 30
0.0
 40
20.49999999999998
100
AcDbArc
 50
275.3375568494152
 51
309.9099395788727
  0
ARC
  5
1C6D
330
1E
100
AcDbEntity
  8
0
100
AcDbCircle
 10
100.2750899205844
 20
291.2674744726317
 30
0.0
 40
1.0
100
AcDbArc
 50
95.33755684941695
 51
180.0
  0
ARC
  5
1C6E
330
1E
100
AcDbEntity
  8
0
100
AcDbCircle
 10
109.2750899205845
 20
294.2012958993282
 30
0.0
 40
1.0
100
AcDbArc
 50
120.7723247679448
 51
180.0
  0
ARC
  5
1C6F
330
1E
100
AcDbEntity
  8
0
100
AcDbCircle
 10
112.0691181529524
 20
296.1825910546804
 30
0.0
 40
1.0
100
AcDbArc
 50
45.247496428287
 51
129.9099395788735
  0
CIRCLE
  5
1C70
330
1E
100
AcDbEntity
  8
0
  6
CONTINUOUS
100
AcDbCircle
 10
121.3250899205842
 20
289.6242491012394
 30
0.0
 40
3.35
  0
ARC
  5
1C71
330
1E
100
AcDbEntity
  8
0
  6
CONTINUOUS
 62
     2
100
AcDbCircle
 10
121.3250899205842
 20
289.6242491012394
 30
0.0
 40
4.000000000000004
100
AcDbArc
 50
75.00000000000555
 51
14.99999999999445
  0
POLYLINE
  5
1C72
330
1E
100
AcDbEntity
  8
0
  6
CONTINUOUS
100
AcDb2dPolyline
 66
     1
 10
0.0
 20
0.0
 30
0.0
 70
     1
  0
VERTEX
  5
30C3
330
1C72
100
AcDbEntity
  8
0
  6
CONTINUOUS
100
AcDbVertex
100
AcDb2dVertex
 10
123.6344909973428
 20
285.6242491012394
 30
0.0
  0
VERTEX
  5
30C4
330
1C72
100
AcDbEntity
  8
0
  6
CONTINUOUS
100
AcDbVertex
100
AcDb2dVertex
 10
125.9438920741013
 20
289.6242491012394
 30
0.0
  0
VERTEX
  5
30C5
330
1C72
100
AcDbEntity
  8
0
  6
CONTINUOUS
100
AcDbVertex
100
AcDb2dVertex
 10
123.6344909973428
 20
293.6242491012394
 30
0.0
  0
VERTEX
  5
30C6
330
1C72
100
AcDbEntity
  8
0
  6
CONTINUOUS
100
AcDbVertex
100
AcDb2dVertex
 10
119.0156888438258
 20
293.6242491012394
 30
0.0
  0
VERTEX
  5
30C7
330
1C72
100
AcDbEntity
  8
0
  6
CONTINUOUS
100
AcDbVertex
100
AcDb2dVertex
 10
116.7062877670672
 20
289.6242491012394
 30
0.0
  0
VERTEX
  5
30C8
330
1C72
100
AcDbEntity
  8
0
  6
CONTINUOUS
100
AcDbVertex
100
AcDb2dVertex
 10
119.0156888438258
 20
285.6242491012394
 30
0.0
  0
SEQEND
  5
30C9
330
1C72
100
AcDbEntity
  8
0
  6
CONTINUOUS
  0
CIRCLE
  5
1C73
330
1E
100
AcDbEntity
  8
0
100
AcDbCircle
 10
121.3250899205842
 20
289.6242491012394
 30
0.0
 40
6.5
  0
LINE
  5
1C74
330
1E
100
AcDbEntity
  8
CENTER
  6
CENTER
100
AcDbLine
 10
121.3250899205843
 20
282.1242491012394
 30
0.0
 11
121.3250899205843
 21
297.1242491012394
 31
0.0
  0
LINE
  5
1C75
330
1E
100
AcDbEntity
  8
CENTER
  6
CENTER
100
AcDbLine
 10
128.8250899205843
 20
289.6242491012394
 30
0.0
 11
113.8250899205843
 21
289.6242491012394
 31
0.0
  0
ARC
  5
1C76
330
1E
100
AcDbEntity
  8
0
100
AcDbCircle
 10
115.4882616053846
 20
298.1524468086063
 30
0.0
 40
1.0
100
AcDbArc
 50
224.7525035717121
 51
303.7719281440994
  0
LINE
  5
1C77
330
1E
100
AcDbEntity
  8
0
100
AcDbLine
 10
114.0565933545223
 20
298.1761751131331
 30
0.0
 11
114.7781069927635
 21
297.4484010528681
 31
0.0
  0
ARC
  5
1C78
330
1E
100
AcDbEntity
  8
0
100
AcDbCircle
 10
112.7968922132175
 20
295.4610774164392
 30
0.0
 40
1.0
100
AcDbArc
 50
326.2280718558979
 51
45.247496428287
  0
ARC
  5
1C79
330
1E
100
AcDbEntity
  8
0
100
AcDbCircle
 10
126.8250899205843
 20
298.3685210112387
 30
0.0
 40
1.0
100
AcDbArc
 50
238.4118644947993
 51
0.0
  0
ARC
  5
1C7A
330
1E
100
AcDbEntity
  8
0
100
AcDbCircle
 10
98.27508992058449
 20
312.6742491012395
 30
0.0
 40
20.49999999999998
100
AcDbArc
 50
320.0900604211275
 51
354.6624431505855
  0
LINE
  5
1C7B
330
1E
100
AcDbEntity
  8
0
100
AcDbLine
 10
119.0095162946664
 20
317.3605099937564
 30
0.0
 11
126.8250899205843
 21
317.3605099937564
 31
0.0
  0
LINE
  5
1C7C
330
1E
100
AcDbEntity
  8
0
100
AcDbLine
 10
126.8250899205843
 20
311.6742491012395
 30
0.0
 11
119.6818645491921
 21
311.6742491012395
 31
0.0
  0
LINE
  5
1C7D
330
1E
100
AcDbEntity
  8
0
100
AcDbLine
 10
126.8250899205843
 20
313.6742491012396
 30
0.0
 11
119.6818645491921
 21
313.6742491012396
 31
0.0
  0
ARC
  5
1C7E
330
1E
100
AcDbEntity
  8
0
100
AcDbCircle
 10
119.6818645491921
 20
314.6742491012396
 30
0.0
 40
1.0
100
AcDbArc
 50
185.3375568494169
 51
270.0
  0
ARC
  5
1C7F
330
1E
100
AcDbEntity
  8
0
100
AcDbCircle
 10
119.6818645491921
 20
310.6742491012395
 30
0.0
 40
1.0
100
AcDbArc
 50
90.0
 51
174.662443150583
  0
ARC
  5
1C80
330
1E
100
AcDbEntity
  8
0
100
AcDbCircle
 10
119.0095162946664
 20
318.3605099937564
 30
0.0
 40
1.0
100
AcDbArc
 50
195.3358932780114
 51
270.0
  0
ARC
  5
1C81
330
1E
100
AcDbEntity
  8
0
100
AcDbCircle
 10
126.8250899205843
 20
314.6742491012396
 30
0.0
 40
1.0
100
AcDbArc
 50
270.0
 51
0.0
  0
ARC
  5
1C82
330
1E
100
AcDbEntity
  8
0
100
AcDbCircle
 10
126.8250899205843
 20
310.6742491012395
 30
0.0
 40
1.0
100
AcDbArc
 50
0.0
 51
90.0
  0
ARC
  5
1C83
330
1E
100
AcDbEntity
  8
0
100
AcDbCircle
 10
126.8250899205843
 20
318.3605099937564
 30
0.0
 40
1.0
100
AcDbArc
 50
270.0
 51
0.0
  0
LINE
  5
1C84
330
1E
100
AcDbEntity
  8
0
100
AcDbLine
 10
130.7750899205843
 20
290.1742491012395
 30
0.0
 11
130.2750899205842
 21
290.1742491012395
 31
0.0
  0
ARC
  5
1C85
330
1E
100
AcDbEntity
  8
0
100
AcDbCircle
 10
121.5250899205843
 20
335.9242491012395
 30
0.0
 40
9.25
100
AcDbArc
 50
0.0
 51
90.0
  0
ARC
  5
1C86
330
1E
100
AcDbEntity
  8
0
100
AcDbCircle
 10
121.5250899205843
 20
335.9242491012395
 30
0.0
 40
8.75
100
AcDbArc
 50
0.0
 51
90.0
  0
LINE
  5
1C87
330
1E
100
AcDbEntity
  8
CENTER
  6
CENTER
100
AcDbLine
 10
136.3713726979736
 20
321.6742491012394
 30
0.0
 11
120.2721430905554
 21
321.6742491012394
 31
0.0
  0
ARC
  5
1C88
330
1E
100
AcDbEntity
  8
0
100
AcDbCircle
 10
112.5808180105851
 20
341.2242491012394
 30
0.0
 40
1.0
100
AcDbArc
 50
328.4118644947991
 51
90.0
  0
LINE
  5
1C89
330
1E
100
AcDbEntity
  8
0
100
AcDbLine
 10
112.7731639086908
 20
328.4557525351774
 30
0.0
 11
113.5009379689557
 21
329.1772661734187
 31
0.0
  0
ARC
  5
1C8A
330
1E
100
AcDbEntity
  8
0
100
AcDbCircle
 10
121.5250899205843
 20
335.7242491012395
 30
0.0
 40
9.5
100
AcDbArc
 50
148.4118644947991
 51
213.7719281441009
  0
ARC
  5
1C8B
330
1E
100
AcDbEntity
  8
0
100
AcDbCircle
 10
100.2750899205844
 20
334.0810237298471
 30
0.0
 40
1.0
100
AcDbArc
 50
180.0
 51
264.662443150583
  0
ARC
  5
1C8C
330
1E
100
AcDbEntity
  8
0
100
AcDbCircle
 10
98.27508992058449
 20
312.6742491012395
 30
0.0
 40
20.49999999999998
100
AcDbArc
 50
50.09006042112695
 51
84.66244315058474
  0
LINE
  5
1C8D
330
1E
100
AcDbEntity
  8
0
100
AcDbLine
 10
108.2750899205844
 20
341.2242491012394
 30
0.0
 11
108.2750899205844
 21
331.1472023031507
 31
0.0
  0
ARC
  5
1C8E
330
1E
100
AcDbEntity
  8
0
100
AcDbCircle
 10
109.2750899205845
 20
331.1472023031507
 30
0.0
 40
1.0
100
AcDbArc
 50
180.0
 51
239.2276752320544
  0
ARC
  5
1C8F
330
1E
100
AcDbEntity
  8
0
100
AcDbCircle
 10
112.0691181529524
 20
329.1659071477985
 30
0.0
 40
1.0
100
AcDbArc
 50
230.090060421126
 51
314.7525035717132
  0
LINE
  5
1C90
330
1E
100
AcDbEntity
  8
0
100
AcDbLine
 10
100.2750899205844
 20
342.2242491012394
 30
0.0
 11
112.5808180105851
 21
342.2242491012394
 31
0.0
  0
ARC
  5
1C91
330
1E
100
AcDbEntity
  8
0
100
AcDbCircle
 10
100.2750899205844
 20
341.2242491012394
 30
0.0
 40
1.0
100
AcDbArc
 50
90.0
 51
180.0
  0
LINE
  5
1C92
330
1E
100
AcDbEntity
  8
0
100
AcDbLine
 10
97.27508992058426
 20
341.2242491012394
 30
0.0
 11
97.27508992058426
 21
334.0810237298471
 31
0.0
  0
LINE
  5
1C93
330
1E
100
AcDbEntity
  8
0
100
AcDbLine
 10
99.27508992058449
 20
341.2242491012394
 30
0.0
 11
99.27508992058449
 21
334.0810237298471
 31
0.0
  0
ARC
  5
1C94
330
1E
100
AcDbEntity
  8
0
100
AcDbCircle
 10
109.2750899205845
 20
341.2242491012394
 30
0.0
 40
1.0
100
AcDbArc
 50
90.0
 51
180.0
  0
CIRCLE
  5
1C95
330
1E
100
AcDbEntity
  8
0
  6
CONTINUOUS
100
AcDbCircle
 10
121.3250899205842
 20
335.7242491012395
 30
0.0
 40
3.35
  0
ARC
  5
1C96
330
1E
100
AcDbEntity
  8
0
  6
CONTINUOUS
 62
     2
100
AcDbCircle
 10
121.3250899205842
 20
335.7242491012395
 30
0.0
 40
4.000000000000004
100
AcDbArc
 50
75.00000000000555
 51
14.99999999999445
  0
POLYLINE
  5
1C97
330
1E
100
AcDbEntity
  8
0
  6
CONTINUOUS
100
AcDb2dPolyline
 66
     1
 10
0.0
 20
0.0
 30
0.0
 70
     1
  0
VERTEX
  5
30CA
330
1C97
100
AcDbEntity
  8
0
  6
CONTINUOUS
100
AcDbVertex
100
AcDb2dVertex
 10
123.6344909973428
 20
331.7242491012394
 30
0.0
  0
VERTEX
  5
30CB
330
1C97
100
AcDbEntity
  8
0
  6
CONTINUOUS
100
AcDbVertex
100
AcDb2dVertex
 10
125.9438920741013
 20
335.7242491012395
 30
0.0
  0
VERTEX
  5
30CC
330
1C97
100
AcDbEntity
  8
0
  6
CONTINUOUS
100
AcDbVertex
100
AcDb2dVertex
 10
123.6344909973428
 20
339.7242491012395
 30
0.0
  0
VERTEX
  5
30CD
330
1C97
100
AcDbEntity
  8
0
  6
CONTINUOUS
100
AcDbVertex
100
AcDb2dVertex
 10
119.0156888438258
 20
339.7242491012395
 30
0.0
  0
VERTEX
  5
30CE
330
1C97
100
AcDbEntity
  8
0
  6
CONTINUOUS
100
AcDbVertex
100
AcDb2dVertex
 10
116.7062877670672
 20
335.7242491012395
 30
0.0
  0
VERTEX
  5
30CF
330
1C97
100
AcDbEntity
  8
0
  6
CONTINUOUS
100
AcDbVertex
100
AcDb2dVertex
 10
119.0156888438258
 20
331.7242491012394
 30
0.0
  0
SEQEND
  5
30D0
330
1C97
100
AcDbEntity
  8
0
  6
CONTINUOUS
  0
CIRCLE
  5
1C98
330
1E
100
AcDbEntity
  8
0
100
AcDbCircle
 10
121.3250899205842
 20
335.7242491012395
 30
0.0
 40
6.5
  0
LINE
  5
1C99
330
1E
100
AcDbEntity
  8
CENTER
  6
CENTER
100
AcDbLine
 10
121.3250899205843
 20
328.2242491012394
 30
0.0
 11
121.3250899205843
 21
343.2242491012394
 31
0.0
  0
ARC
  5
1C9A
330
1E
100
AcDbEntity
  8
0
100
AcDbCircle
 10
121.3250899205843
 20
335.9242491012396
 30
0.0
 40
9.5
100
AcDbArc
 50
236.2280718558994
 51
301.5881355052006
  0
ARC
  5
1C9B
330
1E
100
AcDbEntity
  8
0
100
AcDbCircle
 10
112.7968922132175
 20
329.8874207860396
 30
0.0
 40
1.0
100
AcDbArc
 50
314.7525035717132
 51
33.77192814410205
  0
ARC
  5
1C9C
330
1E
100
AcDbEntity
  8
0
100
AcDbCircle
 10
115.4882616053845
 20
327.1960513938727
 30
0.0
 40
1.0
100
AcDbArc
 50
56.22807185590055
 51
135.2474964282878
  0
LINE
  5
1C9D
330
1E
100
AcDbEntity
  8
0
100
AcDbLine
 10
114.0565933545223
 20
327.172323089346
 30
0.0
 11
114.7781069927634
 21
327.900097149611
 31
0.0
  0
ARC
  5
1C9E
330
1E
100
AcDbEntity
  8
0
100
AcDbCircle
 10
114.7667479671433
 20
326.4682773336077
 30
0.0
 40
1.0
100
AcDbArc
 50
135.2474964282878
 51
219.9099395788733
  0
ARC
  5
1C9F
330
1E
100
AcDbEntity
  8
0
100
AcDbCircle
 10
126.8250899205843
 20
326.9799771912403
 30
0.0
 40
1.0
100
AcDbArc
 50
0.0
 51
121.588135505202
  0
LINE
  5
1CA0
330
1E
100
AcDbEntity
  8
CENTER
  6
CENTER
100
AcDbLine
 10
128.8250899205843
 20
335.7242491012395
 30
0.0
 11
113.8250899205843
 21
335.7242491012395
 31
0.0
  0
POLYLINE
  5
1CA1
330
1E
100
AcDbEntity
  8
0
  6
CONTINUOUS
100
AcDb2dPolyline
 66
     1
 10
0.0
 20
0.0
 30
0.0
 70
     1
  0
VERTEX
  5
30D1
330
1CA1
100
AcDbEntity
  8
0
  6
CONTINUOUS
100
AcDbVertex
100
AcDb2dVertex
 10
118.6203893822044
 20
366.6742491012394
 30
0.0
  0
VERTEX
  5
30D2
330
1CA1
100
AcDbEntity
  8
0
  6
CONTINUOUS
100
AcDbVertex
100
AcDb2dVertex
 10
117.4656888438262
 20
364.6742491012394
 30
0.0
  0
VERTEX
  5
30D3
330
1CA1
100
AcDbEntity
  8
0
  6
CONTINUOUS
100
AcDbVertex
100
AcDb2dVertex
 10
118.6203893822044
 20
362.6742491012393
 30
0.0
  0
VERTEX
  5
30D4
330
1CA1
100
AcDbEntity
  8
0
  6
CONTINUOUS
100
AcDbVertex
100
AcDb2dVertex
 10
120.9297904589644
 20
362.6742491012393
 30
0.0
  0
VERTEX
  5
30D5
330
1CA1
100
AcDbEntity
  8
0
  6
CONTINUOUS
100
AcDbVertex
100
AcDb2dVertex
 10
122.0844909973425
 20
364.6742491012394
 30
0.0
  0
VERTEX
  5
30D6
330
1CA1
100
AcDbEntity
  8
0
  6
CONTINUOUS
100
AcDbVertex
100
AcDb2dVertex
 10
120.9297904589644
 20
366.6742491012394
 30
0.0
  0
SEQEND
  5
30D7
330
1CA1
100
AcDbEntity
  8
0
  6
CONTINUOUS
  0
LINE
  5
1CA2
330
1E
100
AcDbEntity
  8
0
100
AcDbLine
 10
130.7750899205842
 20
335.1742491012395
 30
0.0
 11
130.2750899205843
 21
335.1742491012395
 31
0.0
  0
POLYLINE
  5
1CA3
330
1E
100
AcDbEntity
  8
0
  6
CONTINUOUS
100
AcDb2dPolyline
 66
     1
 10
0.0
 20
0.0
 30
0.0
 70
     1
  0
VERTEX
  5
30D8
330
1CA3
100
AcDbEntity
  8
0
  6
CONTINUOUS
100
AcDbVertex
100
AcDb2dVertex
 10
97.12038938220439
 20
388.1742491012394
 30
0.0
  0
VERTEX
  5
30D9
330
1CA3
100
AcDbEntity
  8
0
  6
CONTINUOUS
100
AcDbVertex
100
AcDb2dVertex
 10
95.96568884382623
 20
386.1742491012394
 30
0.0
  0
VERTEX
  5
30DA
330
1CA3
100
AcDbEntity
  8
0
  6
CONTINUOUS
100
AcDbVertex
100
AcDb2dVertex
 10
97.12038938220439
 20
384.1742491012394
 30
0.0
  0
VERTEX
  5
30DB
330
1CA3
100
AcDbEntity
  8
0
  6
CONTINUOUS
100
AcDbVertex
100
AcDb2dVertex
 10
99.42979045896436
 20
384.1742491012394
 30
0.0
  0
VERTEX
  5
30DC
330
1CA3
100
AcDbEntity
  8
0
  6
CONTINUOUS
100
AcDbVertex
100
AcDb2dVertex
 10
100.5844909973425
 20
386.1742491012394
 30
0.0
  0
VERTEX
  5
30DD
330
1CA3
100
AcDbEntity
  8
0
  6
CONTINUOUS
100
AcDbVertex
100
AcDb2dVertex
 10
99.42979045896436
 20
388.1742491012394
 30
0.0
  0
SEQEND
  5
30DE
330
1CA3
100
AcDbEntity
  8
0
  6
CONTINUOUS
  0
CIRCLE
  5
1CA4
330
1E
100
AcDbEntity
  8
0
  6
CONTINUOUS
100
AcDbCircle
 10
98.27508992058438
 20
386.1742491012394
 30
0.0
 40
3.903579676674365
  0
CIRCLE
  5
1CA5
330
1E
100
AcDbEntity
  8
0
  6
CONTINUOUS
100
AcDbCircle
 10
98.27508992058438
 20
386.1742491012394
 30
0.0
 40
4.25
  0
LINE
  5
1CA6
330
1E
100
AcDbEntity
  8
0
  6
CONTINUOUS
100
AcDbLine
 10
63.27508992058461
 20
402.6742491012394
 30
0.0
 11
133.2750899205844
 21
402.6742491012395
 31
0.0
  0
LINE
  5
1CA7
330
1E
100
AcDbEntity
  8
CENTER
  6
CENTER
100
AcDbLine
 10
75.02508992058466
 20
384.1742491012394
 30
0.0
 11
75.02508992058466
 21
401.1742491012395
 31
0.0
  0
CIRCLE
  5
1CA8
330
1E
100
AcDbEntity
  8
0
  6
CONTINUOUS
100
AcDbCircle
 10
75.0250899205846
 20
392.6742491012394
 30
0.0
 40
4.5
  0
LINE
  5
1CA9
330
1E
100
AcDbEntity
  8
CENTER
  6
CENTER
100
AcDbLine
 10
66.52508992058461
 20
392.6742491012394
 30
0.0
 11
83.5250899205846
 21
392.6742491012394
 31
0.0
  0
LINE
  5
1CAA
330
1E
100
AcDbEntity
  8
CENTER
  6
CENTER
100
AcDbLine
 10
113.0250899205847
 20
392.6742491012395
 30
0.0
 11
130.0250899205847
 21
392.6742491012396
 31
0.0
  0
LINE
  5
1CAB
330
1E
100
AcDbEntity
  8
CENTER
  6
CENTER
100
AcDbLine
 10
121.5250899205847
 20
384.1742491012396
 30
0.0
 11
121.5250899205847
 21
401.1742491012395
 31
0.0
  0
CIRCLE
  5
1CAC
330
1E
100
AcDbEntity
  8
0
  6
CONTINUOUS
100
AcDbCircle
 10
121.5250899205847
 20
392.6742491012396
 30
0.0
 40
4.5
  0
LINE
  5
1CAD
330
1E
100
AcDbEntity
  8
0
100
AcDbLine
 10
265.0281357177033
 20
348.6742491012396
 30
0.0
 11
265.0281357177033
 21
380.6742491012395
 31
0.0
  0
LINE
  5
1CAE
330
1E
100
AcDbEntity
  8
0
100
AcDbLine
 10
226.0281357177033
 20
354.6742491012395
 30
0.0
 11
226.0281357177033
 21
374.6742491012395
 31
0.0
  0
LINE
  5
1CAF
330
1E
100
AcDbEntity
  8
0
100
AcDbLine
 10
225.0281357177033
 20
355.6742491012395
 30
0.0
 11
225.0281357177033
 21
373.6742491012395
 31
0.0
  0
LINE
  5
1CB0
330
1E
100
AcDbEntity
  8
0
100
AcDbLine
 10
226.0281357177033
 20
354.6742491012395
 30
0.0
 11
265.0281357177033
 21
354.6742491012395
 31
0.0
  0
LINE
  5
1CB2
330
1E
100
AcDbEntity
  8
0
100
AcDbLine
 10
271.0281357177033
 20
342.6742491012395
 30
0.0
 11
225.0281357177033
 21
342.6742491012394
 31
0.0
  0
LINE
  5
1CB4
330
1E
100
AcDbEntity
  8
0
100
AcDbLine
 10
271.0281357177033
 20
282.6742491012395
 30
0.0
 11
225.0281357177034
 21
282.6742491012395
 31
0.0
  0
ARC
  5
1CB5
330
1E
100
AcDbEntity
  8
0
  6
CONTINUOUS
100
AcDbCircle
 10
218.5281357177033
 20
321.6742491012394
 30
0.0
 40
3.5
100
AcDbArc
 50
338.2132107017382
 51
21.78678929826177
  0
ARC
  5
1CB6
330
1E
100
AcDbEntity
  8
0
  6
CONTINUOUS
100
AcDbCircle
 10
218.5281357177033
 20
321.6742491012394
 30
0.0
 40
3.5
100
AcDbArc
 50
158.2132107017373
 51
201.7867892982619
  0
POLYLINE
  5
1CB7
330
1E
100
AcDbEntity
  8
0
  6
CONTINUOUS
100
AcDb2dPolyline
 66
     1
 10
0.0
 20
0.0
 30
0.0
 70
     1
  0
VERTEX
  5
30DF
330
1CB7
100
AcDbEntity
  8
0
  6
CONTINUOUS
100
AcDbVertex
100
AcDb2dVertex
 10
217.6621103139189
 20
323.1742491012393
 30
0.0
  0
VERTEX
  5
30E0
330
1CB7
100
AcDbEntity
  8
0
  6
CONTINUOUS
100
AcDbVertex
100
AcDb2dVertex
 10
216.7960849101344
 20
321.6742491012394
 30
0.0
  0
VERTEX
  5
30E1
330
1CB7
100
AcDbEntity
  8
0
  6
CONTINUOUS
100
AcDbVertex
100
AcDb2dVertex
 10
217.6621103139189
 20
320.1742491012394
 30
0.0
  0
VERTEX
  5
30E2
330
1CB7
100
AcDbEntity
  8
0
  6
CONTINUOUS
100
AcDbVertex
100
AcDb2dVertex
 10
219.3941611214877
 20
320.1742491012394
 30
0.0
  0
VERTEX
  5
30E3
330
1CB7
100
AcDbEntity
  8
0
  6
CONTINUOUS
100
AcDbVertex
100
AcDb2dVertex
 10
220.2601865252721
 20
321.6742491012394
 30
0.0
  0
VERTEX
  5
30E4
330
1CB7
100
AcDbEntity
  8
0
  6
CONTINUOUS
100
AcDbVertex
100
AcDb2dVertex
 10
219.3941611214877
 20
323.1742491012393
 30
0.0
  0
SEQEND
  5
30E5
330
1CB7
100
AcDbEntity
  8
0
  6
CONTINUOUS
  0
CIRCLE
  5
1CB8
330
1E
100
AcDbEntity
  8
0
  6
CONTINUOUS
100
AcDbCircle
 10
218.5281357177033
 20
321.6742491012394
 30
0.0
 40
2.5
  0
CIRCLE
  5
1CB9
330
1E
100
AcDbEntity
  8
0
100
AcDbCircle
 10
218.5281357177033
 20
321.6742491012394
 30
0.0
 40
5.299999999999999
  0
CIRCLE
  5
1CBA
330
1E
100
AcDbEntity
  8
0
100
AcDbCircle
 10
218.5281357177033
 20
321.6742491012394
 30
0.0
 40
5.0
  0
LINE
  5
1CBB
330
1E
100
AcDbEntity
  8
CENTER
  6
CENTER
100
AcDbLine
 10
218.5281357177033
 20
328.0382193355056
 30
0.0
 11
218.5281357177033
 21
315.3102788669732
 31
0.0
  0
LINE
  5
1CBC
330
1E
100
AcDbEntity
  8
0
100
AcDbLine
 10
225.0281357177034
 20
282.6742491012395
 30
0.0
 11
225.0281357177033
 21
342.6742491012395
 31
0.0
  0
LINE
  5
1CBD
330
1E
100
AcDbEntity
  8
0
100
AcDbLine
 10
225.0281357177034
 20
280.1742491012394
 30
0.0
 11
225.0281357177033
 21
345.1742491012395
 31
0.0
  0
LINE
  5
1CBE
330
1E
100
AcDbEntity
  8
0
100
AcDbLine
 10
190.0281357177034
 20
293.6742491012395
 30
0.0
 11
190.0281357177034
 21
331.6742491012395
 31
0.0
  0
LINE
  5
1CBF
330
1E
100
AcDbEntity
  8
0
100
AcDbLine
 10
195.0281357177034
 20
280.6742491012394
 30
0.0
 11
195.0281357177034
 21
344.6742491012395
 31
0.0
  0
LINE
  5
1CC0
330
1E
100
AcDbEntity
  8
DIM
100
AcDbLine
 10
201.3272188939414
 20
304.3866256811533
 30
0.0
 11
178.1915488746084
 21
293.0664545941548
 31
0.0
  0
LINE
  5
1CC1
330
1E
100
AcDbEntity
  8
HIDDEN
  6
HIDDEN
100
AcDbLine
 10
195.0281357177033
 20
285.4242491012395
 30
0.0
 11
213.0281357177033
 21
285.4242491012395
 31
0.0
  0
LINE
  5
1CC2
330
1E
100
AcDbEntity
  8
HIDDEN
  6
HIDDEN
100
AcDbLine
 10
195.0281357177033
 20
293.4242491012395
 30
0.0
 11
213.0281357177033
 21
293.4242491012395
 31
0.0
  0
LINE
  5
1CC3
330
1E
100
AcDbEntity
  8
0
100
AcDbLine
 10
225.0281357177034
 20
280.1742491012394
 30
0.0
 11
195.0281357177034
 21
280.6742491012394
 31
0.0
  0
LINE
  5
1CC4
330
1E
100
AcDbEntity
  8
DIM
100
AcDbLine
 10
178.1915488746101
 20
293.0664545941512
 30
0.0
 11
175.1915488746101
 21
293.0664545941512
 31
0.0
  0
LINE
  5
1CC5
330
1E
100
AcDbEntity
  8
0
100
AcDbLine
 10
195.0281357177034
 20
292.6742491012395
 30
0.0
 11
191.0281357177034
 21
292.6742491012395
 31
0.0
  0
ARC
  5
1CC6
330
1E
100
AcDbEntity
  8
0
100
AcDbCircle
 10
191.0281357177034
 20
293.6742491012395
 30
0.0
 40
1.0
100
AcDbArc
 50
180.0
 51
270.0
  0
LINE
  5
1CC7
330
1E
100
AcDbEntity
  8
HIDDEN
  6
HIDDEN
100
AcDbLine
 10
201.0281357177033
 20
286.0242491012395
 30
0.0
 11
216.0281357177032
 21
286.0242491012395
 31
0.0
  0
LINE
  5
1CC8
330
1E
100
AcDbEntity
  8
HIDDEN
  6
HIDDEN
100
AcDbLine
 10
201.0281357177033
 20
292.8242491012395
 30
0.0
 11
216.0281357177032
 21
292.8242491012395
 31
0.0
  0
LINE
  5
1CC9
330
1E
100
AcDbEntity
  8
HIDDEN
  6
HIDDEN
100
AcDbLine
 10
201.0281357177033
 20
293.4242491012395
 30
0.0
 11
201.0281357177033
 21
285.4242491012395
 31
0.0
  0
LINE
  5
1CCA
330
1E
100
AcDbEntity
  8
HIDDEN
  6
HIDDEN
100
AcDbLine
 10
216.0281357177032
 20
292.8242491012395
 30
0.0
 11
216.0281357177033
 21
286.0242491012396
 31
0.0
  0
LINE
  5
1CCB
330
1E
100
AcDbEntity
  8
HIDDEN
  6
HIDDEN
100
AcDbLine
 10
216.0281357177032
 20
286.0242491012395
 30
0.0
 11
217.9911266329479
 21
289.4242491012395
 31
0.0
  0
LINE
  5
1CCC
330
1E
100
AcDbEntity
  8
HIDDEN
  6
HIDDEN
100
AcDbLine
 10
213.0281357177032
 20
293.4242491012395
 30
0.0
 11
213.0281357177033
 21
285.4242491012395
 31
0.0
  0
LINE
  5
1CCD
330
1E
100
AcDbEntity
  8
HIDDEN
  6
HIDDEN
100
AcDbLine
 10
216.0281357177032
 20
292.8242491012395
 30
0.0
 11
217.9911266329479
 21
289.4242491012395
 31
0.0
  0
CIRCLE
  5
1CCE
330
1E
100
AcDbEntity
  8
0
100
AcDbCircle
 10
210.0281357177034
 20
308.6742491012395
 30
0.0
 40
6.699999999999988
  0
ARC
  5
1CCF
330
1E
100
AcDbEntity
  8
0
 62
     2
100
AcDbCircle
 10
210.0281357177034
 20
308.6742491012395
 30
0.0
 40
6.599999999999999
100
AcDbArc
 50
75.00254791939315
 51
26.13889622331134
  0
CIRCLE
  5
1CD0
330
1E
100
AcDbEntity
  8
0
100
AcDbCircle
 10
210.0281357177033
 20
308.6742491012395
 30
0.0
 40
4.033966035613872
  0
CIRCLE
  5
1CD1
330
1E
100
AcDbEntity
  8
0
100
AcDbCircle
 10
210.0281357177034
 20
308.6742491012395
 30
0.0
 40
5.7
  0
CIRCLE
  5
1CD2
330
1E
100
AcDbEntity
  8
0
100
AcDbCircle
 10
210.0281357177034
 20
308.6742491012395
 30
0.0
 40
8.699999999999999
  0
LINE
  5
1CD3
330
1E
100
AcDbEntity
  8
CENTER
  6
CENTER
100
AcDbLine
 10
219.7281357177033
 20
308.6742491012395
 30
0.0
 11
200.3281357177034
 21
308.6742491012395
 31
0.0
  0
LINE
  5
1CD4
330
1E
100
AcDbEntity
  8
CENTER
  6
CENTER
100
AcDbLine
 10
210.0281357177034
 20
318.3742491012394
 30
0.0
 11
210.0281357177033
 21
298.9742491012394
 31
0.0
  0
SOLID
  5
1CD5
330
1E
100
AcDbEntity
  8
DIM
100
AcDbTrace
 10
201.1074665779521
 20
304.835745842822
 30
0.0
 11
201.5469712099307
 21
303.9375055194844
 31
0.0
 12
204.021939863954
 22
305.7051395770886
 32
0.0
 13
204.021939863954
 23
305.7051395770886
 33
0.0
  0
ARC
  5
1CD6
330
1E
100
AcDbEntity
  8
0
  6
CONTINUOUS
100
AcDbCircle
 10
218.5281357177033
 20
321.6742491012394
 30
0.0
 40
3.5
100
AcDbArc
 50
278.2132107017379
 51
321.7867892982615
  0
LINE
  5
1CD7
330
1E
100
AcDbEntity
  8
0
  6
CONTINUOUS
100
AcDbLine
 10
214.4697137327997
 20
318.7537678065806
 30
0.0
 11
215.7781357177033
 21
319.5091855917783
 31
0.0
  0
LINE
  5
1CD8
330
1E
100
AcDbEntity
  8
0
  6
CONTINUOUS
100
AcDbLine
 10
213.9697137327998
 20
319.619793210365
 30
0.0
 11
215.2781357177033
 21
320.3752109955627
 31
0.0
  0
ARC
  5
1CD9
330
1E
100
AcDbEntity
  8
0
  6
CONTINUOUS
100
AcDbCircle
 10
218.5281357177033
 20
321.6742491012394
 30
0.0
 40
3.5
100
AcDbArc
 50
218.2132107017384
 51
261.786789298262
  0
LINE
  5
1CDA
330
1E
100
AcDbEntity
  8
0
  6
CONTINUOUS
100
AcDbLine
 10
218.0281357177033
 20
318.2101474861017
 30
0.0
 11
218.0281357177033
 21
316.6993119157063
 31
0.0
  0
LINE
  5
1CDB
330
1E
100
AcDbEntity
  8
0
  6
CONTINUOUS
100
AcDbLine
 10
219.0281357177033
 20
318.2101474861017
 30
0.0
 11
219.0281357177033
 21
316.6993119157063
 31
0.0
  0
LINE
  5
1CDC
330
1E
100
AcDbEntity
  8
0
  6
CONTINUOUS
100
AcDbLine
 10
222.5865577026069
 20
318.7537678065806
 30
0.0
 11
221.2781357177033
 21
319.5091855917783
 31
0.0
  0
LINE
  5
1CDD
330
1E
100
AcDbEntity
  8
0
  6
CONTINUOUS
100
AcDbLine
 10
223.0865577026069
 20
319.619793210365
 30
0.0
 11
221.7781357177033
 21
320.3752109955627
 31
0.0
  0
LINE
  5
1CDE
330
1E
100
AcDbEntity
  8
HIDDEN
  6
HIDDEN
100
AcDbLine
 10
195.0281357177033
 20
331.9242491012394
 30
0.0
 11
213.0281357177033
 21
331.9242491012394
 31
0.0
  0
LINE
  5
1CDF
330
1E
100
AcDbEntity
  8
HIDDEN
  6
HIDDEN
100
AcDbLine
 10
195.0281357177033
 20
339.9242491012394
 30
0.0
 11
213.0281357177033
 21
339.9242491012394
 31
0.0
  0
LINE
  5
1CE0
330
1E
100
AcDbEntity
  8
0
100
AcDbLine
 10
225.0281357177033
 20
345.1742491012395
 30
0.0
 11
195.0281357177034
 21
344.6742491012395
 31
0.0
  0
ARC
  5
1CE1
330
1E
100
AcDbEntity
  8
0
100
AcDbCircle
 10
191.0281357177034
 20
331.6742491012395
 30
0.0
 40
1.0
100
AcDbArc
 50
90.0
 51
180.0
  0
LINE
  5
1CE2
330
1E
100
AcDbEntity
  8
0
100
AcDbLine
 10
195.0281357177034
 20
332.6742491012395
 30
0.0
 11
191.0281357177034
 21
332.6742491012395
 31
0.0
  0
LINE
  5
1CE3
330
1E
100
AcDbEntity
  8
HIDDEN
  6
HIDDEN
100
AcDbLine
 10
201.0281357177033
 20
339.3242491012394
 30
0.0
 11
216.0281357177032
 21
339.3242491012395
 31
0.0
  0
LINE
  5
1CE4
330
1E
100
AcDbEntity
  8
HIDDEN
  6
HIDDEN
100
AcDbLine
 10
201.0281357177033
 20
332.5242491012394
 30
0.0
 11
216.0281357177032
 21
332.5242491012394
 31
0.0
  0
LINE
  5
1CE5
330
1E
100
AcDbEntity
  8
HIDDEN
  6
HIDDEN
100
AcDbLine
 10
201.0281357177033
 20
331.9242491012394
 30
0.0
 11
201.0281357177033
 21
339.9242491012394
 31
0.0
  0
LINE
  5
1CE6
330
1E
100
AcDbEntity
  8
HIDDEN
  6
HIDDEN
100
AcDbLine
 10
216.0281357177032
 20
332.5242491012394
 30
0.0
 11
217.9911266329479
 21
335.9242491012394
 31
0.0
  0
LINE
  5
1CE7
330
1E
100
AcDbEntity
  8
HIDDEN
  6
HIDDEN
100
AcDbLine
 10
213.0281357177032
 20
331.9242491012394
 30
0.0
 11
213.0281357177033
 21
339.9242491012394
 31
0.0
  0
LINE
  5
1CE8
330
1E
100
AcDbEntity
  8
HIDDEN
  6
HIDDEN
100
AcDbLine
 10
216.0281357177032
 20
332.5242491012394
 30
0.0
 11
216.0281357177033
 21
339.3242491012393
 31
0.0
  0
ARC
  5
1CE9
330
1E
100
AcDbEntity
  8
0
  6
CONTINUOUS
100
AcDbCircle
 10
218.5281357177033
 20
321.6742491012394
 30
0.0
 40
3.5
100
AcDbArc
 50
38.21321070173869
 51
81.7867892982621
  0
LINE
  5
1CEA
330
1E
100
AcDbEntity
  8
CENTER
  6
CENTER
100
AcDbLine
 10
224.8921059519694
 20
321.6742491012394
 30
0.0
 11
212.1641654834371
 21
321.6742491012394
 31
0.0
  0
LINE
  5
1CEB
330
1E
100
AcDbEntity
  8
0
  6
CONTINUOUS
100
AcDbLine
 10
215.7781357177033
 20
323.8393126107005
 30
0.0
 11
214.4697137327997
 21
324.5947303958981
 31
0.0
  0
LINE
  5
1CEC
330
1E
100
AcDbEntity
  8
0
  6
CONTINUOUS
100
AcDbLine
 10
215.2781357177033
 20
322.9732872069161
 30
0.0
 11
213.9697137327998
 21
323.7287049921137
 31
0.0
  0
ARC
  5
1CED
330
1E
100
AcDbEntity
  8
0
  6
CONTINUOUS
100
AcDbCircle
 10
218.5281357177033
 20
321.6742491012394
 30
0.0
 40
3.5
100
AcDbArc
 50
98.21321070173791
 51
141.7867892982627
  0
LINE
  5
1CEE
330
1E
100
AcDbEntity
  8
0
  6
CONTINUOUS
100
AcDbLine
 10
218.0281357177033
 20
326.6491862867725
 30
0.0
 11
218.0281357177033
 21
325.1383507163772
 31
0.0
  0
LINE
  5
1CEF
330
1E
100
AcDbEntity
  8
0
  6
CONTINUOUS
100
AcDbLine
 10
219.0281357177033
 20
326.6491862867725
 30
0.0
 11
219.0281357177033
 21
325.1383507163772
 31
0.0
  0
LINE
  5
1CF0
330
1E
100
AcDbEntity
  8
0
  6
CONTINUOUS
100
AcDbLine
 10
221.2781357177033
 20
323.8393126107005
 30
0.0
 11
222.5865577026069
 21
324.5947303958981
 31
0.0
  0
LINE
  5
1CF1
330
1E
100
AcDbEntity
  8
0
  6
CONTINUOUS
100
AcDbLine
 10
221.7781357177033
 20
322.9732872069161
 30
0.0
 11
223.0865577026069
 21
323.7287049921137
 31
0.0
  0
LINE
  5
1CF2
330
1E
100
AcDbEntity
  8
HIDDEN
  6
HIDDEN
100
AcDbLine
 10
216.0281357177032
 20
339.3242491012394
 30
0.0
 11
217.9911266329479
 21
335.9242491012394
 31
0.0
  0
LINE
  5
1CF3
330
1E
100
AcDbEntity
  8
0
100
AcDbLine
 10
226.0281357177033
 20
354.6742491012395
 30
0.0
 11
225.0281357177033
 21
355.6742491012395
 31
0.0
  0
ARC
  5
1CF4
330
1E
100
AcDbEntity
  8
0
  6
CONTINUOUS
100
AcDbCircle
 10
277.5281357177034
 20
321.6742491012395
 30
0.0
 40
3.5
100
AcDbArc
 50
338.2132107017382
 51
21.78678929826177
  0
ARC
  5
1CF5
330
1E
100
AcDbEntity
  8
0
  6
CONTINUOUS
100
AcDbCircle
 10
277.5281357177034
 20
321.6742491012395
 30
0.0
 40
3.5
100
AcDbArc
 50
158.2132107017373
 51
201.7867892982619
  0
CIRCLE
  5
1CF6
330
1E
100
AcDbEntity
  8
0
  6
CONTINUOUS
100
AcDbCircle
 10
277.5281357177034
 20
321.6742491012395
 30
0.0
 40
2.5
  0
POLYLINE
  5
1CF7
330
1E
100
AcDbEntity
  8
0
  6
CONTINUOUS
100
AcDb2dPolyline
 66
     1
 10
0.0
 20
0.0
 30
0.0
 70
     1
  0
VERTEX
  5
30E6
330
1CF7
100
AcDbEntity
  8
0
  6
CONTINUOUS
100
AcDbVertex
100
AcDb2dVertex
 10
276.662110313919
 20
323.1742491012395
 30
0.0
  0
VERTEX
  5
30E7
330
1CF7
100
AcDbEntity
  8
0
  6
CONTINUOUS
100
AcDbVertex
100
AcDb2dVertex
 10
275.7960849101345
 20
321.6742491012395
 30
0.0
  0
VERTEX
  5
30E8
330
1CF7
100
AcDbEntity
  8
0
  6
CONTINUOUS
100
AcDbVertex
100
AcDb2dVertex
 10
276.662110313919
 20
320.1742491012395
 30
0.0
  0
VERTEX
  5
30E9
330
1CF7
100
AcDbEntity
  8
0
  6
CONTINUOUS
100
AcDbVertex
100
AcDb2dVertex
 10
278.3941611214878
 20
320.1742491012395
 30
0.0
  0
VERTEX
  5
30EA
330
1CF7
100
AcDbEntity
  8
0
  6
CONTINUOUS
100
AcDbVertex
100
AcDb2dVertex
 10
279.2601865252722
 20
321.6742491012395
 30
0.0
  0
VERTEX
  5
30EB
330
1CF7
100
AcDbEntity
  8
0
  6
CONTINUOUS
100
AcDbVertex
100
AcDb2dVertex
 10
278.3941611214878
 20
323.1742491012395
 30
0.0
  0
SEQEND
  5
30EC
330
1CF7
100
AcDbEntity
  8
0
  6
CONTINUOUS
  0
CIRCLE
  5
1CF8
330
1E
100
AcDbEntity
  8
0
100
AcDbCircle
 10
277.5281357177034
 20
321.6742491012395
 30
0.0
 40
5.0
  0
CIRCLE
  5
1CF9
330
1E
100
AcDbEntity
  8
0
100
AcDbCircle
 10
277.5281357177034
 20
321.6742491012395
 30
0.0
 40
5.299999999999999
  0
LINE
  5
1CFA
330
1E
100
AcDbEntity
  8
CENTER
  6
CENTER
100
AcDbLine
 10
277.5281357177034
 20
328.0382193355056
 30
0.0
 11
277.5281357177034
 21
315.3102788669733
 31
0.0
  0
LINE
  5
1CFB
330
1E
100
AcDbEntity
  8
0
100
AcDbLine
 10
271.0281357177033
 20
282.6742491012395
 30
0.0
 11
271.0281357177033
 21
342.6742491012395
 31
0.0
  0
LINE
  5
1CFC
330
1E
100
AcDbEntity
  8
0
100
AcDbLine
 10
271.0281357177033
 20
345.1742491012395
 30
0.0
 11
271.0281357177034
 21
280.1742491012394
 31
0.0
  0
ARC
  5
1CFD
330
1E
100
AcDbEntity
  8
0
  6
CONTINUOUS
100
AcDbCircle
 10
277.5281357177034
 20
321.6742491012395
 30
0.0
 40
3.5
100
AcDbArc
 50
218.2132107017384
 51
261.786789298262
  0
LINE
  5
1CFE
330
1E
100
AcDbEntity
  8
0
  6
CONTINUOUS
100
AcDbLine
 10
272.9697137327999
 20
319.6197932103651
 30
0.0
 11
274.2781357177034
 21
320.3752109955628
 31
0.0
  0
LINE
  5
1CFF
330
1E
100
AcDbEntity
  8
0
  6
CONTINUOUS
100
AcDbLine
 10
273.4697137327998
 20
318.7537678065807
 30
0.0
 11
274.7781357177034
 21
319.5091855917784
 31
0.0
  0
LINE
  5
1D00
330
1E
100
AcDbEntity
  8
0
  6
CONTINUOUS
100
AcDbLine
 10
277.0281357177034
 20
318.2101474861017
 30
0.0
 11
277.0281357177034
 21
316.6993119157064
 31
0.0
  0
CIRCLE
  5
1D01
330
1E
100
AcDbEntity
  8
0
100
AcDbCircle
 10
286.0281357177034
 20
308.6742491012395
 30
0.0
 40
5.7
  0
CIRCLE
  5
1D02
330
1E
100
AcDbEntity
  8
0
100
AcDbCircle
 10
286.0281357177034
 20
308.6742491012395
 30
0.0
 40
4.033966035613872
  0
CIRCLE
  5
1D03
330
1E
100
AcDbEntity
  8
0
100
AcDbCircle
 10
286.0281357177034
 20
308.6742491012395
 30
0.0
 40
6.699999999999988
  0
ARC
  5
1D04
330
1E
100
AcDbEntity
  8
0
 62
     2
100
AcDbCircle
 10
286.0281357177034
 20
308.6742491012395
 30
0.0
 40
6.599999999999999
100
AcDbArc
 50
255.0025479193931
 51
206.1388962233113
  0
LINE
  5
1D05
330
1E
100
AcDbEntity
  8
CENTER
  6
CENTER
100
AcDbLine
 10
286.0281357177033
 20
318.3742491012395
 30
0.0
 11
286.0281357177034
 21
298.9742491012396
 31
0.0
  0
LINE
  5
1D06
330
1E
100
AcDbEntity
  8
0
  6
CONTINUOUS
100
AcDbLine
 10
282.086557702607
 20
319.6197932103651
 30
0.0
 11
280.7781357177034
 21
320.3752109955628
 31
0.0
  0
LINE
  5
1D07
330
1E
100
AcDbEntity
  8
0
  6
CONTINUOUS
100
AcDbLine
 10
281.586557702607
 20
318.7537678065807
 30
0.0
 11
280.2781357177034
 21
319.5091855917784
 31
0.0
  0
ARC
  5
1D08
330
1E
100
AcDbEntity
  8
0
  6
CONTINUOUS
100
AcDbCircle
 10
277.5281357177034
 20
321.6742491012395
 30
0.0
 40
3.5
100
AcDbArc
 50
278.2132107017379
 51
321.7867892982615
  0
LINE
  5
1D09
330
1E
100
AcDbEntity
  8
0
  6
CONTINUOUS
100
AcDbLine
 10
278.0281357177034
 20
318.2101474861017
 30
0.0
 11
278.0281357177034
 21
316.6993119157064
 31
0.0
  0
LINE
  5
1D0A
330
1E
100
AcDbEntity
  8
CENTER
  6
CENTER
100
AcDbLine
 10
271.1641654834372
 20
321.6742491012395
 30
0.0
 11
283.8921059519695
 21
321.6742491012395
 31
0.0
  0
ARC
  5
1D0B
330
1E
100
AcDbEntity
  8
0
  6
CONTINUOUS
100
AcDbCircle
 10
277.5281357177034
 20
321.6742491012395
 30
0.0
 40
3.5
100
AcDbArc
 50
98.21321070173791
 51
141.7867892982627
  0
LINE
  5
1D0C
330
1E
100
AcDbEntity
  8
0
  6
CONTINUOUS
100
AcDbLine
 10
274.2781357177034
 20
322.9732872069162
 30
0.0
 11
272.9697137327999
 21
323.7287049921139
 31
0.0
  0
LINE
  5
1D0D
330
1E
100
AcDbEntity
  8
0
  6
CONTINUOUS
100
AcDbLine
 10
274.7781357177034
 20
323.8393126107006
 30
0.0
 11
273.4697137327998
 21
324.5947303958983
 31
0.0
  0
LINE
  5
1D0E
330
1E
100
AcDbEntity
  8
0
  6
CONTINUOUS
100
AcDbLine
 10
277.0281357177034
 20
326.6491862867726
 30
0.0
 11
277.0281357177034
 21
325.1383507163773
 31
0.0
  0
LINE
  5
1D0F
330
1E
100
AcDbEntity
  8
0
  6
CONTINUOUS
100
AcDbLine
 10
280.7781357177034
 20
322.9732872069162
 30
0.0
 11
282.086557702607
 21
323.7287049921139
 31
0.0
  0
LINE
  5
1D10
330
1E
100
AcDbEntity
  8
0
  6
CONTINUOUS
100
AcDbLine
 10
280.2781357177034
 20
323.8393126107006
 30
0.0
 11
281.586557702607
 21
324.5947303958983
 31
0.0
  0
ARC
  5
1D11
330
1E
100
AcDbEntity
  8
0
  6
CONTINUOUS
100
AcDbCircle
 10
277.5281357177034
 20
321.6742491012395
 30
0.0
 40
3.5
100
AcDbArc
 50
38.21321070173869
 51
81.7867892982621
  0
LINE
  5
1D12
330
1E
100
AcDbEntity
  8
0
  6
CONTINUOUS
100
AcDbLine
 10
278.0281357177034
 20
326.6491862867726
 30
0.0
 11
278.0281357177034
 21
325.1383507163773
 31
0.0
  0
LINE
  5
1D13
330
1E
100
AcDbEntity
  8
0
  6
CONTINUOUS
100
AcDbLine
 10
265.0281357177033
 20
458.0724072405929
 30
0.0
 11
225.0281357177033
 21
458.0724072405929
 31
0.0
  0
LINE
  5
1D14
330
1E
100
AcDbEntity
  8
0
100
AcDbLine
 10
271.0281357177033
 20
442.150000119634
 30
0.0
 11
225.0281357177034
 21
442.150000119634
 31
0.0
  0
SOLID
  5
1D15
330
1E
100
AcDbEntity
  8
DIM
100
AcDbTrace
 10
228.0281357177033
 20
410.1742491012394
 30
0.0
 11
228.0281357177033
 21
411.1742491012395
 31
0.0
 12
225.0281357177033
 22
410.6742491012395
 32
0.0
 13
225.0281357177033
 23
410.6742491012395
 33
0.0
  0
LINE
  5
1D16
330
1E
100
AcDbEntity
  8
0
100
AcDbLine
 10
226.0281357177033
 20
374.6742491012395
 30
0.0
 11
265.0281357177033
 21
374.6742491012395
 31
0.0
  0
LINE
  5
1D17
330
1E
100
AcDbEntity
  8
DIM
100
AcDbLine
 10
225.0281357177033
 20
375.6742491012395
 30
0.0
 11
225.0281357177033
 21
411.5088177123412
 31
0.0
  0
LINE
  5
1D18
330
1E
100
AcDbEntity
  8
0
100
AcDbLine
 10
225.0281357177033
 20
373.6742491012395
 30
0.0
 11
226.0281357177033
 21
374.6742491012395
 31
0.0
  0
LINE
  5
1D19
330
1E
100
AcDbEntity
  8
HIDDEN
  6
HIDDEN
100
AcDbLine
 10
195.0281357177033
 20
452.900000119634
 30
0.0
 11
213.0281357177033
 21
452.900000119634
 31
0.0
  0
LINE
  5
1D1A
330
1E
100
AcDbEntity
  8
HIDDEN
  6
HIDDEN
100
AcDbLine
 10
195.0281357177033
 20
444.900000119634
 30
0.0
 11
213.0281357177033
 21
444.900000119634
 31
0.0
  0
LINE
  5
1D1B
330
1E
100
AcDbEntity
  8
0
100
AcDbLine
 10
225.0281357177034
 20
439.650000119634
 30
0.0
 11
195.0281357177034
 21
440.150000119634
 31
0.0
  0
LINE
  5
1D1C
330
1E
100
AcDbEntity
  8
0
100
AcDbLine
 10
195.0281357177034
 20
452.150000119634
 30
0.0
 11
191.0281357177034
 21
452.150000119634
 31
0.0
  0
ARC
  5
1D1D
330
1E
100
AcDbEntity
  8
0
100
AcDbCircle
 10
191.0281357177034
 20
453.1500001196341
 30
0.0
 40
1.0
100
AcDbArc
 50
180.0
 51
270.0
  0
LINE
  5
1D1E
330
1E
100
AcDbEntity
  8
CENTER
  6
CENTER
100
AcDbLine
 10
218.5281357177033
 20
437.3966146781859
 30
0.0
 11
218.5281357177033
 21
453.2484119116808
 31
0.0
  0
LINE
  5
1D1F
330
1E
100
AcDbEntity
  8
CENTER
  6
CENTER
100
AcDbLine
 10
210.0281357177034
 20
437.4752852256539
 30
0.0
 11
210.0281357177034
 21
453.3017444932362
 31
0.0
  0
LINE
  5
1D20
330
1E
100
AcDbEntity
  8
HIDDEN
  6
HIDDEN
100
AcDbLine
 10
201.0281357177033
 20
452.300000119634
 30
0.0
 11
216.0281357177032
 21
452.300000119634
 31
0.0
  0
LINE
  5
1D21
330
1E
100
AcDbEntity
  8
HIDDEN
  6
HIDDEN
100
AcDbLine
 10
201.0281357177033
 20
445.500000119634
 30
0.0
 11
216.0281357177032
 21
445.500000119634
 31
0.0
  0
LINE
  5
1D22
330
1E
100
AcDbEntity
  8
HIDDEN
  6
HIDDEN
100
AcDbLine
 10
201.0281357177033
 20
452.900000119634
 30
0.0
 11
201.0281357177033
 21
444.900000119634
 31
0.0
  0
LINE
  5
1D23
330
1E
100
AcDbEntity
  8
HIDDEN
  6
HIDDEN
100
AcDbLine
 10
216.0281357177032
 20
452.300000119634
 30
0.0
 11
216.0281357177033
 21
445.5000001196341
 31
0.0
  0
LINE
  5
1D24
330
1E
100
AcDbEntity
  8
HIDDEN
  6
HIDDEN
100
AcDbLine
 10
216.0281357177032
 20
452.300000119634
 30
0.0
 11
217.9911266329479
 21
448.900000119634
 31
0.0
  0
LINE
  5
1D25
330
1E
100
AcDbEntity
  8
HIDDEN
  6
HIDDEN
100
AcDbLine
 10
213.0281357177032
 20
452.900000119634
 30
0.0
 11
213.0281357177033
 21
444.900000119634
 31
0.0
  0
LINE
  5
1D26
330
1E
100
AcDbEntity
  8
HIDDEN
  6
HIDDEN
100
AcDbLine
 10
216.0281357177032
 20
445.500000119634
 30
0.0
 11
217.9911266329479
 21
448.900000119634
 31
0.0
  0
LINE
  5
1D27
330
1E
100
AcDbEntity
  8
CENTER
  6
CENTER
100
AcDbLine
 10
286.0281357177033
 20
437.4752852256539
 30
0.0
 11
286.0281357177034
 21
453.4944637064769
 31
0.0
  0
LINE
  5
1D28
330
1E
100
AcDbEntity
  8
CENTER
  6
CENTER
100
AcDbLine
 10
277.5281357177034
 20
437.3966146781859
 30
0.0
 11
277.5281357177034
 21
453.3223654017976
 31
0.0
  0
LINE
  5
1D29
330
1E
100
AcDbEntity
  8
0
100
AcDbLine
 10
271.0281357177033
 20
439.6500001196339
 30
0.0
 11
271.0281357177033
 21
456.1500001196341
 31
0.0
  0
LINE
  5
1D2A
330
1E
100
AcDbEntity
  8
0
100
AcDbLine
 10
271.0281357177033
 20
502.1500001196341
 30
0.0
 11
225.0281357177033
 21
502.150000119634
 31
0.0
  0
LINE
  5
1D2B
330
1E
100
AcDbEntity
  8
0
  6
CONTINUOUS
100
AcDbLine
 10
265.0281357177033
 20
486.2275929986751
 30
0.0
 11
225.0281357177033
 21
486.2275929986751
 31
0.0
  0
LINE
  5
1D2C
330
1E
100
AcDbEntity
  8
0
100
AcDbLine
 10
226.0281357177033
 20
482.150000119634
 30
0.0
 11
265.0281357177033
 21
482.150000119634
 31
0.0
  0
LINE
  5
1D2D
330
1E
100
AcDbEntity
  8
0
100
AcDbLine
 10
226.0281357177033
 20
462.150000119634
 30
0.0
 11
265.0281357177033
 21
462.150000119634
 31
0.0
  0
LINE
  5
1D2E
330
1E
100
AcDbEntity
  8
HIDDEN
  6
HIDDEN
100
AcDbLine
 10
195.0281357177033
 20
499.4000001196338
 30
0.0
 11
213.0281357177033
 21
499.4000001196338
 31
0.0
  0
LINE
  5
1D2F
330
1E
100
AcDbEntity
  8
HIDDEN
  6
HIDDEN
100
AcDbLine
 10
195.0281357177033
 20
491.4000001196338
 30
0.0
 11
213.0281357177033
 21
491.4000001196338
 31
0.0
  0
LINE
  5
1D30
330
1E
100
AcDbEntity
  8
0
100
AcDbLine
 10
225.0281357177033
 20
504.6500001196339
 30
0.0
 11
195.0281357177034
 21
504.150000119634
 31
0.0
  0
LINE
  5
1D31
330
1E
100
AcDbEntity
  8
0
100
AcDbLine
 10
195.0281357177034
 20
492.1500001196339
 30
0.0
 11
191.0281357177034
 21
492.1500001196339
 31
0.0
  0
ARC
  5
1D32
330
1E
100
AcDbEntity
  8
0
100
AcDbCircle
 10
191.0281357177034
 20
491.1500001196339
 30
0.0
 40
1.0
100
AcDbArc
 50
90.0
 51
180.0
  0
LINE
  5
1D33
330
1E
100
AcDbEntity
  8
0
100
AcDbLine
 10
225.0281357177033
 20
463.150000119634
 30
0.0
 11
225.0281357177033
 21
481.150000119634
 31
0.0
  0
LINE
  5
1D34
330
1E
100
AcDbEntity
  8
0
100
AcDbLine
 10
226.0281357177033
 20
462.150000119634
 30
0.0
 11
226.0281357177033
 21
482.150000119634
 31
0.0
  0
LINE
  5
1D35
330
1E
100
AcDbEntity
  8
0
100
AcDbLine
 10
226.0281357177033
 20
462.150000119634
 30
0.0
 11
225.0281357177033
 21
463.150000119634
 31
0.0
  0
LINE
  5
1D36
330
1E
100
AcDbEntity
  8
0
100
AcDbLine
 10
225.0281357177033
 20
481.150000119634
 30
0.0
 11
226.0281357177033
 21
482.150000119634
 31
0.0
  0
LINE
  5
1D37
330
1E
100
AcDbEntity
  8
HIDDEN
  6
HIDDEN
100
AcDbLine
 10
201.0281357177033
 20
498.8000001196339
 30
0.0
 11
216.0281357177032
 21
498.8000001196339
 31
0.0
  0
LINE
  5
1D38
330
1E
100
AcDbEntity
  8
HIDDEN
  6
HIDDEN
100
AcDbLine
 10
201.0281357177033
 20
492.000000119634
 30
0.0
 11
216.0281357177032
 21
492.000000119634
 31
0.0
  0
LINE
  5
1D39
330
1E
100
AcDbEntity
  8
HIDDEN
  6
HIDDEN
100
AcDbLine
 10
201.0281357177033
 20
491.4000001196338
 30
0.0
 11
201.0281357177033
 21
499.4000001196338
 31
0.0
  0
LINE
  5
1D3A
330
1E
100
AcDbEntity
  8
HIDDEN
  6
HIDDEN
100
AcDbLine
 10
216.0281357177032
 20
498.8000001196339
 30
0.0
 11
217.9911266329479
 21
495.4000001196338
 31
0.0
  0
LINE
  5
1D3B
330
1E
100
AcDbEntity
  8
HIDDEN
  6
HIDDEN
100
AcDbLine
 10
213.0281357177032
 20
491.4000001196338
 30
0.0
 11
213.0281357177033
 21
499.4000001196338
 31
0.0
  0
LINE
  5
1D3C
330
1E
100
AcDbEntity
  8
HIDDEN
  6
HIDDEN
100
AcDbLine
 10
216.0281357177032
 20
492.000000119634
 30
0.0
 11
216.0281357177033
 21
498.8000001196337
 31
0.0
  0
LINE
  5
1D3D
330
1E
100
AcDbEntity
  8
HIDDEN
  6
HIDDEN
100
AcDbLine
 10
216.0281357177032
 20
492.000000119634
 30
0.0
 11
217.9911266329479
 21
495.4000001196338
 31
0.0
  0
LINE
  5
1D3E
330
1E
100
AcDbEntity
  8
0
100
AcDbLine
 10
271.0281357177033
 20
488.1500001196341
 30
0.0
 11
271.0281357177033
 21
504.6500001196341
 31
0.0
  0
LINE
  5
1D3F
330
1E
100
AcDbEntity
  8
DIM
100
AcDbLine
 10
411.0281357177033
 20
244.6742491012394
 30
0.0
 11
411.0281357177033
 21
380.6742491012395
 31
0.0
  0
LINE
  5
1D40
330
1E
100
AcDbEntity
  8
DIM
100
AcDbLine
 10
583.2030471498346
 20
222.6742491012394
 30
0.0
 11
583.2030471498346
 21
402.6742491012395
 31
0.0
  0
LINE
  5
1D41
330
1E
100
AcDbEntity
  8
0
100
AcDbLine
 10
345.0281357177033
 20
276.6742491012394
 30
0.0
 11
345.0281357177033
 21
244.6742491012394
 31
0.0
  0
LINE
  5
1D42
330
1E
100
AcDbEntity
  8
0
100
AcDbLine
 10
321.0281357177033
 20
402.6742491012395
 30
0.0
 11
321.0281357177033
 21
222.6742491012395
 31
0.0
  0
LINE
  5
1D43
330
1E
100
AcDbEntity
  8
DIM
100
AcDbLine
 10
403.0281357177033
 20
263.6742491012394
 30
0.0
 11
403.0281357177033
 21
361.6742491012395
 31
0.0
  0
LINE
  5
1D44
330
1E
100
AcDbEntity
  8
0
100
AcDbLine
 10
375.0281357177033
 20
380.1742491012395
 30
0.0
 11
375.0281357177033
 21
245.1742491012394
 31
0.0
  0
LINE
  5
1D45
330
1E
100
AcDbEntity
  8
0
100
AcDbLine
 10
465.2030471498346
 20
402.6742491012395
 30
0.0
 11
465.2030471498347
 21
222.6742491012395
 31
0.0
  0
LINE
  5
1D46
330
1E
100
AcDbEntity
  8
0
100
AcDbLine
 10
395.0281357177033
 20
380.1742491012395
 30
0.0
 11
395.0281357177033
 21
245.1742491012394
 31
0.0
  0
LINE
  5
1D47
330
1E
100
AcDbEntity
  8
DIM
100
AcDbLine
 10
567.2030471498346
 20
248.1742491012395
 30
0.0
 11
567.2030471498346
 21
377.1742491012395
 31
0.0
  0
LINE
  5
1D48
330
1E
100
AcDbEntity
  8
DIM
100
AcDbLine
 10
559.2030471498346
 20
265.6742491012394
 30
0.0
 11
559.2030471498346
 21
359.6742491012394
 31
0.0
  0
LINE
  5
1D49
330
1E
100
AcDbEntity
  8
CENTER
  6
CENTER
100
AcDbLine
 10
476.9530471498345
 20
402.6742491012395
 30
0.0
 11
476.9530471498348
 21
224.1742491012395
 31
0.0
  0
LINE
  5
1D4A
330
1E
100
AcDbEntity
  8
CENTER
  6
CENTER
100
AcDbLine
 10
523.4530471498345
 20
402.6742491012396
 30
0.0
 11
523.4530471498349
 21
224.1742491012394
 31
0.0
  0
LINE
  5
1D4B
330
1E
100
AcDbEntity
  8
0
100
AcDbLine
 10
467.7030471498347
 20
380.1742491012395
 30
0.0
 11
467.7030471498347
 21
245.1742491012394
 31
0.0
  0
LINE
  5
1D4C
330
1E
100
AcDbEntity
  8
0
100
AcDbLine
 10
532.7030471498346
 20
380.1742491012395
 30
0.0
 11
532.7030471498345
 21
245.1742491012394
 31
0.0
  0
LINE
  5
1D4D
330
1E
100
AcDbEntity
  8
0
100
AcDbLine
 10
535.2030471498347
 20
402.6742491012397
 30
0.0
 11
535.2030471498347
 21
222.6742491012394
 31
0.0
  0
LINE
  5
1D4E
330
1E
100
AcDbEntity
  8
CENTER
  6
CENTER
100
AcDbLine
 10
500.2030471498346
 20
405.6742491012395
 30
0.0
 11
500.2030471498346
 21
219.6742491012394
 31
0.0
  0
LINE
  5
1D4F
330
1E
100
AcDbEntity
  8
DIM
100
AcDbLine
 10
575.2030471498346
 20
232.6742491012392
 30
0.0
 11
575.2030471498346
 21
392.6742491012396
 31
0.0
  0
LINE
  5
1D50
330
1E
100
AcDbEntity
  8
0
100
AcDbLine
 10
301.0281357177033
 20
402.6742491012395
 30
0.0
 11
301.0281357177033
 21
222.6742491012395
 31
0.0
  0
LINE
  5
1D51
330
1E
100
AcDbEntity
  8
DIM
100
AcDbLine
 10
533.7030471498346
 20
232.6742491012392
 30
0.0
 11
576.2030471498347
 21
232.6742491012392
 31
0.0
  0
LINE
  5
1D52
330
1E
100
AcDbEntity
  8
DIM
100
AcDbLine
 10
536.2030471498346
 20
222.6742491012394
 30
0.0
 11
584.2030471498346
 21
222.6742491012394
 31
0.0
  0
LINE
  5
1D53
330
1E
100
AcDbEntity
  8
DIM
100
AcDbLine
 10
534.4530471498346
 20
262.6742491012394
 30
0.0
 11
560.2030471498347
 21
262.6742491012394
 31
0.0
  0
LINE
  5
1D54
330
1E
100
AcDbEntity
  8
DIM
100
AcDbLine
 10
533.7030471498345
 20
245.1742491012395
 30
0.0
 11
568.2030471498347
 21
245.1742491012395
 31
0.0
  0
LINE
  5
1D55
330
1E
100
AcDbEntity
  8
0
100
AcDbLine
 10
359.0281357177033
 20
153.2690819272369
 30
0.0
 11
360.0281357177033
 21
153.2690819272369
 31
0.0
  0
LINE
  5
1D56
330
1E
100
AcDbEntity
  8
0
100
AcDbLine
 10
359.0281357177033
 20
128.2690819272369
 30
0.0
 11
360.0281357177033
 21
128.2690819272369
 31
0.0
  0
LINE
  5
1D57
330
1E
100
AcDbEntity
  8
0
100
AcDbLine
 10
345.0281357177033
 20
130.7690819272369
 30
0.0
 11
375.0281357177034
 21
130.7690819272369
 31
0.0
  0
LINE
  5
1D58
330
1E
100
AcDbEntity
  8
0
100
AcDbLine
 10
345.0281357177033
 20
150.7690819272369
 30
0.0
 11
375.0281357177034
 21
150.7690819272369
 31
0.0
  0
LINE
  5
1D59
330
1E
100
AcDbEntity
  8
0
100
AcDbLine
 10
345.0281357177033
 20
124.7690819272369
 30
0.0
 11
345.0281357177033
 21
156.7690819272369
 31
0.0
  0
LINE
  5
1D5A
330
1E
100
AcDbEntity
  8
0
100
AcDbLine
 10
321.0281357177033
 20
175.7690819272369
 30
0.0
 11
321.0281357177033
 21
105.7690819272369
 31
0.0
  0
LINE
  5
1D5B
330
1E
100
AcDbEntity
  8
0
100
AcDbLine
 10
301.0281357177033
 20
175.7690819272369
 30
0.0
 11
301.0281357177033
 21
105.7690819272368
 31
0.0
  0
LINE
  5
1D5C
330
1E
100
AcDbEntity
  8
0
  6
CONTINUOUS
100
AcDbLine
 10
321.0281357177033
 20
124.7690819272369
 30
0.0
 11
345.0281357177033
 21
124.7690819272369
 31
0.0
  0
LINE
  5
1D5D
330
1E
100
AcDbEntity
  8
0
100
AcDbLine
 10
301.0281357177033
 20
105.7690819272368
 30
0.0
 11
321.0281357177033
 21
105.7690819272368
 31
0.0
  0
LINE
  5
1D5E
330
1E
100
AcDbEntity
  8
HIDDEN
  6
HIDDEN
100
AcDbLine
 10
301.0281357177033
 20
113.0190819272369
 30
0.0
 11
321.0281357177033
 21
113.0190819272369
 31
0.0
  0
LINE
  5
1D5F
330
1E
100
AcDbEntity
  8
HIDDEN
  6
HIDDEN
100
AcDbLine
 10
301.0281357177033
 20
122.0190819272369
 30
0.0
 11
321.0281357177033
 21
122.0190819272369
 31
0.0
  0
LINE
  5
1D60
330
1E
100
AcDbEntity
  8
0
100
AcDbLine
 10
326.0281357177033
 20
124.7690819272369
 30
0.0
 11
326.0281357177033
 21
122.7690819272369
 31
0.0
  0
LINE
  5
1D61
330
1E
100
AcDbEntity
  8
0
100
AcDbLine
 10
325.0281357177033
 20
124.7690819272369
 30
0.0
 11
325.0281357177033
 21
121.7690819272369
 31
0.0
  0
LINE
  5
1D62
330
1E
100
AcDbEntity
  8
0
  6
CONTINUOUS
100
AcDbLine
 10
321.0281357177033
 20
121.7690819272369
 30
0.0
 11
325.0281357177033
 21
121.7690819272369
 31
0.0
  0
LINE
  5
1D63
330
1E
100
AcDbEntity
  8
0
  6
CONTINUOUS
100
AcDbLine
 10
326.0281357177033
 20
122.7690819272369
 30
0.0
 11
325.0281357177033
 21
121.7690819272369
 31
0.0
  0
LINE
  5
1D64
330
1E
100
AcDbEntity
  8
0
100
AcDbLine
 10
350.0281357177033
 20
130.2690819272368
 30
0.0
 11
357.0281357177033
 21
130.2690819272368
 31
0.0
  0
LINE
  5
1D65
330
1E
100
AcDbEntity
  8
0
  6
CONTINUOUS
100
AcDbLine
 10
348.6521357177031
 20
128.7690819272369
 30
0.0
 11
345.0281357177034
 21
128.7690819272369
 31
0.0
  0
ARC
  5
1D66
330
1E
100
AcDbEntity
  8
0
  6
CONTINUOUS
100
AcDbCircle
 10
337.7122287409571
 20
134.7690819272369
 30
0.0
 40
12.47724186909332
100
AcDbArc
 50
331.2574016731084
 51
341.3017735138037
  0
LINE
  5
1D67
330
1E
100
AcDbEntity
  8
0
  6
CONTINUOUS
100
AcDbLine
 10
350.0281357177033
 20
130.7690819272369
 30
0.0
 11
350.0281357177033
 21
130.2690819272368
 31
0.0
  0
LINE
  5
1D68
330
1E
100
AcDbEntity
  8
0
100
AcDbLine
 10
359.0281357177033
 20
128.2690819272369
 30
0.0
 11
357.0281357177033
 21
130.2690819272369
 31
0.0
  0
LINE
  5
1D69
330
1E
100
AcDbEntity
  8
0
  6
CONTINUOUS
100
AcDbLine
 10
321.0281357177033
 20
156.7690819272369
 30
0.0
 11
345.0281357177033
 21
156.7690819272369
 31
0.0
  0
LINE
  5
1D6A
330
1E
100
AcDbEntity
  8
0
100
AcDbLine
 10
325.0281357177033
 20
159.7690819272369
 30
0.0
 11
325.0281357177033
 21
156.7690819272369
 31
0.0
  0
LINE
  5
1D6B
330
1E
100
AcDbEntity
  8
0
  6
CONTINUOUS
100
AcDbLine
 10
325.0281357177033
 20
159.7690819272369
 30
0.0
 11
326.0281357177033
 21
158.7690819272369
 31
0.0
  0
LINE
  5
1D6C
330
1E
100
AcDbEntity
  8
0
100
AcDbLine
 10
326.0281357177033
 20
158.7690819272369
 30
0.0
 11
326.0281357177033
 21
156.7690819272369
 31
0.0
  0
LINE
  5
1D6D
330
1E
100
AcDbEntity
  8
HIDDEN
  6
HIDDEN
100
AcDbLine
 10
301.0281357177033
 20
159.5190819272369
 30
0.0
 11
321.0281357177033
 21
159.5190819272369
 31
0.0
  0
LINE
  5
1D6E
330
1E
100
AcDbEntity
  8
HIDDEN
  6
HIDDEN
100
AcDbLine
 10
301.0281357177033
 20
168.5190819272369
 30
0.0
 11
321.0281357177033
 21
168.5190819272369
 31
0.0
  0
LINE
  5
1D6F
330
1E
100
AcDbEntity
  8
0
100
AcDbLine
 10
301.0281357177033
 20
175.7690819272369
 30
0.0
 11
321.0281357177033
 21
175.7690819272369
 31
0.0
  0
LINE
  5
1D70
330
1E
100
AcDbEntity
  8
0
  6
CONTINUOUS
100
AcDbLine
 10
321.0281357177033
 20
159.7690819272369
 30
0.0
 11
325.0281357177033
 21
159.7690819272369
 31
0.0
  0
LINE
  5
1D71
330
1E
100
AcDbEntity
  8
0
100
AcDbLine
 10
350.0281357177033
 20
151.2690819272369
 30
0.0
 11
357.0281357177033
 21
151.2690819272369
 31
0.0
  0
LINE
  5
1D72
330
1E
100
AcDbEntity
  8
0
  6
CONTINUOUS
100
AcDbLine
 10
350.0281357177033
 20
151.2690819272369
 30
0.0
 11
350.0281357177033
 21
150.7690819272369
 31
0.0
  0
ARC
  5
1D73
330
1E
100
AcDbEntity
  8
0
  6
CONTINUOUS
100
AcDbCircle
 10
337.7122287409571
 20
146.7690819272369
 30
0.0
 40
12.47724186909332
100
AcDbArc
 50
18.69822648619718
 51
28.74259832689224
  0
LINE
  5
1D74
330
1E
100
AcDbEntity
  8
0
  6
CONTINUOUS
100
AcDbLine
 10
348.6521357177031
 20
152.7690819272369
 30
0.0
 11
345.0281357177034
 21
152.7690819272369
 31
0.0
  0
LINE
  5
1D75
330
1E
100
AcDbEntity
  8
0
100
AcDbLine
 10
359.0281357177033
 20
153.2690819272369
 30
0.0
 11
357.0281357177033
 21
151.2690819272369
 31
0.0
  0
LINE
  5
1D76
330
1E
100
AcDbEntity
  8
0
100
AcDbLine
 10
375.0281357177034
 20
173.2690819272369
 30
0.0
 11
375.0281357177033
 21
108.2690819272369
 31
0.0
  0
LINE
  5
1D77
330
1E
100
AcDbEntity
  8
0
100
AcDbLine
 10
395.0281357177033
 20
173.2690819272369
 30
0.0
 11
395.0281357177033
 21
108.2690819272369
 31
0.0
  0
LINE
  5
1D78
330
1E
100
AcDbEntity
  8
HIDDEN
  6
HIDDEN
100
AcDbLine
 10
395.0281357177032
 20
122.0190819272367
 30
0.0
 11
383.5281357177032
 21
122.0190819272366
 31
0.0
  0
LINE
  5
1D79
330
1E
100
AcDbEntity
  8
HIDDEN
  6
HIDDEN
100
AcDbLine
 10
395.0281357177032
 20
113.0190819272368
 30
0.0
 11
383.5281357177032
 21
113.0190819272368
 31
0.0
  0
LINE
  5
1D7A
330
1E
100
AcDbEntity
  8
CENTER
  6
CENTER
100
AcDbLine
 10
372.6216532174075
 20
117.5190819272366
 30
0.0
 11
397.7944047031582
 21
117.5190819272366
 31
0.0
  0
LINE
  5
1D7B
330
1E
100
AcDbEntity
  8
0
100
AcDbLine
 10
375.0281357177033
 20
108.2690819272369
 30
0.0
 11
395.0281357177033
 21
108.2690819272369
 31
0.0
  0
LINE
  5
1D7C
330
1E
100
AcDbEntity
  8
HIDDEN
  6
HIDDEN
100
AcDbLine
 10
383.5281357177032
 20
124.5190819272366
 30
0.0
 11
383.5281357177032
 21
110.5190819272368
 31
0.0
  0
LINE
  5
1D7D
330
1E
100
AcDbEntity
  8
HIDDEN
  6
HIDDEN
100
AcDbLine
 10
383.5281357177032
 20
110.5190819272368
 30
0.0
 11
375.0281357177032
 21
110.5190819272368
 31
0.0
  0
LINE
  5
1D7E
330
1E
100
AcDbEntity
  8
HIDDEN
  6
HIDDEN
100
AcDbLine
 10
383.5281357177032
 20
124.5190819272366
 30
0.0
 11
375.0281357177032
 21
124.5190819272366
 31
0.0
  0
LINE
  5
1D7F
330
1E
100
AcDbEntity
  8
0
100
AcDbLine
 10
360.0281357177033
 20
130.7690819272369
 30
0.0
 11
360.0281357177033
 21
113.7690819272369
 31
0.0
  0
LINE
  5
1D80
330
1E
100
AcDbEntity
  8
0
100
AcDbLine
 10
360.0281357177033
 20
113.7690819272369
 30
0.0
 11
375.0281357177033
 21
113.7690819272369
 31
0.0
  0
LINE
  5
1D81
330
1E
100
AcDbEntity
  8
0
100
AcDbLine
 10
370.0281357177032
 20
113.7690819272368
 30
0.0
 11
375.0281357177033
 21
113.7690819272368
 31
0.0
  0
LINE
  5
1D82
330
1E
100
AcDbEntity
  8
0
100
AcDbLine
 10
370.0281357177033
 20
113.7690819272369
 30
0.0
 11
375.0281357177034
 21
113.7690819272369
 31
0.0
  0
LINE
  5
1D83
330
1E
100
AcDbEntity
  8
HIDDEN
  6
HIDDEN
100
AcDbLine
 10
395.0281357177032
 20
168.5190819272368
 30
0.0
 11
383.5281357177032
 21
168.5190819272366
 31
0.0
  0
LINE
  5
1D84
330
1E
100
AcDbEntity
  8
HIDDEN
  6
HIDDEN
100
AcDbLine
 10
395.0281357177032
 20
159.5190819272369
 30
0.0
 11
383.5281357177032
 21
159.5190819272369
 31
0.0
  0
LINE
  5
1D85
330
1E
100
AcDbEntity
  8
CENTER
  6
CENTER
100
AcDbLine
 10
372.6216532174075
 20
164.0190819272367
 30
0.0
 11
397.7944047031582
 21
164.0190819272367
 31
0.0
  0
LINE
  5
1D86
330
1E
100
AcDbEntity
  8
0
100
AcDbLine
 10
375.0281357177034
 20
173.2690819272369
 30
0.0
 11
395.0281357177033
 21
173.2690819272369
 31
0.0
  0
LINE
  5
1D87
330
1E
100
AcDbEntity
  8
HIDDEN
  6
HIDDEN
100
AcDbLine
 10
383.5281357177032
 20
171.0190819272366
 30
0.0
 11
383.5281357177032
 21
157.0190819272368
 31
0.0
  0
LINE
  5
1D88
330
1E
100
AcDbEntity
  8
0
100
AcDbLine
 10
360.0281357177033
 20
167.7690819272369
 30
0.0
 11
360.0281357177033
 21
150.7690819272369
 31
0.0
  0
LINE
  5
1D89
330
1E
100
AcDbEntity
  8
HIDDEN
  6
HIDDEN
100
AcDbLine
 10
383.5281357177032
 20
157.0190819272369
 30
0.0
 11
375.0281357177032
 21
157.0190819272369
 31
0.0
  0
LINE
  5
1D8A
330
1E
100
AcDbEntity
  8
HIDDEN
  6
HIDDEN
100
AcDbLine
 10
383.5281357177032
 20
171.0190819272366
 30
0.0
 11
375.0281357177032
 21
171.0190819272366
 31
0.0
  0
LINE
  5
1D8B
330
1E
100
AcDbEntity
  8
0
100
AcDbLine
 10
360.0281357177033
 20
167.7690819272368
 30
0.0
 11
375.0281357177033
 21
167.7690819272368
 31
0.0
  0
LINE
  5
1D8C
330
1E
100
AcDbEntity
  8
DIM
100
AcDbLine
 10
346.2953724582807
 20
244.6742491012395
 30
0.0
 11
412.0281357177033
 21
244.6742491012395
 31
0.0
  0
LINE
  5
1D8D
330
1E
100
AcDbEntity
  8
0
100
AcDbLine
 10
345.0281357177033
 20
250.6742491012394
 30
0.0
 11
375.0281357177033
 21
250.6742491012395
 31
0.0
  0
LINE
  5
1D8E
330
1E
100
AcDbEntity
  8
0
100
AcDbLine
 10
345.0281357177033
 20
270.6742491012394
 30
0.0
 11
375.0281357177033
 21
270.6742491012395
 31
0.0
  0
TEXT
  5
1D8F
330
1E
100
AcDbEntity
  8
DIM
100
AcDbText
 10
355.1712172558206
 20
208.1742491012395
 30
0.0
 40
3.0
  1
74
  7
ROMANSS
 72
     1
 11
357.6712172558206
 21
209.6742491012395
 31
0.0
100
AcDbText
 73
     2
  0
LINE
  5
1D90
330
1E
100
AcDbEntity
  8
DIM
100
AcDbLine
 10
395.0281357177033
 20
206.6742491012395
 30
0.0
 11
304.0281357177033
 21
206.6742491012395
 31
0.0
  0
LINE
  5
1D91
330
1E
100
AcDbEntity
  8
HIDDEN
  6
HIDDEN
100
AcDbLine
 10
301.0281357177033
 20
228.1742491012395
 30
0.0
 11
321.0281357177033
 21
228.1742491012395
 31
0.0
  0
TEXT
  5
1D92
330
1E
100
AcDbEntity
  8
DIM
100
AcDbText
 10
308.5995642891318
 20
208.1742491012395
 30
0.0
 40
3.0
  1
20
  7
ROMANSS
 72
     1
 11
311.0281357177033
 21
209.6742491012395
 31
0.0
100
AcDbText
 73
     2
  0
LINE
  5
1D93
330
1E
100
AcDbEntity
  8
0
  6
CONTINUOUS
100
AcDbLine
 10
301.0281357177033
 20
222.6742491012395
 30
0.0
 11
321.0281357177033
 21
222.6742491012395
 31
0.0
  0
LINE
  5
1D94
330
1E
100
AcDbEntity
  8
DIM
100
AcDbLine
 10
301.0281357177033
 20
221.3040975868206
 30
0.0
 11
301.0281357177033
 21
205.6605884435525
 31
0.0
  0
SOLID
  5
1D95
330
1E
100
AcDbEntity
  8
DIM
100
AcDbTrace
 10
304.0281357177033
 20
207.1742491012395
 30
0.0
 11
304.0281357177033
 21
206.1742491012395
 31
0.0
 12
301.0281357177033
 22
206.6742491012395
 32
0.0
 13
301.0281357177033
 23
206.6742491012395
 33
0.0
  0
SOLID
  5
1D96
330
1E
100
AcDbEntity
  8
DIM
100
AcDbTrace
 10
298.0281357177033
 20
207.1742491012395
 30
0.0
 11
298.0281357177033
 21
206.1742491012395
 31
0.0
 12
301.0281357177033
 22
206.6742491012395
 32
0.0
 13
301.0281357177033
 23
206.6742491012395
 33
0.0
  0
SOLID
  5
1D97
330
1E
100
AcDbEntity
  8
DIM
100
AcDbTrace
 10
298.0281357177033
 20
215.1742491012395
 30
0.0
 11
298.0281357177033
 21
214.1742491012395
 31
0.0
 12
301.0281357177033
 22
214.6742491012395
 32
0.0
 13
301.0281357177033
 23
214.6742491012395
 33
0.0
  0
LINE
  5
1D98
330
1E
100
AcDbEntity
  8
DIM
100
AcDbLine
 10
321.0281357177033
 20
221.3040975868206
 30
0.0
 11
321.0281357177033
 21
205.6605884435525
 31
0.0
  0
SOLID
  5
1D99
330
1E
100
AcDbEntity
  8
DIM
100
AcDbTrace
 10
318.0281357177033
 20
207.1742491012395
 30
0.0
 11
318.0281357177033
 21
206.1742491012395
 31
0.0
 12
321.0281357177033
 22
206.6742491012395
 32
0.0
 13
321.0281357177033
 23
206.6742491012395
 33
0.0
  0
SOLID
  5
1D9A
330
1E
100
AcDbEntity
  8
DIM
100
AcDbTrace
 10
324.0281357177033
 20
207.1742491012395
 30
0.0
 11
324.0281357177033
 21
206.1742491012395
 31
0.0
 12
321.0281357177033
 22
206.6742491012395
 32
0.0
 13
321.0281357177033
 23
206.6742491012395
 33
0.0
  0
LINE
  5
1D9B
330
1E
100
AcDbEntity
  8
0
  6
CONTINUOUS
100
AcDbLine
 10
321.0281357177033
 20
244.6742491012394
 30
0.0
 11
345.0281357177033
 21
244.6742491012394
 31
0.0
  0
LINE
  5
1D9C
330
1E
100
AcDbEntity
  8
HIDDEN
  6
HIDDEN
100
AcDbLine
 10
301.0281357177033
 20
237.1742491012395
 30
0.0
 11
321.0281357177033
 21
237.1742491012395
 31
0.0
  0
LINE
  5
1D9D
330
1E
100
AcDbEntity
  8
CENTER
  6
CENTER
100
AcDbLine
 10
298.0281357177033
 20
232.6742491012395
 30
0.0
 11
324.0281357177033
 21
232.6742491012395
 31
0.0
  0
LINE
  5
1D9E
330
1E
100
AcDbEntity
  8
DIM
100
AcDbLine
 10
375.0281357177033
 20
243.9644229085546
 30
0.0
 11
375.0281357177033
 21
213.6742491012395
 31
0.0
  0
LINE
  5
1D9F
330
1E
100
AcDbEntity
  8
DIM
100
AcDbLine
 10
395.0281357177033
 20
243.9644229085546
 30
0.0
 11
395.0281357177033
 21
205.0009660852025
 31
0.0
  0
LINE
  5
1DA0
330
1E
100
AcDbEntity
  8
DIM
100
AcDbLine
 10
392.0281357177033
 20
214.6742491012395
 30
0.0
 11
378.0281357177033
 21
214.6742491012395
 31
0.0
  0
SOLID
  5
1DA1
330
1E
100
AcDbEntity
  8
DIM
100
AcDbTrace
 10
378.0281357177033
 20
215.1742491012395
 30
0.0
 11
378.0281357177033
 21
214.1742491012395
 31
0.0
 12
375.0281357177033
 22
214.6742491012395
 32
0.0
 13
375.0281357177033
 23
214.6742491012395
 33
0.0
  0
TEXT
  5
1DA2
330
1E
100
AcDbEntity
  8
DIM
100
AcDbText
 10
382.5995642891318
 20
216.1742491012395
 30
0.0
 40
3.0
  1
20
  7
ROMANSS
 72
     1
 11
385.0281357177033
 21
217.6742491012395
 31
0.0
100
AcDbText
 73
     2
  0
LINE
  5
1DA3
330
1E
100
AcDbEntity
  8
DIM
100
AcDbLine
 10
395.0281357177033
 20
224.6742491012395
 30
0.0
 11
395.0281357177033
 21
205.6742491012395
 31
0.0
  0
SOLID
  5
1DA4
330
1E
100
AcDbEntity
  8
DIM
100
AcDbTrace
 10
392.0281357177033
 20
207.1742491012395
 30
0.0
 11
392.0281357177033
 21
206.1742491012395
 31
0.0
 12
395.0281357177033
 22
206.6742491012395
 32
0.0
 13
395.0281357177033
 23
206.6742491012395
 33
0.0
  0
SOLID
  5
1DA5
330
1E
100
AcDbEntity
  8
DIM
100
AcDbTrace
 10
392.0281357177033
 20
215.1742491012395
 30
0.0
 11
392.0281357177033
 21
214.1742491012395
 31
0.0
 12
395.0281357177033
 22
214.6742491012395
 32
0.0
 13
395.0281357177033
 23
214.6742491012395
 33
0.0
  0
LINE
  5
1DA6
330
1E
100
AcDbEntity
  8
HIDDEN
  6
HIDDEN
100
AcDbLine
 10
395.0281357177033
 20
258.1742491012394
 30
0.0
 11
383.5281357177033
 21
258.1742491012395
 31
0.0
  0
LINE
  5
1DA7
330
1E
100
AcDbEntity
  8
HIDDEN
  6
HIDDEN
100
AcDbLine
 10
395.0281357177033
 20
267.1742491012393
 30
0.0
 11
383.5281357177033
 21
267.1742491012394
 31
0.0
  0
LINE
  5
1DA8
330
1E
100
AcDbEntity
  8
CENTER
  6
CENTER
100
AcDbLine
 10
372.6216532174076
 20
262.6742491012395
 30
0.0
 11
397.7944047031582
 21
262.6742491012395
 31
0.0
  0
LINE
  5
1DA9
330
1E
100
AcDbEntity
  8
0
100
AcDbLine
 10
375.0281357177033
 20
245.1742491012394
 30
0.0
 11
395.0281357177033
 21
245.1742491012394
 31
0.0
  0
LINE
  5
1DAA
330
1E
100
AcDbEntity
  8
HIDDEN
  6
HIDDEN
100
AcDbLine
 10
383.5281357177033
 20
269.6742491012393
 30
0.0
 11
375.0281357177033
 21
269.6742491012393
 31
0.0
  0
LINE
  5
1DAB
330
1E
100
AcDbEntity
  8
HIDDEN
  6
HIDDEN
100
AcDbLine
 10
383.5281357177033
 20
255.6742491012395
 30
0.0
 11
375.0281357177033
 21
255.6742491012395
 31
0.0
  0
LINE
  5
1DAC
330
1E
100
AcDbEntity
  8
HIDDEN
  6
HIDDEN
100
AcDbLine
 10
383.5281357177033
 20
255.6742491012395
 30
0.0
 11
383.5281357177033
 21
269.6742491012394
 31
0.0
  0
SOLID
  5
1DAD
330
1E
100
AcDbEntity
  8
DIM
100
AcDbTrace
 10
410.5281357177033
 20
247.6742491012395
 30
0.0
 11
411.5281357177033
 21
247.6742491012395
 31
0.0
 12
411.0281357177033
 22
244.6742491012395
 32
0.0
 13
411.0281357177033
 23
244.6742491012395
 33
0.0
  0
SOLID
  5
1DAE
330
1E
100
AcDbEntity
  8
DIM
100
AcDbTrace
 10
402.5281357177033
 20
263.6742491012394
 30
0.0
 11
403.5281357177033
 21
263.6742491012394
 31
0.0
 12
403.0281357177033
 22
260.6742491012394
 32
0.0
 13
403.0281357177033
 23
260.6742491012394
 33
0.0
  0
LINE
  5
1DAF
330
1E
100
AcDbEntity
  8
DIM
100
AcDbLine
 10
399.0281357177033
 20
260.6742491012394
 30
0.0
 11
404.0281357177033
 21
260.6742491012394
 31
0.0
  0
LINE
  5
1DB0
330
1E
100
AcDbEntity
  8
0
  6
CONTINUOUS
100
AcDbLine
 10
465.2030471498347
 20
222.6742491012395
 30
0.0
 11
535.2030471498347
 21
222.6742491012394
 31
0.0
  0
LINE
  5
1DB1
330
1E
100
AcDbEntity
  8
CENTER
  6
CENTER
100
AcDbLine
 10
489.7030471498347
 20
260.6742491012394
 30
0.0
 11
510.7030471498346
 21
260.6742491012394
 31
0.0
  0
LINE
  5
1DB2
330
1E
100
AcDbEntity
  8
DIM
100
AcDbLine
 10
479.9530471498347
 20
214.6742491012395
 30
0.0
 11
520.4530471498348
 21
214.6742491012395
 31
0.0
  0
LINE
  5
1DB3
330
1E
100
AcDbEntity
  8
DIM
100
AcDbLine
 10
468.2030471498348
 20
198.6742491012395
 30
0.0
 11
532.2030471498346
 21
198.6742491012395
 31
0.0
  0
LINE
  5
1DB4
330
1E
100
AcDbEntity
  8
DIM
100
AcDbLine
 10
470.7030471498346
 20
206.6742491012395
 30
0.0
 11
529.7030471498345
 21
206.6742491012395
 31
0.0
  0
LINE
  5
1DB5
330
1E
100
AcDbEntity
  8
0
100
AcDbLine
 10
467.7030471498347
 20
245.1742491012394
 30
0.0
 11
532.7030471498345
 21
245.1742491012394
 31
0.0
  0
CIRCLE
  5
1DB6
330
1E
100
AcDbEntity
  8
0
  6
CONTINUOUS
100
AcDbCircle
 10
476.9530471498348
 20
232.6742491012395
 30
0.0
 40
4.5
  0
LINE
  5
1DB7
330
1E
100
AcDbEntity
  8
DIM
100
AcDbLine
 10
467.7030471498347
 20
244.0656190941755
 30
0.0
 11
467.7030471498347
 21
205.6742491012395
 31
0.0
  0
LINE
  5
1DB8
330
1E
100
AcDbEntity
  8
DIM
100
AcDbLine
 10
465.2030471498347
 20
221.6742491012395
 30
0.0
 11
465.2030471498347
 21
197.6742491012395
 31
0.0
  0
SOLID
  5
1DB9
330
1E
100
AcDbEntity
  8
DIM
100
AcDbTrace
 10
468.2030471498348
 20
199.1742491012395
 30
0.0
 11
468.2030471498348
 21
198.1742491012395
 31
0.0
 12
465.2030471498347
 22
198.6742491012395
 32
0.0
 13
465.2030471498347
 23
198.6742491012395
 33
0.0
  0
SOLID
  5
1DBA
330
1E
100
AcDbEntity
  8
DIM
100
AcDbTrace
 10
470.7030471498346
 20
207.1742491012395
 30
0.0
 11
470.7030471498346
 21
206.1742491012395
 31
0.0
 12
467.7030471498347
 22
206.6742491012395
 32
0.0
 13
467.7030471498347
 23
206.6742491012395
 33
0.0
  0
LINE
  5
1DBB
330
1E
100
AcDbEntity
  8
DIM
100
AcDbLine
 10
476.9530471498348
 20
222.6742491012394
 30
0.0
 11
476.9530471498348
 21
213.6742491012395
 31
0.0
  0
SOLID
  5
1DBC
330
1E
100
AcDbEntity
  8
DIM
100
AcDbTrace
 10
479.9530471498347
 20
215.1742491012395
 30
0.0
 11
479.9530471498347
 21
214.1742491012395
 31
0.0
 12
476.9530471498348
 22
214.6742491012395
 32
0.0
 13
476.9530471498348
 23
214.6742491012395
 33
0.0
  0
LINE
  5
1DBD
330
1E
100
AcDbEntity
  8
CENTER
  6
CENTER
100
AcDbLine
 10
468.4530471498347
 20
232.6742491012395
 30
0.0
 11
485.4530471498348
 21
232.6742491012395
 31
0.0
  0
LINE
  5
1DBE
330
1E
100
AcDbEntity
  8
CENTER
  6
CENTER
100
AcDbLine
 10
466.9530471498346
 20
262.6742491012394
 30
0.0
 11
486.9530471498347
 21
262.6742491012394
 31
0.0
  0
CIRCLE
  5
1DBF
330
1E
100
AcDbEntity
  8
HIDDEN
  6
HIDDEN
100
AcDbCircle
 10
476.9530471498346
 20
262.6742491012394
 30
0.0
 40
7.0
  0
CIRCLE
  5
1DC0
330
1E
100
AcDbEntity
  8
0
100
AcDbCircle
 10
476.9530471498346
 20
262.6742491012394
 30
0.0
 40
4.5
  0
CIRCLE
  5
1DC1
330
1E
100
AcDbEntity
  8
0
  6
CONTINUOUS
100
AcDbCircle
 10
523.4530471498349
 20
232.6742491012394
 30
0.0
 40
4.5
  0
LINE
  5
1DC2
330
1E
100
AcDbEntity
  8
DIM
100
AcDbLine
 10
532.7030471498345
 20
244.0656190941755
 30
0.0
 11
532.7030471498345
 21
205.6742491012395
 31
0.0
  0
SOLID
  5
1DC3
330
1E
100
AcDbEntity
  8
DIM
100
AcDbTrace
 10
520.4530471498348
 20
215.1742491012395
 30
0.0
 11
520.4530471498348
 21
214.1742491012395
 31
0.0
 12
523.4530471498348
 22
214.6742491012395
 32
0.0
 13
523.4530471498348
 23
214.6742491012395
 33
0.0
  0
TEXT
  5
1DC4
330
1E
100
AcDbEntity
  8
DIM
100
AcDbText
 10
497.7744757212632
 20
200.1742491012395
 30
0.0
 40
3.0
  1
70
  7
ROMANSS
 72
     1
 11
500.2030471498346
 21
201.6742491012395
 31
0.0
100
AcDbText
 73
     2
  0
TEXT
  5
1DC5
330
1E
100
AcDbEntity
  8
DIM
100
AcDbText
 10
495.6316185784062
 20
216.1742491012395
 30
0.0
 40
3.0
  1
46.5
  7
ROMANSS
 72
     1
 11
500.2030471498348
 21
217.6742491012395
 31
0.0
100
AcDbText
 73
     2
  0
TEXT
  5
1DC6
330
1E
100
AcDbEntity
  8
DIM
100
AcDbText
 10
497.7744757212631
 20
208.1742491012395
 30
0.0
 40
3.0
  1
65
  7
ROMANSS
 72
     1
 11
500.2030471498345
 21
209.6742491012395
 31
0.0
100
AcDbText
 73
     2
  0
LINE
  5
1DC7
330
1E
100
AcDbEntity
  8
DIM
100
AcDbLine
 10
535.2030471498347
 20
221.6742491012395
 30
0.0
 11
535.2030471498347
 21
197.6742491012395
 31
0.0
  0
SOLID
  5
1DC8
330
1E
100
AcDbEntity
  8
DIM
100
AcDbTrace
 10
532.2030471498346
 20
199.1742491012395
 30
0.0
 11
532.2030471498346
 21
198.1742491012395
 31
0.0
 12
535.2030471498347
 22
198.6742491012395
 32
0.0
 13
535.2030471498347
 23
198.6742491012395
 33
0.0
  0
LINE
  5
1DC9
330
1E
100
AcDbEntity
  8
DIM
100
AcDbLine
 10
523.4530471498349
 20
222.6742491012394
 30
0.0
 11
523.4530471498348
 21
213.6742491012395
 31
0.0
  0
SOLID
  5
1DCA
330
1E
100
AcDbEntity
  8
DIM
100
AcDbTrace
 10
529.7030471498345
 20
207.1742491012395
 30
0.0
 11
529.7030471498345
 21
206.1742491012395
 31
0.0
 12
532.7030471498345
 22
206.6742491012395
 32
0.0
 13
532.7030471498345
 23
206.6742491012395
 33
0.0
  0
LINE
  5
1DCB
330
1E
100
AcDbEntity
  8
CENTER
  6
CENTER
100
AcDbLine
 10
514.9530471498349
 20
232.6742491012394
 30
0.0
 11
531.9530471498349
 21
232.6742491012394
 31
0.0
  0
LINE
  5
1DCC
330
1E
100
AcDbEntity
  8
CENTER
  6
CENTER
100
AcDbLine
 10
513.4530471498346
 20
262.6742491012394
 30
0.0
 11
533.4530471498347
 21
262.6742491012394
 31
0.0
  0
CIRCLE
  5
1DCD
330
1E
100
AcDbEntity
  8
HIDDEN
  6
HIDDEN
100
AcDbCircle
 10
523.4530471498346
 20
262.6742491012394
 30
0.0
 40
7.0
  0
CIRCLE
  5
1DCE
330
1E
100
AcDbEntity
  8
0
100
AcDbCircle
 10
523.4530471498346
 20
262.6742491012394
 30
0.0
 40
4.5
  0
CIRCLE
  5
1DCF
330
1E
100
AcDbEntity
  8
0
100
AcDbCircle
 10
500.2030471498346
 20
260.6742491012394
 30
0.0
 40
7.307159353348731
  0
CIRCLE
  5
1DD0
330
1E
100
AcDbEntity
  8
0
100
AcDbCircle
 10
500.2030471498346
 20
260.6742491012394
 30
0.0
 40
8.0
  0
POLYLINE
  5
1DD1
330
1E
100
AcDbEntity
  8
0
100
AcDb2dPolyline
 66
     1
 10
0.0
 20
0.0
 30
0.0
 70
     1
  0
VERTEX
  5
30ED
330
1DD1
100
AcDbEntity
  8
0
100
AcDbVertex
100
AcDb2dVertex
 10
497.8936460730765
 20
264.6742491012394
 30
0.0
  0
VERTEX
  5
30EE
330
1DD1
100
AcDbEntity
  8
0
100
AcDbVertex
100
AcDb2dVertex
 10
495.5842449963183
 20
260.6742491012394
 30
0.0
  0
VERTEX
  5
30EF
330
1DD1
100
AcDbEntity
  8
0
100
AcDbVertex
100
AcDb2dVertex
 10
497.8936460730765
 20
256.6742491012394
 30
0.0
  0
VERTEX
  5
30F0
330
1DD1
100
AcDbEntity
  8
0
100
AcDbVertex
100
AcDb2dVertex
 10
502.5124482265928
 20
256.6742491012394
 30
0.0
  0
VERTEX
  5
30F1
330
1DD1
100
AcDbEntity
  8
0
100
AcDbVertex
100
AcDb2dVertex
 10
504.8218493033509
 20
260.6742491012394
 30
0.0
  0
VERTEX
  5
30F2
330
1DD1
100
AcDbEntity
  8
0
100
AcDbVertex
100
AcDb2dVertex
 10
502.5124482265928
 20
264.6742491012394
 30
0.0
  0
SEQEND
  5
30F3
330
1DD1
100
AcDbEntity
  8
0
  0
SOLID
  5
1DD2
330
1E
100
AcDbEntity
  8
DIM
100
AcDbTrace
 10
582.7030471498346
 20
225.6742491012394
 30
0.0
 11
583.7030471498346
 21
225.6742491012394
 31
0.0
 12
583.2030471498346
 22
222.6742491012394
 32
0.0
 13
583.2030471498346
 23
222.6742491012394
 33
0.0
  0
SOLID
  5
1DD3
330
1E
100
AcDbEntity
  8
DIM
100
AcDbTrace
 10
566.7030471498346
 20
248.1742491012395
 30
0.0
 11
567.7030471498347
 21
248.1742491012395
 31
0.0
 12
567.2030471498346
 22
245.1742491012395
 32
0.0
 13
567.2030471498346
 23
245.1742491012395
 33
0.0
  0
SOLID
  5
1DD4
330
1E
100
AcDbEntity
  8
DIM
100
AcDbTrace
 10
574.7030471498346
 20
235.6742491012393
 30
0.0
 11
575.7030471498346
 21
235.6742491012393
 31
0.0
 12
575.2030471498346
 22
232.6742491012392
 32
0.0
 13
575.2030471498346
 23
232.6742491012392
 33
0.0
  0
SOLID
  5
1DD5
330
1E
100
AcDbEntity
  8
DIM
100
AcDbTrace
 10
558.7030471498346
 20
265.6742491012394
 30
0.0
 11
559.7030471498347
 21
265.6742491012394
 31
0.0
 12
559.2030471498346
 22
262.6742491012394
 32
0.0
 13
559.2030471498346
 23
262.6742491012394
 33
0.0
  0
LINE
  5
1DD6
330
1E
100
AcDbEntity
  8
DIM
100
AcDbLine
 10
533.7030471498346
 20
392.6742491012396
 30
0.0
 11
576.2030471498347
 21
392.6742491012396
 31
0.0
  0
LINE
  5
1DD7
330
1E
100
AcDbEntity
  8
DIM
100
AcDbLine
 10
536.2030471498346
 20
402.6742491012395
 30
0.0
 11
584.2030471498346
 21
402.6742491012395
 31
0.0
  0
LINE
  5
1DD8
330
1E
100
AcDbEntity
  8
DIM
100
AcDbLine
 10
534.4530471498345
 20
362.6742491012393
 30
0.0
 11
560.2030471498347
 21
362.6742491012393
 31
0.0
  0
LINE
  5
1DD9
330
1E
100
AcDbEntity
  8
DIM
100
AcDbLine
 10
533.7030471498346
 20
380.1742491012395
 30
0.0
 11
568.2030471498347
 21
380.1742491012395
 31
0.0
  0
LINE
  5
1DDA
330
1E
100
AcDbEntity
  8
DIM
100
AcDbLine
 10
526.7745078390292
 20
342.0744695915121
 30
0.0
 11
559.5233844600869
 21
412.9522624455354
 31
0.0
  0
TEXT
  5
1DDB
330
1E
100
AcDbEntity
  8
DIM
100
AcDbText
 10
557.7030471498346
 20
309.1028205298109
 30
0.0
 40
3.0
  1
100
 50
90.0
  7
ROMANSS
 72
     1
 11
556.2030471498347
 21
312.6742491012394
 31
0.0
100
AcDbText
 73
     2
  0
ARC
  5
1DDC
330
1E
100
AcDbEntity
  8
0
  6
CONTINUOUS
100
AcDbCircle
 10
337.7122287409571
 20
466.1500001196341
 30
0.0
 40
12.47724186909332
100
AcDbArc
 50
331.2574016731084
 51
341.3017735138037
  0
LINE
  5
1DDD
330
1E
100
AcDbEntity
  8
0
100
AcDbLine
 10
360.0281357177033
 20
462.150000119634
 30
0.0
 11
360.0281357177033
 21
445.1500001196341
 31
0.0
  0
LINE
  5
1DDE
330
1E
100
AcDbEntity
  8
0
100
AcDbLine
 10
345.0281357177033
 20
456.1500001196341
 30
0.0
 11
345.0281357177033
 21
488.150000119634
 31
0.0
  0
LINE
  5
1DDF
330
1E
100
AcDbEntity
  8
0
100
AcDbLine
 10
359.0281357177033
 20
459.650000119634
 30
0.0
 11
357.0281357177033
 21
461.6500001196341
 31
0.0
  0
LINE
  5
1DE0
330
1E
100
AcDbEntity
  8
0
100
AcDbLine
 10
301.0281357177033
 20
507.1500001196341
 30
0.0
 11
301.0281357177033
 21
437.150000119634
 31
0.0
  0
LINE
  5
1DE1
330
1E
100
AcDbEntity
  8
0
100
AcDbLine
 10
321.0281357177033
 20
507.1500001196341
 30
0.0
 11
321.0281357177033
 21
437.150000119634
 31
0.0
  0
LINE
  5
1DE2
330
1E
100
AcDbEntity
  8
0
100
AcDbLine
 10
375.0281357177034
 20
504.6500001196341
 30
0.0
 11
375.0281357177033
 21
439.650000119634
 31
0.0
  0
LINE
  5
1DE3
330
1E
100
AcDbEntity
  8
0
100
AcDbLine
 10
395.0281357177033
 20
504.6500001196341
 30
0.0
 11
395.0281357177033
 21
439.650000119634
 31
0.0
  0
TEXT
  5
1DE4
330
1E
100
AcDbEntity
  8
DIM
100
AcDbText
 10
424.5477227840701
 20
375.2796478846551
 30
0.0
 40
3.0
  1
4-%%c6H7x6L
  7
ROMANSS
 72
     2
 11
449.6905799269272
 21
376.7796478846551
 31
0.0
100
AcDbText
 73
     2
  0
LINE
  5
1DE5
330
1E
100
AcDbEntity
  8
HIDDEN
  6
HIDDEN
100
AcDbLine
 10
383.5281357177033
 20
369.6742491012394
 30
0.0
 11
383.5281357177033
 21
355.6742491012396
 31
0.0
  0
LINE
  5
1DE6
330
1E
100
AcDbEntity
  8
0
100
AcDbLine
 10
345.0281357177033
 20
348.6742491012396
 30
0.0
 11
345.0281357177033
 21
380.6742491012395
 31
0.0
  0
LINE
  5
1DE7
330
1E
100
AcDbEntity
  8
0
100
AcDbLine
 10
345.0281357177033
 20
354.6742491012395
 30
0.0
 11
375.0281357177033
 21
354.6742491012395
 31
0.0
  0
LINE
  5
1DE8
330
1E
100
AcDbEntity
  8
0
100
AcDbLine
 10
359.0281357177033
 20
325.1742491012395
 30
0.0
 11
360.0281357177033
 21
325.1742491012395
 31
0.0
  0
LINE
  5
1DE9
330
1E
100
AcDbEntity
  8
0
100
AcDbLine
 10
359.0281357177033
 20
300.1742491012395
 30
0.0
 11
360.0281357177033
 21
300.1742491012395
 31
0.0
  0
LINE
  5
1DEA
330
1E
100
AcDbEntity
  8
0
100
AcDbLine
 10
325.0281357177032
 20
331.6742491012395
 30
0.0
 11
325.0281357177033
 21
293.6742491012395
 31
0.0
  0
LINE
  5
1DEB
330
1E
100
AcDbEntity
  8
0
100
AcDbLine
 10
326.0281357177033
 20
330.6742491012395
 30
0.0
 11
326.0281357177033
 21
294.6742491012395
 31
0.0
  0
LINE
  5
1DEC
330
1E
100
AcDbEntity
  8
0
100
AcDbLine
 10
337.0281357177032
 20
322.6742491012394
 30
0.0
 11
337.0281357177032
 21
317.9420759776659
 31
0.0
  0
POLYLINE
  5
1DED
330
1E
100
AcDbEntity
  8
0
  6
CONTINUOUS
100
AcDb2dPolyline
 66
     1
 10
0.0
 20
0.0
 30
0.0
  0
VERTEX
  5
30F4
330
1DED
100
AcDbEntity
  8
0
  6
CONTINUOUS
100
AcDbVertex
100
AcDb2dVertex
 10
342.7065421842149
 20
325.3492491012496
 30
0.0
 42
0.4293774845420222
  0
VERTEX
  5
30F5
330
1DED
100
AcDbEntity
  8
0
  6
CONTINUOUS
100
AcDbVertex
100
AcDb2dVertex
 10
343.4041357177035
 20
320.6742491012503
 30
0.0
 42
0.0851703918331037
  0
VERTEX
  5
30F6
330
1DED
100
AcDbEntity
  8
0
  6
CONTINUOUS
100
AcDbVertex
100
AcDb2dVertex
 10
342.0281357177033
 20
312.6742491012503
 30
0.0
  0
SEQEND
  5
30F7
330
1DED
100
AcDbEntity
  8
0
  6
CONTINUOUS
  0
LINE
  5
1DEE
330
1E
100
AcDbEntity
  8
0
100
AcDbLine
 10
338.0281357177032
 20
321.6742491012394
 30
0.0
 11
338.0281357177032
 21
303.6742491012394
 31
0.0
  0
LINE
  5
1DEF
330
1E
100
AcDbEntity
  8
0
  6
CONTINUOUS
100
AcDbLine
 10
342.0281357177033
 20
324.1742491012503
 30
0.0
 11
342.0281357177033
 21
301.1742491012503
 31
0.0
  0
POLYLINE
  5
1DF0
330
1E
100
AcDbEntity
  8
0
  6
CONTINUOUS
100
AcDb2dPolyline
 66
     1
 10
0.0
 20
0.0
 30
0.0
  0
VERTEX
  5
30F8
330
1DF0
100
AcDbEntity
  8
0
  6
CONTINUOUS
100
AcDbVertex
100
AcDb2dVertex
 10
349.3497292511916
 20
325.3492491012506
 30
0.0
 42
-0.4293774845420222
  0
VERTEX
  5
30F9
330
1DF0
100
AcDbEntity
  8
0
  6
CONTINUOUS
100
AcDbVertex
100
AcDb2dVertex
 10
348.6521357177031
 20
320.6742491012513
 30
0.0
 42
-0.0851703918331037
  0
VERTEX
  5
30FA
330
1DF0
100
AcDbEntity
  8
0
  6
CONTINUOUS
100
AcDbVertex
100
AcDb2dVertex
 10
350.0281357177033
 20
312.6742491012513
 30
0.0
  0
SEQEND
  5
30FB
330
1DF0
100
AcDbEntity
  8
0
  6
CONTINUOUS
  0
LINE
  5
1DF1
330
1E
100
AcDbEntity
  8
0
  6
CONTINUOUS
100
AcDbLine
 10
350.0281357177033
 20
324.1742491012514
 30
0.0
 11
350.0281357177033
 21
301.1742491012513
 31
0.0
  0
LINE
  5
1DF2
330
1E
100
AcDbEntity
  8
0
  6
CONTINUOUS
100
AcDbLine
 10
321.0281357177033
 20
276.6742491012394
 30
0.0
 11
345.0281357177033
 21
276.6742491012394
 31
0.0
  0
LINE
  5
1DF3
330
1E
100
AcDbEntity
  8
0
100
AcDbLine
 10
337.0281357177032
 20
302.6742491012394
 30
0.0
 11
326.0281357177033
 21
302.6742491012394
 31
0.0
  0
LINE
  5
1DF4
330
1E
100
AcDbEntity
  8
0
  6
CONTINUOUS
100
AcDbLine
 10
326.0281357177033
 20
294.6742491012395
 30
0.0
 11
325.0281357177033
 21
293.6742491012395
 31
0.0
  0
LINE
  5
1DF5
330
1E
100
AcDbEntity
  8
0
  6
CONTINUOUS
100
AcDbLine
 10
321.0281357177033
 20
293.6742491012395
 30
0.0
 11
325.0281357177033
 21
293.6742491012395
 31
0.0
  0
LINE
  5
1DF6
330
1E
100
AcDbEntity
  8
0
  6
CONTINUOUS
100
AcDbLine
 10
342.0281357177033
 20
301.1742491012503
 30
0.0
 11
343.3849486507284
 21
298.8242491012499
 31
0.0
  0
POLYLINE
  5
1DF7
330
1E
100
AcDbEntity
  8
0
  6
CONTINUOUS
100
AcDb2dPolyline
 66
     1
 10
0.0
 20
0.0
 30
0.0
  0
VERTEX
  5
30FC
330
1DF7
100
AcDbEntity
  8
0
  6
CONTINUOUS
100
AcDbVertex
100
AcDb2dVertex
 10
342.7065421842149
 20
299.999249101251
 30
0.0
 42
-0.4293774845420222
  0
VERTEX
  5
30FD
330
1DF7
100
AcDbEntity
  8
0
  6
CONTINUOUS
100
AcDbVertex
100
AcDb2dVertex
 10
343.4041357177035
 20
304.6742491012503
 30
0.0
 42
-0.0851703918331037
  0
VERTEX
  5
30FE
330
1DF7
100
AcDbEntity
  8
0
  6
CONTINUOUS
100
AcDbVertex
100
AcDb2dVertex
 10
342.0281357177033
 20
312.6742491012503
 30
0.0
  0
SEQEND
  5
30FF
330
1DF7
100
AcDbEntity
  8
0
  6
CONTINUOUS
  0
LINE
  5
1DF8
330
1E
100
AcDbEntity
  8
0
100
AcDbLine
 10
328.0281357177031
 20
317.9420759776659
 30
0.0
 11
328.0281357177031
 21
307.4064222248131
 31
0.0
  0
ARC
  5
1DF9
330
1E
100
AcDbEntity
  8
0
  6
CONTINUOUS
100
AcDbCircle
 10
336.5281357177033
 20
312.6742491012395
 30
0.0
 40
10.00000000000008
100
AcDbArc
 50
148.2116693829484
 51
211.7883306170508
  0
LINE
  5
1DFA
330
1E
100
AcDbEntity
  8
0
  6
CONTINUOUS
 62
     4
100
AcDbLine
 10
338.0281357177032
 20
317.9420759776659
 30
0.0
 11
328.0281357177031
 21
307.4064222248131
 31
0.0
  0
LINE
  5
1DFB
330
1E
100
AcDbEntity
  8
0
  6
CONTINUOUS
 62
     4
100
AcDbLine
 10
338.0281357177032
 20
307.4064222248131
 30
0.0
 11
328.0281357177031
 21
317.9420759776659
 31
0.0
  0
LINE
  5
1DFC
330
1E
100
AcDbEntity
  8
0
100
AcDbLine
 10
340.0281357177032
 20
320.6742491012395
 30
0.0
 11
340.0281357177033
 21
304.6742491012395
 31
0.0
  0
LINE
  5
1DFD
330
1E
100
AcDbEntity
  8
0
  6
CONTINUOUS
100
AcDbLine
 10
338.0281357177032
 20
307.4064222248131
 30
0.0
 11
328.0281357177031
 21
307.4064222248131
 31
0.0
  0
LINE
  5
1DFE
330
1E
100
AcDbEntity
  8
0
100
AcDbLine
 10
337.0281357177032
 20
302.6742491012394
 30
0.0
 11
338.0281357177032
 21
303.6742491012394
 31
0.0
  0
LINE
  5
1DFF
330
1E
100
AcDbEntity
  8
0
100
AcDbLine
 10
337.0281357177032
 20
307.4064222248131
 30
0.0
 11
337.0281357177032
 21
302.6742491012395
 31
0.0
  0
LINE
  5
1E00
330
1E
100
AcDbEntity
  8
0
100
AcDbLine
 10
340.0281357177033
 20
305.6742491012395
 30
0.0
 11
338.0281357177032
 21
305.6742491012395
 31
0.0
  0
LINE
  5
1E01
330
1E
100
AcDbEntity
  8
0
100
AcDbLine
 10
342.0281357177033
 20
304.6742491012395
 30
0.0
 11
340.0281357177033
 21
304.6742491012395
 31
0.0
  0
LINE
  5
1E02
330
1E
100
AcDbEntity
  8
0
 62
     2
100
AcDbLine
 10
342.0281357177033
 20
305.2742491012394
 30
0.0
 11
340.0281357177032
 21
305.2742491012394
 31
0.0
  0
LINE
  5
1E03
330
1E
100
AcDbEntity
  8
0
  6
CONTINUOUS
100
AcDbLine
 10
338.0281357177032
 20
317.9420759776659
 30
0.0
 11
328.0281357177031
 21
317.9420759776659
 31
0.0
  0
LINE
  5
1E04
330
1E
100
AcDbEntity
  8
0
100
AcDbLine
 10
340.0281357177032
 20
319.6742491012395
 30
0.0
 11
338.0281357177032
 21
319.6742491012395
 31
0.0
  0
LINE
  5
1E05
330
1E
100
AcDbEntity
  8
0
100
AcDbLine
 10
342.0281357177033
 20
320.6742491012395
 30
0.0
 11
340.0281357177032
 21
320.6742491012395
 31
0.0
  0
LINE
  5
1E06
330
1E
100
AcDbEntity
  8
0
 62
     2
100
AcDbLine
 10
342.0281357177033
 20
320.0742491012395
 30
0.0
 11
340.0281357177032
 21
320.0742491012395
 31
0.0
  0
POLYLINE
  5
1E07
330
1E
100
AcDbEntity
  8
0
  6
CONTINUOUS
100
AcDb2dPolyline
 66
     1
 10
0.0
 20
0.0
 30
0.0
  0
VERTEX
  5
3100
330
1E07
100
AcDbEntity
  8
0
  6
CONTINUOUS
100
AcDbVertex
100
AcDb2dVertex
 10
349.3497292511916
 20
299.999249101252
 30
0.0
 42
0.4293774845420222
  0
VERTEX
  5
3101
330
1E07
100
AcDbEntity
  8
0
  6
CONTINUOUS
100
AcDbVertex
100
AcDb2dVertex
 10
348.6521357177031
 20
304.6742491012513
 30
0.0
 42
0.0851703918331037
  0
VERTEX
  5
3102
330
1E07
100
AcDbEntity
  8
0
  6
CONTINUOUS
100
AcDbVertex
100
AcDb2dVertex
 10
350.0281357177033
 20
312.6742491012513
 30
0.0
  0
SEQEND
  5
3103
330
1E07
100
AcDbEntity
  8
0
  6
CONTINUOUS
  0
LINE
  5
1E08
330
1E
100
AcDbEntity
  8
0
 62
     4
100
AcDbLine
 10
350.0281357177033
 20
305.8919191181142
 30
0.0
 11
357.0281357177033
 21
319.4565790843648
 31
0.0
  0
LINE
  5
1E09
330
1E
100
AcDbEntity
  8
0
 62
     4
100
AcDbLine
 10
350.0281357177033
 20
319.4565790843648
 30
0.0
 11
357.0281357177033
 21
305.8919191181142
 31
0.0
  0
ARC
  5
1E0A
330
1E
100
AcDbEntity
  8
0
100
AcDbCircle
 10
346.5281357177033
 20
312.6742491012395
 30
0.0
 40
12.50000000000006
100
AcDbArc
 50
327.1401196211103
 51
32.85988037888874
  0
LINE
  5
1E0B
330
1E
100
AcDbEntity
  8
0
100
AcDbLine
 10
357.0281357177033
 20
319.4565790843648
 30
0.0
 11
357.0281357177033
 21
305.8919191181141
 31
0.0
  0
LINE
  5
1E0C
330
1E
100
AcDbEntity
  8
0
100
AcDbLine
 10
357.0281357177033
 20
305.8919191181142
 30
0.0
 11
350.0281357177033
 21
305.8919191181142
 31
0.0
  0
LINE
  5
1E0D
330
1E
100
AcDbEntity
  8
0
100
AcDbLine
 10
350.0281357177033
 20
302.1742491012394
 30
0.0
 11
357.0281357177033
 21
302.1742491012394
 31
0.0
  0
LINE
  5
1E0E
330
1E
100
AcDbEntity
  8
0
  6
CONTINUOUS
100
AcDbLine
 10
343.4041357177035
 20
304.6742491012503
 30
0.0
 11
348.6521357177031
 21
304.6742491012513
 31
0.0
  0
LINE
  5
1E0F
330
1E
100
AcDbEntity
  8
0
  6
CONTINUOUS
100
AcDbLine
 10
350.0281357177033
 20
301.1742491012513
 30
0.0
 11
348.6713227846781
 21
298.8242491012509
 31
0.0
  0
LINE
  5
1E10
330
1E
100
AcDbEntity
  8
0
  6
CONTINUOUS
100
AcDbLine
 10
343.3849486507284
 20
298.8242491012499
 30
0.0
 11
348.6521357177031
 21
298.8242491012509
 31
0.0
  0
LINE
  5
1E11
330
1E
100
AcDbEntity
  8
0
100
AcDbLine
 10
359.0281357177033
 20
300.1742491012395
 30
0.0
 11
357.0281357177033
 21
302.1742491012395
 31
0.0
  0
LINE
  5
1E12
330
1E
100
AcDbEntity
  8
0
100
AcDbLine
 10
357.0281357177033
 20
319.4565790843648
 30
0.0
 11
350.0281357177033
 21
319.4565790843648
 31
0.0
  0
LINE
  5
1E13
330
1E
100
AcDbEntity
  8
0
  6
CONTINUOUS
100
AcDbLine
 10
343.4041357177035
 20
320.6742491012503
 30
0.0
 11
348.6521357177031
 21
320.6742491012513
 31
0.0
  0
LINE
  5
1E14
330
1E
100
AcDbEntity
  8
0
  6
CONTINUOUS
100
AcDbLine
 10
321.0281357177033
 20
348.6742491012396
 30
0.0
 11
345.0281357177033
 21
348.6742491012396
 31
0.0
  0
LINE
  5
1E15
330
1E
100
AcDbEntity
  8
0
100
AcDbLine
 10
337.0281357177032
 20
322.6742491012394
 30
0.0
 11
326.0281357177033
 21
322.6742491012394
 31
0.0
  0
LINE
  5
1E16
330
1E
100
AcDbEntity
  8
0
  6
CONTINUOUS
100
AcDbLine
 10
325.0281357177033
 20
331.6742491012395
 30
0.0
 11
326.0281357177033
 21
330.6742491012395
 31
0.0
  0
LINE
  5
1E17
330
1E
100
AcDbEntity
  8
0
  6
CONTINUOUS
100
AcDbLine
 10
321.0281357177033
 20
331.6742491012395
 30
0.0
 11
325.0281357177033
 21
331.6742491012395
 31
0.0
  0
LINE
  5
1E18
330
1E
100
AcDbEntity
  8
0
  6
CONTINUOUS
100
AcDbLine
 10
342.0281357177033
 20
324.1742491012503
 30
0.0
 11
343.3849486507284
 21
326.5242491012506
 31
0.0
  0
LINE
  5
1E19
330
1E
100
AcDbEntity
  8
0
100
AcDbLine
 10
338.0281357177032
 20
321.6742491012394
 30
0.0
 11
337.0281357177032
 21
322.6742491012394
 31
0.0
  0
LINE
  5
1E1A
330
1E
100
AcDbEntity
  8
0
100
AcDbLine
 10
350.0281357177033
 20
323.1742491012395
 30
0.0
 11
357.0281357177033
 21
323.1742491012395
 31
0.0
  0
LINE
  5
1E1B
330
1E
100
AcDbEntity
  8
0
  6
CONTINUOUS
100
AcDbLine
 10
350.0281357177033
 20
324.1742491012513
 30
0.0
 11
348.6713227846781
 21
326.5242491012517
 31
0.0
  0
LINE
  5
1E1C
330
1E
100
AcDbEntity
  8
0
  6
CONTINUOUS
100
AcDbLine
 10
343.3849486507284
 20
326.5242491012506
 30
0.0
 11
348.6521357177031
 21
326.5242491012517
 31
0.0
  0
LINE
  5
1E1D
330
1E
100
AcDbEntity
  8
0
100
AcDbLine
 10
359.0281357177033
 20
325.1742491012395
 30
0.0
 11
357.0281357177033
 21
323.1742491012395
 31
0.0
  0
LINE
  5
1E1E
330
1E
100
AcDbEntity
  8
HIDDEN
  6
HIDDEN
100
AcDbLine
 10
389.0281357177033
 20
327.1742491012395
 30
0.0
 11
389.0281357177033
 21
321.1742491012395
 31
0.0
  0
LINE
  5
1E1F
330
1E
100
AcDbEntity
  8
0
100
AcDbLine
 10
360.0281357177033
 20
339.6742491012395
 30
0.0
 11
360.0281357177033
 21
285.6742491012395
 31
0.0
  0
LINE
  5
1E20
330
1E
100
AcDbEntity
  8
HIDDEN
  6
HIDDEN
100
AcDbLine
 10
375.0281357177033
 20
285.4242491012395
 30
0.0
 11
395.0281357177033
 21
285.4242491012395
 31
0.0
  0
LINE
  5
1E21
330
1E
100
AcDbEntity
  8
HIDDEN
  6
HIDDEN
100
AcDbLine
 10
375.0281357177033
 20
286.0242491012396
 30
0.0
 11
395.0281357177033
 21
286.0242491012395
 31
0.0
  0
LINE
  5
1E22
330
1E
100
AcDbEntity
  8
HIDDEN
  6
HIDDEN
100
AcDbLine
 10
375.0281357177033
 20
292.8242491012395
 30
0.0
 11
395.0281357177033
 21
292.8242491012395
 31
0.0
  0
LINE
  5
1E23
330
1E
100
AcDbEntity
  8
HIDDEN
  6
HIDDEN
100
AcDbLine
 10
375.0281357177033
 20
293.4242491012395
 30
0.0
 11
395.0281357177033
 21
293.4242491012395
 31
0.0
  0
LINE
  5
1E24
330
1E
100
AcDbEntity
  8
HIDDEN
  6
HIDDEN
100
AcDbLine
 10
389.0281357177033
 20
304.1742491012394
 30
0.0
 11
395.0281357177033
 21
304.1742491012395
 31
0.0
  0
LINE
  5
1E25
330
1E
100
AcDbEntity
  8
HIDDEN
  6
HIDDEN
100
AcDbLine
 10
389.0281357177033
 20
298.1742491012393
 30
0.0
 11
395.0281357177033
 21
298.1742491012394
 31
0.0
  0
LINE
  5
1E26
330
1E
100
AcDbEntity
  8
CENTER
  6
CENTER
100
AcDbLine
 10
372.8788077544151
 20
301.1742491012395
 30
0.0
 11
397.6374496362046
 21
301.1742491012395
 31
0.0
  0
LINE
  5
1E27
330
1E
100
AcDbEntity
  8
CENTER
  6
CENTER
100
AcDbLine
 10
372.3644986804003
 20
289.4242491012395
 30
0.0
 11
398.6374496362046
 21
289.4242491012395
 31
0.0
  0
LINE
  5
1E28
330
1E
100
AcDbEntity
  8
HIDDEN
  6
HIDDEN
100
AcDbLine
 10
389.0281357177033
 20
321.1742491012395
 30
0.0
 11
395.0281357177033
 21
321.1742491012395
 31
0.0
  0
LINE
  5
1E29
330
1E
100
AcDbEntity
  8
HIDDEN
  6
HIDDEN
100
AcDbLine
 10
389.0281357177033
 20
298.1742491012394
 30
0.0
 11
389.0281357177033
 21
304.1742491012395
 31
0.0
  0
LINE
  5
1E2A
330
1E
100
AcDbEntity
  8
0
100
AcDbLine
 10
360.0281357177033
 20
285.6742491012395
 30
0.0
 11
375.0281357177033
 21
285.6742491012395
 31
0.0
  0
TEXT
  5
1E2B
330
1E
100
AcDbEntity
  8
DIM
100
AcDbText
 10
409.5281357177033
 20
309.1742491012395
 30
0.0
 40
3.0
  1
136
 50
90.0
  7
ROMANSS
 72
     1
 11
408.0281357177033
 21
312.6742491012395
 31
0.0
100
AcDbText
 73
     2
  0
TEXT
  5
1E2C
330
1E
100
AcDbEntity
  8
DIM
100
AcDbText
 10
401.5281357177033
 20
309.0313919583823
 30
0.0
 40
3.0
  1
104
 50
90.0
  7
ROMANSS
 72
     1
 11
400.0281357177033
 21
312.6742491012395
 31
0.0
100
AcDbText
 73
     2
  0
LINE
  5
1E2D
330
1E
100
AcDbEntity
  8
HIDDEN
  6
HIDDEN
100
AcDbLine
 10
375.0281357177033
 20
339.9242491012394
 30
0.0
 11
395.0281357177033
 21
339.9242491012395
 31
0.0
  0
LINE
  5
1E2E
330
1E
100
AcDbEntity
  8
HIDDEN
  6
HIDDEN
100
AcDbLine
 10
375.0281357177033
 20
339.3242491012394
 30
0.0
 11
395.0281357177033
 21
339.3242491012395
 31
0.0
  0
LINE
  5
1E2F
330
1E
100
AcDbEntity
  8
HIDDEN
  6
HIDDEN
100
AcDbLine
 10
375.0281357177033
 20
332.5242491012394
 30
0.0
 11
395.0281357177033
 21
332.5242491012394
 31
0.0
  0
LINE
  5
1E30
330
1E
100
AcDbEntity
  8
HIDDEN
  6
HIDDEN
100
AcDbLine
 10
375.0281357177033
 20
331.9242491012395
 30
0.0
 11
395.0281357177033
 21
331.9242491012395
 31
0.0
  0
LINE
  5
1E31
330
1E
100
AcDbEntity
  8
HIDDEN
  6
HIDDEN
100
AcDbLine
 10
389.0281357177033
 20
327.1742491012396
 30
0.0
 11
395.0281357177033
 21
327.1742491012395
 31
0.0
  0
LINE
  5
1E32
330
1E
100
AcDbEntity
  8
HIDDEN
  6
HIDDEN
100
AcDbLine
 10
395.0281357177033
 20
367.1742491012395
 30
0.0
 11
383.5281357177033
 21
367.1742491012395
 31
0.0
  0
LINE
  5
1E33
330
1E
100
AcDbEntity
  8
HIDDEN
  6
HIDDEN
100
AcDbLine
 10
395.0281357177033
 20
358.1742491012397
 30
0.0
 11
383.5281357177033
 21
358.1742491012396
 31
0.0
  0
LINE
  5
1E34
330
1E
100
AcDbEntity
  8
CENTER
  6
CENTER
100
AcDbLine
 10
372.6216532174076
 20
362.6742491012395
 30
0.0
 11
397.7944047031582
 21
362.6742491012395
 31
0.0
  0
LINE
  5
1E35
330
1E
100
AcDbEntity
  8
CENTER
  6
CENTER
100
AcDbLine
 10
372.8788077544151
 20
324.1742491012395
 30
0.0
 11
397.6374496362046
 21
324.1742491012394
 31
0.0
  0
LINE
  5
1E36
330
1E
100
AcDbEntity
  8
CENTER
  6
CENTER
100
AcDbLine
 10
372.3644986804003
 20
335.9242491012394
 30
0.0
 11
398.6374496362046
 21
335.9242491012394
 31
0.0
  0
LINE
  5
1E37
330
1E
100
AcDbEntity
  8
0
100
AcDbLine
 10
360.0281357177033
 20
339.6742491012394
 30
0.0
 11
375.0281357177033
 21
339.6742491012394
 31
0.0
  0
LINE
  5
1E38
330
1E
100
AcDbEntity
  8
HIDDEN
  6
HIDDEN
100
AcDbLine
 10
383.5281357177033
 20
355.6742491012396
 30
0.0
 11
375.0281357177033
 21
355.6742491012396
 31
0.0
  0
LINE
  5
1E39
330
1E
100
AcDbEntity
  8
DIM
100
AcDbLine
 10
399.0281357177033
 20
364.6742491012395
 30
0.0
 11
404.0281357177033
 21
364.6742491012395
 31
0.0
  0
SOLID
  5
1E3A
330
1E
100
AcDbEntity
  8
DIM
100
AcDbTrace
 10
402.5281357177033
 20
361.6742491012395
 30
0.0
 11
403.5281357177033
 21
361.6742491012395
 31
0.0
 12
403.0281357177033
 22
364.6742491012395
 32
0.0
 13
403.0281357177033
 23
364.6742491012395
 33
0.0
  0
LINE
  5
1E3B
330
1E
100
AcDbEntity
  8
DIM
100
AcDbLine
 10
346.2953724582807
 20
380.6742491012395
 30
0.0
 11
412.0281357177033
 21
380.6742491012395
 31
0.0
  0
LINE
  5
1E3C
330
1E
100
AcDbEntity
  8
0
100
AcDbLine
 10
359.0281357177033
 20
459.650000119634
 30
0.0
 11
360.0281357177033
 21
459.650000119634
 31
0.0
  0
LINE
  5
1E3D
330
1E
100
AcDbEntity
  8
0
100
AcDbLine
 10
345.0281357177033
 20
374.6742491012395
 30
0.0
 11
375.0281357177033
 21
374.6742491012395
 31
0.0
  0
TEXT
  5
1E3E
330
1E
100
AcDbEntity
  8
DIM
100
AcDbText
 10
303.8973846707638
 20
412.1742491012396
 30
0.0
 40
3.0
  1
170+Stroke
  7
ROMANSS
 72
     1
 11
316.540241813621
 21
413.6742491012395
 31
0.0
100
AcDbText
 73
     2
  0
LINE
  5
1E3F
330
1E
100
AcDbEntity
  8
0
  6
CONTINUOUS
100
AcDbLine
 10
321.0281357177033
 20
380.6742491012395
 30
0.0
 11
345.0281357177033
 21
380.6742491012395
 31
0.0
  0
LINE
  5
1E40
330
1E
100
AcDbEntity
  8
HIDDEN
  6
HIDDEN
100
AcDbLine
 10
301.0281357177033
 20
388.1742491012395
 30
0.0
 11
321.0281357177033
 21
388.1742491012395
 31
0.0
  0
LINE
  5
1E41
330
1E
100
AcDbEntity
  8
HIDDEN
  6
HIDDEN
100
AcDbLine
 10
301.0281357177033
 20
397.1742491012395
 30
0.0
 11
321.0281357177033
 21
397.1742491012395
 31
0.0
  0
LINE
  5
1E42
330
1E
100
AcDbEntity
  8
CENTER
  6
CENTER
100
AcDbLine
 10
298.0281357177033
 20
392.6742491012395
 30
0.0
 11
324.0281357177033
 21
392.6742491012395
 31
0.0
  0
LINE
  5
1E43
330
1E
100
AcDbEntity
  8
0
  6
CONTINUOUS
100
AcDbLine
 10
301.0281357177033
 20
402.6742491012395
 30
0.0
 11
321.0281357177033
 21
402.6742491012395
 31
0.0
  0
LINE
  5
1E44
330
1E
100
AcDbEntity
  8
0
  6
CONTINUOUS
100
AcDbLine
 10
321.0281357177033
 20
456.1500001196341
 30
0.0
 11
345.0281357177033
 21
456.1500001196341
 31
0.0
  0
LINE
  5
1E45
330
1E
100
AcDbEntity
  8
0
100
AcDbLine
 10
301.0281357177033
 20
437.150000119634
 30
0.0
 11
321.0281357177033
 21
437.150000119634
 31
0.0
  0
LINE
  5
1E46
330
1E
100
AcDbEntity
  8
HIDDEN
  6
HIDDEN
100
AcDbLine
 10
301.0281357177033
 20
444.400000119634
 30
0.0
 11
321.0281357177033
 21
444.400000119634
 31
0.0
  0
LINE
  5
1E47
330
1E
100
AcDbEntity
  8
HIDDEN
  6
HIDDEN
100
AcDbLine
 10
301.0281357177033
 20
453.400000119634
 30
0.0
 11
321.0281357177033
 21
453.400000119634
 31
0.0
  0
LINE
  5
1E48
330
1E
100
AcDbEntity
  8
0
100
AcDbLine
 10
326.0281357177033
 20
456.1500001196341
 30
0.0
 11
326.0281357177033
 21
454.150000119634
 31
0.0
  0
LINE
  5
1E49
330
1E
100
AcDbEntity
  8
0
100
AcDbLine
 10
325.0281357177033
 20
456.1500001196341
 30
0.0
 11
325.0281357177033
 21
453.1500001196341
 31
0.0
  0
LINE
  5
1E4A
330
1E
100
AcDbEntity
  8
0
  6
CONTINUOUS
100
AcDbLine
 10
321.0281357177033
 20
453.1500001196341
 30
0.0
 11
325.0281357177033
 21
453.1500001196341
 31
0.0
  0
LINE
  5
1E4B
330
1E
100
AcDbEntity
  8
0
  6
CONTINUOUS
100
AcDbLine
 10
326.0281357177033
 20
454.150000119634
 30
0.0
 11
325.0281357177033
 21
453.1500001196341
 31
0.0
  0
LINE
  5
1E4C
330
1E
100
AcDbEntity
  8
0
  6
CONTINUOUS
100
AcDbLine
 10
348.6521357177031
 20
460.150000119634
 30
0.0
 11
345.0281357177033
 21
460.1500001196341
 31
0.0
  0
LINE
  5
1E4D
330
1E
100
AcDbEntity
  8
0
100
AcDbLine
 10
375.0281357177033
 20
380.1742491012395
 30
0.0
 11
395.0281357177033
 21
380.1742491012395
 31
0.0
  0
LINE
  5
1E4E
330
1E
100
AcDbEntity
  8
HIDDEN
  6
HIDDEN
100
AcDbLine
 10
383.5281357177033
 20
369.6742491012394
 30
0.0
 11
375.0281357177033
 21
369.6742491012394
 31
0.0
  0
LINE
  5
1E4F
330
1E
100
AcDbEntity
  8
DIM
100
AcDbLine
 10
395.0281357177033
 20
381.3840752939244
 30
0.0
 11
395.0281357177033
 21
411.6742491012395
 31
0.0
  0
SOLID
  5
1E50
330
1E
100
AcDbEntity
  8
DIM
100
AcDbTrace
 10
410.5281357177033
 20
377.6742491012395
 30
0.0
 11
411.5281357177033
 21
377.6742491012395
 31
0.0
 12
411.0281357177033
 22
380.6742491012395
 32
0.0
 13
411.0281357177033
 23
380.6742491012395
 33
0.0
  0
SOLID
  5
1E51
330
1E
100
AcDbEntity
  8
DIM
100
AcDbTrace
 10
392.0281357177033
 20
410.1742491012394
 30
0.0
 11
392.0281357177033
 21
411.1742491012395
 31
0.0
 12
395.0281357177033
 22
410.6742491012395
 32
0.0
 13
395.0281357177033
 23
410.6742491012395
 33
0.0
  0
LINE
  5
1E52
330
1E
100
AcDbEntity
  8
HIDDEN
  6
HIDDEN
100
AcDbLine
 10
395.0281357177033
 20
453.4000001196339
 30
0.0
 11
383.5281357177033
 21
453.4000001196338
 31
0.0
  0
LINE
  5
1E53
330
1E
100
AcDbEntity
  8
HIDDEN
  6
HIDDEN
100
AcDbLine
 10
395.0281357177033
 20
444.400000119634
 30
0.0
 11
383.5281357177033
 21
444.400000119634
 31
0.0
  0
LINE
  5
1E54
330
1E
100
AcDbEntity
  8
CENTER
  6
CENTER
100
AcDbLine
 10
372.6216532174076
 20
448.9000001196338
 30
0.0
 11
397.7944047031582
 21
448.9000001196338
 31
0.0
  0
LINE
  5
1E55
330
1E
100
AcDbEntity
  8
0
100
AcDbLine
 10
375.0281357177033
 20
439.650000119634
 30
0.0
 11
395.0281357177033
 21
439.650000119634
 31
0.0
  0
LINE
  5
1E56
330
1E
100
AcDbEntity
  8
HIDDEN
  6
HIDDEN
100
AcDbLine
 10
383.5281357177033
 20
441.900000119634
 30
0.0
 11
375.0281357177033
 21
441.900000119634
 31
0.0
  0
LINE
  5
1E57
330
1E
100
AcDbEntity
  8
HIDDEN
  6
HIDDEN
100
AcDbLine
 10
383.5281357177033
 20
455.9000001196338
 30
0.0
 11
375.0281357177033
 21
455.9000001196338
 31
0.0
  0
LINE
  5
1E58
330
1E
100
AcDbEntity
  8
0
100
AcDbLine
 10
360.0281357177033
 20
445.1500001196341
 30
0.0
 11
375.0281357177033
 21
445.1500001196341
 31
0.0
  0
LINE
  5
1E59
330
1E
100
AcDbEntity
  8
0
100
AcDbLine
 10
370.0281357177033
 20
445.1500001196341
 30
0.0
 11
375.0281357177034
 21
445.1500001196341
 31
0.0
  0
LINE
  5
1E5A
330
1E
100
AcDbEntity
  8
HIDDEN
  6
HIDDEN
100
AcDbLine
 10
383.5281357177033
 20
455.9000001196338
 30
0.0
 11
383.5281357177033
 21
441.900000119634
 31
0.0
  0
POLYLINE
  5
1E5B
330
1E
100
AcDbEntity
  8
0
100
AcDb2dPolyline
 66
     1
 10
0.0
 20
0.0
 30
0.0
 70
     1
  0
VERTEX
  5
3104
330
1E5B
100
AcDbEntity
  8
0
100
AcDbVertex
100
AcDb2dVertex
 10
497.8936460730765
 20
368.6742491012394
 30
0.0
  0
VERTEX
  5
3105
330
1E5B
100
AcDbEntity
  8
0
100
AcDbVertex
100
AcDb2dVertex
 10
495.5842449963183
 20
364.6742491012394
 30
0.0
  0
VERTEX
  5
3106
330
1E5B
100
AcDbEntity
  8
0
100
AcDbVertex
100
AcDb2dVertex
 10
497.8936460730765
 20
360.6742491012393
 30
0.0
  0
VERTEX
  5
3107
330
1E5B
100
AcDbEntity
  8
0
100
AcDbVertex
100
AcDb2dVertex
 10
502.5124482265928
 20
360.6742491012393
 30
0.0
  0
VERTEX
  5
3108
330
1E5B
100
AcDbEntity
  8
0
100
AcDbVertex
100
AcDb2dVertex
 10
504.8218493033509
 20
364.6742491012394
 30
0.0
  0
VERTEX
  5
3109
330
1E5B
100
AcDbEntity
  8
0
100
AcDbVertex
100
AcDb2dVertex
 10
502.5124482265928
 20
368.6742491012394
 30
0.0
  0
SEQEND
  5
310A
330
1E5B
100
AcDbEntity
  8
0
  0
CIRCLE
  5
1E5C
330
1E
100
AcDbEntity
  8
0
100
AcDbCircle
 10
500.2030471498346
 20
364.6742491012394
 30
0.0
 40
7.307159353348731
  0
CIRCLE
  5
1E5D
330
1E
100
AcDbEntity
  8
0
100
AcDbCircle
 10
500.2030471498346
 20
364.6742491012394
 30
0.0
 40
8.0
  0
LINE
  5
1E5E
330
1E
100
AcDbEntity
  8
DIM
100
AcDbLine
 10
474.1598768286932
 20
329.4844163254186
 30
0.0
 11
450.6905799269272
 21
373.7796478846551
 31
0.0
  0
CIRCLE
  5
1E5F
330
1E
100
AcDbEntity
  8
HIDDEN
  6
HIDDEN
100
AcDbCircle
 10
476.9530471498346
 20
362.6742491012395
 30
0.0
 40
7.0
  0
CIRCLE
  5
1E60
330
1E
100
AcDbEntity
  8
HIDDEN
  6
HIDDEN
100
AcDbCircle
 10
523.4530471498345
 20
362.6742491012393
 30
0.0
 40
7.0
  0
LINE
  5
1E61
330
1E
100
AcDbEntity
  8
CENTER
  6
CENTER
100
AcDbLine
 10
489.7030471498347
 20
364.6742491012394
 30
0.0
 11
510.7030471498346
 21
364.6742491012394
 31
0.0
  0
LINE
  5
1E62
330
1E
100
AcDbEntity
  8
CENTER
  6
CENTER
100
AcDbLine
 10
462.2030471498346
 20
312.6742491012395
 30
0.0
 11
538.2030471498346
 21
312.6742491012394
 31
0.0
  0
CIRCLE
  5
1E63
330
1E
100
AcDbEntity
  8
0
100
AcDbCircle
 10
476.9530471498346
 20
324.1742491012395
 30
0.0
 40
3.0
  0
CIRCLE
  5
1E64
330
1E
100
AcDbEntity
  8
0
100
AcDbCircle
 10
476.9530471498346
 20
301.1742491012395
 30
0.0
 40
3.0
  0
CIRCLE
  5
1E65
330
1E
100
AcDbEntity
  8
0
100
AcDbCircle
 10
476.9530471498346
 20
289.4242491012395
 30
0.0
 40
3.399999999999999
  0
ARC
  5
1E66
330
1E
100
AcDbEntity
  8
0
 62
     2
100
AcDbCircle
 10
476.9530471498346
 20
289.4242491012395
 30
0.0
 40
4.0
100
AcDbArc
 50
243.1766780115125
 51
207.2690695815635
  0
LINE
  5
1E67
330
1E
100
AcDbEntity
  8
CENTER
  6
CENTER
100
AcDbLine
 10
469.9530471498347
 20
289.4242491012395
 30
0.0
 11
483.9530471498346
 21
289.4242491012395
 31
0.0
  0
LINE
  5
1E68
330
1E
100
AcDbEntity
  8
CENTER
  6
CENTER
100
AcDbLine
 10
470.9530471498347
 20
301.1742491012394
 30
0.0
 11
482.9530471498347
 21
301.1742491012394
 31
0.0
  0
SOLID
  5
1E69
330
1E
100
AcDbEntity
  8
DIM
100
AcDbTrace
 10
474.6016928905019
 20
329.7185072640041
 30
0.0
 11
473.7180607668843
 21
329.2503253868333
 31
0.0
 12
475.5644224602055
 22
326.8335199545661
 32
0.0
 13
475.5644224602055
 23
326.8335199545661
 33
0.0
  0
CIRCLE
  5
1E6A
330
1E
100
AcDbEntity
  8
0
100
AcDbCircle
 10
476.9530471498346
 20
335.9242491012395
 30
0.0
 40
3.399999999999999
  0
ARC
  5
1E6B
330
1E
100
AcDbEntity
  8
0
 62
     2
100
AcDbCircle
 10
476.9530471498346
 20
335.9242491012395
 30
0.0
 40
4.0
100
AcDbArc
 50
243.1766780115125
 51
207.2690695815635
  0
LINE
  5
1E6C
330
1E
100
AcDbEntity
  8
CENTER
  6
CENTER
100
AcDbLine
 10
470.9530471498347
 20
324.1742491012394
 30
0.0
 11
482.9530471498347
 21
324.1742491012394
 31
0.0
  0
LINE
  5
1E6D
330
1E
100
AcDbEntity
  8
CENTER
  6
CENTER
100
AcDbLine
 10
469.9530471498347
 20
335.9242491012394
 30
0.0
 11
483.9530471498346
 21
335.9242491012394
 31
0.0
  0
LINE
  5
1E6E
330
1E
100
AcDbEntity
  8
CENTER
  6
CENTER
100
AcDbLine
 10
466.9530471498346
 20
362.6742491012395
 30
0.0
 11
486.9530471498347
 21
362.6742491012395
 31
0.0
  0
CIRCLE
  5
1E6F
330
1E
100
AcDbEntity
  8
0
100
AcDbCircle
 10
476.9530471498346
 20
362.6742491012395
 30
0.0
 40
4.5
  0
SOLID
  5
1E70
330
1E
100
AcDbEntity
  8
DIM
100
AcDbTrace
 10
542.7030471498347
 20
321.1742491012394
 30
0.0
 11
543.7030471498347
 21
321.1742491012394
 31
0.0
 12
543.2030471498347
 22
324.1742491012394
 32
0.0
 13
543.2030471498347
 23
324.1742491012394
 33
0.0
  0
CIRCLE
  5
1E71
330
1E
100
AcDbEntity
  8
0
100
AcDbCircle
 10
523.4530471498345
 20
324.1742491012394
 30
0.0
 40
3.0
  0
LINE
  5
1E72
330
1E
100
AcDbEntity
  8
DIM
100
AcDbLine
 10
551.2030471498344
 20
292.4242491012394
 30
0.0
 11
551.2030471498344
 21
332.9242491012394
 31
0.0
  0
LINE
  5
1E73
330
1E
100
AcDbEntity
  8
CENTER
  6
CENTER
100
AcDbLine
 10
516.4530471498347
 20
289.4242491012395
 30
0.0
 11
530.4530471498346
 21
289.4242491012395
 31
0.0
  0
CIRCLE
  5
1E74
330
1E
100
AcDbEntity
  8
0
100
AcDbCircle
 10
523.4530471498346
 20
289.4242491012395
 30
0.0
 40
3.399999999999999
  0
ARC
  5
1E75
330
1E
100
AcDbEntity
  8
0
 62
     2
100
AcDbCircle
 10
523.4530471498346
 20
289.4242491012395
 30
0.0
 40
4.0
100
AcDbArc
 50
243.1766780115125
 51
207.2690695815635
  0
LINE
  5
1E76
330
1E
100
AcDbEntity
  8
CENTER
  6
CENTER
100
AcDbLine
 10
517.4530471498346
 20
301.1742491012394
 30
0.0
 11
529.4530471498346
 21
301.1742491012394
 31
0.0
  0
CIRCLE
  5
1E77
330
1E
100
AcDbEntity
  8
0
100
AcDbCircle
 10
523.4530471498346
 20
301.1742491012394
 30
0.0
 40
3.0
  0
LINE
  5
1E78
330
1E
100
AcDbEntity
  8
CENTER
  6
CENTER
100
AcDbLine
 10
492.2030471498346
 20
290.1742491012394
 30
0.0
 11
508.2030471498346
 21
290.1742491012394
 31
0.0
  0
CIRCLE
  5
1E79
330
1E
100
AcDbEntity
  8
0
100
AcDbCircle
 10
500.2030471498346
 20
290.1742491012394
 30
0.0
 40
4.53810623556582
  0
CIRCLE
  5
1E7A
330
1E
100
AcDbEntity
  8
0
100
AcDbCircle
 10
500.2030471498346
 20
290.1742491012394
 30
0.0
 40
5.0
  0
POLYLINE
  5
1E7B
330
1E
100
AcDbEntity
  8
0
100
AcDb2dPolyline
 66
     1
 10
0.0
 20
0.0
 30
0.0
 70
     1
  0
VERTEX
  5
310B
330
1E7B
100
AcDbEntity
  8
0
100
AcDbVertex
100
AcDb2dVertex
 10
498.7596714768605
 20
292.6742491012394
 30
0.0
  0
VERTEX
  5
310C
330
1E7B
100
AcDbEntity
  8
0
100
AcDbVertex
100
AcDb2dVertex
 10
497.3162958038865
 20
290.1742491012394
 30
0.0
  0
VERTEX
  5
310D
330
1E7B
100
AcDbEntity
  8
0
100
AcDbVertex
100
AcDb2dVertex
 10
498.7596714768605
 20
287.6742491012394
 30
0.0
  0
VERTEX
  5
310E
330
1E7B
100
AcDbEntity
  8
0
100
AcDbVertex
100
AcDb2dVertex
 10
501.6464228228087
 20
287.6742491012394
 30
0.0
  0
VERTEX
  5
310F
330
1E7B
100
AcDbEntity
  8
0
100
AcDbVertex
100
AcDb2dVertex
 10
503.0897984957828
 20
290.1742491012394
 30
0.0
  0
VERTEX
  5
3110
330
1E7B
100
AcDbEntity
  8
0
100
AcDbVertex
100
AcDb2dVertex
 10
501.6464228228087
 20
292.6742491012394
 30
0.0
  0
SEQEND
  5
3111
330
1E7B
100
AcDbEntity
  8
0
  0
CIRCLE
  5
1E7C
330
1E
100
AcDbEntity
  8
0
100
AcDbCircle
 10
500.2030471498346
 20
312.6742491012394
 30
0.0
 40
4.25
  0
CIRCLE
  5
1E7D
330
1E
100
AcDbEntity
  8
0
100
AcDbCircle
 10
500.2030471498346
 20
312.6742491012394
 30
0.0
 40
5.0
  0
POLYLINE
  5
1E7E
330
1E
100
AcDbEntity
  8
0
100
AcDb2dPolyline
 66
     1
 10
0.0
 20
0.0
 30
0.0
 70
     1
  0
VERTEX
  5
3112
330
1E7E
100
AcDbEntity
  8
0
100
AcDbVertex
100
AcDb2dVertex
 10
498.7596714768605
 20
315.1742491012394
 30
0.0
  0
VERTEX
  5
3113
330
1E7E
100
AcDbEntity
  8
0
100
AcDbVertex
100
AcDb2dVertex
 10
497.3162958038865
 20
312.6742491012394
 30
0.0
  0
VERTEX
  5
3114
330
1E7E
100
AcDbEntity
  8
0
100
AcDbVertex
100
AcDb2dVertex
 10
498.7596714768605
 20
310.1742491012394
 30
0.0
  0
VERTEX
  5
3115
330
1E7E
100
AcDbEntity
  8
0
100
AcDbVertex
100
AcDb2dVertex
 10
501.6464228228087
 20
310.1742491012394
 30
0.0
  0
VERTEX
  5
3116
330
1E7E
100
AcDbEntity
  8
0
100
AcDbVertex
100
AcDb2dVertex
 10
503.0897984957828
 20
312.6742491012394
 30
0.0
  0
VERTEX
  5
3117
330
1E7E
100
AcDbEntity
  8
0
100
AcDbVertex
100
AcDb2dVertex
 10
501.6464228228087
 20
315.1742491012394
 30
0.0
  0
SEQEND
  5
3118
330
1E7E
100
AcDbEntity
  8
0
  0
LINE
  5
1E7F
330
1E
100
AcDbEntity
  8
DIM
100
AcDbLine
 10
531.4530471498346
 20
289.4242491012395
 30
0.0
 11
552.2030471498344
 21
289.4242491012395
 31
0.0
  0
SOLID
  5
1E80
330
1E
100
AcDbEntity
  8
DIM
100
AcDbTrace
 10
550.7030471498344
 20
292.4242491012394
 30
0.0
 11
551.7030471498344
 21
292.4242491012394
 31
0.0
 12
551.2030471498344
 22
289.4242491012395
 32
0.0
 13
551.2030471498344
 23
289.4242491012395
 33
0.0
  0
TEXT
  5
1E81
330
1E
100
AcDbEntity
  8
DIM
100
AcDbText
 10
541.7030471498346
 20
310.245677672668
 30
0.0
 40
3.0
  1
23
 50
90.0
  7
ROMANSS
 72
     1
 11
540.2030471498346
 21
312.6742491012394
 31
0.0
100
AcDbText
 73
     2
  0
LINE
  5
1E82
330
1E
100
AcDbEntity
  8
DIM
100
AcDbLine
 10
530.4530471498346
 20
301.1742491012394
 30
0.0
 11
544.2030471498346
 21
301.1742491012394
 31
0.0
  0
TEXT
  5
1E83
330
1E
100
AcDbEntity
  8
DIM
100
AcDbText
 10
549.7030471498344
 20
308.1028205298109
 30
0.0
 40
3.0
  1
46.5
 50
90.0
  7
ROMANSS
 72
     1
 11
548.2030471498344
 21
312.6742491012394
 31
0.0
100
AcDbText
 73
     2
  0
LINE
  5
1E84
330
1E
100
AcDbEntity
  8
DIM
100
AcDbLine
 10
543.2030471498347
 20
304.1742491012394
 30
0.0
 11
543.2030471498347
 21
321.1742491012394
 31
0.0
  0
SOLID
  5
1E85
330
1E
100
AcDbEntity
  8
DIM
100
AcDbTrace
 10
542.7030471498347
 20
304.1742491012394
 30
0.0
 11
543.7030471498347
 21
304.1742491012394
 31
0.0
 12
543.2030471498347
 22
301.1742491012394
 32
0.0
 13
543.2030471498347
 23
301.1742491012394
 33
0.0
  0
LINE
  5
1E86
330
1E
100
AcDbEntity
  8
CENTER
  6
CENTER
100
AcDbLine
 10
513.4530471498346
 20
362.6742491012393
 30
0.0
 11
533.4530471498346
 21
362.6742491012393
 31
0.0
  0
CIRCLE
  5
1E87
330
1E
100
AcDbEntity
  8
0
100
AcDbCircle
 10
523.4530471498345
 20
362.6742491012393
 30
0.0
 40
4.5
  0
LINE
  5
1E88
330
1E
100
AcDbEntity
  8
CENTER
  6
CENTER
100
AcDbLine
 10
516.4530471498347
 20
335.9242491012394
 30
0.0
 11
530.4530471498345
 21
335.9242491012394
 31
0.0
  0
CIRCLE
  5
1E89
330
1E
100
AcDbEntity
  8
0
100
AcDbCircle
 10
523.4530471498345
 20
335.9242491012394
 30
0.0
 40
3.399999999999999
  0
ARC
  5
1E8A
330
1E
100
AcDbEntity
  8
0
 62
     2
100
AcDbCircle
 10
523.4530471498345
 20
335.9242491012394
 30
0.0
 40
4.0
100
AcDbArc
 50
243.1766780115125
 51
207.2690695815635
  0
LINE
  5
1E8B
330
1E
100
AcDbEntity
  8
CENTER
  6
CENTER
100
AcDbLine
 10
517.4530471498346
 20
324.1742491012394
 30
0.0
 11
529.4530471498346
 21
324.1742491012394
 31
0.0
  0
LINE
  5
1E8C
330
1E
100
AcDbEntity
  8
CENTER
  6
CENTER
100
AcDbLine
 10
492.2030471498346
 20
335.1742491012394
 30
0.0
 11
508.2030471498346
 21
335.1742491012395
 31
0.0
  0
POLYLINE
  5
1E8D
330
1E
100
AcDbEntity
  8
0
100
AcDb2dPolyline
 66
     1
 10
0.0
 20
0.0
 30
0.0
 70
     1
  0
VERTEX
  5
3119
330
1E8D
100
AcDbEntity
  8
0
100
AcDbVertex
100
AcDb2dVertex
 10
498.7596714768605
 20
337.6742491012395
 30
0.0
  0
VERTEX
  5
311A
330
1E8D
100
AcDbEntity
  8
0
100
AcDbVertex
100
AcDb2dVertex
 10
497.3162958038865
 20
335.1742491012395
 30
0.0
  0
VERTEX
  5
311B
330
1E8D
100
AcDbEntity
  8
0
100
AcDbVertex
100
AcDb2dVertex
 10
498.7596714768605
 20
332.6742491012395
 30
0.0
  0
VERTEX
  5
311C
330
1E8D
100
AcDbEntity
  8
0
100
AcDbVertex
100
AcDb2dVertex
 10
501.6464228228087
 20
332.6742491012395
 30
0.0
  0
VERTEX
  5
311D
330
1E8D
100
AcDbEntity
  8
0
100
AcDbVertex
100
AcDb2dVertex
 10
503.0897984957828
 20
335.1742491012395
 30
0.0
  0
VERTEX
  5
311E
330
1E8D
100
AcDbEntity
  8
0
100
AcDbVertex
100
AcDb2dVertex
 10
501.6464228228087
 20
337.6742491012395
 30
0.0
  0
SEQEND
  5
311F
330
1E8D
100
AcDbEntity
  8
0
  0
CIRCLE
  5
1E8E
330
1E
100
AcDbEntity
  8
0
100
AcDbCircle
 10
500.2030471498346
 20
335.1742491012395
 30
0.0
 40
4.53810623556582
  0
CIRCLE
  5
1E8F
330
1E
100
AcDbEntity
  8
0
100
AcDbCircle
 10
500.2030471498346
 20
335.1742491012395
 30
0.0
 40
5.0
  0
LINE
  5
1E90
330
1E
100
AcDbEntity
  8
DIM
100
AcDbLine
 10
531.4530471498345
 20
335.9242491012394
 30
0.0
 11
552.2030471498344
 21
335.9242491012394
 31
0.0
  0
LINE
  5
1E91
330
1E
100
AcDbEntity
  8
DIM
100
AcDbLine
 10
530.4530471498345
 20
324.1742491012394
 30
0.0
 11
544.2030471498346
 21
324.1742491012394
 31
0.0
  0
SOLID
  5
1E92
330
1E
100
AcDbEntity
  8
DIM
100
AcDbTrace
 10
527.228399654299
 20
341.8647502074986
 30
0.0
 11
526.3206160237591
 21
342.2841889755255
 31
0.0
 12
525.5161915349481
 22
339.3511186998927
 32
0.0
 13
525.5161915349481
 23
339.3511186998927
 33
0.0
  0
SOLID
  5
1E93
330
1E
100
AcDbEntity
  8
DIM
100
AcDbTrace
 10
550.7030471498344
 20
332.9242491012394
 30
0.0
 11
551.7030471498344
 21
332.9242491012394
 31
0.0
 12
551.2030471498344
 22
335.9242491012394
 32
0.0
 13
551.2030471498344
 23
335.9242491012394
 33
0.0
  0
LINE
  5
1E94
330
1E
100
AcDbEntity
  8
0
  6
CONTINUOUS
100
AcDbLine
 10
465.2030471498347
 20
402.6742491012395
 30
0.0
 11
535.2030471498347
 21
402.6742491012396
 31
0.0
  0
LINE
  5
1E95
330
1E
100
AcDbEntity
  8
0
100
AcDbLine
 10
467.7030471498347
 20
380.1742491012395
 30
0.0
 11
532.7030471498345
 21
380.1742491012395
 31
0.0
  0
LINE
  5
1E96
330
1E
100
AcDbEntity
  8
DIM
100
AcDbLine
 10
472.9706331740043
 20
371.8460199198311
 30
0.0
 11
453.9466177154813
 21
413.2508281503254
 31
0.0
  0
LINE
  5
1E97
330
1E
100
AcDbEntity
  8
DIM
100
AcDbLine
 10
450.6905799269272
 20
373.7796478846551
 30
0.0
 11
427.5655799269272
 21
373.7796478846551
 31
0.0
  0
TEXT
  5
1E98
330
1E
100
AcDbEntity
  8
DIM
100
AcDbText
 10
429.2622177459803
 20
408.6467523024296
 30
0.0
 40
3.0
  1
%%c14x8.5dp
  7
ROMANSS
 72
     2
 11
451.1193606031231
 21
410.1467523024296
 31
0.0
100
AcDbText
 73
     2
  0
LINE
  5
1E99
330
1E
100
AcDbEntity
  8
DIM
100
AcDbLine
 10
453.9466177154813
 20
413.2508281503254
 30
0.0
 11
430.021189509681
 21
413.2508281503254
 31
0.0
  0
CIRCLE
  5
1E9A
330
1E
100
AcDbEntity
  8
0
  6
CONTINUOUS
100
AcDbCircle
 10
476.9530471498348
 20
392.6742491012395
 30
0.0
 40
4.5
  0
SOLID
  5
1E9B
330
1E
100
AcDbEntity
  8
DIM
100
AcDbTrace
 10
473.4249708273071
 20
372.0547716786052
 30
0.0
 11
472.5162955207015
 21
371.6372681610569
 31
0.0
 12
474.2231437266492
 22
369.1199940000142
 32
0.0
 13
474.2231437266492
 23
369.1199940000142
 33
0.0
  0
LINE
  5
1E9C
330
1E
100
AcDbEntity
  8
CENTER
  6
CENTER
100
AcDbLine
 10
468.4530471498347
 20
392.6742491012395
 30
0.0
 11
485.4530471498348
 21
392.6742491012395
 31
0.0
  0
TEXT
  5
1E9D
330
1E
100
AcDbEntity
  8
DIM
100
AcDbText
 10
434.9968624751228
 20
414.7508281503253
 30
0.0
 40
3.0
  1
4-%%c9
  7
ROMANSS
 72
     2
 11
446.1397196179799
 21
416.2508281503254
 31
0.0
100
AcDbText
 73
     2
  0
LINE
  5
1E9E
330
1E
100
AcDbEntity
  8
CENTER
  6
CENTER
100
AcDbLine
 10
514.9530471498349
 20
392.6742491012396
 30
0.0
 11
531.9530471498349
 21
392.6742491012396
 31
0.0
  0
CIRCLE
  5
1E9F
330
1E
100
AcDbEntity
  8
0
  6
CONTINUOUS
100
AcDbCircle
 10
523.4530471498349
 20
392.6742491012396
 30
0.0
 40
4.5
  0
LINE
  5
1EA0
330
1E
100
AcDbEntity
  8
DIM
100
AcDbLine
 10
514.2487491546412
 20
413.0367662957806
 30
0.0
 11
499.6654927912021
 21
413.0367662957806
 31
0.0
  0
LINE
  5
1EA1
330
1E
100
AcDbEntity
  8
DIM
100
AcDbLine
 10
520.4477790825531
 20
399.5448909375057
 30
0.0
 11
514.2487491546412
 21
413.0367662957806
 31
0.0
  0
SOLID
  5
1EA2
330
1E
100
AcDbEntity
  8
DIM
100
AcDbTrace
 10
520.9021167358559
 20
399.7536426962797
 30
0.0
 11
519.9934414292504
 21
399.3361391787315
 31
0.0
 12
521.7002896351981
 22
396.8188650176888
 32
0.0
 13
521.7002896351981
 23
396.8188650176888
 33
0.0
  0
TEXT
  5
1EA3
330
1E
100
AcDbEntity
  8
DIM
100
AcDbText
 10
500.1941787013489
 20
414.5367662957806
 30
0.0
 40
3.0
  1
4-%%c9
  7
ROMANSS
 72
     2
 11
511.337035844206
 21
416.0367662957806
 31
0.0
100
AcDbText
 73
     2
  0
LINE
  5
1EA4
330
1E
100
AcDbEntity
  8
0
100
AcDbLine
 10
345.0281357177033
 20
462.150000119634
 30
0.0
 11
375.0281357177034
 21
462.150000119634
 31
0.0
  0
LINE
  5
1EA5
330
1E
100
AcDbEntity
  8
0
100
AcDbLine
 10
359.0281357177033
 20
484.650000119634
 30
0.0
 11
360.0281357177033
 21
484.650000119634
 31
0.0
  0
LINE
  5
1EA6
330
1E
100
AcDbEntity
  8
0
100
AcDbLine
 10
345.0281357177033
 20
482.1500001196341
 30
0.0
 11
375.0281357177034
 21
482.150000119634
 31
0.0
  0
LINE
  5
1EA7
330
1E
100
AcDbEntity
  8
0
  6
CONTINUOUS
100
AcDbLine
 10
321.0281357177033
 20
488.1500001196341
 30
0.0
 11
345.0281357177033
 21
488.1500001196341
 31
0.0
  0
LINE
  5
1EA8
330
1E
100
AcDbEntity
  8
HIDDEN
  6
HIDDEN
100
AcDbLine
 10
301.0281357177033
 20
490.9000001196341
 30
0.0
 11
321.0281357177033
 21
490.9000001196341
 31
0.0
  0
LINE
  5
1EA9
330
1E
100
AcDbEntity
  8
HIDDEN
  6
HIDDEN
100
AcDbLine
 10
301.0281357177033
 20
499.9000001196341
 30
0.0
 11
321.0281357177033
 21
499.9000001196341
 31
0.0
  0
LINE
  5
1EAA
330
1E
100
AcDbEntity
  8
0
100
AcDbLine
 10
301.0281357177033
 20
507.1500001196341
 30
0.0
 11
321.0281357177033
 21
507.1500001196341
 31
0.0
  0
LINE
  5
1EAB
330
1E
100
AcDbEntity
  8
0
  6
CONTINUOUS
100
AcDbLine
 10
321.0281357177033
 20
491.1500001196341
 30
0.0
 11
325.0281357177033
 21
491.1500001196341
 31
0.0
  0
LINE
  5
1EAC
330
1E
100
AcDbEntity
  8
0
  6
CONTINUOUS
100
AcDbLine
 10
325.0281357177033
 20
491.1500001196341
 30
0.0
 11
326.0281357177033
 21
490.150000119634
 31
0.0
  0
LINE
  5
1EAD
330
1E
100
AcDbEntity
  8
0
100
AcDbLine
 10
325.0281357177032
 20
491.1500001196341
 30
0.0
 11
325.0281357177032
 21
488.1500001196341
 31
0.0
  0
LINE
  5
1EAE
330
1E
100
AcDbEntity
  8
0
100
AcDbLine
 10
326.0281357177033
 20
490.150000119634
 30
0.0
 11
326.0281357177033
 21
488.1500001196341
 31
0.0
  0
ARC
  5
1EAF
330
1E
100
AcDbEntity
  8
0
  6
CONTINUOUS
100
AcDbCircle
 10
337.7122287409571
 20
478.1500001196341
 30
0.0
 40
12.47724186909332
100
AcDbArc
 50
18.69822648619718
 51
28.74259832689224
  0
LINE
  5
1EB0
330
1E
100
AcDbEntity
  8
0
100
AcDbLine
 10
359.0281357177033
 20
484.650000119634
 30
0.0
 11
357.0281357177033
 21
482.6500001196341
 31
0.0
  0
LINE
  5
1EB1
330
1E
100
AcDbEntity
  8
0
100
AcDbLine
 10
350.0281357177033
 20
461.650000119634
 30
0.0
 11
357.0281357177033
 21
461.650000119634
 31
0.0
  0
LINE
  5
1EB2
330
1E
100
AcDbEntity
  8
0
  6
CONTINUOUS
100
AcDbLine
 10
350.0281357177033
 20
462.150000119634
 30
0.0
 11
350.0281357177033
 21
461.650000119634
 31
0.0
  0
LINE
  5
1EB3
330
1E
100
AcDbEntity
  8
0
100
AcDbLine
 10
350.0281357177033
 20
482.6500001196341
 30
0.0
 11
357.0281357177033
 21
482.6500001196341
 31
0.0
  0
LINE
  5
1EB4
330
1E
100
AcDbEntity
  8
0
  6
CONTINUOUS
100
AcDbLine
 10
350.0281357177033
 20
482.6500001196341
 30
0.0
 11
350.0281357177033
 21
482.1500001196341
 31
0.0
  0
LINE
  5
1EB5
330
1E
100
AcDbEntity
  8
0
  6
CONTINUOUS
100
AcDbLine
 10
348.6521357177031
 20
484.150000119634
 30
0.0
 11
345.0281357177033
 21
484.1500001196341
 31
0.0
  0
LINE
  5
1EB6
330
1E
100
AcDbEntity
  8
HIDDEN
  6
HIDDEN
100
AcDbLine
 10
395.0281357177033
 20
499.900000119634
 30
0.0
 11
383.5281357177033
 21
499.9000001196338
 31
0.0
  0
LINE
  5
1EB7
330
1E
100
AcDbEntity
  8
HIDDEN
  6
HIDDEN
100
AcDbLine
 10
395.0281357177033
 20
490.9000001196341
 30
0.0
 11
383.5281357177033
 21
490.9000001196341
 31
0.0
  0
LINE
  5
1EB8
330
1E
100
AcDbEntity
  8
CENTER
  6
CENTER
100
AcDbLine
 10
372.6216532174076
 20
495.4000001196338
 30
0.0
 11
397.7944047031582
 21
495.4000001196338
 31
0.0
  0
LINE
  5
1EB9
330
1E
100
AcDbEntity
  8
0
100
AcDbLine
 10
375.0281357177034
 20
504.6500001196341
 30
0.0
 11
395.0281357177033
 21
504.6500001196341
 31
0.0
  0
LINE
  5
1EBA
330
1E
100
AcDbEntity
  8
0
100
AcDbLine
 10
360.0281357177033
 20
499.1500001196341
 30
0.0
 11
360.0281357177033
 21
482.1500001196341
 31
0.0
  0
LINE
  5
1EBB
330
1E
100
AcDbEntity
  8
HIDDEN
  6
HIDDEN
100
AcDbLine
 10
383.5281357177033
 20
488.4000001196341
 30
0.0
 11
375.0281357177033
 21
488.4000001196341
 31
0.0
  0
LINE
  5
1EBC
330
1E
100
AcDbEntity
  8
HIDDEN
  6
HIDDEN
100
AcDbLine
 10
383.5281357177033
 20
502.4000001196339
 30
0.0
 11
375.0281357177033
 21
502.4000001196339
 31
0.0
  0
LINE
  5
1EBD
330
1E
100
AcDbEntity
  8
0
100
AcDbLine
 10
360.0281357177033
 20
499.150000119634
 30
0.0
 11
375.0281357177033
 21
499.150000119634
 31
0.0
  0
LINE
  5
1EBE
330
1E
100
AcDbEntity
  8
HIDDEN
  6
HIDDEN
100
AcDbLine
 10
383.5281357177033
 20
502.4000001196339
 30
0.0
 11
383.5281357177033
 21
488.400000119634
 31
0.0
  0
TEXT
  5
1EBF
330
1E
100
AcDbEntity
  8
DIM
100
AcDbText
 10
573.7030471498346
 20
309.1028205298109
 30
0.0
 40
3.0
  1
160
 50
90.0
  7
ROMANSS
 72
     1
 11
572.2030471498347
 21
312.6742491012395
 31
0.0
100
AcDbText
 73
     2
  0
TEXT
  5
1EC0
330
1E
100
AcDbEntity
  8
DIM
100
AcDbText
 10
565.7030471498346
 20
309.1028205298109
 30
0.0
 40
3.0
  1
135
 50
90.0
  7
ROMANSS
 72
     1
 11
564.2030471498347
 21
312.6742491012395
 31
0.0
100
AcDbText
 73
     2
  0
TEXT
  5
1EC1
330
1E
100
AcDbEntity
  8
DIM
100
AcDbText
 10
581.7030471498346
 20
309.1028205298109
 30
0.0
 40
3.0
  1
180
 50
90.0
  7
ROMANSS
 72
     1
 11
580.2030471498347
 21
312.6742491012395
 31
0.0
100
AcDbText
 73
     2
  0
SOLID
  5
1EC2
330
1E
100
AcDbEntity
  8
DIM
100
AcDbTrace
 10
558.7030471498346
 20
359.6742491012394
 30
0.0
 11
559.7030471498347
 21
359.6742491012394
 31
0.0
 12
559.2030471498346
 22
362.6742491012393
 32
0.0
 13
559.2030471498346
 23
362.6742491012393
 33
0.0
  0
TEXT
  5
1EC3
330
1E
100
AcDbEntity
  8
DIM
100
AcDbText
 10
560.0739065081743
 20
414.4522624455355
 30
0.0
 40
3.0
  1
4-M8x14L
  7
ROMANSS
 11
560.0739065081743
 21
415.9522624455354
 31
0.0
100
AcDbText
 73
     2
  0
SOLID
  5
1EC4
330
1E
100
AcDbEntity
  8
DIM
100
AcDbTrace
 10
574.7030471498346
 20
389.6742491012396
 30
0.0
 11
575.7030471498346
 21
389.6742491012396
 31
0.0
 12
575.2030471498346
 22
392.6742491012396
 32
0.0
 13
575.2030471498346
 23
392.6742491012396
 33
0.0
  0
SOLID
  5
1EC5
330
1E
100
AcDbEntity
  8
DIM
100
AcDbTrace
 10
566.7030471498346
 20
377.1742491012395
 30
0.0
 11
567.7030471498347
 21
377.1742491012395
 31
0.0
 12
567.2030471498346
 22
380.1742491012395
 32
0.0
 13
567.2030471498346
 23
380.1742491012395
 33
0.0
  0
LINE
  5
1EC6
330
1E
100
AcDbEntity
  8
DIM
100
AcDbLine
 10
559.5233844600869
 20
412.9522624455354
 30
0.0
 11
580.9441964536533
 21
412.9522624455354
 31
0.0
  0
SOLID
  5
1EC7
330
1E
100
AcDbEntity
  8
DIM
100
AcDbTrace
 10
582.7030471498346
 20
399.6742491012395
 30
0.0
 11
583.7030471498346
 21
399.6742491012395
 31
0.0
 12
583.2030471498346
 22
402.6742491012395
 32
0.0
 13
583.2030471498346
 23
402.6742491012395
 33
0.0
  0
TEXT
  5
1EC8
330
1E
100
AcDbEntity
  8
LOGO
  6
CONTINUOUS
 62
     7
100
AcDbText
 10
422.0870188205511
 20
51.33637112939895
 30
0.0
 40
17.73127753303964
  1
MGTX
  7
CHINESET
 72
     1
 11
454.5943609644571
 21
60.20200989591877
 31
0.0
100
AcDbText
 73
     2
  0
TEXT
  5
27F4
330
1E
100
AcDbEntity
  8
LOGO
  6
CONTINUOUS
 62
     7
100
AcDbText
 10
624.9002905976338
 20
448.4007508820798
 30
0.0
 40
17.73127753303964
  1
RP 配件
  7
CHINESET
 72
     1
 11
668.1994370734047
 21
457.2663896485996
 31
0.0
100
AcDbText
 73
     2
  0
LINE
  5
3189
330
1E
100
AcDbEntity
  8
AM_VIS
100
AcDbLine
 10
225.0281357177033
 20
303.5242491012395
 30
0.0
 11
271.0281357177033
 21
303.5242491012395
 31
0.0
  0
LINE
  5
318A
330
1E
100
AcDbEntity
  8
AM_VIS
100
AcDbLine
 10
271.0281357177033
 20
298.2242491012394
 30
0.0
 11
225.0281357177033
 21
298.2242491012395
 31
0.0
  0
ENDSEC
  0
SECTION
  2
OBJECTS
  0
DICTIONARY
  5
C
330
0
100
AcDbDictionary
  3
ACAD_GROUP
350
D
  3
ACAD_LAYOUT
350
19
  3
ACAD_MLINESTYLE
350
16
  3
ACAD_PLOTSETTINGS
350
18
  3
ACMDICTIONARY
350
3143
  3
AMG
350
3129
  3
AMGSNAPSETTINGS
350
3177
  3
DWGPROPS
350
31AA
1001
ACAD
1000
TREAT_AS_HARD
1070
     0
  0
DICTIONARY
  5
2C74
330
1E
100
AcDbDictionary
  3
ACAD_INDEX
350
318C
  3
ACAD_LAYOUTSELFREF
350
31FA
1001
ACAD
1000
TREAT_AS_HARD
1070
     1
  0
DICTIONARY
  5
2C76
330
1A
100
AcDbDictionary
  3
ACAD_LAYOUTSELFREF
350
31F9
1001
ACAD
1000
TREAT_AS_HARD
1070
     1
  0
DICTIONARY
  5
D
102
{ACAD_REACTORS
330
C
102
}
330
C
100
AcDbDictionary
1001
ACAD
1000
TREAT_AS_HARD
1070
     0
  0
DICTIONARY
  5
19
102
{ACAD_REACTORS
330
C
102
}
330
C
100
AcDbDictionary
1001
ACAD
1000
TREAT_AS_HARD
1070
     0
  0
DICTIONARY
  5
16
102
{ACAD_REACTORS
330
C
102
}
330
C
100
AcDbDictionary
  3
STANDARD
350
17
1001
ACAD
1000
TREAT_AS_HARD
1070
     0
  0
DICTIONARY
  5
18
102
{ACAD_REACTORS
330
C
102
}
330
C
100
AcDbDictionary
1001
ACAD
1000
TREAT_AS_HARD
1070
     0
  0
DICTIONARY
  5
3143
102
{ACAD_REACTORS
330
C
102
}
330
C
100
AcDbDictionary
  3
ACMSTDDICTIONARY
350
3149
1001
ACAD
1000
TREAT_AS_HARD
1070
     0
  0
DICTIONARY
  5
3129
102
{ACAD_REACTORS
330
C
102
}
330
C
100
AcDbDictionary
  3
ACMGSETTINGS
350
312A
1001
ACAD
1000
TREAT_AS_HARD
1070
     0
  0
DICTIONARY
  5
3177
102
{ACAD_REACTORS
330
C
102
}
330
C
100
AcDbDictionary
1001
ACAD
1000
TREAT_AS_HARD
1070
     0
  0
XRECORD
  5
31AA
102
{ACAD_REACTORS
330
C
102
}
330
C
100
AcDbXrecord
  1
DWGPROPS COOKIE
  2

  3

  4

  6

  7

  8

  9

300
AmdtFileType=84
301
=
302
=
303
=
304
=
305
=
306
=
307
=
308
=
309
=
 40
0.1013378587962963
 41
2450580.703446064
 42
2453335.474532395
  1

 90
        1
  0
DICTIONARY
  5
318C
102
{ACAD_REACTORS
330
2C74
102
}
330
2C74
100
AcDbDictionary
  3
*A1
350
318D
1001
ACAD
1000
TREAT_AS_HARD
1070
     0
  0
XRECORD
  5
31FA
102
{ACAD_REACTORS
330
2C74
102
}
330
2C74
100
AcDbXrecord
340
1E
  0
XRECORD
  5
31F9
102
{ACAD_REACTORS
330
2C76
102
}
330
2C76
100
AcDbXrecord
340
1A
  0
MLINESTYLE
  5
17
102
{ACAD_REACTORS
330
16
102
}
330
16
100
AcDbMlineStyle
  2
STANDARD
 70
     0
  3

 62
   256
 51
90.0
 52
90.0
 71
     2
 49
0.5
 62
   256
  6
BYLAYER
 49
-0.5
 62
   256
  6
BYLAYER
  0
DICTIONARY
  5
3149
102
{ACAD_REACTORS
330
3143
102
}
330
3143
100
AcDbDictionary
1001
ACAD
1000
TREAT_AS_HARD
1070
     0
  0
DICTIONARY
  5
312A
102
{ACAD_REACTORS
330
3129
102
}
330
3129
100
AcDbDictionary
  3
DWGSETTINGS
350
312B
1001
ACAD
1000
TREAT_AS_HARD
1070
     0
  0
LAYER_INDEX
  5
318D
102
{ACAD_REACTORS
330
318C
102
}
330
318C
100
AcDbIndex
 40
2453335.496234421
100
AcDbLayerIndex
  8
0
360
318E
 90
      564
  8
HIDDEN
360
318F
 90
      115
  8
DIM
360
3190
 90
      163
  8
CENTER
360
3191
 90
      100
  8
LOGO
360
3192
 90
      114
  8
AM_VIS
360
3193
 90
        2
  0
XRECORD
  5
312B
102
{ACAD_REACTORS
330
312A
102
}
330
312A
100
AcDbXrecord
  1
VERSION
140
15.0
  1
PRODUCT
  2
AutoCAD Mechanical 2000
  0
IDBUFFER
  5
318E
330
0
100
AcDbIdBuffer
330
1E1D
330
1E1F
330
1E2A
330
1E37
330
1E3C
330
1E3D
330
1E3F
330
1E43
330
1E44
330
1E45
330
1E48
330
1E49
330
1E4A
330
1E4B
330
1E4C
330
1E4D
330
1E55
330
1E58
330
1E59
330
1E5B
330
1E5C
330
1E5D
330
1E63
330
1E64
330
1E65
330
1E66
330
1E6A
330
1E6B
330
1E6F
330
1E71
330
1E74
330
1E75
330
1E77
330
1E79
330
1E7A
330
1E7B
330
1E7C
330
1E7D
330
1E7E
330
1E87
330
1E89
330
1E8A
330
1E8D
330
1E8E
330
1E8F
330
1E94
330
1E95
330
1E9A
330
1E9F
330
1EA4
330
1EA5
330
1EA6
330
1EA7
330
1EAA
330
1EAB
330
1EAC
330
1EAD
330
1EAE
330
1EAF
330
1EB0
330
1EB1
330
1EB2
330
1EB3
330
1EB4
330
1EB5
330
1EB9
330
1EBA
330
1EBD
330
B2E
330
B2F
330
B30
330
B32
330
F1C
330
F8C
330
F8D
330
F8F
330
F90
330
F93
330
F94
330
F97
330
F98
330
F9C
330
F9D
330
F9E
330
FA1
330
FA2
330
FA3
330
FA5
330
FA6
330
FA8
330
FA9
330
FAA
330
FAB
330
FAC
330
FAD
330
FAE
330
FAF
330
FB0
330
FB6
330
FB7
330
FB8
330
FB9
330
FBD
330
FC1
330
FC4
330
FC6
330
FCA
330
FCD
330
FCE
330
FCF
330
FD0
330
FD3
330
FD4
330
FD5
330
FD6
330
FD8
330
FDA
330
FDB
330
FDC
330
FDE
330
FDF
330
FE0
330
FE1
330
FE2
330
FEA
330
FEB
330
FEC
330
FED
330
FEE
330
FEF
330
FF0
330
1B85
330
1B86
330
1B87
330
1B88
330
1B8E
330
1B8F
330
1B90
330
1B91
330
1B93
330
1B94
330
1B95
330
1B96
330
1B97
330
1B98
330
1B9A
330
1BA4
330
1BA6
330
1BA7
330
1BAA
330
1BAB
330
1BAC
330
1BAD
330
1BAE
330
1BAF
330
1BB0
330
1BB3
330
1BB5
330
1BB6
330
1BB7
330
1BB9
330
1BBB
330
1BBC
330
1BBD
330
1BBE
330
1BBF
330
1BC0
330
1BC1
330
1BC2
330
1BC3
330
1BC4
330
1BC5
330
1BC6
330
1BC7
330
1BC8
330
1BC9
330
1BCC
330
1BCD
330
1BD5
330
1BD6
330
1BD9
330
1BDA
330
1BDD
330
1BE5
330
1BE6
330
1BE9
330
1BEA
330
1BEB
330
1BF1
330
1BF2
330
1BF5
330
1BFA
330
1BFF
330
1C00
330
1C01
330
1C02
330
1C05
330
1C06
330
1C07
330
1C08
330
1C09
330
1C0B
330
1C0C
330
1C0D
330
1C0E
330
1C0F
330
1C10
330
1C12
330
1C13
330
1C15
330
1C16
330
1C17
330
1C18
330
1C19
330
1C1A
330
1C1B
330
1C1C
330
1C1D
330
1C1E
330
1C20
330
1C21
330
1C22
330
1C23
330
1C25
330
1C26
330
1C27
330
1C28
330
1C29
330
1C2A
330
1C2B
330
1C2C
330
1C2D
330
1C2E
330
1C2F
330
1C30
330
1C31
330
1C32
330
1C33
330
1C34
330
1C35
330
1C36
330
1C37
330
1C38
330
1C39
330
1C3A
330
1C3B
330
1C3C
330
1C3D
330
1C3E
330
1C3F
330
1C41
330
1C42
330
1C43
330
1C44
330
1C45
330
1C47
330
1C48
330
1C49
330
1C4A
330
1C4B
330
1C4C
330
1C4D
330
1C4E
330
1C4F
330
1C50
330
1C51
330
1C52
330
1C53
330
1C54
330
1C55
330
1C56
330
1C57
330
1C58
330
1C59
330
1C5A
330
1C5B
330
1C5C
330
1C5E
330
1C5F
330
1C60
330
1C61
330
1C62
330
1C63
330
1C64
330
1C65
330
1C66
330
1C67
330
1C68
330
1C69
330
1C6A
330
1C6B
330
1C6C
330
1C6D
330
1C6E
330
1C6F
330
1C70
330
1C71
330
1C72
330
1C73
330
1C76
330
1C77
330
1C78
330
1C79
330
1C7A
330
1C7B
330
1C7C
330
1C7D
330
1C7E
330
1C7F
330
1C80
330
1C81
330
1C82
330
1C83
330
1C84
330
1C85
330
1C86
330
1C88
330
1C89
330
1C8A
330
1C8B
330
1C8C
330
1C8D
330
1C8E
330
1C8F
330
1C90
330
1C91
330
1C92
330
1C93
330
1C94
330
1C95
330
1C96
330
1C97
330
1C98
330
1C9A
330
1C9B
330
1C9C
330
1C9D
330
1C9E
330
1C9F
330
1CA1
330
1CA2
330
1CA3
330
1CA4
330
1CA5
330
1CA6
330
1CA8
330
1CAC
330
1CAD
330
1CAE
330
1CAF
330
1CB0
330
1CB2
330
1CB4
330
1CB5
330
1CB6
330
1CB7
330
1CB8
330
1CB9
330
1CBA
330
1CBC
330
1CBD
330
1CBE
330
1CBF
330
1CC3
330
1CC5
330
1CC6
330
1CCE
330
1CCF
330
1CD0
330
1CD1
330
1CD2
330
1CD6
330
1CD7
330
1CD8
330
1CD9
330
1CDA
330
1CDB
330
1CDC
330
1CDD
330
1CE0
330
1CE1
330
1CE2
330
1CE9
330
1CEB
330
1CEC
330
1CED
330
1CEE
330
1CEF
330
1CF0
330
1CF1
330
1CF3
330
1CF4
330
1CF5
330
1CF6
330
1CF7
330
1CF8
330
1CF9
330
1CFB
330
1CFC
330
1CFD
330
1CFE
330
1CFF
330
1D00
330
1D01
330
1D02
330
1D03
330
1D04
330
1D06
330
1D07
330
1D08
330
1D09
330
1D0B
330
1D0C
330
1D0D
330
1D0E
330
1D0F
330
1D10
330
1D11
330
1D12
330
1D13
330
1D14
330
1D16
330
1D18
330
1D1B
330
1D1C
330
1D1D
330
1D29
330
1D2A
330
1D2B
330
1D2C
330
1D2D
330
1D30
330
1D31
330
1D32
330
1D33
330
1D34
330
1D35
330
1D36
330
1D3E
330
1D41
330
1D42
330
1D44
330
1D45
330
1D46
330
1D4B
330
1D4C
330
1D4D
330
1D50
330
1D55
330
1D56
330
1D57
330
1D58
330
1D59
330
1D5A
330
1D5B
330
1D5C
330
1D5D
330
1D60
330
1D61
330
1D62
330
1D63
330
1D64
330
1D65
330
1D66
330
1D67
330
1D68
330
1D69
330
1D6A
330
1D6B
330
1D6C
330
1D6F
330
1D70
330
1D71
330
1D72
330
1D73
330
1D74
330
1D75
330
1D76
330
1D77
330
1D7B
330
1D7F
330
1D80
330
1D81
330
1D82
330
1D86
330
1D88
330
1D8B
330
1D8D
330
1D8E
330
1D93
330
1D9B
330
1DA9
330
1DB0
330
1DB5
330
1DB6
330
1DC0
330
1DC1
330
1DCE
330
1DCF
330
1DD0
330
1DD1
330
1DDC
330
1DDD
330
1DDE
330
1DDF
330
1DE0
330
1DE1
330
1DE2
330
1DE3
330
1DE6
330
1DE7
330
1DE8
330
1DE9
330
1DEA
330
1DEB
330
1DEC
330
1DED
330
1DEE
330
1DEF
330
1DF0
330
1DF1
330
1DF2
330
1DF3
330
1DF4
330
1DF5
330
1DF6
330
1DF7
330
1DF8
330
1DF9
330
1DFA
330
1DFB
330
1DFC
330
1DFD
330
1DFE
330
1DFF
330
1E00
330
1E01
330
1E02
330
1E03
330
1E04
330
1E05
330
1E06
330
1E07
330
1E08
330
1E09
330
1E0A
330
1E0B
330
1E0C
330
1E0D
330
1E0E
330
1E0F
330
1E10
330
1E11
330
1E12
330
1E13
330
1E14
330
1E15
330
1E16
330
1E17
330
1E18
330
1E19
330
1E1A
330
1E1B
330
1E1C
  0
IDBUFFER
  5
318F
330
0
100
AcDbIdBuffer
330
1EBB
330
1EBC
330
1EBE
330
FBA
330
1BCA
330
1BCB
330
1BCE
330
1BCF
330
1BD0
330
1BD1
330
1BD2
330
1BD3
330
1BD4
330
1BD7
330
1BD8
330
1BDE
330
1BDF
330
1BE0
330
1BE1
330
1BE2
330
1BE3
330
1BE4
330
1CC1
330
1CC2
330
1CC7
330
1CC8
330
1CC9
330
1CCA
330
1CCB
330
1CCC
330
1CCD
330
1CDE
330
1CDF
330
1CE3
330
1CE4
330
1CE5
330
1CE6
330
1CE7
330
1CE8
330
1CF2
330
1D19
330
1D1A
330
1D20
330
1D21
330
1D22
330
1D23
330
1D24
330
1D25
330
1D26
330
1D2E
330
1D2F
330
1D37
330
1D38
330
1D39
330
1D3A
330
1D3B
330
1D3C
330
1D3D
330
1D5E
330
1D5F
330
1D6D
330
1D6E
330
1D78
330
1D79
330
1D7C
330
1D7D
330
1D7E
330
1D83
330
1D84
330
1D87
330
1D89
330
1D8A
330
1D91
330
1D9C
330
1DA6
330
1DA7
330
1DAA
330
1DAB
330
1DAC
330
1DBF
330
1DCD
330
1DE5
330
1E1E
330
1E20
330
1E21
330
1E22
330
1E23
330
1E24
330
1E25
330
1E28
330
1E29
330
1E2D
330
1E2E
330
1E2F
330
1E30
330
1E31
330
1E32
330
1E33
330
1E38
330
1E40
330
1E41
330
1E46
330
1E47
330
1E4E
330
1E52
330
1E53
330
1E56
330
1E57
330
1E5A
330
1E5F
330
1E60
330
1EA8
330
1EA9
330
1EB6
330
1EB7
  0
IDBUFFER
  5
3190
330
0
100
AcDbIdBuffer
330
1DD5
330
1DD6
330
1DD7
330
1DD8
330
1DD9
330
1DDA
330
1DDB
330
1DE4
330
1E2B
330
1E2C
330
1E39
330
1E3A
330
1E3B
330
1E3E
330
1E4F
330
1E50
330
1E51
330
1E5E
330
1E69
330
1E70
330
1E72
330
1E7F
330
1E80
330
1E81
330
1E82
330
1E83
330
1E84
330
1E85
330
1E90
330
1E91
330
1E92
330
1E93
330
1E96
330
1E97
330
1E98
330
1E99
330
1E9B
330
1E9D
330
1EA0
330
1EA1
330
1EA2
330
1EA3
330
1EBF
330
1EC0
330
1EC1
330
1EC2
330
1EC3
330
1EC4
330
1EC5
330
1EC6
330
1EC7
330
F8A
330
F8B
330
F91
330
F95
330
F96
330
F99
330
F9A
330
F9B
330
FB2
330
FB3
330
FB4
330
FB5
330
FBB
330
FBC
330
FBE
330
FBF
330
FC0
330
FC2
330
FC3
330
FC5
330
FC7
330
FC8
330
FC9
330
FCB
330
FCC
330
FE3
330
FE4
330
FE5
330
FE6
330
FE7
330
FE8
330
FE9
330
1B92
330
1B9B
330
1B9C
330
1BA3
330
1BA8
330
1BEC
330
1BED
330
1BEE
330
1BEF
330
1BF0
330
1BF3
330
1BF4
330
1BF6
330
1BF7
330
1BF8
330
1BF9
330
1BFB
330
1BFC
330
1BFD
330
1BFE
330
1C03
330
1C04
330
1CC0
330
1CC4
330
1CD5
330
1D15
330
1D17
330
1D3F
330
1D40
330
1D43
330
1D47
330
1D48
330
1D4F
330
1D51
330
1D52
330
1D53
330
1D54
330
1D8C
330
1D8F
330
1D90
330
1D92
330
1D94
330
1D95
330
1D96
330
1D97
330
1D98
330
1D99
330
1D9A
330
1D9E
330
1D9F
330
1DA0
330
1DA1
330
1DA2
330
1DA3
330
1DA4
330
1DA5
330
1DAD
330
1DAE
330
1DAF
330
1DB2
330
1DB3
330
1DB4
330
1DB7
330
1DB8
330
1DB9
330
1DBA
330
1DBB
330
1DBC
330
1DC2
330
1DC3
330
1DC4
330
1DC5
330
1DC6
330
1DC7
330
1DC8
330
1DC9
330
1DCA
330
1DD2
330
1DD3
330
1DD4
  0
IDBUFFER
  5
3191
330
0
100
AcDbIdBuffer
330
1CA0
330
1CA7
330
1CA9
330
1CAA
330
1CAB
330
1CBB
330
1CD3
330
1CD4
330
1CEA
330
1CFA
330
1D05
330
1D0A
330
1D1E
330
1D1F
330
1D27
330
1D28
330
1D49
330
1D4A
330
1D4E
330
1D7A
330
1D85
330
1D9D
330
1DA8
330
1DB1
330
1DBD
330
1DBE
330
1DCB
330
1DCC
330
1E26
330
1E27
330
1E34
330
1E35
330
1E36
330
1E42
330
1E54
330
1E61
330
1E62
330
1E67
330
1E68
330
1E6C
330
1E6D
330
1E6E
330
1E73
330
1E76
330
1E78
330
1E86
330
1E88
330
1E8B
330
1E8C
330
1E9C
330
1E9E
330
1EB8
330
F89
330
F8E
330
F92
330
F9F
330
FA0
330
FA4
330
FA7
330
FB1
330
FD1
330
FD2
330
FD7
330
FD9
330
FDD
330
1B89
330
1B8A
330
1B8B
330
1B8C
330
1B8D
330
1B99
330
1B9D
330
1B9E
330
1B9F
330
1BA0
330
1BA1
330
1BA2
330
1BA5
330
1BA9
330
1BB1
330
1BB2
330
1BB4
330
1BB8
330
1BBA
330
1BDB
330
1BDC
330
1BE7
330
1BE8
330
1C0A
330
1C11
330
1C14
330
1C1F
330
1C24
330
1C40
330
1C46
330
1C5D
330
1C74
330
1C75
330
1C87
330
1C99
  0
IDBUFFER
  5
3192
330
0
100
AcDbIdBuffer
330
1EC8
330
27F4
330
FF4
330
FF5
330
FF6
330
FF7
330
FF8
330
FF9
330
FFA
330
FFB
330
FFC
330
FFD
330
FFE
330
FFF
330
1000
330
1001
330
1002
330
1003
330
1004
330
1005
330
1006
330
1007
330
1008
330
1009
330
100A
330
100B
330
100C
330
100D
330
100E
330
100F
330
1010
330
1011
330
1012
330
1013
330
1014
330
1015
330
1016
330
1017
330
1018
330
1019
330
101A
330
101B
330
101C
330
101D
330
101E
330
101F
330
1020
330
1021
330
1022
330
1023
330
1024
330
1025
330
1026
330
1027
330
1028
330
1029
330
102A
330
102B
330
102C
330
102D
330
102E
330
102F
330
1030
330
1031
330
1032
330
1033
330
1034
330
1035
330
1036
330
1037
330
1038
330
1039
330
103A
330
103B
330
103C
330
103D
330
103E
330
103F
330
1040
330
1041
330
1042
330
1043
330
1044
330
1045
330
1046
330
1047
330
1048
330
1049
330
104A
330
104B
330
104C
330
104D
330
104E
330
104F
330
1050
330
1051
330
1052
330
1053
330
1054
330
1055
330
1056
330
1057
330
1058
330
1059
330
105A
330
105B
330
105C
330
105D
330
105E
330
105F
330
1060
330
1061
330
1062
330
1063
  0
IDBUFFER
  5
3193
330
0
100
AcDbIdBuffer
330
3189
330
318A
  0
ENDSEC
  0
EOF
