  0
SECTION
  2
HEADER
  9
$ACADVER
  1
AC1012
  9
$DWGCODEPAGE
  3
big5
  9
$INSBASE
 10
0.0
 20
0.0
 30
0.0
  9
$EXTMIN
 10
29.9670430062888
 20
-19.42384292068436
 30
-0.0000000000000058
  9
$EXTMAX
 10
835.026857418738
 20
553.0695111102054
 30
0.0000000000000104
  9
$LIMMIN
 10
0.0
 20
0.0
  9
$LIMMAX
 10
840.0
 20
594.0
  9
$ORTHOMODE
 70
     1
  9
$REGENMODE
 70
     1
  9
$FILLMODE
 70
     1
  9
$QTEXTMODE
 70
     0
  9
$MIRRTEXT
 70
     1
  9
$DRAGMODE
 70
     2
  9
$LTSCALE
 40
1.0
  9
$OSMODE
 70
    55
  9
$ATTMODE
 70
     1
  9
$TEXTSIZE
 40
3.0
  9
$TRACEWID
 40
0.05
  9
$TEXTSTYLE
  7
ITALICT
  9
$CLAYER
  8
0
  9
$CELTYPE
  6
CONTINUOUS
  9
$CECOLOR
 62
   256
  9
$CELTSCALE
 40
1.0
  9
$DELOBJ
 70
     1
  9
$DISPSILH
 70
     0
  9
$DIMSCALE
 40
1.0
  9
$DIMASZ
 40
3.0
  9
$DIMEXO
 40
1.0
  9
$DIMDLI
 40
1647129056757192
  9
$DIMRND
 40
0.0
  9
$DIMDLE
 40
0.0
  9
$DIMEXE
 40
1.0
  9
$DIMTP
 40
0.15
  9
$DIMTM
 40
-0.1
  9
$DIMTXT
 40
3.0
  9
$DIMCEN
 40
2.0
  9
$DIMTSZ
 40
0.0
  9
$DIMTOL
 70
     1
  9
$DIMLIM
 70
     0
  9
$DIMTIH
 70
     0
  9
$DIMTOH
 70
     0
  9
$DIMSE1
 70
     0
  9
$DIMSE2
 70
     0
  9
$DIMTAD
 70
     1
  9
$DIMZIN
 70
     0
  9
$DIMBLK
  1

  9
$DIMASO
 70
     0
  9
$DIMSHO
 70
     0
  9
$DIMPOST
  1

  9
$DIMAPOST
  1

  9
$DIMALT
 70
     0
  9
$DIMALTD
 70
     2
  9
$DIMALTF
 40
25.4
  9
$DIMLFAC
 40
1.0
  9
$DIMTOFL
 70
     1
  9
$DIMTVP
 40
1.0
  9
$DIMTIX
 70
     0
  9
$DIMSOXD
 70
     0
  9
$DIMSAH
 70
     0
  9
$DIMBLK1
  1

  9
$DIMBLK2
  1

  9
$DIMSTYLE
  2
STANDARD
  9
$DIMCLRD
 70
     0
  9
$DIMCLRE
 70
     0
  9
$DIMCLRT
 70
     0
  9
$DIMTFAC
 40
1.0
  9
$DIMGAP
 40
0.09
  9
$DIMJUST
 70
     0
  9
$DIMSD1
 70
     0
  9
$DIMSD2
 70
     0
  9
$DIMTOLJ
 70
     1
  9
$DIMTZIN
 70
     0
  9
$DIMALTZ
 70
     0
  9
$DIMALTTZ
 70
     0
  9
$DIMFIT
 70
     5
  9
$DIMUPT
 70
     0
  9
$DIMUNIT
 70
     2
  9
$DIMDEC
 70
     2
  9
$DIMTDEC
 70
     8
  9
$DIMALTU
 70
     2
  9
$DIMALTTD
 70
     2
  9
$DIMTXSTY
  7
STANDARD
  9
$DIMAUNIT
 70
     0
  9
$LUNITS
 70
     2
  9
$LUPREC
 70
     2
  9
$SKETCHINC
 40
0.1
  9
$FILLETRAD
 40
0.75
  9
$AUNITS
 70
     0
  9
$AUPREC
 70
     2
  9
$MENU
  1
ACAD
  9
$ELEVATION
 40
0.0
  9
$PELEVATION
 40
0.0
  9
$THICKNESS
 40
0.0
  9
$LIMCHECK
 70
     0
  9
$BLIPMODE
 70
     0
  9
$CHAMFERA
 40
1.0
  9
$CHAMFERB
 40
1.0
  9
$CHAMFERC
 40
0.0
  9
$CHAMFERD
 40
0.0
  9
$SKPOLY
 70
     1
  9
$TDCREATE
 40
2450580.703446064
  9
$TDUPDATE
 40
2453335.546059594
  9
$TDINDWG
 40
0.1778552199
  9
$TDUSRTIMER
 40
0.1778552199
  9
$USRTIMER
 70
     1
  9
$ANGBASE
 50
0.0
  9
$ANGDIR
 70
     0
  9
$PDMODE
 70
     0
  9
$PDSIZE
 40
0.0
  9
$PLINEWID
 40
0.0
  9
$COORDS
 70
     1
  9
$SPLFRAME
 70
     0
  9
$SPLINETYPE
 70
     6
  9
$SPLINESEGS
 70
     8
  9
$ATTDIA
 70
     1
  9
$ATTREQ
 70
     1
  9
$HANDLING
 70
 22529
  9
$HANDSEED
  5
43EF
  9
$SURFTAB1
 70
     6
  9
$SURFTAB2
 70
     6
  9
$SURFTYPE
 70
     6
  9
$SURFU
 70
     6
  9
$SURFV
 70
     6
  9
$UCSNAME
  2

  9
$UCSORG
 10
0.0
 20
0.0
 30
0.0
  9
$UCSXDIR
 10
1.0
 20
0.0
 30
0.0
  9
$UCSYDIR
 10
0.0
 20
1.0
 30
0.0
  9
$PUCSNAME
  2

  9
$PUCSORG
 10
0.0
 20
0.0
 30
0.0
  9
$PUCSXDIR
 10
1.0
 20
0.0
 30
0.0
  9
$PUCSYDIR
 10
0.0
 20
1.0
 30
0.0
  9
$USERI1
 70
     0
  9
$USERI2
 70
-31485
  9
$USERI3
 70
     0
  9
$USERI4
 70
     0
  9
$USERI5
 70
     0
  9
$USERR1
 40
0.0
  9
$USERR2
 40
0.0
  9
$USERR3
 40
0.0
  9
$USERR4
 40
0.0
  9
$USERR5
 40
0.0
  9
$WORLDVIEW
 70
     1
  9
$SHADEDGE
 70
     3
  9
$SHADEDIF
 70
    70
  9
$TILEMODE
 70
     1
  9
$MAXACTVP
 70
    48
  9
$PINSBASE
 10
0.0
 20
0.0
 30
0.0
  9
$PLIMCHECK
 70
     0
  9
$PEXTMIN
 10
1.000000000000000E+20
 20
1.000000000000000E+20
 30
1.000000000000000E+20
  9
$PEXTMAX
 10
-1.000000000000000E+20
 20
-1.000000000000000E+20
 30
-1.000000000000000E+20
  9
$PLIMMIN
 10
0.0
 20
0.0
  9
$PLIMMAX
 10
12.0
 20
9.0
  9
$UNITMODE
 70
     0
  9
$VISRETAIN
 70
     1
  9
$PLINEGEN
 70
     0
  9
$PSLTSCALE
 70
     0
  9
$TREEDEPTH
 70
  3020
  9
$PICKSTYLE
 70
     1
  9
$CMLSTYLE
  2
STANDARD
  9
$CMLJUST
 70
     0
  9
$CMLSCALE
 40
1.0
  9
$SAVEIMAGES
 70
     1
  0
ENDSEC
  0
SECTION
  2
CLASSES
  0
CLASS
  1
ACDBDICTIONARYWDFLT
  2
AcDbDictionaryWithDefault
  3
AutoCAD 2000
 90
    32768
280
     0
281
     0
  0
CLASS
  1
ACDBPLACEHOLDER
  2
AcDbPlaceHolder
  3
AutoCAD 2000
 90
    32768
280
     0
281
     0
  0
CLASS
  1
LAYOUT
  2
AcDbLayout
  3
AutoCAD 2000
 90
    32768
280
     0
281
     0
  0
CLASS
  1
LONG_TRANSACTION
  2
AcDbLongTransaction
  3
AutoCAD 2000
 90
    32768
280
     0
281
     0
  0
CLASS
  1
LWPOLYLINE
  2
AcDbPolyline
  3
AutoCAD 2000
 90
    32768
280
     0
281
     1
  0
CLASS
  1
HATCH
  2
AcDbHatch
  3
AutoCAD 2000
 90
    32768
280
     0
281
     1
  0
CLASS
  1
XRECORD
  2
AcDbXrecord
  3
AutoCAD 2000
 90
    32768
280
     0
281
     0
  0
CLASS
  1
ACME_DOCUMENT
  2
AcMeDbDoc
  3
AcMeServices
 90
    32768
280
     0
281
     0
  0
CLASS
  1
AMGSETTINGSOBJ
  2
AmgSettingsObj
  3
"AcadM|Product Description: AutoCAD Mechanical 2000|Company: Autodesk"
 90
    32768
280
     0
281
     0
  0
CLASS
  1
ACMESCOPE
  2
AcMeScope
  3
AcMeServices
 90
    32768
280
     0
281
     0
  0
CLASS
  1
ACMECOMMANDHISTORY
  2
AcMeCommandHistory
  3
AcMeServices
 90
    32768
280
     0
281
     0
  0
CLASS
  1
ACIMSYSVARMAN
  2
AcImSysVarManager
  3
AcMeServices
 90
    32768
280
     0
281
     0
  0
CLASS
  1
ACIMREALSYSVAR
  2
AcImRealSysVar
  3
AcMeServices
 90
    32768
280
     0
281
     0
  0
CLASS
  1
ACIMINTSYSVAR
  2
AcImIntSysVar
  3
AcMeServices
 90
    32768
280
     0
281
     0
  0
CLASS
  1
ACMEDRAWINGMAN
  2
AcMeDrawingMan
  3
AcMeServices
 90
    32768
280
     0
281
     0
  0
CLASS
  1
ACMEVIEW
  2
AcMeView
  3
AcMeServices
 90
    32768
280
     0
281
     0
  0
CLASS
  1
ACDBENTITYCACHE
  2
AcMeEntityCache
  3
AcMeServices
 90
    32768
280
     0
281
     0
  0
CLASS
  1
GSMANAGER
  2
AcMeGSManager
  3
AcMeServices
 90
    32768
280
     0
281
     0
  0
CLASS
  1
AMDTINTERNALREACTOR
  2
AmdtInternalReactor
  3
AcMeServices
 90
    32768
280
     0
281
     0
  0
CLASS
  1
ACMESTATEMGR
  2
AcMeStateMgr
  3
AcMeServices
 90
    32768
280
     0
281
     0
  0
CLASS
  1
ACGREFMASTER
  2
AcGrefMaster
  3
AcAttribServices
 90
    32768
280
     0
281
     0
  0
CLASS
  1
ACME_DATABASE
  2
AcMeDbDatabase
  3
AcMeServices
 90
    32768
280
     0
281
     0
  0
CLASS
  1
ACRFINSADJUSTERMGR
  2
AcRfInsAdjusterMgr
  3
AcMeServices
 90
    32768
280
     0
281
     0
  0
CLASS
  1
ACGREFACADMASTER
  2
AcGrefacadMaster
  3
AcGrefServices
 90
    32768
280
     0
281
     0
  0
CLASS
  1
AMIMASTER
  2
AmiMaster
  3
AmiServices
 90
    32768
280
     0
281
     0
  0
CLASS
  1
ACMDATADICTIONARY
  2
AcmDataDictionary
  3
"AcmSymBB|Product Description: AutoCAD Mechanical 2000|Company: Autodesk"
 90
    32768
280
     0
281
     0
  0
CLASS
  1
ACMDATAENTRYBLOCK
  2
AcmDataEntryBlock
  3
"AcmSymBB|Product Description: AutoCAD Mechanical 2000|Company: Autodesk"
 90
    32768
280
     0
281
     0
  0
CLASS
  1
ACIMSTRSYSVAR
  2
AcImStrSysVar
  3
AcMeServices
 90
    32768
280
     0
281
     0
  0
CLASS
  1
ACMSTANDARDANSI
  2
AcmStandardANSI
  3
"Amdt_StdImp|Product Description: AutoCAD Mechanical 2000|Company: Autodesk"
 90
    32768
280
     0
281
     0
  0
CLASS
  1
AMGOBJPROPCFG
  2
AmgObjPropCfg
  3
"AmgLay|Product Description: AutoCAD Mechanical 2000|Company: Autodesk"
 90
    32769
280
     0
281
     0
  0
CLASS
  1
ACMSURFSTANDARDANSI
  2
AcmSurfTextStdANSI
  3
"Amdt_StdImp|Product Description: AutoCAD Mechanical 2000|Company: Autodesk"
 90
    32768
280
     0
281
     0
  0
CLASS
  1
ACMFCFSTANDARDANSI
  2
AcmFCFStdANSI
  3
"Amdt_StdImp|Product Description: AutoCAD Mechanical 2000|Company: Autodesk"
 90
    32768
280
     0
281
     0
  0
CLASS
  1
ACMWELDSTANDARDANSI
  2
AcmWeldingStdANSI
  3
"Amdt_StdImp|Product Description: AutoCAD Mechanical 2000|Company: Autodesk"
 90
    32768
280
     0
281
     0
  0
CLASS
  1
ACMIDSTANDARDANSI
  2
AcmIdStdANSI
  3
"Amdt_StdImp|Product Description: AutoCAD Mechanical 2000|Company: Autodesk"
 90
    32768
280
     0
281
     0
  0
CLASS
  1
ACMDATUMSTANDARDANSI
  2
AcmDatumStdANSI
  3
"Amdt_StdImp|Product Description: AutoCAD Mechanical 2000|Company: Autodesk"
 90
    32768
280
     0
281
     0
  0
CLASS
  1
ACMBOMSTANDARDANSI
  2
AcmBOMStdANSI
  3
"Amdt_StdImp|Product Description: AutoCAD Mechanical 2000|Company: Autodesk"
 90
    32768
280
     0
281
     0
  0
CLASS
  1
ACMDETAILSTANDARDANSI
  2
AmdtDetailSymStdANSI
  3
"Amdt_StdImp|Product Description: AutoCAD Mechanical 2000|Company: Autodesk"
 90
    32768
280
     0
281
     0
  0
CLASS
  1
ACMSECTIONSTANDARDANSI
  2
AmdtSectionSymStdANSI
  3
"Amdt_StdImp|Product Description: AutoCAD Mechanical 2000|Company: Autodesk"
 90
    32768
280
     0
281
     0
  0
CLASS
  1
ACMCENTERLINESTANDARDANSI
  2
AmdtCenterLineStdANSI
  3
"Amdt_StdImp|Product Description: AutoCAD Mechanical 2000|Company: Autodesk"
 90
    32768
280
     0
281
     0
  0
CLASS
  1
ACMNOTESTANDARDANSI
  2
AmdtNoteStdANSI
  3
"Amdt_StdImp|Product Description: AutoCAD Mechanical 2000|Company: Autodesk"
 90
    32768
280
     0
281
     0
  0
CLASS
  1
ACAMGLAYSTD
  2
AcAmgLayStd
  3
"AcAmgLayStd|Product Description: AutoCAD Mechanical 2000|Company: Autodesk"
 90
    32768
280
     0
281
     0
  0
CLASS
  1
ACAMGDIMSTD
  2
AcAmgDimStd
  3
"AcAmgDimStd|Product Description: AutoCAD Mechanical 2000|Company: Autodesk"
 90
    32768
280
     0
281
     0
  0
CLASS
  1
ACAMGHOLECHARTSTDANSI
  2
AcAmgHoleChartStdANSI
  3
ACMSYMBB_MODULE_NAME
 90
    32768
280
     0
281
     0
  0
CLASS
  1
ACAMGTITLESTD
  2
AcAmgTitleStd
  3
"TITLEAPP"
 90
    32768
280
     0
281
     0
  0
CLASS
  1
ACAMGFILTERDAT
  2
AcAmgFilterDat
  3
"AcadM|Product Description: AutoCAD Mechanical 2000|Company: Autodesk"
 90
    32768
280
     0
281
     0
  0
CLASS
  1
AMDTFORMULAUPDATEDISPATCHER
  2
AmdtFormulaUpdateDispatcher
  3
AcMeServices
 90
    32768
280
     0
281
     0
  0
CLASS
  1
LAYER_INDEX
  2
AcDbLayerIndex
  3
AutoCAD 2000
 90
    32768
280
     0
281
     0
  0
CLASS
  1
IDBUFFER
  2
AcDbIdBuffer
  3
AutoCAD 2000
 90
    32768
280
     0
281
     0
  0
CLASS
  1
DICTIONARYVAR
  2
AcDbDictionaryVar
  3
AutoCAD 2000
 90
    32768
280
     0
281
     0
  0
CLASS
  1
LONG_TRANSACTION
  2
AcDbLongTransaction
  3
AutoCAD 2000
 90
    32768
280
     0
281
     0
  0
CLASS
  1
LWPOLYLINE
  2
AcDbPolyline
  3
AutoCAD 2000
 90
    32768
280
     0
281
     1
  0
CLASS
  1
HATCH
  2
AcDbHatch
  3
AutoCAD 2000
 90
    32768
280
     0
281
     1
  0
CLASS
  1
XRECORD
  2
AcDbXrecord
  3
AutoCAD 2000
 90
    32768
280
     0
281
     0
  0
ENDSEC
  0
SECTION
  2
TABLES
  0
TABLE
  2
VPORT
  5
8
330
0
100
AcDbSymbolTable
 70
     5
  0
VPORT
  5
43EC
330
8
100
AcDbSymbolTableRecord
100
AcDbViewportTableRecord
  2
*ACTIVE
 70
     0
 10
0.0
 20
0.0
 11
1.0
 21
1.0
 12
432.4969502125134
 22
266.8228340947606
 13
0.0
 23
0.0
 14
1.0
 24
1.0
 15
0.0
 25
0.0
 16
0.0
 26
0.0
 36
1.0
 17
0.0
 27
0.0
 37
0.0
 40
578.9138402443204
 41
1.756554307116104
 42
1.0
 43
0.0
 44
0.0
 50
0.0
 51
0.0
 71
     0
 72
   100
 73
     1
 74
     1
 75
     0
 76
     0
 77
     0
 78
     0
  0
ENDTAB
  0
TABLE
  2
LTYPE
  5
5
330
0
100
AcDbSymbolTable
 70
    16
  0
LTYPE
  5
13
330
5
100
AcDbSymbolTableRecord
100
AcDbLinetypeTableRecord
  2
BYBLOCK
 70
     0
  3

 72
    65
 73
     0
 40
0.0
  0
LTYPE
  5
14
330
5
100
AcDbSymbolTableRecord
100
AcDbLinetypeTableRecord
  2
BYLAYER
 70
     0
  3

 72
    65
 73
     0
 40
0.0
  0
LTYPE
  5
15
330
5
100
AcDbSymbolTableRecord
100
AcDbLinetypeTableRecord
  2
CONTINUOUS
 70
     0
  3
Solid line
 72
    65
 73
     0
 40
0.0
  0
LTYPE
  5
35
330
5
100
AcDbSymbolTableRecord
100
AcDbLinetypeTableRecord
  2
CENTER
 70
     0
  3
_______________ _ _______________ _ ___________
 72
    65
 73
     4
 40
18.0
 49
15.0
 74
     0
 49
-1.0
 74
     0
 49
1.0
 74
     0
 49
-1.0
 74
     0
  0
LTYPE
  5
36
330
5
100
AcDbSymbolTableRecord
100
AcDbLinetypeTableRecord
  2
HIDDEN
 70
     0
  3
___ ___ ___ ___ ___ ___ ___ ___ ___ ___ 
 72
    65
 73
     2
 40
4.0
 49
3.0
 74
     0
 49
-1.0
 74
     0
  0
LTYPE
  5
4335
330
5
100
AcDbSymbolTableRecord
100
AcDbLinetypeTableRecord
  2
AM_ISO02W050
 70
     0
  3
__ __ __ __ __ __ __ __ __ __ __ __ __ __ __
 72
    65
 73
     2
 40
7.5
 49
6.0
 74
     0
 49
-1.5
 74
     0
  0
LTYPE
  5
4336
330
5
100
AcDbSymbolTableRecord
100
AcDbLinetypeTableRecord
  2
AM_ISO08W050
 70
     0
  3
____ . ____ . ____ . ____ . ____ . ____ . ____
 72
    65
 73
     4
 40
18.0
 49
12.0
 74
     0
 49
-1.5
 74
     0
 49
3.0
 74
     0
 49
-1.5
 74
     0
  0
LTYPE
  5
4337
330
5
100
AcDbSymbolTableRecord
100
AcDbLinetypeTableRecord
  2
AM_ISO09W050
 70
     0
  3
_____ . . _____ . . _____ . . ____ .. ____
 72
    65
 73
     6
 40
22.5
 49
12.0
 74
     0
 49
-1.5
 74
     0
 49
3.0
 74
     0
 49
-1.5
 74
     0
 49
3.0
 74
     0
 49
-1.5
 74
     0
  0
LTYPE
  5
4338
330
5
100
AcDbSymbolTableRecord
100
AcDbLinetypeTableRecord
  2
AMCONSTR
 70
     0
  3
_______________________
 72
    65
 73
     2
 40
9999.0
 49
9999.0
 74
     0
 49
0.0
 74
     0
  0
LTYPE
  5
4339
330
5
100
AcDbSymbolTableRecord
100
AcDbLinetypeTableRecord
  2
AM_ISO08W050X2
 70
     0
  3
__ . __ . __ . __ . __ . __
 72
    65
 73
     4
 40
9.0
 49
6.0
 74
     0
 49
-0.75
 74
     0
 49
1.5
 74
     0
 49
-0.75
 74
     0
  0
LTYPE
  5
433A
330
5
100
AcDbSymbolTableRecord
100
AcDbLinetypeTableRecord
  2
AM_ISO02W050X2
 70
     0
  3
 _ _ _ _ _ _ _ _ _ _ _ _
 72
    65
 73
     2
 40
3.75
 49
3.0
 74
     0
 49
-0.75
 74
     0
  0
LTYPE
  5
433D
330
5
100
AcDbSymbolTableRecord
100
AcDbLinetypeTableRecord
  2
AMZIGZAG
 70
     0
  3
/\/-/\/-/\/-/\/-/\/-/\/
 72
    65
 73
     2
 40
11.00009999999999
 49
0.0001
 74
     4
 75
   135
340
433C
 46
0.04
 50
0.0
 44
0.0
 45
0.0
 49
-11.0
 74
     0
  0
LTYPE
  5
433E
330
5
100
AcDbSymbolTableRecord
100
AcDbLinetypeTableRecord
  2
PHANTOM2
 70
     0
  3
Phantom (.5x) ___ _ _ ___ _ _ ___ _ _ ___ _ _
 72
    65
 73
     6
 40
1.25
 49
0.625
 74
     0
 49
-0.125
 74
     0
 49
0.125
 74
     0
 49
-0.125
 74
     0
 49
0.125
 74
     0
 49
-0.125
 74
     0
  0
LTYPE
  5
433F
330
5
100
AcDbSymbolTableRecord
100
AcDbLinetypeTableRecord
  2
CENTER2
 70
     0
  3
Center (.5x) ___ _ ___ _ ___ _ ___ _ ___ _ ___
 72
    65
 73
     4
 40
1.125
 49
0.75
 74
     0
 49
-0.125
 74
     0
 49
0.125
 74
     0
 49
-0.125
 74
     0
  0
LTYPE
  5
4340
330
5
100
AcDbSymbolTableRecord
100
AcDbLinetypeTableRecord
  2
HIDDEN2
 70
     0
  3
Hidden (.5x) _ _ _ _ _ _ _ _ _ _ _ _ _ _ _ _ _
 72
    65
 73
     2
 40
0.1875
 49
0.125
 74
     0
 49
-0.0625
 74
     0
  0
LTYPE
  5
4341
330
5
100
AcDbSymbolTableRecord
100
AcDbLinetypeTableRecord
  2
AMZIGZAG2
 70
     0
  3
/\/-/\/-/\/-/\/-/\/-/\/
 72
    65
 73
     2
 40
0.4401
 49
0.0001
 74
     4
 75
   135
340
433C
 46
0.0016
 50
0.0
 44
0.0
 45
0.0
 49
-0.4400000000000001
 74
     0
  0
LTYPE
  5
434E
330
5
100
AcDbSymbolTableRecord
100
AcDbLinetypeTableRecord
  2
ACANSTGB
 70
     0
  3
__ . . __ . .
 72
    65
 73
     6
 40
0.35433070866
 49
0.15748031496
 74
     0
 49
-0.03937007874
 74
     0
 49
0.03937007874
 74
     0
 49
-0.03937007874
 74
     0
 49
0.03937007874
 74
     0
 49
-0.03937007874
 74
     0
  0
LTYPE
  5
434F
330
5
100
AcDbSymbolTableRecord
100
AcDbLinetypeTableRecord
  2
ACANSTGL
 70
     0
  3
_ _ _ _ _
 72
    65
 73
     2
 40
0.11811023622
 49
0.07874015748
 74
     0
 49
-0.03937007874
 74
     0
  0
ENDTAB
  0
TABLE
  2
LAYER
  5
2
330
0
100
AcDbSymbolTable
 70
     6
  0
LAYER
  5
10
330
2
100
AcDbSymbolTableRecord
100
AcDbLayerTableRecord
  2
0
 70
     0
 62
     7
  6
CONTINUOUS
  0
LAYER
  5
39
330
2
100
AcDbSymbolTableRecord
100
AcDbLayerTableRecord
  2
HIDDEN
 70
     0
 62
     6
  6
HIDDEN
  0
LAYER
  5
3A
330
2
100
AcDbSymbolTableRecord
100
AcDbLayerTableRecord
  2
DIM
 70
     0
 62
     5
  6
CONTINUOUS
  0
LAYER
  5
3B
330
2
100
AcDbSymbolTableRecord
100
AcDbLayerTableRecord
  2
CENTER
 70
     0
 62
     1
  6
CENTER
  0
LAYER
  5
FF1
330
2
100
AcDbSymbolTableRecord
100
AcDbLayerTableRecord
  2
LOGO
 70
     0
 62
     7
  6
CONTINUOUS
  0
LAYER
  5
4369
330
2
100
AcDbSymbolTableRecord
100
AcDbLayerTableRecord
  2
AM_VIS
 70
     0
 62
     7
  6
CONTINUOUS
  0
ENDTAB
  0
TABLE
  2
STYLE
  5
3
330
0
100
AcDbSymbolTable
 70
     9
  0
STYLE
  5
11
330
3
100
AcDbSymbolTableRecord
100
AcDbTextStyleTableRecord
  2
STANDARD
 70
     0
 40
0.0
 41
1.0
 50
0.0
 71
     0
 42
3.0
  3

  4

  0
STYLE
  5
30
330
3
100
AcDbSymbolTableRecord
100
AcDbTextStyleTableRecord
  2
ITALICT
 70
     0
 40
0.0
 41
1.0
 50
0.0
 71
     0
 42
3.0
  3
ITALICT.SHX
  4

  0
STYLE
  5
31
330
3
100
AcDbSymbolTableRecord
100
AcDbTextStyleTableRecord
  2
ROMANS
 70
     0
 40
0.0
 41
1.0
 50
0.0
 71
     0
 42
3.0
  3
ROMANS.SHX
  4
LMP
  0
STYLE
  5
34
330
3
100
AcDbSymbolTableRecord
100
AcDbTextStyleTableRecord
  2
ROMANSS
 70
     0
 40
0.0
 41
1.0
 50
0.0
 71
     0
 42
3.0
  3
ROMANSS.SHX
  4
LMP
  0
STYLE
  5
FF2
330
3
100
AcDbSymbolTableRecord
100
AcDbTextStyleTableRecord
  2
CHINESET
 70
     0
 40
0.0
 41
1.0
 50
0.0
 71
     0
 42
4.0
  3
C:\r13\com\fonts\simplex.shx
  4
C:\r13\com\fonts\chineset.shx
  0
STYLE
  5
FF3
330
3
100
AcDbSymbolTableRecord
100
AcDbTextStyleTableRecord
  2
LOGO
 70
     0
 40
0.0
 41
1.0
 50
0.0
 71
     0
 42
5.0
  3
LEI00DP.TTF
  4

1001
ACAD
1000
文鼎中粗隸
1071
    34865
  0
STYLE
  5
433C
330
3
100
AcDbSymbolTableRecord
100
AcDbTextStyleTableRecord
  2

 70
     1
 40
0.0
 41
1.0
 50
0.0
 71
     0
 42
3.0
  3
ltypeshp.shx
  4

  0
STYLE
  5
4342
330
3
100
AcDbSymbolTableRecord
100
AcDbTextStyleTableRecord
  2
ACANSTS
 70
     0
 40
1.0
 41
1.0
 50
0.0
 71
     0
 42
3.0
  3
romans.shx
  4
chineset.shx
  0
STYLE
  5
434D
330
3
100
AcDbSymbolTableRecord
100
AcDbTextStyleTableRecord
  2
ACANSGDT
 70
     0
 40
0.0
 41
1.0
 50
0.0
 71
     0
 42
3.0
  3
amgdtans.shx
  4

  0
ENDTAB
  0
TABLE
  2
VIEW
  5
6
330
0
100
AcDbSymbolTable
 70
     0
  0
ENDTAB
  0
TABLE
  2
UCS
  5
7
330
0
100
AcDbSymbolTable
 70
     0
  0
ENDTAB
  0
TABLE
  2
APPID
  5
9
330
0
100
AcDbSymbolTable
 70
     5
  0
APPID
  5
12
330
9
100
AcDbSymbolTableRecord
100
AcDbRegAppTableRecord
  2
ACAD
 70
     0
  0
APPID
  5
38
330
9
100
AcDbSymbolTableRecord
100
AcDbRegAppTableRecord
  2
TCAD
 70
     0
  0
APPID
  5
4317
330
9
100
AcDbSymbolTableRecord
100
AcDbRegAppTableRecord
  2
MCAD_NO_VIS
 70
     0
  0
APPID
  5
4318
330
9
100
AcDbSymbolTableRecord
100
AcDbRegAppTableRecord
  2
ACAD_TEMP_GRAPHIC
 70
     0
  0
APPID
  5
4329
330
9
100
AcDbSymbolTableRecord
100
AcDbRegAppTableRecord
  2
ACATTRIBSERVICES
 70
     0
  0
ENDTAB
  0
TABLE
  2
DIMSTYLE
  5
A
330
0
100
AcDbSymbolTable
 70
     7
  0
DIMSTYLE
105
F1B
330
A
100
AcDbSymbolTableRecord
100
AcDbDimStyleTableRecord
  2
STANDARD
 70
     0
  3

  4

  5

  6

  7

 40
1.0
 41
0.18
 42
0.0625
 43
0.38
 44
0.18
 45
0.0
 46
0.0
 47
0.0
 48
0.0
140
0.18
141
0.09
142
0.0
143
25.4
144
1.0
145
0.0
146
1.0
147
0.09
 71
     0
 72
     0
 73
     1
 74
     1
 75
     0
 76
     0
 77
     0
 78
     0
170
     0
171
     2
172
     0
173
     0
174
     0
175
     0
176
     0
177
     0
178
     0
270
     2
271
     4
272
     4
273
     2
274
     2
340
11
275
     0
280
     0
281
     0
282
     0
283
     1
284
     0
285
     0
286
     0
287
     3
288
     0
  0
DIMSTYLE
105
4353
330
A
100
AcDbSymbolTableRecord
100
AcDbDimStyleTableRecord
  2
AM_ANSI
 70
     0
  3

  4
mm
  5

  6

  7

 40
1.0
 41
0.1
 42
0.05
 43
0.5
 44
0.1
 45
0.0
 46
0.0
 47
0.1
 48
0.1
140
0.12
141
0.0
142
0.0
143
25.4
144
1.0
145
0.0
146
0.71
147
0.06
 71
     0
 72
     0
 73
     1
 74
     1
 75
     0
 76
     0
 77
     0
 78
     7
170
     0
171
     2
172
     0
173
     0
174
     0
175
     0
176
   256
177
   256
178
     2
270
     2
271
     4
272
     4
273
     2
274
     4
340
11
275
     0
280
     0
281
     0
282
     0
283
     1
284
     7
285
     0
286
     0
287
     3
288
     0
  0
DIMSTYLE
105
4354
330
A
100
AcDbSymbolTableRecord
100
AcDbDimStyleTableRecord
  2
AM_ANSI$3
 70
     0
  3

  4
mm
  5

  6

  7

 40
1.0
 41
0.1
 42
0.05
 43
0.5
 44
0.1
 45
0.0
 46
0.0
 47
0.1
 48
0.1
140
0.12
141
0.0
142
0.0
143
25.4
144
1.0
145
0.0
146
0.71
147
0.06
 71
     0
 72
     0
 73
     1
 74
     1
 75
     0
 76
     0
 77
     0
 78
     7
170
     0
171
     2
172
     0
173
     0
174
     0
175
     0
176
   256
177
   256
178
     2
270
     2
271
     4
272
     4
273
     2
274
     4
340
11
275
     0
280
     0
281
     0
282
     0
283
     1
284
     7
285
     0
286
     0
287
     0
288
     1
  0
DIMSTYLE
105
4355
330
A
100
AcDbSymbolTableRecord
100
AcDbDimStyleTableRecord
  2
AM_ANSI$4
 70
     0
  3

  4
mm
  5

  6

  7

 40
1.0
 41
0.1
 42
0.05
 43
0.5
 44
0.1
 45
0.0
 46
0.0
 47
0.1
 48
0.1
140
0.12
141
0.0
142
0.0
143
25.4
144
1.0
145
0.0
146
0.71
147
0.06
 71
     0
 72
     0
 73
     1
 74
     1
 75
     0
 76
     0
 77
     0
 78
     7
170
     0
171
     2
172
     0
173
     0
174
     0
175
     0
176
   256
177
   256
178
     2
270
     2
271
     4
272
     4
273
     2
274
     4
340
11
275
     0
280
     0
281
     0
282
     0
283
     1
284
     7
285
     0
286
     0
287
     0
288
     1
  0
DIMSTYLE
105
4356
330
A
100
AcDbSymbolTableRecord
100
AcDbDimStyleTableRecord
  2
AM_ANSI$7
 70
     0
  3

  4
mm
  5

  6

  7

 40
1.0
 41
0.1
 42
0.05
 43
0.5
 44
0.1
 45
0.0
 46
0.0
 47
0.1
 48
0.1
140
0.24
141
0.0
142
0.0
143
25.4
144
1.0
145
0.0
146
0.71
147
0.06
 71
     0
 72
     0
 73
     1
 74
     1
 75
     0
 76
     0
 77
     0
 78
     7
170
     0
171
     2
172
     0
173
     0
174
     0
175
     0
176
   256
177
   256
178
     2
270
     2
271
     4
272
     4
273
     2
274
     4
340
11
275
     0
280
     0
281
     0
282
     0
283
     1
284
     7
285
     0
286
     0
287
     3
288
     0
  0
DIMSTYLE
105
4357
330
A
100
AcDbSymbolTableRecord
100
AcDbDimStyleTableRecord
  2
AM_ANSI$SF
 70
     0
  3

  4
mm
  5

  6

  7

 40
1.0
 41
0.1
 42
0.05
 43
0.5
 44
0.1
 45
0.0
 46
0.0
 47
0.1
 48
0.1
140
0.12
141
0.0
142
0.0
143
25.4
144
1.0
145
0.0
146
0.71
147
0.06
 71
     0
 72
     0
 73
     1
 74
     1
 75
     1
 76
     1
 77
     0
 78
     7
170
     0
171
     2
172
     0
173
     0
174
     0
175
     0
176
   256
177
   256
178
     2
270
     2
271
     4
272
     4
273
     2
274
     4
340
11
275
     0
280
     0
281
     0
282
     0
283
     1
284
     7
285
     0
286
     0
287
     3
288
     0
  0
DIMSTYLE
105
435C
330
A
100
AcDbSymbolTableRecord
100
AcDbDimStyleTableRecord
  2
AM_ANSI$SH
 70
     0
  3

  4
mm
  5

  6
GENAXEH
  7

 40
1.0
 41
0.1
 42
0.05
 43
0.5
 44
0.1
 45
0.0
 46
0.0
 47
0.1
 48
0.1
140
0.12
141
0.0
142
0.0
143
25.4
144
1.0
145
0.0
146
0.71
147
0.06
 71
     0
 72
     0
 73
     1
 74
     1
 75
     1
 76
     1
 77
     0
 78
     7
170
     0
171
     2
172
     0
173
     1
174
     0
175
     0
176
   256
177
   256
178
     2
270
     2
271
     4
272
     4
273
     2
274
     4
340
11
275
     0
280
     0
281
     0
282
     0
283
     1
284
     7
285
     0
286
     0
287
     3
288
     0
  0
ENDTAB
  0
TABLE
  2
BLOCK_RECORD
  5
1
330
0
100
AcDbSymbolTable
 70
     1
  0
BLOCK_RECORD
  5
1E
102
{ACAD_XDICTIONARY
360
3DAF
102
}
330
1
100
AcDbSymbolTableRecord
100
AcDbBlockTableRecord
  2
*MODEL_SPACE
  0
BLOCK_RECORD
  5
1A
102
{ACAD_XDICTIONARY
360
3DB1
102
}
330
1
100
AcDbSymbolTableRecord
100
AcDbBlockTableRecord
  2
*PAPER_SPACE
  0
BLOCK_RECORD
  5
4358
330
1
100
AcDbSymbolTableRecord
100
AcDbBlockTableRecord
  2
GENAXEH
  0
ENDTAB
  0
ENDSEC
  0
SECTION
  2
BLOCKS
  0
BLOCK
  5
3E
330
1E
100
AcDbEntity
  8
0
100
AcDbBlockBegin
  2
*MODEL_SPACE
 70
     0
 10
0.0
 20
0.0
 30
0.0
  3
*MODEL_SPACE
  1

  0
ENDBLK
  5
3F
330
1E
100
AcDbEntity
  8
0
100
AcDbBlockEnd
  0
BLOCK
  5
3C
330
1A
100
AcDbEntity
 67
     1
  8
0
100
AcDbBlockBegin
  2
*PAPER_SPACE
 70
     0
 10
0.0
 20
0.0
 30
0.0
  3
*PAPER_SPACE
  1

  0
ENDBLK
  5
3D
330
1A
100
AcDbEntity
 67
     1
  8
0
100
AcDbBlockEnd
  0
BLOCK
  5
435A
330
4358
100
AcDbEntity
  8
0
100
AcDbBlockBegin
  2
GENAXEH
 70
     0
 10
0.0
 20
0.0
 30
0.0
  3
GENAXEH
  1

  0
LINE
  5
4359
330
4358
100
AcDbEntity
  8
0
100
AcDbLine
 10
-1.0
 20
0.0
 30
0.0
 11
1.0
 21
0.0
 31
0.0
  0
ENDBLK
  5
435B
330
4358
100
AcDbEntity
  8
0
100
AcDbBlockEnd
  0
ENDSEC
  0
SECTION
  2
ENTITIES
  0
LINE
  5
B2E
330
1E
100
AcDbEntity
  8
0
 62
     4
100
AcDbLine
 10
835.0
 20
553.0265120216861
 30
0.0
 11
835.0
 21
87.0
 31
0.0
  0
LINE
  5
B2F
330
1E
100
AcDbEntity
  8
0
 62
     4
100
AcDbLine
 10
30.0
 20
87.0
 30
0.0
 11
30.0
 21
553.0265120216861
 31
0.0
  0
LINE
  5
B30
330
1E
100
AcDbEntity
  8
0
 62
     4
100
AcDbLine
 10
835.0
 20
87.0
 30
0.0
 11
30.0
 21
87.0
 31
0.0
  0
LINE
  5
B32
330
1E
100
AcDbEntity
  8
0
 62
     4
100
AcDbLine
 10
30.0
 20
553.0265120216861
 30
0.0
 11
835.0
 21
553.0265120216861
 31
0.0
  0
LINE
  5
F1C
330
1E
100
AcDbEntity
  8
0
 62
     4
100
AcDbLine
 10
610.6262322329938
 20
553.0265120216861
 30
0.0
 11
610.6262322329939
 21
87.0
 31
0.0
  0
TEXT
  5
FF4
330
1E
100
AcDbEntity
  8
LOGO
 62
     6
100
AcDbText
 10
619.9083537016189
 20
8.982378854625448
 30
0.0
 40
14.18502202643171
  1
行程
 41
0.9
  7
CHINESET
 72
     4
 11
632.6748735254073
 21
16.0748898678413
 31
0.0
100
AcDbText
  0
LINE
  5
FF5
330
1E
100
AcDbEntity
  8
LOGO
 62
     6
100
AcDbLine
 10
669.3048881037465
 20
-10.52202643171804
 30
0.0
 11
596.0448589470684
 21
-10.52202643171817
 31
0.0
  0
LINE
  5
FF6
330
1E
100
AcDbEntity
  8
LOGO
 62
     6
100
AcDbLine
 10
669.3048881037465
 20
28.48678414096916
 30
0.0
 11
596.0448589470684
 21
28.48678414096916
 31
0.0
  0
TEXT
  5
FF7
330
1E
100
AcDbEntity
  8
LOGO
  6
CONTINUOUS
 62
     6
100
AcDbText
 10
616.6322890907524
 20
-6.089207048458262
 30
0.0
 40
8.865638766519824
  1
Stroke
 41
0.8
  7
CHINESET
 72
     4
 11
632.6748735254073
 21
-1.656387665198352
 31
0.0
100
AcDbText
  0
TEXT
  5
FF8
330
1E
100
AcDbEntity
  8
LOGO
  6
CONTINUOUS
 62
     7
100
AcDbText
 10
628.4193673742025
 20
51.33637112939897
 30
0.0
 40
17.73127753303964
  1
0
  7
CHINESET
 72
     1
 11
634.3297932185492
 21
60.20200989591879
 31
0.0
100
AcDbText
 73
     2
  0
LINE
  5
FF9
330
1E
100
AcDbEntity
  8
LOGO
 62
     6
100
AcDbLine
 10
662.2123770905306
 20
76.36123348017623
 30
0.0
 11
603.1373699602842
 21
76.36123348017623
 31
0.0
  0
LINE
  5
FFA
330
1E
100
AcDbEntity
  8
LOGO
 62
     6
100
AcDbLine
 10
662.2123770905305
 20
44.44493392070482
 30
0.0
 11
603.1373699602842
 21
44.44493392070484
 31
0.0
  0
LINE
  5
FFB
330
1E
100
AcDbEntity
  8
LOGO
 62
     1
100
AcDbLine
 10
835.0
 20
87.0
 30
0.0
 11
30.0
 21
87.0
 31
0.0
  0
LINE
  5
FFC
330
1E
100
AcDbEntity
  8
LOGO
 62
     1
100
AcDbLine
 10
835.0
 20
-19.38766519823788
 30
0.0
 11
30.0
 21
-19.38766519823788
 31
0.0
  0
LINE
  5
FFD
330
1E
100
AcDbEntity
  8
LOGO
  6
CONTINUOUS
 62
     6
100
AcDbLine
 10
232.2795769057476
 20
58.7257013049784
 30
0.0
 11
251.6444880351953
 21
61.283575089713
 31
0.0
  0
LINE
  5
FFE
330
1E
100
AcDbEntity
  8
LOGO
  6
CONTINUOUS
 62
     6
100
AcDbLine
 10
232.2795769057476
 20
51.48721237495574
 30
0.0
 11
251.6444880351953
 21
48.92933859022113
 31
0.0
  0
LINE
  5
FFF
330
1E
100
AcDbEntity
  8
LOGO
 62
     1
100
AcDbLine
 10
264.0528634361232
 20
65.72246696035243
 30
0.0
 11
108.0176211453744
 21
65.72246696035243
 31
0.0
  0
LINE
  5
1000
330
1E
100
AcDbEntity
  8
LOGO
 62
     1
100
AcDbLine
 10
264.0528634361232
 20
44.44493392070484
 30
0.0
 11
108.0176211453744
 21
44.44493392070484
 31
0.0
  0
TEXT
  5
1001
330
1E
100
AcDbEntity
  8
LOGO
 62
     6
100
AcDbText
 10
209.0876572751785
 20
71.04185022026434
 30
0.0
 40
10.63876651982378
  1
1 : 1
  7
CHINESET
 72
     1
 11
227.8321506672489
 21
76.36123348017623
 31
0.0
100
AcDbText
 73
     2
  0
TEXT
  5
1002
330
1E
100
AcDbEntity
  8
LOGO
 62
     6
100
AcDbText
 10
209.0876572751785
 20
28.48678414096917
 30
0.0
 40
10.63876651982378
  1
m/m
  7
CHINESET
 72
     1
 11
227.8321506672489
 21
33.80616740088106
 31
0.0
100
AcDbText
 73
     2
  0
LINE
  5
1003
330
1E
100
AcDbEntity
  8
LOGO
 62
     1
100
AcDbLine
 10
264.0528634361232
 20
23.16740088105739
 30
0.0
 11
29.99999999999989
 21
23.16740088105739
 31
0.0
  0
TEXT
  5
1004
330
1E
100
AcDbEntity
  8
LOGO
  6
CONTINUOUS
 62
     5
100
AcDbText
 10
33.48224790800189
 20
1.512031076970245
 30
0.0
 40
15.95814977973568
  1
金器工業股份有限公司
 41
0.8
  7
LOGO
100
AcDbText
  0
TEXT
  5
1005
330
1E
100
AcDbEntity
  8
LOGO
  6
CONTINUOUS
 62
     5
100
AcDbText
 10
38.05169950109547
 20
-14.449245248955
 30
0.0
 40
10.63876651982378
  1
MINDMAN INDUSTRIAL CO.,LTD
 41
0.85
  7
CHINESET
100
AcDbText
  0
SOLID
  5
1006
330
1E
100
AcDbEntity
  8
LOGO
 62
     5
100
AcDbTrace
 10
41.03789100353419
 20
40.85283591109543
 30
0.0
 11
45.63781448547231
 21
40.8528359110939
 31
0.0
 12
64.83059866873365
 22
84.47279996395975
 32
0.0
 13
69.43052215067138
 23
84.47279996395671
 33
0.0
  0
SOLID
  5
1007
330
1E
100
AcDbEntity
  8
LOGO
 62
     5
100
AcDbTrace
 10
47.54123109869097
 20
40.85283591109543
 30
0.0
 11
52.14115458062868
 21
40.85283591109543
 31
0.0
 12
69.43052215067138
 22
80.98320283972901
 32
0.0
 13
64.83059866873365
 23
64.1168167392876
 33
0.0
  0
SOLID
  5
1008
330
1E
100
AcDbEntity
  8
LOGO
 62
     2
100
AcDbTrace
 10
45.63781448547231
 20
40.8528359110939
 30
0.0
 11
47.54123109869097
 21
40.85283591109543
 31
0.0
 12
69.43052215067138
 22
84.47279996395671
 32
0.0
 13
71.33393876388862
 23
84.47279996395671
 33
0.0
  0
SOLID
  5
1009
330
1E
100
AcDbEntity
  8
LOGO
 62
     5
100
AcDbTrace
 10
45.76906219947784
 20
32.92193335602906
 30
0.0
 11
47.35524271048951
 21
32.92193335602906
 31
0.0
 12
45.76906219947784
 22
24.99103080096419
 32
0.0
 13
47.35524271048951
 23
24.99103080096419
 33
0.0
  0
SOLID
  5
100A
330
1E
100
AcDbEntity
  8
LOGO
 62
     5
100
AcDbTrace
 10
33.66308562257272
 20
24.99103080096419
 30
0.0
 11
35.2492661335876
 21
24.99103080096419
 31
0.0
 12
39.71607391102428
 22
32.92193335602906
 32
0.0
 13
41.30225442203634
 23
32.92193335602906
 33
0.0
  0
SOLID
  5
100B
330
1E
100
AcDbEntity
  8
LOGO
 62
     5
100
AcDbTrace
 10
39.71607391102428
 20
32.92193335602906
 30
0.0
 11
41.30225442203634
 21
32.92193335602906
 31
0.0
 12
39.71607391102428
 22
24.99103080096419
 32
0.0
 13
41.30225442203634
 23
24.99103080096419
 33
0.0
  0
SOLID
  5
100C
330
1E
100
AcDbEntity
  8
LOGO
 62
     5
100
AcDbTrace
 10
39.71607391102428
 20
24.99103080096419
 30
0.0
 11
41.30225442203634
 21
24.99103080096419
 31
0.0
 12
45.76906219947784
 22
32.92193335602906
 32
0.0
 13
47.35524271048951
 23
32.92193335602906
 33
0.0
  0
LINE
  5
100D
330
1E
100
AcDbEntity
  8
LOGO
 62
     1
100
AcDbLine
 10
30.0
 20
-19.38766519823788
 30
0.0
 11
30.0
 21
87.0
 31
0.0
  0
TEXT
  5
100E
330
1E
100
AcDbEntity
  8
LOGO
 62
     6
100
AcDbText
 10
116.7898540748898
 20
71.04708583370912
 30
0.0
 40
10.63876651982378
  1
比例 Scale:
 41
0.9
  7
CHINESET
 72
     4
 11
150.5726872246695
 21
76.36123348017623
 31
0.0
100
AcDbText
  0
TEXT
  5
100F
330
1E
100
AcDbEntity
  8
LOGO
 62
     6
100
AcDbText
 10
120.5086729074889
 20
49.9139684649138
 30
0.0
 40
10.63876651982378
  1
投影 View:
 41
0.9
  7
CHINESET
 72
     4
 11
150.5726872246695
 21
55.08370044052863
 31
0.0
100
AcDbText
  0
TEXT
  5
1010
330
1E
100
AcDbEntity
  8
LOGO
 62
     6
100
AcDbText
 10
121.5488023127753
 20
28.48678414096917
 30
0.0
 40
10.63876651982378
  1
單位 Unit:
 41
0.9
  7
CHINESET
 72
     4
 11
150.5726872246695
 21
33.80616740088106
 31
0.0
100
AcDbText
  0
POLYLINE
  5
1011
330
1E
100
AcDbEntity
  8
LOGO
 62
     5
100
AcDb2dPolyline
 66
     1
 10
0.0
 20
0.0
 30
0.0
 70
     1
 40
1.588722466960352
 41
1.588722466960352
  0
VERTEX
  5
4131
330
1011
100
AcDbEntity
  8
LOGO
 62
     5
100
AcDbVertex
100
AcDb2dVertex
 10
84.38851347136882
 20
28.95648207849584
 30
0.0
 42
1.0
  0
VERTEX
  5
4132
330
1011
100
AcDbEntity
  8
LOGO
 62
     5
100
AcDbVertex
100
AcDb2dVertex
 10
90.74340333921012
 20
28.95648207849584
 30
0.0
 42
1.0
  0
SEQEND
  5
4133
330
1011
100
AcDbEntity
  8
LOGO
 62
     5
  0
LINE
  5
1012
330
1E
100
AcDbEntity
  8
LOGO
 62
     5
100
AcDbLine
 10
99.72656991102399
 20
24.99103080096419
 30
0.0
 11
99.72656991102399
 21
29.74957233400246
 31
0.0
  0
SOLID
  5
1013
330
1E
100
AcDbEntity
  8
LOGO
 62
     5
100
AcDbTrace
 10
89.9450705537618
 20
32.92193335602906
 30
0.0
 11
91.53125106477366
 21
32.92193335602906
 31
0.0
 12
89.9450705537618
 22
24.99103080096419
 32
0.0
 13
91.53125106477366
 23
24.99103080096419
 33
0.0
  0
SOLID
  5
1014
330
1E
100
AcDbEntity
  8
LOGO
 62
     5
100
AcDbTrace
 10
93.38184786697089
 20
24.99103080096419
 30
0.0
 11
94.9680283779856
 21
24.99103080096419
 31
0.0
 12
93.38184786697089
 22
32.92193335602906
 32
0.0
 13
94.9680283779856
 23
32.92193335602906
 33
0.0
  0
SOLID
  5
1015
330
1E
100
AcDbEntity
  8
LOGO
 62
     5
100
AcDbTrace
 10
98.14038940001232
 20
29.74957233400246
 30
0.0
 11
99.72656991102399
 21
29.74957233400226
 31
0.0
 12
98.14038940001232
 22
24.99103080096419
 32
0.0
 13
99.72656991102399
 23
24.99103080096419
 33
0.0
  0
SOLID
  5
1016
330
1E
100
AcDbEntity
  8
LOGO
 62
     5
100
AcDbTrace
 10
67.20971081720344
 20
35.30120412254971
 30
0.0
 11
68.79589132821511
 21
35.30120412254971
 31
0.0
 12
67.20971081720344
 22
24.99103080096419
 32
0.0
 13
68.79589132821511
 23
24.99103080096419
 33
0.0
  0
SOLID
  5
1017
330
1E
100
AcDbEntity
  8
LOGO
 62
     5
100
AcDbTrace
 10
70.64648813041697
 20
32.92193335602906
 30
0.0
 11
72.23266864142884
 21
32.92193335602906
 31
0.0
 12
70.64648813041697
 22
24.99103080096419
 32
0.0
 13
72.23266864142884
 23
24.99103080096419
 33
0.0
  0
SOLID
  5
1018
330
1E
100
AcDbEntity
  8
LOGO
 62
     5
100
AcDbTrace
 10
75.40502966345536
 20
29.74957233400246
 30
0.0
 11
76.99121017446724
 21
29.74957233400246
 31
0.0
 12
75.40502966345536
 22
24.99103080096419
 32
0.0
 13
76.99121017446724
 23
24.99103080096419
 33
0.0
  0
SOLID
  5
1019
330
1E
100
AcDbEntity
  8
LOGO
 62
     5
100
AcDbTrace
 10
80.16357119649397
 20
29.74957233400246
 30
0.0
 11
81.74975170750562
 21
29.74957233400246
 31
0.0
 12
80.16357119649397
 22
24.99103080096116
 32
0.0
 13
81.74975170750562
 23
24.99103080096116
 33
0.0
  0
LINE
  5
101A
330
1E
100
AcDbEntity
  8
LOGO
 62
     1
100
AcDbLine
 10
108.0176211453744
 20
23.16740088105727
 30
0.0
 11
108.0176211453744
 21
87.0
 31
0.0
  0
SOLID
  5
101B
330
1E
100
AcDbEntity
  8
LOGO
 62
     5
100
AcDbTrace
 10
52.66966992689863
 20
32.92193335602906
 30
0.0
 11
54.25585043791027
 21
32.92193335602906
 31
0.0
 12
52.66966992689863
 22
24.99103080096419
 32
0.0
 13
54.25585043791027
 23
24.99103080096419
 33
0.0
  0
SOLID
  5
101C
330
1E
100
AcDbEntity
  8
LOGO
 62
     5
100
AcDbTrace
 10
57.42821145993662
 20
29.74957233400246
 30
0.0
 11
59.01439197095131
 21
29.74957233400246
 31
0.0
 12
57.42821145993662
 22
24.99103080096419
 32
0.0
 13
59.01439197095131
 23
24.99103080096419
 33
0.0
  0
SOLID
  5
101D
330
1E
100
AcDbEntity
  8
LOGO
 62
     5
100
AcDbTrace
 10
49.23289261368468
 20
32.92193335602906
 30
0.0
 11
50.81907312470097
 21
32.92193335602906
 31
0.0
 12
49.23289261368468
 22
24.99103080096116
 32
0.0
 13
50.81907312470097
 23
24.99103080096419
 33
0.0
  0
POLYLINE
  5
101E
330
1E
100
AcDbEntity
  8
LOGO
 62
     5
100
AcDb2dPolyline
 66
     1
 10
0.0
 20
0.0
 30
0.0
 70
     1
 40
1.588722466960352
 41
1.588722466960352
  0
VERTEX
  5
4134
330
101E
100
AcDbEntity
  8
LOGO
 62
     5
100
AcDbVertex
100
AcDb2dVertex
 10
61.65315373481186
 20
28.95648207849584
 30
0.0
 42
1.0
  0
VERTEX
  5
4135
330
101E
100
AcDbEntity
  8
LOGO
 62
     5
100
AcDbVertex
100
AcDb2dVertex
 10
68.00804360265338
 20
28.95648207849584
 30
0.0
 42
1.0
  0
SEQEND
  5
4136
330
101E
100
AcDbEntity
  8
LOGO
 62
     5
  0
POLYLINE
  5
101F
330
1E
100
AcDbEntity
  8
LOGO
 62
     5
100
AcDb2dPolyline
 66
     1
 10
0.0
 20
0.0
 30
0.0
 40
1.588722466960352
 41
1.588722466960352
  0
VERTEX
  5
4137
330
101F
100
AcDbEntity
  8
LOGO
 62
     5
100
AcDbVertex
100
AcDb2dVertex
 10
98.93729258943968
 20
29.74957233400249
 30
0.0
 42
1.0
  0
VERTEX
  5
4138
330
101F
100
AcDbEntity
  8
LOGO
 62
     5
100
AcDbVertex
100
AcDb2dVertex
 10
94.17112518855843
 20
29.74957233400249
 30
0.0
 42
1.0
  0
SEQEND
  5
4139
330
101F
100
AcDbEntity
  8
LOGO
 62
     5
  0
SOLID
  5
1020
330
1E
100
AcDbEntity
  8
LOGO
 62
     5
100
AcDbTrace
 10
95.12664642908625
 20
40.8528359110939
 30
0.0
 11
99.72656991102399
 21
40.8528359110939
 31
0.0
 12
95.12664642908625
 22
84.47279996395671
 32
0.0
 13
99.72656991102399
 23
84.47279996395975
 33
0.0
  0
SOLID
  5
1021
330
1E
100
AcDbEntity
  8
LOGO
 62
     5
100
AcDbTrace
 10
71.33393876388862
 20
84.47279996395671
 30
0.0
 11
75.93386224582613
 21
84.47279996395975
 31
0.0
 12
71.33393876388862
 22
44.34243303532313
 32
0.0
 13
75.93386224582613
 23
61.20881913576454
 33
0.0
  0
SOLID
  5
1022
330
1E
100
AcDbEntity
  8
LOGO
 62
     5
100
AcDbTrace
 10
71.33393876388862
 20
44.34243303532313
 30
0.0
 11
75.93386224582613
 21
61.20881913576454
 31
0.0
 12
93.22322981586902
 22
84.47279996395975
 32
0.0
 13
88.6233063339309
 23
84.47279996395975
 33
0.0
  0
SOLID
  5
1023
330
1E
100
AcDbEntity
  8
LOGO
 62
     5
100
AcDbTrace
 10
93.22322981586902
 20
80.98320283972901
 30
0.0
 11
88.6233063339309
 21
64.1168167392876
 31
0.0
 12
93.22322981586902
 22
40.8528359110939
 32
0.0
 13
88.6233063339309
 23
40.8528359110939
 33
0.0
  0
SOLID
  5
1024
330
1E
100
AcDbEntity
  8
LOGO
 62
     2
100
AcDbTrace
 10
93.22322981586902
 20
84.47279996395975
 30
0.0
 11
95.12664642908625
 21
84.47279996395671
 31
0.0
 12
93.22322981586902
 22
40.8528359110939
 32
0.0
 13
95.12664642908625
 23
40.8528359110939
 33
0.0
  0
SOLID
  5
1025
330
1E
100
AcDbEntity
  8
LOGO
 62
     5
100
AcDbTrace
 10
64.83059866873365
 20
40.85283591109543
 30
0.0
 11
69.43052215067138
 21
40.85283591109543
 31
0.0
 12
64.83059866873365
 22
64.1168167392876
 32
0.0
 13
69.43052215067138
 23
80.98320283972901
 33
0.0
  0
SOLID
  5
1026
330
1E
100
AcDbEntity
  8
LOGO
 62
     2
100
AcDbTrace
 10
69.43052215067138
 20
84.47279996395671
 30
0.0
 11
71.33393876388862
 21
84.47279996395671
 31
0.0
 12
69.43052215067138
 22
40.85283591109543
 32
0.0
 13
71.33393876388862
 23
40.85283591109543
 33
0.0
  0
SOLID
  5
1027
330
1E
100
AcDbEntity
  8
LOGO
 62
     5
100
AcDbTrace
 10
71.33393876388862
 20
40.85283591109543
 30
0.0
 11
75.93386224582613
 21
40.85283591109543
 31
0.0
 12
93.22322981586902
 22
80.98320283972901
 32
0.0
 13
88.6233063339309
 23
64.1168167392876
 33
0.0
  0
SOLID
  5
1028
330
1E
100
AcDbEntity
  8
LOGO
 62
     2
100
AcDbTrace
 10
69.43052215067138
 20
40.85283591109543
 30
0.0
 11
71.33393876388862
 21
40.85283591109543
 31
0.0
 12
93.22322981586902
 22
84.47279996395975
 32
0.0
 13
95.12664642908625
 23
84.47279996395671
 33
0.0
  0
POLYLINE
  5
1029
330
1E
100
AcDbEntity
  8
LOGO
 62
     5
100
AcDb2dPolyline
 66
     1
 10
0.0
 20
0.0
 30
0.0
 40
1.588722466960352
 41
1.588722466960352
  0
VERTEX
  5
413A
330
1029
100
AcDbEntity
  8
LOGO
 62
     5
100
AcDbVertex
100
AcDb2dVertex
 10
76.20193285288272
 20
29.74957233400249
 30
0.0
 42
1.0
  0
VERTEX
  5
413B
330
1029
100
AcDbEntity
  8
LOGO
 62
     5
100
AcDbVertex
100
AcDb2dVertex
 10
71.43576545200147
 20
29.74957233400249
 30
0.0
 42
1.0
  0
SEQEND
  5
413C
330
1029
100
AcDbEntity
  8
LOGO
 62
     5
  0
POLYLINE
  5
102A
330
1E
100
AcDbEntity
  8
LOGO
 62
     5
100
AcDb2dPolyline
 66
     1
 10
0.0
 20
0.0
 30
0.0
 40
1.588722466960352
 41
1.588722466960352
  0
VERTEX
  5
413D
330
102A
100
AcDbEntity
  8
LOGO
 62
     5
100
AcDbVertex
100
AcDb2dVertex
 10
58.22511464936437
 20
29.74957233400249
 30
0.0
 42
1.0
  0
VERTEX
  5
413E
330
102A
100
AcDbEntity
  8
LOGO
 62
     5
100
AcDbVertex
100
AcDb2dVertex
 10
53.45894724848314
 20
29.74957233400249
 30
0.0
 42
1.0
  0
SEQEND
  5
413F
330
102A
100
AcDbEntity
  8
LOGO
 62
     5
  0
SOLID
  5
102B
330
1E
100
AcDbEntity
  8
LOGO
 62
     5
100
AcDbTrace
 10
49.23289261368468
 20
34.0322597137376
 30
0.0
 11
50.81907312470097
 21
34.0322597137376
 31
0.0
 12
49.23289261368468
 22
35.30120412254971
 32
0.0
 13
50.81907312470097
 23
35.30120412254971
 33
0.0
  0
POLYLINE
  5
102C
330
1E
100
AcDbEntity
  8
LOGO
 62
     5
100
AcDb2dPolyline
 66
     1
 10
0.0
 20
0.0
 30
0.0
 70
     1
  0
VERTEX
  5
4140
330
102C
100
AcDbEntity
  8
LOGO
 62
     5
100
AcDbVertex
100
AcDb2dVertex
 10
85.18668763877027
 20
28.9564820784966
 30
0.0
 42
1.000000057330635
  0
VERTEX
  5
4141
330
102C
100
AcDbEntity
  8
LOGO
 62
     5
100
AcDbVertex
100
AcDb2dVertex
 10
89.9452291718107
 20
28.9564820784966
 30
0.0
 42
1.000000057330635
  0
SEQEND
  5
4142
330
102C
100
AcDbEntity
  8
LOGO
 62
     5
  0
CIRCLE
  5
102D
330
1E
100
AcDbEntity
  8
LOGO
 62
     5
100
AcDbCircle
 10
87.56595840529039
 20
28.9564820784966
 30
0.0
 40
2.379270766519824
  0
POLYLINE
  5
102E
330
1E
100
AcDbEntity
  8
LOGO
 62
     5
100
AcDb2dPolyline
 66
     1
 10
0.0
 20
0.0
 30
0.0
 40
1.588722466960352
 41
1.588722466960352
  0
VERTEX
  5
4143
330
102E
100
AcDbEntity
  8
LOGO
 62
     5
100
AcDbVertex
100
AcDb2dVertex
 10
80.9604743859211
 20
29.74957233400249
 30
0.0
 42
1.0
  0
VERTEX
  5
4144
330
102E
100
AcDbEntity
  8
LOGO
 62
     5
100
AcDbVertex
100
AcDb2dVertex
 10
76.19430698503989
 20
29.74957233400249
 30
0.0
 42
1.0
  0
SEQEND
  5
4145
330
102E
100
AcDbEntity
  8
LOGO
 62
     5
  0
LINE
  5
102F
330
1E
100
AcDbEntity
  8
LOGO
 62
     1
100
AcDbLine
 10
193.1277533039647
 20
23.16740088105727
 30
0.0
 11
193.1277533039647
 21
87.0
 31
0.0
  0
CIRCLE
  5
1030
330
1E
100
AcDbEntity
  8
LOGO
  6
CONTINUOUS
 62
     6
100
AcDbCircle
 10
212.8267601913
 20
55.10645683996703
 30
0.0
 40
6.17711824974593
  0
CIRCLE
  5
1031
330
1E
100
AcDbEntity
  8
LOGO
  6
CONTINUOUS
 62
     6
100
AcDbCircle
 10
212.8267601913
 20
55.10645683996703
 30
0.0
 40
3.61924446501133
  0
LINE
  5
1032
330
1E
100
AcDbEntity
  8
LOGO
 62
     6
100
AcDbLine
 10
232.2795769057478
 20
51.48721237495571
 30
0.0
 11
232.2795769057476
 21
58.7257013049784
 31
0.0
  0
TEXT
  5
1033
330
1E
100
AcDbEntity
  8
LOGO
  6
CONTINUOUS
 62
     6
100
AcDbText
 10
436.0525102874677
 20
-6.08920704845815
 30
0.0
 40
8.865638766519824
  1
Model
  7
CHINESET
 72
     4
 11
452.939441271315
 21
-1.656387665198238
 31
0.0
100
AcDbText
  0
TEXT
  5
1034
330
1E
100
AcDbEntity
  8
LOGO
  6
CONTINUOUS
 62
     7
100
AcDbText
 10
231.167953858974
 20
70.13250327325711
 30
0.0
 40
8.433748363371437
  1

  7
CHINESET
 72
     1
 11
231.167953858974
 21
74.34937745494284
 31
0.0
100
AcDbText
 73
     2
  0
LINE
  5
1035
330
1E
100
AcDbEntity
  8
LOGO
 62
     6
100
AcDbLine
 10
495.4945073506102
 20
76.36123348017623
 30
0.0
 11
410.38437519202
 21
76.36123348017623
 31
0.0
  0
LINE
  5
1036
330
1E
100
AcDbEntity
  8
LOGO
 62
     6
100
AcDbLine
 10
495.4945073506102
 20
44.44493392070484
 30
0.0
 11
410.38437519202
 21
44.44493392070484
 31
0.0
  0
LINE
  5
1037
330
1E
100
AcDbEntity
  8
LOGO
 62
     6
100
AcDbLine
 10
488.4019963373943
 20
28.48678414096916
 30
0.0
 11
417.4768862052358
 21
28.48678414096916
 31
0.0
  0
LINE
  5
1038
330
1E
100
AcDbEntity
  8
LOGO
 62
     6
100
AcDbLine
 10
488.4019963373943
 20
-10.52202643171809
 30
0.0
 11
417.4768862052358
 21
-10.52202643171817
 31
0.0
  0
TEXT
  5
1039
330
1E
100
AcDbEntity
  8
LOGO
 62
     7
100
AcDbText
 10
272.7612138763382
 20
60.36294818439775
 30
0.0
 40
21.27753303964757
  1
訂購代號:
  7
CHINESET
100
AcDbText
  0
TEXT
  5
103A
330
1E
100
AcDbEntity
  8
LOGO
 62
     7
100
AcDbText
 10
270.2163036194371
 20
40.39337421746902
 30
0.0
 40
14.18502202643171
  1
Order example:
 41
0.8
  7
CHINESET
100
AcDbText
  0
LINE
  5
103B
330
1E
100
AcDbEntity
  8
LOGO
 62
     1
100
AcDbLine
 10
264.0528634361232
 20
-19.38766519823788
 30
0.0
 11
264.0528634361232
 21
87.0
 31
0.0
  0
LINE
  5
103C
330
1E
100
AcDbEntity
  8
LOGO
 62
     6
100
AcDbLine
 10
251.6444880351953
 20
48.92933859022113
 30
0.0
 11
251.6444880351953
 21
61.283575089713
 31
0.0
  0
LINE
  5
103D
330
1E
100
AcDbEntity
  8
LOGO
 62
     6
100
AcDbLine
 10
417.4768862052358
 20
28.48678414096916
 30
0.0
 11
417.4768862052358
 21
-10.52202643171817
 31
0.0
  0
LINE
  5
103E
330
1E
100
AcDbEntity
  8
LOGO
 62
     6
100
AcDbLine
 10
410.38437519202
 20
76.36123348017623
 30
0.0
 11
410.38437519202
 21
44.44493392070484
 31
0.0
  0
TEXT
  5
103F
330
1E
100
AcDbEntity
  8
LOGO
  6
CONTINUOUS
 62
     7
100
AcDbText
 10
536.8589127143645
 20
51.33637112939917
 30
0.0
 40
17.73127753303964
  1
63
  7
CHINESET
 72
     1
 11
551.2128040506346
 21
60.20200989591899
 31
0.0
100
AcDbText
 73
     2
  0
LINE
  5
1040
330
1E
100
AcDbEntity
  8
LOGO
 62
     6
100
AcDbLine
 10
578.0261668107741
 20
-10.52202643171787
 30
0.0
 11
521.0896019042112
 21
-10.52202643171794
 31
0.0
  0
LINE
  5
1041
330
1E
100
AcDbEntity
  8
LOGO
 62
     6
100
AcDbLine
 10
578.0261668107741
 20
44.44493392070506
 30
0.0
 11
521.0896019042112
 21
44.44493392070506
 31
0.0
  0
LINE
  5
1042
330
1E
100
AcDbEntity
  8
LOGO
 62
     6
100
AcDbLine
 10
578.0261668107741
 20
28.48678414096935
 30
0.0
 11
521.0896019042112
 21
28.48678414096935
 31
0.0
  0
LINE
  5
1043
330
1E
100
AcDbEntity
  8
LOGO
 62
     6
100
AcDbLine
 10
578.0261668107741
 20
76.36123348017659
 30
0.0
 11
521.0896019042112
 21
76.36123348017642
 31
0.0
  0
LINE
  5
1044
330
1E
100
AcDbEntity
  8
LOGO
 62
     6
100
AcDbLine
 10
521.0896019042112
 20
28.48678414096935
 30
0.0
 11
521.0896019042112
 21
-10.52202643171787
 31
0.0
  0
LINE
  5
1045
330
1E
100
AcDbEntity
  8
LOGO
 62
     6
100
AcDbLine
 10
488.4019963373944
 20
28.48678414096916
 30
0.0
 11
488.4019963373944
 21
-10.52202643171804
 31
0.0
  0
TEXT
  5
1046
330
1E
100
AcDbEntity
  8
LOGO
 62
     6
100
AcDbText
 10
438.7544192448832
 20
9.345381386798015
 30
0.0
 40
14.18502202643171
  1
型式
  7
CHINESET
 72
     4
 11
452.939441271315
 21
16.0748898678414
 31
0.0
100
AcDbText
  0
LINE
  5
1047
330
1E
100
AcDbEntity
  8
LOGO
 62
     6
100
AcDbLine
 10
452.939441271315
 20
44.44493392070484
 30
0.0
 11
452.939441271315
 21
28.48678414096916
 31
0.0
  0
LINE
  5
1048
330
1E
100
AcDbEntity
  8
LOGO
 62
     6
100
AcDbLine
 10
521.0896019042112
 20
76.36123348017642
 30
0.0
 11
521.0896019042112
 21
44.44493392070506
 31
0.0
  0
LINE
  5
1049
330
1E
100
AcDbEntity
  8
LOGO
 62
     6
100
AcDbLine
 10
495.4945073506102
 20
76.36123348017623
 30
0.0
 11
495.4945073506102
 21
44.44493392070484
 31
0.0
  0
LINE
  5
104A
330
1E
100
AcDbEntity
  8
LOGO
  6
CONTINUOUS
 62
     7
100
AcDbLine
 10
501.4770975148703
 20
60.2900311234335
 30
0.0
 11
515.5701708263097
 21
60.2900311234335
 31
0.0
  0
LINE
  5
104B
330
1E
100
AcDbEntity
  8
LOGO
 62
     6
100
AcDbLine
 10
596.0448589470684
 20
28.48678414096916
 30
0.0
 11
596.0448589470684
 21
-10.52202643171817
 31
0.0
  0
LINE
  5
104C
330
1E
100
AcDbEntity
  8
LOGO
 62
     6
100
AcDbLine
 10
578.0261668107741
 20
28.48678414096935
 30
0.0
 11
578.0261668107741
 21
-10.52202643171774
 31
0.0
  0
TEXT
  5
104D
330
1E
100
AcDbEntity
  8
LOGO
  6
CONTINUOUS
 62
     6
100
AcDbText
 10
538.5813792179919
 20
-6.08920704845805
 30
0.0
 40
8.865638766519824
  1
Bore
 41
0.8
  7
CHINESET
 72
     4
 11
549.5578843574927
 21
-1.656387665198138
 31
0.0
100
AcDbText
  0
TEXT
  5
104E
330
1E
100
AcDbEntity
  8
LOGO
 62
     6
100
AcDbText
 10
535.9934570447173
 20
8.982378854625661
 30
0.0
 40
14.18502202643171
  1
內徑
 41
0.9
  7
CHINESET
 72
     4
 11
549.5578843574927
 21
16.07488986784152
 31
0.0
100
AcDbText
  0
LINE
  5
104F
330
1E
100
AcDbEntity
  8
LOGO
  6
CONTINUOUS
 62
     7
100
AcDbLine
 10
583.5248655709434
 20
60.29003112343369
 30
0.0
 11
597.6179388823831
 21
60.29003112343369
 31
0.0
  0
LINE
  5
1050
330
1E
100
AcDbEntity
  8
LOGO
 62
     6
100
AcDbLine
 10
578.0261668107741
 20
76.36123348017659
 30
0.0
 11
578.0261668107741
 21
44.44493392070506
 31
0.0
  0
LINE
  5
1051
330
1E
100
AcDbEntity
  8
LOGO
 62
     6
100
AcDbLine
 10
549.5578835397812
 20
44.44493392070506
 30
0.0
 11
549.5578835397812
 21
28.48678414096935
 31
0.0
  0
LINE
  5
1052
330
1E
100
AcDbEntity
  8
LOGO
 62
     6
100
AcDbLine
 10
603.1373699602844
 20
76.36123348017623
 30
0.0
 11
603.1373699602842
 21
44.44493392070484
 31
0.0
  0
LINE
  5
1053
330
1E
100
AcDbEntity
  8
LOGO
 62
     6
100
AcDbLine
 10
633.4259382422224
 20
44.44493392070484
 30
0.0
 11
633.4259382422224
 21
28.48678414096916
 31
0.0
  0
TEXT
  5
1054
330
1E
100
AcDbEntity
  8
LOGO
 62
     6
100
AcDbText
 10
719.6457452936162
 20
8.982378854625764
 30
0.0
 40
14.18502202643171
  1
配件
 41
0.9
  7
CHINESET
 72
     4
 11
732.5452496989026
 21
16.07488986784161
 31
0.0
100
AcDbText
  0
LINE
  5
1055
330
1E
100
AcDbEntity
  8
LOGO
 62
     6
100
AcDbLine
 10
784.4092364830435
 20
-10.52202643171774
 30
0.0
 11
680.6812629147615
 21
-10.52202643171787
 31
0.0
  0
LINE
  5
1056
330
1E
100
AcDbEntity
  8
LOGO
 62
     6
100
AcDbLine
 10
784.4092364830435
 20
28.48678414096935
 30
0.0
 11
680.6812629147615
 21
28.48678414096935
 31
0.0
  0
TEXT
  5
1057
330
1E
100
AcDbEntity
  8
LOGO
  6
CONTINUOUS
 62
     6
100
AcDbText
 10
706.3705066739393
 20
-4.611600587371313
 30
0.0
 40
8.865638766519824
  1
Accessory
 41
0.8
  7
CHINESET
 72
     4
 11
732.5452496989026
 21
-1.656387665198039
 31
0.0
100
AcDbText
  0
LINE
  5
1058
330
1E
100
AcDbEntity
  8
LOGO
 62
     6
100
AcDbLine
 10
680.6812629147615
 20
28.48678414096935
 30
0.0
 11
680.6812629147615
 21
-10.52202643171787
 31
0.0
  0
LINE
  5
1059
330
1E
100
AcDbEntity
  8
LOGO
 62
     6
100
AcDbLine
 10
669.3048881037465
 20
28.48678414096916
 30
0.0
 11
669.3048881037465
 21
-10.66911551346251
 31
0.0
  0
LINE
  5
105A
330
1E
100
AcDbEntity
  8
LOGO
 62
     6
100
AcDbLine
 10
662.2123770905306
 20
76.36123348017623
 30
0.0
 11
662.2123770905305
 21
44.44493392070482
 31
0.0
  0
LINE
  5
105B
330
1E
100
AcDbEntity
  8
LOGO
  6
CONTINUOUS
 62
     7
100
AcDbLine
 10
668.495039421045
 20
60.2900311234335
 30
0.0
 11
682.5881127324846
 21
60.2900311234335
 31
0.0
  0
TEXT
  5
105C
330
1E
100
AcDbEntity
  8
LOGO
  6
CONTINUOUS
 62
     7
100
AcDbText
 10
689.639554811262
 20
51.33637112939897
 30
0.0
 40
17.73127753303964
  1
RP
  7
CHINESET
 72
     1
 11
704.4156194221283
 21
60.20200989591879
 31
0.0
100
AcDbText
 73
     2
  0
LINE
  5
105D
330
1E
100
AcDbEntity
  8
LOGO
 62
     6
100
AcDbLine
 10
720.1264436761642
 20
76.36123348017642
 30
0.0
 11
720.1264436761642
 21
44.44493392070484
 31
0.0
  0
LINE
  5
105E
330
1E
100
AcDbEntity
  8
LOGO
 62
     6
100
AcDbLine
 10
687.8339527063529
 20
76.36123348017642
 30
0.0
 11
687.8339527063529
 21
44.44493392070484
 31
0.0
  0
LINE
  5
105F
330
1E
100
AcDbEntity
  8
LOGO
 62
     6
100
AcDbLine
 10
720.1264436761642
 20
44.44493392070484
 30
0.0
 11
687.8339527063529
 21
44.44493392070484
 31
0.0
  0
LINE
  5
1060
330
1E
100
AcDbEntity
  8
LOGO
 62
     6
100
AcDbLine
 10
703.9801981912582
 20
44.44493392070484
 30
0.0
 11
703.9801981912582
 21
28.48678414096935
 31
0.0
  0
LINE
  5
1061
330
1E
100
AcDbEntity
  8
LOGO
 62
     6
100
AcDbLine
 10
720.1264436761642
 20
76.36123348017642
 30
0.0
 11
687.8339527063529
 21
76.36123348017642
 31
0.0
  0
LINE
  5
1062
330
1E
100
AcDbEntity
  8
LOGO
 62
     6
100
AcDbLine
 10
784.4092364830435
 20
28.48678414096935
 30
0.0
 11
784.4092364830435
 21
-10.52202643171774
 31
0.0
  0
LINE
  5
1063
330
1E
100
AcDbEntity
  8
LOGO
 62
     1
100
AcDbLine
 10
835.0
 20
-19.38766519823788
 30
0.0
 11
835.0
 21
87.0
 31
0.0
  0
TEXT
  5
1EC8
330
1E
100
AcDbEntity
  8
LOGO
  6
CONTINUOUS
 62
     7
100
AcDbText
 10
422.0870188205511
 20
51.33637112939895
 30
0.0
 40
17.73127753303964
  1
MGTX
  7
CHINESET
 72
     1
 11
454.5943609644571
 21
60.20200989591877
 31
0.0
100
AcDbText
 73
     2
  0
TEXT
  5
27F4
330
1E
100
AcDbEntity
  8
LOGO
  6
CONTINUOUS
 62
     7
100
AcDbText
 10
624.9002905976338
 20
448.4007508820798
 30
0.0
 40
17.73127753303964
  1
RP 配件
  7
CHINESET
 72
     1
 11
668.1994370734047
 21
457.2663896485996
 31
0.0
100
AcDbText
 73
     2
  0
LINE
  5
3469
330
1E
100
AcDbEntity
  8
CENTER
  6
CENTER
100
AcDbLine
 10
233.7361458384558
 20
386.7473492739041
 30
0.0
 11
411.0842129507622
 21
386.7473492739041
 31
0.0
  0
LINE
  5
346A
330
1E
100
AcDbEntity
  8
0
  6
CONTINUOUS
100
AcDbLine
 10
276.7361458384556
 20
158.7534017485723
 30
0.0
 11
312.7361458384557
 21
158.7534017485723
 31
0.0
  0
LINE
  5
346B
330
1E
100
AcDbEntity
  8
0
  6
CONTINUOUS
100
AcDbLine
 10
276.7361458384556
 20
126.7534017485723
 30
0.0
 11
312.7361458384557
 21
126.7534017485723
 31
0.0
  0
LINE
  5
346C
330
1E
100
AcDbEntity
  8
0
100
AcDbLine
 10
280.7361458384557
 20
180.2534017485725
 30
0.0
 11
312.7361458384558
 21
179.7534017485724
 31
0.0
  0
LINE
  5
346D
330
1E
100
AcDbEntity
  8
0
100
AcDbLine
 10
280.7361458384557
 20
105.2534017485722
 30
0.0
 11
312.7361458384558
 21
105.7534017485723
 31
0.0
  0
LINE
  5
346E
330
1E
100
AcDbEntity
  8
CENTER
  6
CENTER
100
AcDbLine
 10
184.7361458384559
 20
142.7534017485723
 30
0.0
 11
409.7361458384557
 21
142.7534017485724
 31
0.0
  0
LINE
  5
346F
330
1E
100
AcDbEntity
  8
CENTER
  6
CENTER
100
AcDbLine
 10
335.4353048009861
 20
171.0034017485724
 30
0.0
 11
188.7361458384559
 21
171.0034017485724
 31
0.0
  0
LINE
  5
3470
330
1E
100
AcDbEntity
  8
CENTER
  6
CENTER
100
AcDbLine
 10
335.4353048009861
 20
114.5034017485724
 30
0.0
 11
188.736145838456
 21
114.5034017485724
 31
0.0
  0
LINE
  5
3471
330
1E
100
AcDbEntity
  8
DIM
100
AcDbLine
 10
403.7361458384557
 20
432.747349273904
 30
0.0
 11
236.7361458384557
 21
432.747349273904
 31
0.0
  0
LINE
  5
3472
330
1E
100
AcDbEntity
  8
0
100
AcDbLine
 10
280.7361458384557
 20
461.451393042363
 30
0.0
 11
312.7361458384558
 21
461.9513930423631
 31
0.0
  0
LINE
  5
3473
330
1E
100
AcDbEntity
  8
0
100
AcDbLine
 10
280.7361458384557
 20
536.4513930423633
 30
0.0
 11
312.7361458384558
 21
535.9513930423632
 31
0.0
  0
LINE
  5
3474
330
1E
100
AcDbEntity
  8
0
  6
CONTINUOUS
100
AcDbLine
 10
276.7361458384556
 20
482.951393042363
 30
0.0
 11
312.7361458384557
 21
482.951393042363
 31
0.0
  0
LINE
  5
3475
330
1E
100
AcDbEntity
  8
0
  6
CONTINUOUS
100
AcDbLine
 10
276.7361458384556
 20
514.9513930423632
 30
0.0
 11
312.7361458384557
 21
514.9513930423632
 31
0.0
  0
LINE
  5
3476
330
1E
100
AcDbEntity
  8
0
  6
CONTINUOUS
100
AcDbLine
 10
276.7361458384556
 20
370.747349273904
 30
0.0
 11
312.7361458384557
 21
370.747349273904
 31
0.0
  0
LINE
  5
3477
330
1E
100
AcDbEntity
  8
0
  6
CONTINUOUS
100
AcDbLine
 10
276.7361458384556
 20
402.7473492739041
 30
0.0
 11
312.7361458384557
 21
402.7473492739041
 31
0.0
  0
LINE
  5
3478
330
1E
100
AcDbEntity
  8
0
  6
CONTINUOUS
100
AcDbLine
 10
276.7361458384558
 20
251.7473492739042
 30
0.0
 11
312.7361458384558
 21
251.7473492739042
 31
0.0
  0
LINE
  5
3479
330
1E
100
AcDbEntity
  8
0
  6
CONTINUOUS
100
AcDbLine
 10
276.7361458384558
 20
283.7473492739042
 30
0.0
 11
312.7361458384557
 21
283.7473492739042
 31
0.0
  0
LINE
  5
347A
330
1E
100
AcDbEntity
  8
CENTER
  6
CENTER
100
AcDbLine
 10
335.435304800986
 20
527.2013930423631
 30
0.0
 11
188.7361458384559
 21
527.2013930423631
 31
0.0
  0
LINE
  5
347B
330
1E
100
AcDbEntity
  8
CENTER
  6
CENTER
100
AcDbLine
 10
335.435304800986
 20
470.7013930423632
 30
0.0
 11
188.736145838456
 21
470.7013930423632
 31
0.0
  0
POLYLINE
  5
347C
330
1E
100
AcDbEntity
  8
0
  6
CONTINUOUS
100
AcDb2dPolyline
 66
     1
 10
0.0
 20
0.0
 30
0.0
 70
     1
  0
VERTEX
  5
4264
330
347C
100
AcDbEntity
  8
0
  6
CONTINUOUS
100
AcDbVertex
100
AcDb2dVertex
 10
286.8701204346714
 20
337.7473492739039
 30
0.0
  0
VERTEX
  5
4265
330
347C
100
AcDbEntity
  8
0
  6
CONTINUOUS
100
AcDbVertex
100
AcDb2dVertex
 10
286.004095030887
 20
336.2473492739039
 30
0.0
  0
VERTEX
  5
4266
330
347C
100
AcDbEntity
  8
0
  6
CONTINUOUS
100
AcDbVertex
100
AcDb2dVertex
 10
286.8701204346714
 20
334.7473492739039
 30
0.0
  0
VERTEX
  5
4267
330
347C
100
AcDbEntity
  8
0
  6
CONTINUOUS
100
AcDbVertex
100
AcDb2dVertex
 10
288.6021712422402
 20
334.7473492739039
 30
0.0
  0
VERTEX
  5
4268
330
347C
100
AcDbEntity
  8
0
  6
CONTINUOUS
100
AcDbVertex
100
AcDb2dVertex
 10
289.4681966460246
 20
336.2473492739039
 30
0.0
  0
VERTEX
  5
4269
330
347C
100
AcDbEntity
  8
0
  6
CONTINUOUS
100
AcDbVertex
100
AcDb2dVertex
 10
288.6021712422402
 20
337.7473492739039
 30
0.0
  0
SEQEND
  5
426A
330
347C
100
AcDbEntity
  8
0
  6
CONTINUOUS
  0
CIRCLE
  5
347D
330
1E
100
AcDbEntity
  8
0
  6
CONTINUOUS
100
AcDbCircle
 10
287.7361458384558
 20
336.2473492739039
 30
0.0
 40
2.5
  0
LINE
  5
347E
330
1E
100
AcDbEntity
  8
CENTER
  6
CENTER
100
AcDbLine
 10
281.2361458384555
 20
336.2473492739039
 30
0.0
 11
294.2361458384556
 21
336.2473492739039
 31
0.0
  0
CIRCLE
  5
347F
330
1E
100
AcDbEntity
  8
0
100
AcDbCircle
 10
287.7361458384558
 20
336.2473492739039
 30
0.0
 40
5.299999999999999
  0
CIRCLE
  5
3480
330
1E
100
AcDbEntity
  8
0
100
AcDbCircle
 10
287.7361458384558
 20
336.2473492739039
 30
0.0
 40
5.0
  0
CIRCLE
  5
3481
330
1E
100
AcDbEntity
  8
0
100
AcDbCircle
 10
296.7361458384557
 20
320.2473492739039
 30
0.0
 40
11.5
  0
LINE
  5
3482
330
1E
100
AcDbEntity
  8
CENTER
  6
CENTER
100
AcDbLine
 10
182.8671336249662
 20
327.247349273904
 30
0.0
 11
409.3075534455031
 21
327.247349273904
 31
0.0
  0
LINE
  5
3483
330
1E
100
AcDbEntity
  8
CENTER
  6
CENTER
100
AcDbLine
 10
332.7361458384555
 20
298.9973492739041
 30
0.0
 11
188.7361458384557
 21
298.9973492739041
 31
0.0
  0
LINE
  5
3484
330
1E
100
AcDbEntity
  8
CENTER
  6
CENTER
100
AcDbLine
 10
332.7361458384558
 20
355.4973492739042
 30
0.0
 11
188.7361458384556
 21
355.4973492739041
 31
0.0
  0
LINE
  5
3485
330
1E
100
AcDbEntity
  8
CENTER
  6
CENTER
100
AcDbLine
 10
184.7361458384559
 20
498.9513930423631
 30
0.0
 11
409.7361458384557
 21
498.9513930423632
 31
0.0
  0
LINE
  5
3486
330
1E
100
AcDbEntity
  8
CENTER
  6
CENTER
100
AcDbLine
 10
233.7361458384557
 20
267.7473492739042
 30
0.0
 11
409.7361458384559
 21
267.7473492739042
 31
0.0
  0
LINE
  5
3487
330
1E
100
AcDbEntity
  8
DIM
100
AcDbLine
 10
309.7361458384558
 20
213.747349273904
 30
0.0
 11
186.7361458384556
 21
213.747349273904
 31
0.0
  0
LINE
  5
3488
330
1E
100
AcDbEntity
  8
DIM
100
AcDbLine
 10
312.7361458384557
 20
221.747349273904
 30
0.0
 11
276.7361458384559
 21
221.747349273904
 31
0.0
  0
LINE
  5
3489
330
1E
100
AcDbEntity
  8
0
100
AcDbLine
 10
280.7361458384557
 20
289.7473492739042
 30
0.0
 11
312.7361458384558
 21
290.247349273904
 31
0.0
  0
LINE
  5
348A
330
1E
100
AcDbEntity
  8
CENTER
  6
CENTER
100
AcDbLine
 10
284.2361458384558
 20
320.2473492739039
 30
0.0
 11
309.2361458384558
 21
320.2473492739039
 31
0.0
  0
LINE
  5
348B
330
1E
100
AcDbEntity
  8
0
100
AcDbLine
 10
280.7361458384557
 20
364.7473492739042
 30
0.0
 11
312.7361458384558
 21
364.247349273904
 31
0.0
  0
LINE
  5
348C
330
1E
100
AcDbEntity
  8
DIM
100
AcDbLine
 10
186.7361458384556
 20
303.6771177653778
 30
0.0
 11
186.7361458384556
 21
212.747349273904
 31
0.0
  0
ARC
  5
348D
330
1E
100
AcDbEntity
  8
0
  6
CONTINUOUS
100
AcDbCircle
 10
93.21504063529118
 20
289.2473492739042
 30
0.0
 40
3.903579676674365
100
AcDbArc
 50
172.640906274093
 51
7.359093725906916
  0
ARC
  5
348E
330
1E
100
AcDbEntity
  8
0
  6
CONTINUOUS
100
AcDbCircle
 10
93.21504063529118
 20
289.2473492739042
 30
0.0
 40
4.25
100
AcDbArc
 50
173.2436729694117
 51
6.756327030588198
  0
ARC
  5
348F
330
1E
100
AcDbEntity
  8
0
100
AcDbCircle
 10
93.21504063529118
 20
267.7473492739042
 30
0.0
 40
27.0
100
AcDbArc
 50
125.4309446873363
 51
54.56905531266365
  0
CIRCLE
  5
3490
330
1E
100
AcDbEntity
  8
CENTER
  6
CENTER
100
AcDbCircle
 10
93.21504063529118
 20
267.7473492739042
 30
0.0
 40
21.49999999999999
  0
LINE
  5
3491
330
1E
100
AcDbEntity
  8
DIM
100
AcDbLine
 10
191.7361458384557
 20
288.9966260992295
 30
0.0
 11
191.7361458384557
 21
219.893051174457
 31
0.0
  0
LINE
  5
3492
330
1E
100
AcDbEntity
  8
0
100
AcDbLine
 10
133.2150406352911
 20
424.747349273904
 30
0.0
 11
133.2150406352911
 21
229.747349273904
 31
0.0
  0
LINE
  5
3493
330
1E
100
AcDbEntity
  8
0
100
AcDbLine
 10
53.21504063529108
 20
424.7473492739039
 30
0.0
 11
53.21504063529113
 21
229.747349273904
 31
0.0
  0
LINE
  5
3494
330
1E
100
AcDbEntity
  8
CENTER
  6
CENTER
100
AcDbLine
 10
93.21504063529109
 20
427.7473492739039
 30
0.0
 11
93.21504063529122
 21
226.747349273904
 31
0.0
  0
CIRCLE
  5
3495
330
1E
100
AcDbEntity
  8
0
  6
CONTINUOUS
100
AcDbCircle
 10
93.21504063529122
 20
246.2473492739042
 30
0.0
 40
3.903579676674365
  0
CIRCLE
  5
3496
330
1E
100
AcDbEntity
  8
0
  6
CONTINUOUS
100
AcDbCircle
 10
93.21504063529122
 20
246.2473492739042
 30
0.0
 40
4.25
  0
CIRCLE
  5
3497
330
1E
100
AcDbEntity
  8
0
100
AcDbCircle
 10
93.21504063529118
 20
267.7473492739042
 30
0.0
 40
9.0
  0
CIRCLE
  5
3498
330
1E
100
AcDbEntity
  8
0
100
AcDbCircle
 10
93.21504063529118
 20
267.7473492739042
 30
0.0
 40
16.0
  0
LINE
  5
3499
330
1E
100
AcDbEntity
  8
0
100
AcDbLine
 10
53.21504063529113
 20
229.747349273904
 30
0.0
 11
133.2150406352911
 21
229.747349273904
 31
0.0
  0
CIRCLE
  5
349A
330
1E
100
AcDbEntity
  8
0
100
AcDbCircle
 10
93.21504063529118
 20
267.7473492739042
 30
0.0
 40
10.0
  0
LINE
  5
349B
330
1E
100
AcDbEntity
  8
CENTER
  6
CENTER
100
AcDbLine
 10
63.21504063529127
 20
267.7473492739042
 30
0.0
 11
123.215040635291
 21
267.7473492739042
 31
0.0
  0
LINE
  5
349C
330
1E
100
AcDbEntity
  8
CENTER
  6
CENTER
100
AcDbLine
 10
64.96504063529136
 20
230.7473492739041
 30
0.0
 11
64.96504063529136
 21
248.7473492739041
 31
0.0
  0
CIRCLE
  5
349D
330
1E
100
AcDbEntity
  8
0
  6
CONTINUOUS
100
AcDbCircle
 10
64.96504063529136
 20
239.7473492739041
 30
0.0
 40
4.5
  0
LINE
  5
349E
330
1E
100
AcDbEntity
  8
CENTER
  6
CENTER
100
AcDbLine
 10
55.96504063529136
 20
239.7473492739041
 30
0.0
 11
73.96504063529135
 21
239.7473492739041
 31
0.0
  0
CIRCLE
  5
349F
330
1E
100
AcDbEntity
  8
0
  6
CONTINUOUS
100
AcDbCircle
 10
71.71504063529119
 20
267.7473492739042
 30
0.0
 40
3.903579676674365
  0
CIRCLE
  5
34A0
330
1E
100
AcDbEntity
  8
0
  6
CONTINUOUS
100
AcDbCircle
 10
71.71504063529119
 20
267.7473492739042
 30
0.0
 40
4.25
  0
POLYLINE
  5
34A1
330
1E
100
AcDbEntity
  8
0
  6
CONTINUOUS
100
AcDb2dPolyline
 66
     1
 10
0.0
 20
0.0
 30
0.0
 70
     1
  0
VERTEX
  5
426B
330
34A1
100
AcDbEntity
  8
0
  6
CONTINUOUS
100
AcDbVertex
100
AcDb2dVertex
 10
70.56034009691121
 20
269.7473492739042
 30
0.0
  0
VERTEX
  5
426C
330
34A1
100
AcDbEntity
  8
0
  6
CONTINUOUS
100
AcDbVertex
100
AcDb2dVertex
 10
69.40563955853304
 20
267.7473492739042
 30
0.0
  0
VERTEX
  5
426D
330
34A1
100
AcDbEntity
  8
0
  6
CONTINUOUS
100
AcDbVertex
100
AcDb2dVertex
 10
70.56034009691121
 20
265.7473492739041
 30
0.0
  0
VERTEX
  5
426E
330
34A1
100
AcDbEntity
  8
0
  6
CONTINUOUS
100
AcDbVertex
100
AcDb2dVertex
 10
72.86974117367117
 20
265.7473492739041
 30
0.0
  0
VERTEX
  5
426F
330
34A1
100
AcDbEntity
  8
0
  6
CONTINUOUS
100
AcDbVertex
100
AcDb2dVertex
 10
74.02444171204933
 20
267.7473492739042
 30
0.0
  0
VERTEX
  5
4270
330
34A1
100
AcDbEntity
  8
0
  6
CONTINUOUS
100
AcDbVertex
100
AcDb2dVertex
 10
72.86974117367117
 20
269.7473492739042
 30
0.0
  0
SEQEND
  5
4271
330
34A1
100
AcDbEntity
  8
0
  6
CONTINUOUS
  0
LINE
  5
34A2
330
1E
100
AcDbEntity
  8
CENTER
  6
CENTER
100
AcDbLine
 10
121.4650406352913
 20
230.7473492739041
 30
0.0
 11
121.4650406352913
 21
248.7473492739041
 31
0.0
  0
CIRCLE
  5
34A3
330
1E
100
AcDbEntity
  8
0
  6
CONTINUOUS
100
AcDbCircle
 10
121.4650406352913
 20
239.747349273904
 30
0.0
 40
4.5
  0
LINE
  5
34A4
330
1E
100
AcDbEntity
  8
CENTER
  6
CENTER
100
AcDbLine
 10
112.4650406352913
 20
239.747349273904
 30
0.0
 11
130.4650406352913
 21
239.747349273904
 31
0.0
  0
CIRCLE
  5
34A5
330
1E
100
AcDbEntity
  8
0
  6
CONTINUOUS
100
AcDbCircle
 10
114.7150406352911
 20
267.7473492739042
 30
0.0
 40
3.903579676674365
  0
CIRCLE
  5
34A6
330
1E
100
AcDbEntity
  8
0
  6
CONTINUOUS
100
AcDbCircle
 10
114.7150406352911
 20
267.7473492739042
 30
0.0
 40
4.25
  0
POLYLINE
  5
34A7
330
1E
100
AcDbEntity
  8
0
  6
CONTINUOUS
100
AcDb2dPolyline
 66
     1
 10
0.0
 20
0.0
 30
0.0
 70
     1
  0
VERTEX
  5
4272
330
34A7
100
AcDbEntity
  8
0
  6
CONTINUOUS
100
AcDbVertex
100
AcDb2dVertex
 10
92.06034009691123
 20
248.2473492739042
 30
0.0
  0
VERTEX
  5
4273
330
34A7
100
AcDbEntity
  8
0
  6
CONTINUOUS
100
AcDbVertex
100
AcDb2dVertex
 10
90.90563955853307
 20
246.2473492739042
 30
0.0
  0
VERTEX
  5
4274
330
34A7
100
AcDbEntity
  8
0
  6
CONTINUOUS
100
AcDbVertex
100
AcDb2dVertex
 10
92.06034009691123
 20
244.2473492739042
 30
0.0
  0
VERTEX
  5
4275
330
34A7
100
AcDbEntity
  8
0
  6
CONTINUOUS
100
AcDbVertex
100
AcDb2dVertex
 10
94.36974117367119
 20
244.2473492739042
 30
0.0
  0
VERTEX
  5
4276
330
34A7
100
AcDbEntity
  8
0
  6
CONTINUOUS
100
AcDbVertex
100
AcDb2dVertex
 10
95.52444171204937
 20
246.2473492739042
 30
0.0
  0
VERTEX
  5
4277
330
34A7
100
AcDbEntity
  8
0
  6
CONTINUOUS
100
AcDbVertex
100
AcDb2dVertex
 10
94.36974117367119
 20
248.2473492739042
 30
0.0
  0
SEQEND
  5
4278
330
34A7
100
AcDbEntity
  8
0
  6
CONTINUOUS
  0
POLYLINE
  5
34A8
330
1E
100
AcDbEntity
  8
0
  6
CONTINUOUS
100
AcDb2dPolyline
 66
     1
 10
0.0
 20
0.0
 30
0.0
 70
     1
  0
VERTEX
  5
4279
330
34A8
100
AcDbEntity
  8
0
  6
CONTINUOUS
100
AcDbVertex
100
AcDb2dVertex
 10
113.5603400969112
 20
269.7473492739042
 30
0.0
  0
VERTEX
  5
427A
330
34A8
100
AcDbEntity
  8
0
  6
CONTINUOUS
100
AcDbVertex
100
AcDb2dVertex
 10
112.405639558533
 20
267.7473492739042
 30
0.0
  0
VERTEX
  5
427B
330
34A8
100
AcDbEntity
  8
0
  6
CONTINUOUS
100
AcDbVertex
100
AcDb2dVertex
 10
113.5603400969112
 20
265.7473492739041
 30
0.0
  0
VERTEX
  5
427C
330
34A8
100
AcDbEntity
  8
0
  6
CONTINUOUS
100
AcDbVertex
100
AcDb2dVertex
 10
115.8697411736711
 20
265.7473492739041
 30
0.0
  0
VERTEX
  5
427D
330
34A8
100
AcDbEntity
  8
0
  6
CONTINUOUS
100
AcDbVertex
100
AcDb2dVertex
 10
117.0244417120493
 20
267.7473492739042
 30
0.0
  0
VERTEX
  5
427E
330
34A8
100
AcDbEntity
  8
0
  6
CONTINUOUS
100
AcDbVertex
100
AcDb2dVertex
 10
115.8697411736711
 20
269.7473492739042
 30
0.0
  0
SEQEND
  5
427F
330
34A8
100
AcDbEntity
  8
0
  6
CONTINUOUS
  0
LINE
  5
34A9
330
1E
100
AcDbEntity
  8
0
100
AcDbLine
 10
223.7361458384557
 20
180.2534017485722
 30
0.0
 11
191.7361458384559
 21
179.7534017485722
 31
0.0
  0
LINE
  5
34AA
330
1E
100
AcDbEntity
  8
0
100
AcDbLine
 10
223.7361458384557
 20
105.2534017485723
 30
0.0
 11
191.736145838456
 21
105.7534017485722
 31
0.0
  0
LINE
  5
34AB
330
1E
100
AcDbEntity
  8
0
100
AcDbLine
 10
191.736145838456
 20
105.7534017485722
 30
0.0
 11
191.7361458384559
 21
179.7534017485722
 31
0.0
  0
LINE
  5
34AC
330
1E
100
AcDbEntity
  8
0
100
AcDbLine
 10
187.7361458384559
 20
121.2534017485722
 30
0.0
 11
187.7361458384559
 21
164.2534017485722
 31
0.0
  0
LINE
  5
34AD
330
1E
100
AcDbEntity
  8
0
100
AcDbLine
 10
191.736145838456
 20
120.2534017485722
 30
0.0
 11
188.7361458384559
 21
120.2534017485722
 31
0.0
  0
ARC
  5
34AE
330
1E
100
AcDbEntity
  8
0
100
AcDbCircle
 10
188.7361458384559
 20
121.2534017485722
 30
0.0
 40
1.0
100
AcDbArc
 50
180.0
 51
270.0
  0
LINE
  5
34AF
330
1E
100
AcDbEntity
  8
HIDDEN
  6
HIDDEN
100
AcDbLine
 10
197.736145838456
 20
111.1034017485723
 30
0.0
 11
212.7361458384561
 21
111.1034017485723
 31
0.0
  0
LINE
  5
34B0
330
1E
100
AcDbEntity
  8
HIDDEN
  6
HIDDEN
100
AcDbLine
 10
191.736145838456
 20
110.5034017485722
 30
0.0
 11
209.736145838456
 21
110.5034017485722
 31
0.0
  0
LINE
  5
34B1
330
1E
100
AcDbEntity
  8
HIDDEN
  6
HIDDEN
100
AcDbLine
 10
197.736145838456
 20
117.9034017485723
 30
0.0
 11
212.7361458384561
 21
117.9034017485723
 31
0.0
  0
LINE
  5
34B2
330
1E
100
AcDbEntity
  8
HIDDEN
  6
HIDDEN
100
AcDbLine
 10
191.7361458384559
 20
118.5034017485724
 30
0.0
 11
209.736145838456
 21
118.5034017485722
 31
0.0
  0
LINE
  5
34B3
330
1E
100
AcDbEntity
  8
HIDDEN
  6
HIDDEN
100
AcDbLine
 10
197.736145838456
 20
110.5034017485722
 30
0.0
 11
197.736145838456
 21
118.5034017485722
 31
0.0
  0
LINE
  5
34B4
330
1E
100
AcDbEntity
  8
HIDDEN
  6
HIDDEN
100
AcDbLine
 10
212.7361458384561
 20
111.1034017485723
 30
0.0
 11
214.6991367537008
 21
114.5034017485722
 31
0.0
  0
LINE
  5
34B5
330
1E
100
AcDbEntity
  8
HIDDEN
  6
HIDDEN
100
AcDbLine
 10
212.7361458384561
 20
111.1034017485723
 30
0.0
 11
212.7361458384561
 21
117.9034017485722
 31
0.0
  0
LINE
  5
34B6
330
1E
100
AcDbEntity
  8
HIDDEN
  6
HIDDEN
100
AcDbLine
 10
209.736145838456
 20
110.5034017485722
 30
0.0
 11
209.736145838456
 21
118.5034017485722
 31
0.0
  0
LINE
  5
34B7
330
1E
100
AcDbEntity
  8
HIDDEN
  6
HIDDEN
100
AcDbLine
 10
212.7361458384561
 20
117.9034017485723
 30
0.0
 11
214.6991367537008
 21
114.5034017485722
 31
0.0
  0
LINE
  5
34B8
330
1E
100
AcDbEntity
  8
0
100
AcDbLine
 10
191.7361458384559
 20
165.2534017485722
 30
0.0
 11
188.7361458384559
 21
165.2534017485722
 31
0.0
  0
ARC
  5
34B9
330
1E
100
AcDbEntity
  8
0
100
AcDbCircle
 10
188.7361458384559
 20
164.2534017485722
 30
0.0
 40
1.0
100
AcDbArc
 50
90.0
 51
180.0
  0
LINE
  5
34BA
330
1E
100
AcDbEntity
  8
HIDDEN
  6
HIDDEN
100
AcDbLine
 10
209.736145838456
 20
175.0034017485722
 30
0.0
 11
209.736145838456
 21
167.0034017485722
 31
0.0
  0
LINE
  5
34BB
330
1E
100
AcDbEntity
  8
HIDDEN
  6
HIDDEN
100
AcDbLine
 10
212.7361458384561
 20
174.4034017485722
 30
0.0
 11
212.7361458384561
 21
167.6034017485723
 31
0.0
  0
LINE
  5
34BC
330
1E
100
AcDbEntity
  8
HIDDEN
  6
HIDDEN
100
AcDbLine
 10
212.7361458384561
 20
174.4034017485722
 30
0.0
 11
214.6991367537008
 21
171.0034017485722
 31
0.0
  0
LINE
  5
34BD
330
1E
100
AcDbEntity
  8
HIDDEN
  6
HIDDEN
100
AcDbLine
 10
197.736145838456
 20
175.0034017485722
 30
0.0
 11
197.736145838456
 21
167.0034017485722
 31
0.0
  0
LINE
  5
34BE
330
1E
100
AcDbEntity
  8
CENTER
  6
CENTER
100
AcDbLine
 10
216.7361458384555
 20
165.9031482161036
 30
0.0
 11
216.7361458384556
 21
183.8575523165222
 31
0.0
  0
LINE
  5
34BF
330
1E
100
AcDbEntity
  8
CENTER
  6
CENTER
100
AcDbLine
 10
207.7361458384561
 20
184.0994663872574
 30
0.0
 11
207.736145838456
 21
165.2220113044616
 31
0.0
  0
LINE
  5
34C0
330
1E
100
AcDbEntity
  8
HIDDEN
  6
HIDDEN
100
AcDbLine
 10
197.736145838456
 20
167.6034017485723
 30
0.0
 11
212.7361458384561
 21
167.6034017485723
 31
0.0
  0
LINE
  5
34C1
330
1E
100
AcDbEntity
  8
HIDDEN
  6
HIDDEN
100
AcDbLine
 10
191.7361458384559
 20
167.0034017485722
 30
0.0
 11
209.736145838456
 21
167.0034017485722
 31
0.0
  0
LINE
  5
34C2
330
1E
100
AcDbEntity
  8
HIDDEN
  6
HIDDEN
100
AcDbLine
 10
212.7361458384561
 20
167.6034017485723
 30
0.0
 11
214.6991367537008
 21
171.0034017485722
 31
0.0
  0
LINE
  5
34C3
330
1E
100
AcDbEntity
  8
HIDDEN
  6
HIDDEN
100
AcDbLine
 10
197.736145838456
 20
174.4034017485722
 30
0.0
 11
212.7361458384561
 21
174.4034017485722
 31
0.0
  0
LINE
  5
34C4
330
1E
100
AcDbEntity
  8
HIDDEN
  6
HIDDEN
100
AcDbLine
 10
191.736145838456
 20
175.0034017485722
 30
0.0
 11
209.736145838456
 21
175.0034017485722
 31
0.0
  0
LINE
  5
34C5
330
1E
100
AcDbEntity
  8
0
100
AcDbLine
 10
236.7361458384558
 20
151.7534017485724
 30
0.0
 11
236.7361458384558
 21
133.7534017485724
 31
0.0
  0
LINE
  5
34C6
330
1E
100
AcDbEntity
  8
0
100
AcDbLine
 10
237.7361458384557
 20
152.7534017485724
 30
0.0
 11
237.7361458384557
 21
132.7534017485724
 31
0.0
  0
LINE
  5
34C7
330
1E
100
AcDbEntity
  8
0
100
AcDbLine
 10
276.7361458384556
 20
158.7534017485723
 30
0.0
 11
276.7361458384556
 21
126.7534017485723
 31
0.0
  0
LINE
  5
34C8
330
1E
100
AcDbEntity
  8
0
100
AcDbLine
 10
223.7361458384557
 20
105.2534017485723
 30
0.0
 11
223.7361458384557
 21
180.2534017485722
 31
0.0
  0
LINE
  5
34C9
330
1E
100
AcDbEntity
  8
0
100
AcDbLine
 10
237.7361458384557
 20
132.7534017485724
 30
0.0
 11
276.7361458384556
 21
132.7534017485723
 31
0.0
  0
LINE
  5
34CA
330
1E
100
AcDbEntity
  8
0
100
AcDbLine
 10
280.7361458384557
 20
123.9632922899989
 30
0.0
 11
223.7361458384557
 21
123.9632922899989
 31
0.0
  0
LINE
  5
34CB
330
1E
100
AcDbEntity
  8
0
100
AcDbLine
 10
280.7361458384556
 20
107.7534017485723
 30
0.0
 11
223.7361458384557
 21
107.7534017485723
 31
0.0
  0
LINE
  5
34CC
330
1E
100
AcDbEntity
  8
0
100
AcDbLine
 10
236.7361458384558
 20
133.7534017485724
 30
0.0
 11
237.7361458384557
 21
132.7534017485724
 31
0.0
  0
LINE
  5
34CD
330
1E
100
AcDbEntity
  8
0
100
AcDbLine
 10
280.7361458384557
 20
105.2534017485722
 30
0.0
 11
280.7361458384556
 21
126.7534017485724
 31
0.0
  0
LINE
  5
34CE
330
1E
100
AcDbEntity
  8
0
100
AcDbLine
 10
237.7361458384557
 20
152.7534017485724
 30
0.0
 11
276.7361458384556
 21
152.7534017485723
 31
0.0
  0
LINE
  5
34CF
330
1E
100
AcDbEntity
  8
0
100
AcDbLine
 10
280.7361458384557
 20
161.5435112071459
 30
0.0
 11
223.7361458384557
 21
161.5435112071459
 31
0.0
  0
LINE
  5
34D0
330
1E
100
AcDbEntity
  8
0
100
AcDbLine
 10
280.7361458384556
 20
177.7534017485724
 30
0.0
 11
223.7361458384557
 21
177.7534017485724
 31
0.0
  0
LINE
  5
34D1
330
1E
100
AcDbEntity
  8
0
100
AcDbLine
 10
237.7361458384557
 20
152.7534017485724
 30
0.0
 11
236.7361458384558
 21
151.7534017485724
 31
0.0
  0
LINE
  5
34D2
330
1E
100
AcDbEntity
  8
0
100
AcDbLine
 10
280.7361458384557
 20
158.7534017485724
 30
0.0
 11
280.7361458384556
 21
180.2534017485725
 31
0.0
  0
LINE
  5
34D3
330
1E
100
AcDbEntity
  8
DIM
100
AcDbLine
 10
198.7242109230319
 20
221.747349273904
 30
0.0
 11
178.077092257932
 21
221.747349273904
 31
0.0
  0
SOLID
  5
34D4
330
1E
100
AcDbEntity
  8
DIM
100
AcDbTrace
 10
189.7361458384556
 20
214.247349273904
 30
0.0
 11
189.7361458384556
 21
213.247349273904
 31
0.0
 12
186.7361458384556
 22
213.747349273904
 32
0.0
 13
186.7361458384556
 23
213.747349273904
 33
0.0
  0
TEXT
  5
34D5
330
1E
100
AcDbEntity
  8
DIM
100
AcDbText
 10
180.0304069401855
 20
223.2473492739039
 30
0.0
 40
3.0
  1
5
  7
ROMANSS
 72
     1
 11
181.0304069401855
 21
224.747349273904
 31
0.0
100
AcDbText
 73
     2
  0
SOLID
  5
34D6
330
1E
100
AcDbEntity
  8
DIM
100
AcDbTrace
 10
183.7361458384558
 20
222.247349273904
 30
0.0
 11
183.7361458384558
 21
221.247349273904
 31
0.0
 12
186.7361458384558
 22
221.747349273904
 32
0.0
 13
186.7361458384558
 23
221.747349273904
 33
0.0
  0
SOLID
  5
34D7
330
1E
100
AcDbEntity
  8
DIM
100
AcDbTrace
 10
194.7361458384559
 20
222.247349273904
 30
0.0
 11
194.7361458384559
 21
221.247349273904
 31
0.0
 12
191.7361458384559
 22
221.747349273904
 32
0.0
 13
191.7361458384559
 23
221.747349273904
 33
0.0
  0
LINE
  5
34D8
330
1E
100
AcDbEntity
  8
DIM
100
AcDbLine
 10
276.7361458384559
 20
250.577465730282
 30
0.0
 11
276.7361458384559
 21
220.7473492739041
 31
0.0
  0
TEXT
  5
34D9
330
1E
100
AcDbEntity
  8
DIM
100
AcDbText
 10
239.5932886955986
 20
215.247349273904
 30
0.0
 40
3.0
  1
126+Stroke
  7
ROMANSS
 72
     1
 11
252.2361458384557
 21
216.747349273904
 31
0.0
100
AcDbText
 73
     2
  0
SOLID
  5
34DA
330
1E
100
AcDbEntity
  8
DIM
100
AcDbTrace
 10
279.7361458384559
 20
222.2473492739041
 30
0.0
 11
279.7361458384559
 21
221.2473492739041
 31
0.0
 12
276.7361458384559
 22
221.7473492739041
 32
0.0
 13
276.7361458384559
 23
221.7473492739041
 33
0.0
  0
LINE
  5
34DB
330
1E
100
AcDbEntity
  8
0
100
AcDbLine
 10
237.7361458384557
 20
277.7473492739042
 30
0.0
 11
276.7361458384558
 21
277.7473492739042
 31
0.0
  0
LINE
  5
34DC
330
1E
100
AcDbEntity
  8
0
100
AcDbLine
 10
237.7361458384557
 20
257.7473492739041
 30
0.0
 11
276.7361458384558
 21
257.7473492739041
 31
0.0
  0
LINE
  5
34DD
330
1E
100
AcDbEntity
  8
0
100
AcDbLine
 10
237.7361458384557
 20
277.7473492739041
 30
0.0
 11
237.7361458384557
 21
257.7473492739041
 31
0.0
  0
LINE
  5
34DE
330
1E
100
AcDbEntity
  8
0
100
AcDbLine
 10
236.7361458384557
 20
276.7473492739042
 30
0.0
 11
236.7361458384557
 21
258.7473492739042
 31
0.0
  0
LINE
  5
34DF
330
1E
100
AcDbEntity
  8
DIM
100
AcDbLine
 10
228.7361458384557
 20
260.7473492739042
 30
0.0
 11
228.7361458384557
 21
274.7473492739042
 31
0.0
  0
LINE
  5
34E0
330
1E
100
AcDbEntity
  8
DIM
100
AcDbLine
 10
235.7361458384557
 20
257.7473492739041
 30
0.0
 11
227.7361458384557
 21
257.7473492739041
 31
0.0
  0
SOLID
  5
34E1
330
1E
100
AcDbEntity
  8
DIM
100
AcDbTrace
 10
228.2361458384557
 20
260.7473492739042
 30
0.0
 11
229.2361458384557
 21
260.7473492739042
 31
0.0
 12
228.7361458384557
 22
257.7473492739041
 32
0.0
 13
228.7361458384557
 23
257.7473492739041
 33
0.0
  0
LINE
  5
34E2
330
1E
100
AcDbEntity
  8
0
100
AcDbLine
 10
236.7361458384557
 20
258.7473492739042
 30
0.0
 11
237.7361458384557
 21
257.7473492739041
 31
0.0
  0
SOLID
  5
34E3
330
1E
100
AcDbEntity
  8
DIM
100
AcDbTrace
 10
228.2361458384557
 20
274.7473492739042
 30
0.0
 11
229.2361458384557
 21
274.7473492739042
 31
0.0
 12
228.7361458384557
 22
277.7473492739042
 32
0.0
 13
228.7361458384557
 23
277.7473492739042
 33
0.0
  0
TEXT
  5
34E4
330
1E
100
AcDbEntity
  8
DIM
100
AcDbText
 10
227.2361458384557
 20
263.9616349881899
 30
0.0
 40
3.0
  1
%%c20
 50
90.0
  7
ROMANSS
 72
     1
 11
225.7361458384557
 21
267.7473492739042
 31
0.0
100
AcDbText
 73
     2
  0
LINE
  5
34E5
330
1E
100
AcDbEntity
  8
DIM
100
AcDbLine
 10
235.7361458384557
 20
277.7473492739042
 30
0.0
 11
227.7361458384557
 21
277.7473492739042
 31
0.0
  0
LINE
  5
34E6
330
1E
100
AcDbEntity
  8
0
100
AcDbLine
 10
237.7361458384557
 20
277.7473492739042
 30
0.0
 11
236.7361458384557
 21
276.7473492739042
 31
0.0
  0
LINE
  5
34E7
330
1E
100
AcDbEntity
  8
0
100
AcDbLine
 10
276.7361458384558
 20
283.7473492739042
 30
0.0
 11
276.7361458384558
 21
251.7473492739042
 31
0.0
  0
LINE
  5
34E8
330
1E
100
AcDbEntity
  8
CENTER
  6
CENTER
100
AcDbLine
 10
216.7361458384555
 20
479.202305064665
 30
0.0
 11
216.7361458384556
 21
457.8472424744132
 31
0.0
  0
LINE
  5
34E9
330
1E
100
AcDbEntity
  8
0
100
AcDbLine
 10
280.7361458384557
 20
461.4513930423631
 30
0.0
 11
280.7361458384556
 21
482.9513930423631
 31
0.0
  0
LINE
  5
34EA
330
1E
100
AcDbEntity
  8
0
100
AcDbLine
 10
223.7361458384557
 20
461.4513930423631
 30
0.0
 11
223.7361458384557
 21
536.4513930423629
 31
0.0
  0
LINE
  5
34EB
330
1E
100
AcDbEntity
  8
HIDDEN
  6
HIDDEN
100
AcDbLine
 10
212.7361458384561
 20
474.1013930423632
 30
0.0
 11
214.6991367537008
 21
470.701393042363
 31
0.0
  0
LINE
  5
34EC
330
1E
100
AcDbEntity
  8
HIDDEN
  6
HIDDEN
100
AcDbLine
 10
209.736145838456
 20
466.701393042363
 30
0.0
 11
209.736145838456
 21
474.701393042363
 31
0.0
  0
LINE
  5
34ED
330
1E
100
AcDbEntity
  8
HIDDEN
  6
HIDDEN
100
AcDbLine
 10
212.7361458384561
 20
467.301393042363
 30
0.0
 11
212.7361458384561
 21
474.101393042363
 31
0.0
  0
LINE
  5
34EE
330
1E
100
AcDbEntity
  8
HIDDEN
  6
HIDDEN
100
AcDbLine
 10
197.736145838456
 20
466.701393042363
 30
0.0
 11
197.736145838456
 21
474.701393042363
 31
0.0
  0
LINE
  5
34EF
330
1E
100
AcDbEntity
  8
CENTER
  6
CENTER
100
AcDbLine
 10
207.7361458384561
 20
457.6053284036781
 30
0.0
 11
207.7361458384559
 21
479.032197414839
 31
0.0
  0
LINE
  5
34F0
330
1E
100
AcDbEntity
  8
0
100
AcDbLine
 10
191.736145838456
 20
461.9513930423631
 30
0.0
 11
191.7361458384559
 21
535.951393042363
 31
0.0
  0
TEXT
  5
34F1
330
1E
100
AcDbEntity
  8
DIM
100
AcDbText
 10
155.2469306345951
 20
306.344272862682
 30
0.0
 40
3.0
  1
2-G3/8
  7
ROMANSS
 72
     2
 11
172.8183592060236
 21
307.8442728626821
 31
0.0
100
AcDbText
 73
     2
  0
ARC
  5
34F2
330
1E
100
AcDbEntity
  8
0
100
AcDbCircle
 10
93.21504063529118
 20
386.7473492739039
 30
0.0
 40
27.0
100
AcDbArc
 50
305.4309446873363
 51
234.5690553126636
  0
CIRCLE
  5
34F3
330
1E
100
AcDbEntity
  8
CENTER
  6
CENTER
100
AcDbCircle
 10
93.21504063529118
 20
386.7473492739039
 30
0.0
 40
21.49999999999999
  0
CIRCLE
  5
34F4
330
1E
100
AcDbEntity
  8
0
100
AcDbCircle
 10
93.21504063529118
 20
386.7473492739039
 30
0.0
 40
9.0
  0
CIRCLE
  5
34F5
330
1E
100
AcDbEntity
  8
0
100
AcDbCircle
 10
93.21504063529118
 20
386.7473492739039
 30
0.0
 40
16.0
  0
CIRCLE
  5
34F6
330
1E
100
AcDbEntity
  8
0
100
AcDbCircle
 10
93.21504063529118
 20
386.7473492739039
 30
0.0
 40
10.0
  0
ARC
  5
34F7
330
1E
100
AcDbEntity
  8
0
  6
CONTINUOUS
100
AcDbCircle
 10
93.21504063529113
 20
365.2473492739039
 30
0.0
 40
3.903579676674365
100
AcDbArc
 50
352.6409062740963
 51
187.3590937259036
  0
ARC
  5
34F8
330
1E
100
AcDbEntity
  8
0
  6
CONTINUOUS
100
AcDbCircle
 10
93.21504063529113
 20
365.2473492739039
 30
0.0
 40
4.25
100
AcDbArc
 50
353.243672969415
 51
186.7563270305849
  0
LINE
  5
34F9
330
1E
100
AcDbEntity
  8
0
100
AcDbLine
 10
90.71504063529109
 20
361.7473492739041
 30
0.0
 11
74.88660805178321
 21
361.7473492739041
 31
0.0
  0
LINE
  5
34FA
330
1E
100
AcDbEntity
  8
0
100
AcDbLine
 10
121.2150406352911
 20
364.2473492739042
 30
0.0
 11
65.21504063529116
 21
364.2473492739042
 31
0.0
  0
LINE
  5
34FB
330
1E
100
AcDbEntity
  8
0
100
AcDbLine
 10
121.2150406352911
 20
364.7473492739042
 30
0.0
 11
65.21504063529116
 21
364.7473492739042
 31
0.0
  0
LINE
  5
34FC
330
1E
100
AcDbEntity
  8
0
100
AcDbLine
 10
90.71504063529109
 20
292.7473492739041
 30
0.0
 11
74.88660805178321
 21
292.7473492739041
 31
0.0
  0
LINE
  5
34FD
330
1E
100
AcDbEntity
  8
CENTER
  6
CENTER
100
AcDbLine
 10
50.21504063529113
 20
327.2473492739041
 30
0.0
 11
136.2150406352911
 21
327.247349273904
 31
0.0
  0
LINE
  5
34FE
330
1E
100
AcDbEntity
  8
0
100
AcDbLine
 10
121.2150406352911
 20
290.2473492739042
 30
0.0
 11
65.21504063529116
 21
290.2473492739042
 31
0.0
  0
LINE
  5
34FF
330
1E
100
AcDbEntity
  8
0
100
AcDbLine
 10
121.2150406352911
 20
289.7473492739042
 30
0.0
 11
65.21504063529116
 21
289.7473492739042
 31
0.0
  0
CIRCLE
  5
3500
330
1E
100
AcDbEntity
  8
0
100
AcDbCircle
 10
93.21504063529117
 20
327.2473492739042
 30
0.0
 40
22.49999999999998
  0
CIRCLE
  5
3501
330
1E
100
AcDbEntity
  8
0
100
AcDbCircle
 10
93.21504063529117
 20
327.2473492739042
 30
0.0
 40
22.99999999999998
  0
LINE
  5
3502
330
1E
100
AcDbEntity
  8
0
100
AcDbLine
 10
58.71504063529116
 20
329.7473492739043
 30
0.0
 11
58.71504063529116
 21
345.5757818574121
 31
0.0
  0
LINE
  5
3503
330
1E
100
AcDbEntity
  8
0
100
AcDbLine
 10
56.21504063529119
 20
299.2473492739041
 30
0.0
 11
56.21504063529119
 21
355.2473492739042
 31
0.0
  0
LINE
  5
3504
330
1E
100
AcDbEntity
  8
0
100
AcDbLine
 10
55.71504063529113
 20
299.2473492739041
 30
0.0
 11
55.71504063529113
 21
355.2473492739042
 31
0.0
  0
LINE
  5
3505
330
1E
100
AcDbEntity
  8
CENTER
  6
CENTER
100
AcDbLine
 10
72.46504063529116
 20
298.9973492739041
 30
0.0
 11
57.46504063529116
 21
298.9973492739041
 31
0.0
  0
ARC
  5
3506
330
1E
100
AcDbEntity
  8
0
100
AcDbCircle
 10
65.21504063529116
 20
299.2473492739041
 30
0.0
 40
9.0
100
AcDbArc
 50
180.0
 51
270.0
  0
ARC
  5
3507
330
1E
100
AcDbEntity
  8
0
100
AcDbCircle
 10
65.21504063529116
 20
299.2473492739041
 30
0.0
 40
9.5
100
AcDbArc
 50
180.0
 51
270.0
  0
LINE
  5
3508
330
1E
100
AcDbEntity
  8
0
100
AcDbLine
 10
75.11651949198491
 20
310.9165950835643
 30
0.0
 11
71.61234232450394
 21
307.4124179160833
 31
0.0
  0
LINE
  5
3509
330
1E
100
AcDbEntity
  8
0
100
AcDbLine
 10
58.71504063529116
 20
324.7473492739042
 30
0.0
 11
58.71504063529116
 21
308.9189166903962
 31
0.0
  0
LINE
  5
350A
330
1E
100
AcDbEntity
  8
0
100
AcDbLine
 10
76.88428644495136
 20
309.148828130598
 30
0.0
 11
73.38010927747015
 21
305.6446509631169
 31
0.0
  0
ARC
  5
350B
330
1E
100
AcDbEntity
  8
0
100
AcDbCircle
 10
64.96504063529116
 20
298.9973492739041
 30
0.0
 40
9.5
100
AcDbArc
 50
334.4169980226119
 51
30.52248781407063
  0
ARC
  5
350C
330
1E
100
AcDbEntity
  8
0
100
AcDbCircle
 10
74.88660805178321
 20
294.2473492739042
 30
0.0
 40
1.5
100
AcDbArc
 50
154.4169980225786
 51
270.0
  0
POLYLINE
  5
350D
330
1E
100
AcDbEntity
  8
0
  6
CONTINUOUS
100
AcDb2dPolyline
 66
     1
 10
0.0
 20
0.0
 30
0.0
 70
     1
  0
VERTEX
  5
4280
330
350D
100
AcDbEntity
  8
0
  6
CONTINUOUS
100
AcDbVertex
100
AcDb2dVertex
 10
67.27444171204965
 20
294.9973492739042
 30
0.0
  0
VERTEX
  5
4281
330
350D
100
AcDbEntity
  8
0
  6
CONTINUOUS
100
AcDbVertex
100
AcDb2dVertex
 10
69.58384278880814
 20
298.9973492739041
 30
0.0
  0
VERTEX
  5
4282
330
350D
100
AcDbEntity
  8
0
  6
CONTINUOUS
100
AcDbVertex
100
AcDb2dVertex
 10
67.27444171204965
 20
302.9973492739042
 30
0.0
  0
VERTEX
  5
4283
330
350D
100
AcDbEntity
  8
0
  6
CONTINUOUS
100
AcDbVertex
100
AcDb2dVertex
 10
62.65563955853266
 20
302.9973492739042
 30
0.0
  0
VERTEX
  5
4284
330
350D
100
AcDbEntity
  8
0
  6
CONTINUOUS
100
AcDbVertex
100
AcDb2dVertex
 10
60.34623848177417
 20
298.9973492739041
 30
0.0
  0
VERTEX
  5
4285
330
350D
100
AcDbEntity
  8
0
  6
CONTINUOUS
100
AcDbVertex
100
AcDb2dVertex
 10
62.65563955853266
 20
294.9973492739042
 30
0.0
  0
SEQEND
  5
4286
330
350D
100
AcDbEntity
  8
0
  6
CONTINUOUS
  0
CIRCLE
  5
350E
330
1E
100
AcDbEntity
  8
0
  6
CONTINUOUS
100
AcDbCircle
 10
64.96504063529116
 20
298.9973492739041
 30
0.0
 40
3.399999999999999
  0
ARC
  5
350F
330
1E
100
AcDbEntity
  8
0
  6
CONTINUOUS
 62
     2
100
AcDbCircle
 10
64.96504063529116
 20
298.9973492739041
 30
0.0
 40
4.0
100
AcDbArc
 50
237.7741811606249
 51
194.4538811566756
  0
CIRCLE
  5
3510
330
1E
100
AcDbEntity
  8
0
100
AcDbCircle
 10
64.96504063529116
 20
298.9973492739041
 30
0.0
 40
6.5
  0
LINE
  5
3511
330
1E
100
AcDbEntity
  8
CENTER
  6
CENTER
100
AcDbLine
 10
64.96504063529116
 20
291.4973492739042
 30
0.0
 11
64.96504063529116
 21
306.4973492739042
 31
0.0
  0
ARC
  5
3512
330
1E
100
AcDbEntity
  8
0
100
AcDbCircle
 10
64.96504063529116
 20
298.9973492739041
 30
0.0
 40
9.5
100
AcDbArc
 50
59.47751218592937
 51
115.583001977388
  0
ARC
  5
3513
330
1E
100
AcDbEntity
  8
0
100
AcDbCircle
 10
60.21504063529116
 20
308.9189166903962
 30
0.0
 40
1.5
100
AcDbArc
 50
180.0
 51
295.5830019774204
  0
ARC
  5
3514
330
1E
100
AcDbEntity
  8
0
100
AcDbCircle
 10
70.55168215272394
 20
308.4730780878631
 30
0.0
 40
1.5
100
AcDbArc
 50
239.4775121859293
 51
314.9999999999997
  0
ARC
  5
3515
330
1E
100
AcDbEntity
  8
0
100
AcDbCircle
 10
74.44076944925015
 20
304.5839907913371
 30
0.0
 40
1.5
100
AcDbArc
 50
134.9999999999997
 51
210.5224878140697
  0
LINE
  5
3516
330
1E
100
AcDbEntity
  8
0
100
AcDbLine
 10
83.21504063529117
 20
294.2473492739042
 30
0.0
 11
83.21504063529117
 21
305.6140416211203
 31
0.0
  0
ARC
  5
3517
330
1E
100
AcDbEntity
  8
0
100
AcDbCircle
 10
81.71504063529116
 20
294.2473492739042
 30
0.0
 40
1.5
100
AcDbArc
 50
270.0
 51
0.0
  0
ARC
  5
3518
330
1E
100
AcDbEntity
  8
0
100
AcDbCircle
 10
81.71504063529116
 20
305.6140416211203
 30
0.0
 40
1.5
100
AcDbArc
 50
0.0
 51
62.00543826774737
  0
ARC
  5
3519
330
1E
100
AcDbEntity
  8
0
100
AcDbCircle
 10
77.94494661673113
 20
308.0881679588183
 30
0.0
 40
1.5
100
AcDbArc
 50
51.44474033976962
 51
134.9999999999997
  0
LINE
  5
351A
330
1E
100
AcDbEntity
  8
0
100
AcDbLine
 10
60.21504063529116
 20
317.2473492739042
 30
0.0
 11
71.58173298250719
 21
317.2473492739042
 31
0.0
  0
ARC
  5
351B
330
1E
100
AcDbEntity
  8
0
100
AcDbCircle
 10
60.21504063529116
 20
315.7473492739041
 30
0.0
 40
1.5
100
AcDbArc
 50
90.0
 51
180.0
  0
ARC
  5
351C
330
1E
100
AcDbEntity
  8
0
100
AcDbCircle
 10
71.58173298250719
 20
315.7473492739041
 30
0.0
 40
1.5
100
AcDbArc
 50
27.99456173225244
 51
90.0
  0
LINE
  5
351D
330
1E
100
AcDbEntity
  8
0
100
AcDbLine
 10
60.21504063529116
 20
326.2473492739041
 30
0.0
 11
68.84292542138334
 21
326.2473492739041
 31
0.0
  0
LINE
  5
351E
330
1E
100
AcDbEntity
  8
0
100
AcDbLine
 10
60.21504063529116
 20
328.2473492739043
 30
0.0
 11
68.84292542138334
 21
328.2473492739043
 31
0.0
  0
ARC
  5
351F
330
1E
100
AcDbEntity
  8
0
100
AcDbCircle
 10
60.21504063529116
 20
324.7473492739042
 30
0.0
 40
1.5
100
AcDbArc
 50
90.0
 51
180.0
  0
ARC
  5
3520
330
1E
100
AcDbEntity
  8
0
100
AcDbCircle
 10
60.21504063529116
 20
329.7473492739043
 30
0.0
 40
1.5
100
AcDbArc
 50
180.0
 51
270.0
  0
ARC
  5
3521
330
1E
100
AcDbEntity
  8
0
100
AcDbCircle
 10
68.84292542138334
 20
324.7473492739042
 30
0.0
 40
1.5
100
AcDbArc
 50
5.856701909919404
 51
90.0
  0
ARC
  5
3522
330
1E
100
AcDbEntity
  8
0
100
AcDbCircle
 10
68.84292542138334
 20
329.7473492739043
 30
0.0
 40
1.5
100
AcDbArc
 50
270.0
 51
354.1432980900805
  0
ARC
  5
3523
330
1E
100
AcDbEntity
  8
0
100
AcDbCircle
 10
74.05585932020514
 20
311.9772552553442
 30
0.0
 40
1.5
100
AcDbArc
 50
314.9999999999985
 51
38.55525966023037
  0
LINE
  5
3524
330
1E
100
AcDbEntity
  8
CENTER
  6
CENTER
100
AcDbLine
 10
72.46504063529116
 20
355.4973492739041
 30
0.0
 11
57.46504063529116
 21
355.4973492739041
 31
0.0
  0
ARC
  5
3525
330
1E
100
AcDbEntity
  8
0
100
AcDbCircle
 10
65.21504063529116
 20
355.2473492739042
 30
0.0
 40
9.0
100
AcDbArc
 50
90.0
 51
180.0
  0
ARC
  5
3526
330
1E
100
AcDbEntity
  8
0
100
AcDbCircle
 10
65.21504063529116
 20
355.2473492739042
 30
0.0
 40
9.5
100
AcDbArc
 50
90.0
 51
180.0
  0
LINE
  5
3527
330
1E
100
AcDbEntity
  8
0
100
AcDbLine
 10
83.21504063529117
 20
360.247349273904
 30
0.0
 11
83.21504063529117
 21
348.880656926688
 31
0.0
  0
CIRCLE
  5
3528
330
1E
100
AcDbEntity
  8
0
  6
CONTINUOUS
100
AcDbCircle
 10
64.96504063529116
 20
355.4973492739041
 30
0.0
 40
3.399999999999999
  0
POLYLINE
  5
3529
330
1E
100
AcDbEntity
  8
0
  6
CONTINUOUS
100
AcDb2dPolyline
 66
     1
 10
0.0
 20
0.0
 30
0.0
 70
     1
  0
VERTEX
  5
4287
330
3529
100
AcDbEntity
  8
0
  6
CONTINUOUS
100
AcDbVertex
100
AcDb2dVertex
 10
67.27444171204965
 20
351.4973492739041
 30
0.0
  0
VERTEX
  5
4288
330
3529
100
AcDbEntity
  8
0
  6
CONTINUOUS
100
AcDbVertex
100
AcDb2dVertex
 10
69.58384278880814
 20
355.4973492739041
 30
0.0
  0
VERTEX
  5
4289
330
3529
100
AcDbEntity
  8
0
  6
CONTINUOUS
100
AcDbVertex
100
AcDb2dVertex
 10
67.27444171204965
 20
359.4973492739041
 30
0.0
  0
VERTEX
  5
428A
330
3529
100
AcDbEntity
  8
0
  6
CONTINUOUS
100
AcDbVertex
100
AcDb2dVertex
 10
62.65563955853266
 20
359.4973492739041
 30
0.0
  0
VERTEX
  5
428B
330
3529
100
AcDbEntity
  8
0
  6
CONTINUOUS
100
AcDbVertex
100
AcDb2dVertex
 10
60.34623848177417
 20
355.4973492739041
 30
0.0
  0
VERTEX
  5
428C
330
3529
100
AcDbEntity
  8
0
  6
CONTINUOUS
100
AcDbVertex
100
AcDb2dVertex
 10
62.65563955853266
 20
351.4973492739041
 30
0.0
  0
SEQEND
  5
428D
330
3529
100
AcDbEntity
  8
0
  6
CONTINUOUS
  0
ARC
  5
352A
330
1E
100
AcDbEntity
  8
0
  6
CONTINUOUS
 62
     2
100
AcDbCircle
 10
64.96504063529116
 20
355.4973492739041
 30
0.0
 40
4.0
100
AcDbArc
 50
237.7741811606249
 51
194.4538811566756
  0
CIRCLE
  5
352B
330
1E
100
AcDbEntity
  8
0
100
AcDbCircle
 10
64.96504063529116
 20
355.4973492739041
 30
0.0
 40
6.5
  0
LINE
  5
352C
330
1E
100
AcDbEntity
  8
CENTER
  6
CENTER
100
AcDbLine
 10
64.96504063529116
 20
347.9973492739042
 30
0.0
 11
64.96504063529116
 21
362.9973492739042
 31
0.0
  0
ARC
  5
352D
330
1E
100
AcDbEntity
  8
0
100
AcDbCircle
 10
64.96504063529116
 20
355.4973492739041
 30
0.0
 40
9.5
100
AcDbArc
 50
329.4775121859293
 51
25.58300197738257
  0
LINE
  5
352E
330
1E
100
AcDbEntity
  8
0
100
AcDbLine
 10
76.88428644495136
 20
345.3458704172102
 30
0.0
 11
73.38010927747015
 21
348.8500475846913
 31
0.0
  0
LINE
  5
352F
330
1E
100
AcDbEntity
  8
0
100
AcDbLine
 10
75.11651949198514
 20
343.578103464244
 30
0.0
 11
71.61234232450394
 21
347.0822806317251
 31
0.0
  0
LINE
  5
3530
330
1E
100
AcDbEntity
  8
0
100
AcDbLine
 10
60.21504063529116
 20
337.2473492739043
 30
0.0
 11
71.58173298250719
 21
337.2473492739043
 31
0.0
  0
ARC
  5
3531
330
1E
100
AcDbEntity
  8
0
100
AcDbCircle
 10
60.21504063529116
 20
338.7473492739043
 30
0.0
 40
1.5
100
AcDbArc
 50
180.0
 51
270.0
  0
ARC
  5
3532
330
1E
100
AcDbEntity
  8
0
100
AcDbCircle
 10
71.58173298250719
 20
338.7473492739043
 30
0.0
 40
1.5
100
AcDbArc
 50
270.0
 51
332.0054382677476
  0
ARC
  5
3533
330
1E
100
AcDbEntity
  8
0
100
AcDbCircle
 10
64.96504063529116
 20
355.4973492739041
 30
0.0
 40
9.5
100
AcDbArc
 50
244.4169980226065
 51
300.5224878140706
  0
ARC
  5
3534
330
1E
100
AcDbEntity
  8
0
100
AcDbCircle
 10
60.21504063529116
 20
345.5757818574121
 30
0.0
 40
1.5
100
AcDbArc
 50
64.41699802257227
 51
180.0
  0
ARC
  5
3535
330
1E
100
AcDbEntity
  8
0
100
AcDbCircle
 10
74.44076944925015
 20
349.9107077564711
 30
0.0
 40
1.5
100
AcDbArc
 50
149.4775121859302
 51
225.0000000000003
  0
ARC
  5
3536
330
1E
100
AcDbEntity
  8
0
100
AcDbCircle
 10
70.55168215272416
 20
346.0216204599453
 30
0.0
 40
1.5
100
AcDbArc
 50
45.00000000000029
 51
120.5224878140706
  0
ARC
  5
3537
330
1E
100
AcDbEntity
  8
0
100
AcDbCircle
 10
77.94494661673113
 20
346.4065305889901
 30
0.0
 40
1.5
100
AcDbArc
 50
225.0000000000003
 51
308.5552596602303
  0
ARC
  5
3538
330
1E
100
AcDbEntity
  8
0
100
AcDbCircle
 10
74.05585932020514
 20
342.5174432924642
 30
0.0
 40
1.5
100
AcDbArc
 50
321.4447403397696
 51
45.00000000000029
  0
ARC
  5
3539
330
1E
100
AcDbEntity
  8
0
100
AcDbCircle
 10
81.71504063529116
 20
348.880656926688
 30
0.0
 40
1.5
100
AcDbArc
 50
297.9945617322526
 51
0.0
  0
ARC
  5
353A
330
1E
100
AcDbEntity
  8
0
100
AcDbCircle
 10
74.88660805178321
 20
360.247349273904
 30
0.0
 40
1.5
100
AcDbArc
 50
90.0
 51
205.5830019774169
  0
ARC
  5
353B
330
1E
100
AcDbEntity
  8
0
100
AcDbCircle
 10
81.71504063529116
 20
360.247349273904
 30
0.0
 40
1.5
100
AcDbArc
 50
0.0
 51
90.0
  0
ARC
  5
353C
330
1E
100
AcDbEntity
  8
0
100
AcDbCircle
 10
117.0635206707147
 20
334.7473492739041
 30
0.0
 40
2.0
100
AcDbArc
 50
197.4576031237227
 51
270.0
  0
LINE
  5
353D
330
1E
100
AcDbEntity
  8
0
100
AcDbLine
 10
127.7150406352911
 20
329.7473492739042
 30
0.0
 11
127.7150406352911
 21
345.5757818574121
 31
0.0
  0
ARC
  5
353E
330
1E
100
AcDbEntity
  8
0
100
AcDbCircle
 10
126.2150406352911
 20
334.2473492739041
 30
0.0
 40
1.5
100
AcDbArc
 50
270.0
 51
0.0
  0
LINE
  5
353F
330
1E
100
AcDbEntity
  8
0
100
AcDbLine
 10
130.2150406352911
 20
299.2473492739041
 30
0.0
 11
130.2150406352911
 21
355.2473492739042
 31
0.0
  0
LINE
  5
3540
330
1E
100
AcDbEntity
  8
0
100
AcDbLine
 10
130.7150406352912
 20
299.2473492739041
 30
0.0
 11
130.7150406352912
 21
355.2473492739042
 31
0.0
  0
LINE
  5
3541
330
1E
100
AcDbEntity
  8
0
100
AcDbLine
 10
126.2150406352911
 20
332.7473492739041
 30
0.0
 11
117.0635206707147
 21
332.7473492739041
 31
0.0
  0
LINE
  5
3542
330
1E
100
AcDbEntity
  8
0
100
AcDbLine
 10
126.2150406352911
 20
326.2473492739041
 30
0.0
 11
118.0343879272728
 21
326.2473492739041
 31
0.0
  0
LINE
  5
3543
330
1E
100
AcDbEntity
  8
0
100
AcDbLine
 10
126.215040635291
 20
328.2473492739041
 30
0.0
 11
117.5871558491989
 21
328.2473492739041
 31
0.0
  0
ARC
  5
3544
330
1E
100
AcDbEntity
  8
0
100
AcDbCircle
 10
121.4650406352911
 20
298.9973492739041
 30
0.0
 40
9.5
100
AcDbArc
 50
64.41699802260105
 51
120.5224878140706
  0
POLYLINE
  5
3545
330
1E
100
AcDbEntity
  8
0
  6
CONTINUOUS
100
AcDb2dPolyline
 66
     1
 10
0.0
 20
0.0
 30
0.0
 70
     1
  0
VERTEX
  5
428E
330
3545
100
AcDbEntity
  8
0
  6
CONTINUOUS
100
AcDbVertex
100
AcDb2dVertex
 10
123.7744417120496
 20
294.9973492739042
 30
0.0
  0
VERTEX
  5
428F
330
3545
100
AcDbEntity
  8
0
  6
CONTINUOUS
100
AcDbVertex
100
AcDb2dVertex
 10
126.0838427888081
 20
298.9973492739041
 30
0.0
  0
VERTEX
  5
4290
330
3545
100
AcDbEntity
  8
0
  6
CONTINUOUS
100
AcDbVertex
100
AcDb2dVertex
 10
123.7744417120496
 20
302.9973492739042
 30
0.0
  0
VERTEX
  5
4291
330
3545
100
AcDbEntity
  8
0
  6
CONTINUOUS
100
AcDbVertex
100
AcDb2dVertex
 10
119.1556395585326
 20
302.9973492739042
 30
0.0
  0
VERTEX
  5
4292
330
3545
100
AcDbEntity
  8
0
  6
CONTINUOUS
100
AcDbVertex
100
AcDb2dVertex
 10
116.8462384817741
 20
298.9973492739041
 30
0.0
  0
VERTEX
  5
4293
330
3545
100
AcDbEntity
  8
0
  6
CONTINUOUS
100
AcDbVertex
100
AcDb2dVertex
 10
119.1556395585326
 20
294.9973492739042
 30
0.0
  0
SEQEND
  5
4294
330
3545
100
AcDbEntity
  8
0
  6
CONTINUOUS
  0
ARC
  5
3546
330
1E
100
AcDbEntity
  8
0
  6
CONTINUOUS
 62
     2
100
AcDbCircle
 10
121.4650406352911
 20
298.9973492739041
 30
0.0
 40
4.0
100
AcDbArc
 50
237.7741811606249
 51
194.4538811566756
  0
CIRCLE
  5
3547
330
1E
100
AcDbEntity
  8
0
  6
CONTINUOUS
100
AcDbCircle
 10
121.4650406352911
 20
298.9973492739041
 30
0.0
 40
3.399999999999999
  0
ARC
  5
3548
330
1E
100
AcDbEntity
  8
0
100
AcDbCircle
 10
121.2150406352911
 20
299.2473492739041
 30
0.0
 40
9.0
100
AcDbArc
 50
270.0
 51
0.0
  0
ARC
  5
3549
330
1E
100
AcDbEntity
  8
0
100
AcDbCircle
 10
121.2150406352911
 20
299.2473492739041
 30
0.0
 40
9.5
100
AcDbArc
 50
270.0
 51
0.0
  0
LINE
  5
354A
330
1E
100
AcDbEntity
  8
CENTER
  6
CENTER
100
AcDbLine
 10
128.9650406352911
 20
298.9973492739041
 30
0.0
 11
113.9650406352911
 21
298.9973492739041
 31
0.0
  0
CIRCLE
  5
354B
330
1E
100
AcDbEntity
  8
0
100
AcDbCircle
 10
121.4650406352911
 20
298.9973492739041
 30
0.0
 40
6.5
  0
LINE
  5
354C
330
1E
100
AcDbEntity
  8
CENTER
  6
CENTER
100
AcDbLine
 10
135.792144124229
 20
320.2473492739041
 30
0.0
 11
121.3479357673541
 21
320.2473492739041
 31
0.0
  0
LINE
  5
354D
330
1E
100
AcDbEntity
  8
0
100
AcDbLine
 10
111.6265808290882
 20
310.6035760330735
 30
0.0
 11
114.8177389460783
 21
307.4124179160833
 31
0.0
  0
LINE
  5
354E
330
1E
100
AcDbEntity
  8
0
100
AcDbLine
 10
95.71504063529122
 20
292.7473492739041
 30
0.0
 11
111.5434732187991
 21
292.7473492739041
 31
0.0
  0
LINE
  5
354F
330
1E
100
AcDbEntity
  8
0
100
AcDbLine
 10
94.21504063529122
 20
294.2473492739042
 30
0.0
 11
94.21504063529122
 21
302.8752340599964
 31
0.0
  0
LINE
  5
3550
330
1E
100
AcDbEntity
  8
0
100
AcDbLine
 10
92.2150406352911
 20
294.2473492739042
 30
0.0
 11
92.2150406352911
 21
302.8752340599964
 31
0.0
  0
LINE
  5
3551
330
1E
100
AcDbEntity
  8
0
100
AcDbLine
 10
103.2150406352912
 20
294.2473492739042
 30
0.0
 11
103.2150406352912
 21
305.6140416211203
 31
0.0
  0
POLYLINE
  5
3552
330
1E
100
AcDbEntity
  8
0
  6
CONTINUOUS
100
AcDb2dPolyline
 66
     1
 10
0.0
 20
0.0
 30
0.0
  0
VERTEX
  5
4295
330
3552
100
AcDbEntity
  8
0
  6
CONTINUOUS
100
AcDbVertex
100
AcDb2dVertex
 10
91.19431469312758
 20
289.7473492739042
 30
0.0
  0
VERTEX
  5
4296
330
3552
100
AcDbEntity
  8
0
  6
CONTINUOUS
100
AcDbVertex
100
AcDb2dVertex
 10
90.90563955853303
 20
289.2473492739042
 30
0.0
  0
VERTEX
  5
4297
330
3552
100
AcDbEntity
  8
0
  6
CONTINUOUS
100
AcDbVertex
100
AcDb2dVertex
 10
92.06034009691121
 20
287.2473492739042
 30
0.0
  0
VERTEX
  5
4298
330
3552
100
AcDbEntity
  8
0
  6
CONTINUOUS
100
AcDbVertex
100
AcDb2dVertex
 10
94.36974117367117
 20
287.2473492739042
 30
0.0
  0
VERTEX
  5
4299
330
3552
100
AcDbEntity
  8
0
  6
CONTINUOUS
100
AcDbVertex
100
AcDb2dVertex
 10
95.52444171204934
 20
289.2473492739042
 30
0.0
  0
VERTEX
  5
429A
330
3552
100
AcDbEntity
  8
0
  6
CONTINUOUS
100
AcDbVertex
100
AcDb2dVertex
 10
95.23576657745477
 20
289.7473492739042
 30
0.0
  0
SEQEND
  5
429B
330
3552
100
AcDbEntity
  8
0
  6
CONTINUOUS
  0
ARC
  5
3553
330
1E
100
AcDbEntity
  8
0
100
AcDbCircle
 10
90.71504063529109
 20
294.2473492739042
 30
0.0
 40
1.5
100
AcDbArc
 50
270.0
 51
0.0
  0
ARC
  5
3554
330
1E
100
AcDbEntity
  8
0
100
AcDbCircle
 10
95.71504063529122
 20
294.2473492739042
 30
0.0
 40
1.5
100
AcDbArc
 50
180.0
 51
270.0
  0
ARC
  5
3555
330
1E
100
AcDbEntity
  8
0
100
AcDbCircle
 10
104.7150406352912
 20
294.2473492739042
 30
0.0
 40
1.5
100
AcDbArc
 50
180.0
 51
270.0
  0
ARC
  5
3556
330
1E
100
AcDbEntity
  8
0
100
AcDbCircle
 10
90.71504063529109
 20
302.8752340599964
 30
0.0
 40
1.5
100
AcDbArc
 50
0.0
 51
84.14329809008144
  0
ARC
  5
3557
330
1E
100
AcDbEntity
  8
0
100
AcDbCircle
 10
95.71504063529122
 20
302.8752340599964
 30
0.0
 40
1.5
100
AcDbArc
 50
95.85670190991857
 51
180.0
  0
ARC
  5
3558
330
1E
100
AcDbEntity
  8
0
100
AcDbCircle
 10
104.7150406352912
 20
305.6140416211203
 30
0.0
 40
1.5
100
AcDbArc
 50
117.9945617322526
 51
180.0
  0
ARC
  5
3559
330
1E
100
AcDbEntity
  8
0
100
AcDbCircle
 10
121.4650406352911
 20
298.9973492739041
 30
0.0
 40
9.5
100
AcDbArc
 50
149.4775121859293
 51
205.5830019773933
  0
LINE
  5
355A
330
1E
100
AcDbEntity
  8
CENTER
  6
CENTER
100
AcDbLine
 10
121.4650406352911
 20
291.4973492739042
 30
0.0
 11
121.4650406352911
 21
306.4973492739042
 31
0.0
  0
ARC
  5
355B
330
1E
100
AcDbEntity
  8
0
100
AcDbCircle
 10
111.5434732187991
 20
294.2473492739042
 30
0.0
 40
1.5
100
AcDbArc
 50
270.0
 51
25.58300197742681
  0
ARC
  5
355C
330
1E
100
AcDbEntity
  8
0
100
AcDbCircle
 10
115.8783991178581
 20
308.4730780878631
 30
0.0
 40
1.5
100
AcDbArc
 50
224.999999999998
 51
300.5224878140706
  0
ARC
  5
355D
330
1E
100
AcDbEntity
  8
0
100
AcDbCircle
 10
111.9893118213322
 20
304.5839907913371
 30
0.0
 40
1.5
100
AcDbArc
 50
329.4775121859302
 51
45.00000000000029
  0
ARC
  5
355E
330
1E
100
AcDbEntity
  8
0
100
AcDbCircle
 10
108.4851346538511
 20
308.0881679588183
 30
0.0
 40
1.5
100
AcDbArc
 50
45.00000000000029
 51
128.5552596602303
  0
LINE
  5
355F
330
1E
100
AcDbEntity
  8
0
100
AcDbLine
 10
109.5457948256309
 20
309.148828130598
 30
0.0
 11
113.049971993112
 21
305.6446509631169
 31
0.0
  0
ARC
  5
3560
330
1E
100
AcDbEntity
  8
0
100
AcDbCircle
 10
113.0407943914613
 20
312.0177895954466
 30
0.0
 40
2.0
100
AcDbArc
 50
142.4695923164169
 51
225.0000000000003
  0
ARC
  5
3561
330
1E
100
AcDbEntity
  8
0
100
AcDbCircle
 10
118.0343879272728
 20
324.2473492739041
 30
0.0
 40
2.0
100
AcDbArc
 50
90.0
 51
173.1078974206533
  0
ARC
  5
3562
330
1E
100
AcDbEntity
  8
0
100
AcDbCircle
 10
117.5871558491989
 20
329.7473492739042
 30
0.0
 40
1.5
100
AcDbArc
 50
185.8567019099194
 51
270.0
  0
LINE
  5
3563
330
1E
100
AcDbEntity
  8
0
100
AcDbLine
 10
127.7150406352911
 20
308.9189166903962
 30
0.0
 11
127.7150406352911
 21
324.7473492739042
 31
0.0
  0
ARC
  5
3564
330
1E
100
AcDbEntity
  8
0
100
AcDbCircle
 10
126.2150406352911
 20
308.9189166903962
 30
0.0
 40
1.5
100
AcDbArc
 50
244.4169980226028
 51
0.0
  0
LINE
  5
3565
330
1E
100
AcDbEntity
  8
0
100
AcDbLine
 10
130.7150406352912
 20
302.2473492739042
 30
0.0
 11
130.2150406352911
 21
302.2473492739042
 31
0.0
  0
ARC
  5
3566
330
1E
100
AcDbEntity
  8
0
100
AcDbCircle
 10
126.2150406352911
 20
324.7473492739042
 30
0.0
 40
1.5
100
AcDbArc
 50
0.0
 51
90.0
  0
ARC
  5
3567
330
1E
100
AcDbEntity
  8
0
100
AcDbCircle
 10
126.215040635291
 20
329.7473492739042
 30
0.0
 40
1.5
100
AcDbArc
 50
270.0
 51
0.0
  0
CIRCLE
  5
3568
330
1E
100
AcDbEntity
  8
0
  6
CONTINUOUS
100
AcDbCircle
 10
121.4650406352911
 20
355.4973492739041
 30
0.0
 40
3.399999999999999
  0
ARC
  5
3569
330
1E
100
AcDbEntity
  8
0
100
AcDbCircle
 10
121.2150406352911
 20
355.2473492739042
 30
0.0
 40
9.0
100
AcDbArc
 50
0.0
 51
90.0
  0
LINE
  5
356A
330
1E
100
AcDbEntity
  8
CENTER
  6
CENTER
100
AcDbLine
 10
128.9650406352911
 20
355.4973492739041
 30
0.0
 11
113.9650406352911
 21
355.4973492739041
 31
0.0
  0
ARC
  5
356B
330
1E
100
AcDbEntity
  8
0
100
AcDbCircle
 10
121.2150406352911
 20
355.2473492739042
 30
0.0
 40
9.5
100
AcDbArc
 50
0.0
 51
90.0
  0
ARC
  5
356C
330
1E
100
AcDbEntity
  8
0
100
AcDbCircle
 10
121.4650406352911
 20
355.4973492739041
 30
0.0
 40
9.5
100
AcDbArc
 50
239.4775121859293
 51
295.583001977388
  0
LINE
  5
356D
330
1E
100
AcDbEntity
  8
CENTER
  6
CENTER
100
AcDbLine
 10
136.5005455747359
 20
336.2473492739041
 30
0.0
 11
121.3479357673541
 21
336.2473492739041
 31
0.0
  0
POLYLINE
  5
356E
330
1E
100
AcDbEntity
  8
0
  6
CONTINUOUS
100
AcDb2dPolyline
 66
     1
 10
0.0
 20
0.0
 30
0.0
 70
     1
  0
VERTEX
  5
429C
330
356E
100
AcDbEntity
  8
0
  6
CONTINUOUS
100
AcDbVertex
100
AcDb2dVertex
 10
123.7744417120496
 20
351.4973492739041
 30
0.0
  0
VERTEX
  5
429D
330
356E
100
AcDbEntity
  8
0
  6
CONTINUOUS
100
AcDbVertex
100
AcDb2dVertex
 10
126.0838427888081
 20
355.4973492739041
 30
0.0
  0
VERTEX
  5
429E
330
356E
100
AcDbEntity
  8
0
  6
CONTINUOUS
100
AcDbVertex
100
AcDb2dVertex
 10
123.7744417120496
 20
359.4973492739041
 30
0.0
  0
VERTEX
  5
429F
330
356E
100
AcDbEntity
  8
0
  6
CONTINUOUS
100
AcDbVertex
100
AcDb2dVertex
 10
119.1556395585326
 20
359.4973492739041
 30
0.0
  0
VERTEX
  5
42A0
330
356E
100
AcDbEntity
  8
0
  6
CONTINUOUS
100
AcDbVertex
100
AcDb2dVertex
 10
116.8462384817741
 20
355.4973492739041
 30
0.0
  0
VERTEX
  5
42A1
330
356E
100
AcDbEntity
  8
0
  6
CONTINUOUS
100
AcDbVertex
100
AcDb2dVertex
 10
119.1556395585326
 20
351.4973492739041
 30
0.0
  0
SEQEND
  5
42A2
330
356E
100
AcDbEntity
  8
0
  6
CONTINUOUS
  0
ARC
  5
356F
330
1E
100
AcDbEntity
  8
0
  6
CONTINUOUS
 62
     2
100
AcDbCircle
 10
121.4650406352911
 20
355.4973492739041
 30
0.0
 40
4.0
100
AcDbArc
 50
237.7741811606249
 51
194.4538811566756
  0
CIRCLE
  5
3570
330
1E
100
AcDbEntity
  8
0
100
AcDbCircle
 10
121.4650406352911
 20
355.4973492739041
 30
0.0
 40
6.5
  0
ARC
  5
3571
330
1E
100
AcDbEntity
  8
0
100
AcDbCircle
 10
121.4650406352911
 20
355.4973492739041
 30
0.0
 40
9.5
100
AcDbArc
 50
154.4169980226119
 51
210.5224878140699
  0
LINE
  5
3572
330
1E
100
AcDbEntity
  8
CENTER
  6
CENTER
100
AcDbLine
 10
121.4650406352911
 20
347.9973492739042
 30
0.0
 11
121.4650406352911
 21
362.9973492739042
 31
0.0
  0
LINE
  5
3573
330
1E
100
AcDbEntity
  8
0
100
AcDbLine
 10
92.2150406352911
 20
360.247349273904
 30
0.0
 11
92.2150406352911
 21
351.619464487812
 31
0.0
  0
LINE
  5
3574
330
1E
100
AcDbEntity
  8
0
100
AcDbLine
 10
103.2150406352912
 20
360.247349273904
 30
0.0
 11
103.2150406352912
 21
348.880656926688
 31
0.0
  0
LINE
  5
3575
330
1E
100
AcDbEntity
  8
0
100
AcDbLine
 10
94.21504063529122
 20
360.247349273904
 30
0.0
 11
94.21504063529122
 21
351.619464487812
 31
0.0
  0
ARC
  5
3576
330
1E
100
AcDbEntity
  8
0
100
AcDbCircle
 10
90.71504063529109
 20
351.619464487812
 30
0.0
 40
1.5
100
AcDbArc
 50
275.8567019099185
 51
0.0
  0
ARC
  5
3577
330
1E
100
AcDbEntity
  8
0
100
AcDbCircle
 10
95.71504063529122
 20
351.619464487812
 30
0.0
 40
1.5
100
AcDbArc
 50
180.0
 51
264.1432980900814
  0
ARC
  5
3578
330
1E
100
AcDbEntity
  8
0
100
AcDbCircle
 10
104.7150406352912
 20
348.880656926688
 30
0.0
 40
1.5
100
AcDbArc
 50
180.0
 51
242.0054382677473
  0
ARC
  5
3579
330
1E
100
AcDbEntity
  8
0
100
AcDbCircle
 10
108.4851346538511
 20
346.4065305889901
 30
0.0
 40
1.5
100
AcDbArc
 50
231.4447403397696
 51
314.9999999999997
  0
LINE
  5
357A
330
1E
100
AcDbEntity
  8
0
100
AcDbLine
 10
111.3135617785972
 20
343.578103464244
 30
0.0
 11
114.8177389460783
 21
347.0822806317251
 31
0.0
  0
ARC
  5
357B
330
1E
100
AcDbEntity
  8
0
100
AcDbCircle
 10
112.374221950377
 20
342.5174432924641
 30
0.0
 40
1.5
100
AcDbArc
 50
134.9999999999997
 51
218.5552596602303
  0
ARC
  5
357C
330
1E
100
AcDbEntity
  8
0
100
AcDbCircle
 10
115.8783991178581
 20
346.0216204599452
 30
0.0
 40
1.5
100
AcDbArc
 50
59.47751218592937
 51
134.9999999999997
  0
ARC
  5
357D
330
1E
100
AcDbEntity
  8
0
100
AcDbCircle
 10
111.9893118213322
 20
349.9107077564711
 30
0.0
 40
1.5
100
AcDbArc
 50
314.9999999999997
 51
30.52248781406972
  0
LINE
  5
357E
330
1E
100
AcDbEntity
  8
0
100
AcDbLine
 10
109.5457948256309
 20
345.3458704172102
 30
0.0
 11
113.049971993112
 21
348.8500475846913
 31
0.0
  0
LINE
  5
357F
330
1E
100
AcDbEntity
  8
0
100
AcDbLine
 10
95.71504063529122
 20
361.7473492739041
 30
0.0
 11
111.5434732187991
 21
361.7473492739041
 31
0.0
  0
POLYLINE
  5
3580
330
1E
100
AcDbEntity
  8
0
  6
CONTINUOUS
100
AcDb2dPolyline
 66
     1
 10
0.0
 20
0.0
 30
0.0
  0
VERTEX
  5
42A3
330
3580
100
AcDbEntity
  8
0
  6
CONTINUOUS
100
AcDbVertex
100
AcDb2dVertex
 10
95.23576657745488
 20
364.7473492739042
 30
0.0
  0
VERTEX
  5
42A4
330
3580
100
AcDbEntity
  8
0
  6
CONTINUOUS
100
AcDbVertex
100
AcDb2dVertex
 10
95.52444171204928
 20
365.2473492739039
 30
0.0
  0
VERTEX
  5
42A5
330
3580
100
AcDbEntity
  8
0
  6
CONTINUOUS
100
AcDbVertex
100
AcDb2dVertex
 10
94.36974117367112
 20
367.2473492739039
 30
0.0
  0
VERTEX
  5
42A6
330
3580
100
AcDbEntity
  8
0
  6
CONTINUOUS
100
AcDbVertex
100
AcDb2dVertex
 10
92.06034009691114
 20
367.2473492739039
 30
0.0
  0
SEQEND
  5
42A7
330
3580
100
AcDbEntity
  8
0
  6
CONTINUOUS
  0
POLYLINE
  5
3581
330
1E
100
AcDbEntity
  8
0
  6
CONTINUOUS
100
AcDb2dPolyline
 66
     1
 10
0.0
 20
0.0
 30
0.0
  0
VERTEX
  5
42A8
330
3581
100
AcDbEntity
  8
0
  6
CONTINUOUS
100
AcDbVertex
100
AcDb2dVertex
 10
92.06034009691114
 20
367.2473492739039
 30
0.0
  0
VERTEX
  5
42A9
330
3581
100
AcDbEntity
  8
0
  6
CONTINUOUS
100
AcDbVertex
100
AcDb2dVertex
 10
90.90563955853298
 20
365.2473492739039
 30
0.0
  0
VERTEX
  5
42AA
330
3581
100
AcDbEntity
  8
0
  6
CONTINUOUS
100
AcDbVertex
100
AcDb2dVertex
 10
91.19431469312738
 20
364.7473492739042
 30
0.0
  0
SEQEND
  5
42AB
330
3581
100
AcDbEntity
  8
0
  6
CONTINUOUS
  0
ARC
  5
3582
330
1E
100
AcDbEntity
  8
0
100
AcDbCircle
 10
90.71504063529109
 20
360.247349273904
 30
0.0
 40
1.5
100
AcDbArc
 50
0.0
 51
90.0
  0
ARC
  5
3583
330
1E
100
AcDbEntity
  8
0
100
AcDbCircle
 10
95.71504063529122
 20
360.247349273904
 30
0.0
 40
1.5
100
AcDbArc
 50
90.0
 51
180.0
  0
ARC
  5
3584
330
1E
100
AcDbEntity
  8
0
100
AcDbCircle
 10
104.7150406352912
 20
360.247349273904
 30
0.0
 40
1.5
100
AcDbArc
 50
90.0
 51
180.0
  0
ARC
  5
3585
330
1E
100
AcDbEntity
  8
0
100
AcDbCircle
 10
111.5434732187991
 20
360.247349273904
 30
0.0
 40
1.5
100
AcDbArc
 50
334.4169980225786
 51
90.0
  0
LINE
  5
3586
330
1E
100
AcDbEntity
  8
0
100
AcDbLine
 10
130.7150406352912
 20
352.2473492739042
 30
0.0
 11
130.2150406352911
 21
352.2473492739042
 31
0.0
  0
ARC
  5
3587
330
1E
100
AcDbEntity
  8
0
100
AcDbCircle
 10
126.2150406352911
 20
345.5757818574121
 30
0.0
 40
1.5
100
AcDbArc
 50
0.0
 51
115.5830019774222
  0
CIRCLE
  5
3588
330
1E
100
AcDbEntity
  8
0
  6
CONTINUOUS
100
AcDbCircle
 10
93.21504063529109
 20
408.247349273904
 30
0.0
 40
3.903579676674365
  0
CIRCLE
  5
3589
330
1E
100
AcDbEntity
  8
0
  6
CONTINUOUS
100
AcDbCircle
 10
93.21504063529109
 20
408.247349273904
 30
0.0
 40
4.25
  0
LINE
  5
358A
330
1E
100
AcDbEntity
  8
0
100
AcDbLine
 10
53.21504063529108
 20
424.7473492739039
 30
0.0
 11
133.2150406352911
 21
424.747349273904
 31
0.0
  0
LINE
  5
358B
330
1E
100
AcDbEntity
  8
CENTER
  6
CENTER
100
AcDbLine
 10
63.21504063529099
 20
386.7473492739039
 30
0.0
 11
123.2150406352913
 21
386.7473492739039
 31
0.0
  0
LINE
  5
358C
330
1E
100
AcDbEntity
  8
CENTER
  6
CENTER
100
AcDbLine
 10
55.96504063529113
 20
414.7473492739041
 30
0.0
 11
73.96504063529113
 21
414.7473492739041
 31
0.0
  0
CIRCLE
  5
358D
330
1E
100
AcDbEntity
  8
0
  6
CONTINUOUS
100
AcDbCircle
 10
71.71504063529119
 20
386.7473492739039
 30
0.0
 40
3.903579676674365
  0
CIRCLE
  5
358E
330
1E
100
AcDbEntity
  8
0
  6
CONTINUOUS
100
AcDbCircle
 10
71.71504063529119
 20
386.7473492739039
 30
0.0
 40
4.25
  0
POLYLINE
  5
358F
330
1E
100
AcDbEntity
  8
0
  6
CONTINUOUS
100
AcDb2dPolyline
 66
     1
 10
0.0
 20
0.0
 30
0.0
 70
     1
  0
VERTEX
  5
42AC
330
358F
100
AcDbEntity
  8
0
  6
CONTINUOUS
100
AcDbVertex
100
AcDb2dVertex
 10
70.56034009691121
 20
388.7473492739039
 30
0.0
  0
VERTEX
  5
42AD
330
358F
100
AcDbEntity
  8
0
  6
CONTINUOUS
100
AcDbVertex
100
AcDb2dVertex
 10
69.40563955853304
 20
386.7473492739039
 30
0.0
  0
VERTEX
  5
42AE
330
358F
100
AcDbEntity
  8
0
  6
CONTINUOUS
100
AcDbVertex
100
AcDb2dVertex
 10
70.56034009691121
 20
384.7473492739039
 30
0.0
  0
VERTEX
  5
42AF
330
358F
100
AcDbEntity
  8
0
  6
CONTINUOUS
100
AcDbVertex
100
AcDb2dVertex
 10
72.86974117367117
 20
384.7473492739039
 30
0.0
  0
VERTEX
  5
42B0
330
358F
100
AcDbEntity
  8
0
  6
CONTINUOUS
100
AcDbVertex
100
AcDb2dVertex
 10
74.02444171204933
 20
386.7473492739039
 30
0.0
  0
VERTEX
  5
42B1
330
358F
100
AcDbEntity
  8
0
  6
CONTINUOUS
100
AcDbVertex
100
AcDb2dVertex
 10
72.86974117367117
 20
388.7473492739039
 30
0.0
  0
SEQEND
  5
42B2
330
358F
100
AcDbEntity
  8
0
  6
CONTINUOUS
  0
LINE
  5
3590
330
1E
100
AcDbEntity
  8
CENTER
  6
CENTER
100
AcDbLine
 10
64.96504063529113
 20
405.747349273904
 30
0.0
 11
64.96504063529113
 21
423.7473492739041
 31
0.0
  0
CIRCLE
  5
3591
330
1E
100
AcDbEntity
  8
0
  6
CONTINUOUS
100
AcDbCircle
 10
64.96504063529113
 20
414.7473492739041
 30
0.0
 40
4.5
  0
LINE
  5
3592
330
1E
100
AcDbEntity
  8
CENTER
  6
CENTER
100
AcDbLine
 10
112.4650406352912
 20
414.7473492739041
 30
0.0
 11
130.4650406352912
 21
414.7473492739041
 31
0.0
  0
CIRCLE
  5
3593
330
1E
100
AcDbEntity
  8
0
  6
CONTINUOUS
100
AcDbCircle
 10
121.4650406352912
 20
414.7473492739041
 30
0.0
 40
4.5
  0
POLYLINE
  5
3594
330
1E
100
AcDbEntity
  8
0
  6
CONTINUOUS
100
AcDb2dPolyline
 66
     1
 10
0.0
 20
0.0
 30
0.0
 70
     1
  0
VERTEX
  5
42B3
330
3594
100
AcDbEntity
  8
0
  6
CONTINUOUS
100
AcDbVertex
100
AcDb2dVertex
 10
113.5603400969112
 20
388.7473492739039
 30
0.0
  0
VERTEX
  5
42B4
330
3594
100
AcDbEntity
  8
0
  6
CONTINUOUS
100
AcDbVertex
100
AcDb2dVertex
 10
112.405639558533
 20
386.7473492739039
 30
0.0
  0
VERTEX
  5
42B5
330
3594
100
AcDbEntity
  8
0
  6
CONTINUOUS
100
AcDbVertex
100
AcDb2dVertex
 10
113.5603400969112
 20
384.7473492739039
 30
0.0
  0
VERTEX
  5
42B6
330
3594
100
AcDbEntity
  8
0
  6
CONTINUOUS
100
AcDbVertex
100
AcDb2dVertex
 10
115.8697411736711
 20
384.7473492739039
 30
0.0
  0
VERTEX
  5
42B7
330
3594
100
AcDbEntity
  8
0
  6
CONTINUOUS
100
AcDbVertex
100
AcDb2dVertex
 10
117.0244417120493
 20
386.7473492739039
 30
0.0
  0
VERTEX
  5
42B8
330
3594
100
AcDbEntity
  8
0
  6
CONTINUOUS
100
AcDbVertex
100
AcDb2dVertex
 10
115.8697411736711
 20
388.7473492739039
 30
0.0
  0
SEQEND
  5
42B9
330
3594
100
AcDbEntity
  8
0
  6
CONTINUOUS
  0
CIRCLE
  5
3595
330
1E
100
AcDbEntity
  8
0
  6
CONTINUOUS
100
AcDbCircle
 10
114.7150406352911
 20
386.7473492739039
 30
0.0
 40
3.903579676674365
  0
CIRCLE
  5
3596
330
1E
100
AcDbEntity
  8
0
  6
CONTINUOUS
100
AcDbCircle
 10
114.7150406352911
 20
386.7473492739039
 30
0.0
 40
4.25
  0
POLYLINE
  5
3597
330
1E
100
AcDbEntity
  8
0
  6
CONTINUOUS
100
AcDb2dPolyline
 66
     1
 10
0.0
 20
0.0
 30
0.0
 70
     1
  0
VERTEX
  5
42BA
330
3597
100
AcDbEntity
  8
0
  6
CONTINUOUS
100
AcDbVertex
100
AcDb2dVertex
 10
92.06034009691112
 20
410.2473492739039
 30
0.0
  0
VERTEX
  5
42BB
330
3597
100
AcDbEntity
  8
0
  6
CONTINUOUS
100
AcDbVertex
100
AcDb2dVertex
 10
90.90563955853296
 20
408.247349273904
 30
0.0
  0
VERTEX
  5
42BC
330
3597
100
AcDbEntity
  8
0
  6
CONTINUOUS
100
AcDbVertex
100
AcDb2dVertex
 10
92.06034009691112
 20
406.2473492739039
 30
0.0
  0
VERTEX
  5
42BD
330
3597
100
AcDbEntity
  8
0
  6
CONTINUOUS
100
AcDbVertex
100
AcDb2dVertex
 10
94.36974117367109
 20
406.2473492739039
 30
0.0
  0
VERTEX
  5
42BE
330
3597
100
AcDbEntity
  8
0
  6
CONTINUOUS
100
AcDbVertex
100
AcDb2dVertex
 10
95.52444171204925
 20
408.247349273904
 30
0.0
  0
VERTEX
  5
42BF
330
3597
100
AcDbEntity
  8
0
  6
CONTINUOUS
100
AcDbVertex
100
AcDb2dVertex
 10
94.36974117367109
 20
410.2473492739039
 30
0.0
  0
SEQEND
  5
42C0
330
3597
100
AcDbEntity
  8
0
  6
CONTINUOUS
  0
LINE
  5
3598
330
1E
100
AcDbEntity
  8
CENTER
  6
CENTER
100
AcDbLine
 10
121.4650406352912
 20
405.747349273904
 30
0.0
 11
121.4650406352912
 21
423.7473492739041
 31
0.0
  0
LINE
  5
3599
330
1E
100
AcDbEntity
  8
0
100
AcDbLine
 10
237.7361458384557
 20
396.7473492739041
 30
0.0
 11
237.7361458384557
 21
376.7473492739042
 31
0.0
  0
LINE
  5
359A
330
1E
100
AcDbEntity
  8
0
100
AcDbLine
 10
236.7361458384558
 20
395.7473492739041
 30
0.0
 11
236.7361458384558
 21
377.7473492739042
 31
0.0
  0
LINE
  5
359B
330
1E
100
AcDbEntity
  8
0
100
AcDbLine
 10
276.7361458384556
 20
402.7473492739041
 30
0.0
 11
276.7361458384556
 21
370.747349273904
 31
0.0
  0
LINE
  5
359C
330
1E
100
AcDbEntity
  8
CENTER
  6
CENTER
100
AcDbLine
 10
223.2361458384559
 20
336.2473492739041
 30
0.0
 11
210.2361458384557
 21
336.2473492739041
 31
0.0
  0
CIRCLE
  5
359D
330
1E
100
AcDbEntity
  8
0
100
AcDbCircle
 10
216.7361458384556
 20
336.2473492739041
 30
0.0
 40
5.299999999999999
  0
LINE
  5
359E
330
1E
100
AcDbEntity
  8
0
100
AcDbLine
 10
223.7361458384556
 20
364.7473492739042
 30
0.0
 11
191.7361458384556
 21
364.2473492739042
 31
0.0
  0
LINE
  5
359F
330
1E
100
AcDbEntity
  8
0
100
AcDbLine
 10
223.7361458384556
 20
289.7473492739042
 30
0.0
 11
191.7361458384556
 21
290.2473492739042
 31
0.0
  0
LINE
  5
35A0
330
1E
100
AcDbEntity
  8
0
  6
CONTINUOUS
100
AcDbLine
 10
220.7945678233592
 20
333.3268679792453
 30
0.0
 11
219.4861458384556
 21
334.0822857644431
 31
0.0
  0
ARC
  5
35A1
330
1E
100
AcDbEntity
  8
0
  6
CONTINUOUS
100
AcDbCircle
 10
216.7361458384556
 20
336.2473492739041
 30
0.0
 40
3.5
100
AcDbArc
 50
218.2132107017387
 51
261.786789298262
  0
LINE
  5
35A2
330
1E
100
AcDbEntity
  8
0
  6
CONTINUOUS
100
AcDbLine
 10
212.677723853552
 20
333.3268679792453
 30
0.0
 11
213.9861458384556
 21
334.0822857644431
 31
0.0
  0
ARC
  5
35A3
330
1E
100
AcDbEntity
  8
0
  6
CONTINUOUS
100
AcDbCircle
 10
216.7361458384556
 20
336.2473492739041
 30
0.0
 40
3.5
100
AcDbArc
 50
278.2132107017379
 51
321.7867892982612
  0
LINE
  5
35A4
330
1E
100
AcDbEntity
  8
CENTER
  6
CENTER
100
AcDbLine
 10
216.7361458384556
 20
342.7473492739041
 30
0.0
 11
216.7361458384556
 21
329.7473492739041
 31
0.0
  0
CIRCLE
  5
35A5
330
1E
100
AcDbEntity
  8
0
100
AcDbCircle
 10
216.7361458384556
 20
336.2473492739041
 30
0.0
 40
5.0
  0
LINE
  5
35A6
330
1E
100
AcDbEntity
  8
0
100
AcDbLine
 10
191.7361458384557
 20
290.2473492739042
 30
0.0
 11
191.7361458384556
 21
364.2473492739042
 31
0.0
  0
LINE
  5
35A7
330
1E
100
AcDbEntity
  8
0
100
AcDbLine
 10
186.7361458384556
 20
305.7473492739042
 30
0.0
 11
186.7361458384556
 21
348.7473492739042
 31
0.0
  0
LINE
  5
35A8
330
1E
100
AcDbEntity
  8
0
100
AcDbLine
 10
191.7361458384556
 20
304.7473492739042
 30
0.0
 11
187.7361458384556
 21
304.7473492739042
 31
0.0
  0
LINE
  5
35A9
330
1E
100
AcDbEntity
  8
DIM
100
AcDbLine
 10
197.5121733560643
 20
314.9840729701987
 30
0.0
 11
176.818359206022
 21
304.8442728626854
 31
0.0
  0
LINE
  5
35AA
330
1E
100
AcDbEntity
  8
DIM
100
AcDbLine
 10
173.8183592060236
 20
304.844272862682
 30
0.0
 11
157.4433592060236
 21
304.844272862682
 31
0.0
  0
LINE
  5
35AB
330
1E
100
AcDbEntity
  8
DIM
100
AcDbLine
 10
176.8183592060236
 20
304.844272862682
 30
0.0
 11
173.8183592060236
 21
304.844272862682
 31
0.0
  0
ARC
  5
35AC
330
1E
100
AcDbEntity
  8
0
100
AcDbCircle
 10
187.7361458384556
 20
305.7473492739042
 30
0.0
 40
1.0
100
AcDbArc
 50
180.0
 51
270.0
  0
CIRCLE
  5
35AD
330
1E
100
AcDbEntity
  8
0
100
AcDbCircle
 10
207.7361458384556
 20
320.2473492739041
 30
0.0
 40
11.5
  0
LINE
  5
35AE
330
1E
100
AcDbEntity
  8
CENTER
  6
CENTER
100
AcDbLine
 10
207.7361458384557
 20
332.7473492739041
 30
0.0
 11
207.7361458384556
 21
307.7473492739041
 31
0.0
  0
LINE
  5
35AF
330
1E
100
AcDbEntity
  8
HIDDEN
  6
HIDDEN
100
AcDbLine
 10
191.7361458384557
 20
294.9973492739042
 30
0.0
 11
209.7361458384557
 21
294.9973492739042
 31
0.0
  0
LINE
  5
35B0
330
1E
100
AcDbEntity
  8
HIDDEN
  6
HIDDEN
100
AcDbLine
 10
191.7361458384556
 20
302.9973492739043
 30
0.0
 11
209.7361458384557
 21
302.9973492739042
 31
0.0
  0
LINE
  5
35B1
330
1E
100
AcDbEntity
  8
HIDDEN
  6
HIDDEN
100
AcDbLine
 10
197.7361458384557
 20
302.3973492739043
 30
0.0
 11
212.7361458384557
 21
302.3973492739043
 31
0.0
  0
LINE
  5
35B2
330
1E
100
AcDbEntity
  8
HIDDEN
  6
HIDDEN
100
AcDbLine
 10
197.7361458384557
 20
295.5973492739042
 30
0.0
 11
212.7361458384557
 21
295.5973492739042
 31
0.0
  0
LINE
  5
35B3
330
1E
100
AcDbEntity
  8
HIDDEN
  6
HIDDEN
100
AcDbLine
 10
197.7361458384557
 20
294.9973492739042
 30
0.0
 11
197.7361458384557
 21
302.9973492739042
 31
0.0
  0
LINE
  5
35B4
330
1E
100
AcDbEntity
  8
HIDDEN
  6
HIDDEN
100
AcDbLine
 10
212.7361458384557
 20
295.5973492739042
 30
0.0
 11
212.7361458384557
 21
302.3973492739041
 31
0.0
  0
LINE
  5
35B5
330
1E
100
AcDbEntity
  8
HIDDEN
  6
HIDDEN
100
AcDbLine
 10
212.7361458384557
 20
295.5973492739042
 30
0.0
 11
214.6991367537004
 21
298.9973492739041
 31
0.0
  0
LINE
  5
35B6
330
1E
100
AcDbEntity
  8
HIDDEN
  6
HIDDEN
100
AcDbLine
 10
209.7361458384557
 20
294.9973492739042
 30
0.0
 11
209.7361458384557
 21
302.9973492739042
 31
0.0
  0
LINE
  5
35B7
330
1E
100
AcDbEntity
  8
HIDDEN
  6
HIDDEN
100
AcDbLine
 10
212.7361458384557
 20
302.3973492739043
 30
0.0
 11
214.6991367537004
 21
298.9973492739041
 31
0.0
  0
LINE
  5
35B8
330
1E
100
AcDbEntity
  8
CENTER
  6
CENTER
100
AcDbLine
 10
220.2361458384556
 20
320.2473492739041
 30
0.0
 11
195.2361458384556
 21
320.2473492739041
 31
0.0
  0
ARC
  5
35B9
330
1E
100
AcDbEntity
  8
0
 62
     2
100
AcDbCircle
 10
207.7361458384556
 20
320.2473492739041
 30
0.0
 40
8.25
100
AcDbArc
 50
77.92480383695468
 51
18.66239316544397
  0
CIRCLE
  5
35BA
330
1E
100
AcDbEntity
  8
0
100
AcDbCircle
 10
207.7361458384556
 20
320.2473492739041
 30
0.0
 40
7.5
  0
CIRCLE
  5
35BB
330
1E
100
AcDbEntity
  8
0
100
AcDbCircle
 10
207.7361458384556
 20
320.247349273904
 30
0.0
 40
6.5
  0
CIRCLE
  5
35BC
330
1E
100
AcDbEntity
  8
0
100
AcDbCircle
 10
207.7361458384556
 20
320.2473492739041
 30
0.0
 40
8.499999999999957
  0
SOLID
  5
35BD
330
1E
100
AcDbEntity
  8
DIM
100
AcDbTrace
 10
197.2921686860102
 20
315.4330695683534
 30
0.0
 11
197.7321780261184
 21
314.5350763720442
 31
0.0
 12
200.2061529449918
 22
316.3041009905234
 32
0.0
 13
200.2061529449918
 23
316.3041009905234
 33
0.0
  0
LINE
  5
35BE
330
1E
100
AcDbEntity
  8
0
  6
CONTINUOUS
100
AcDbLine
 10
217.2361458384556
 20
332.7832476587664
 30
0.0
 11
217.2361458384556
 21
331.272412088371
 31
0.0
  0
LINE
  5
35BF
330
1E
100
AcDbEntity
  8
0
  6
CONTINUOUS
100
AcDbLine
 10
216.2361458384556
 20
332.7832476587664
 30
0.0
 11
216.2361458384556
 21
331.272412088371
 31
0.0
  0
LINE
  5
35C0
330
1E
100
AcDbEntity
  8
0
100
AcDbLine
 10
191.7361458384556
 20
349.7473492739042
 30
0.0
 11
187.7361458384556
 21
349.7473492739042
 31
0.0
  0
ARC
  5
35C1
330
1E
100
AcDbEntity
  8
0
100
AcDbCircle
 10
187.7361458384556
 20
348.7473492739042
 30
0.0
 40
1.0
100
AcDbArc
 50
90.0
 51
180.0
  0
LINE
  5
35C2
330
1E
100
AcDbEntity
  8
HIDDEN
  6
HIDDEN
100
AcDbLine
 10
212.7361458384557
 20
358.8973492739041
 30
0.0
 11
212.7361458384557
 21
352.0973492739042
 31
0.0
  0
LINE
  5
35C3
330
1E
100
AcDbEntity
  8
HIDDEN
  6
HIDDEN
100
AcDbLine
 10
212.7361458384557
 20
358.8973492739041
 30
0.0
 11
214.6991367537004
 21
355.4973492739041
 31
0.0
  0
LINE
  5
35C4
330
1E
100
AcDbEntity
  8
HIDDEN
  6
HIDDEN
100
AcDbLine
 10
197.7361458384557
 20
359.4973492739041
 30
0.0
 11
197.7361458384557
 21
351.4973492739041
 31
0.0
  0
LINE
  5
35C5
330
1E
100
AcDbEntity
  8
HIDDEN
  6
HIDDEN
100
AcDbLine
 10
209.7361458384557
 20
359.4973492739041
 30
0.0
 11
209.7361458384557
 21
351.4973492739041
 31
0.0
  0
LINE
  5
35C6
330
1E
100
AcDbEntity
  8
HIDDEN
  6
HIDDEN
100
AcDbLine
 10
191.7361458384556
 20
351.4973492739041
 30
0.0
 11
209.7361458384557
 21
351.4973492739041
 31
0.0
  0
LINE
  5
35C7
330
1E
100
AcDbEntity
  8
HIDDEN
  6
HIDDEN
100
AcDbLine
 10
197.7361458384557
 20
352.0973492739041
 30
0.0
 11
212.7361458384557
 21
352.0973492739041
 31
0.0
  0
LINE
  5
35C8
330
1E
100
AcDbEntity
  8
0
  6
CONTINUOUS
100
AcDbLine
 10
213.9861458384556
 20
338.4124127833652
 30
0.0
 11
212.677723853552
 21
339.1678305685629
 31
0.0
  0
LINE
  5
35C9
330
1E
100
AcDbEntity
  8
0
  6
CONTINUOUS
100
AcDbLine
 10
212.1777238535521
 20
334.1928933830298
 30
0.0
 11
213.4861458384556
 21
334.9483111682274
 31
0.0
  0
LINE
  5
35CA
330
1E
100
AcDbEntity
  8
0
  6
CONTINUOUS
100
AcDbLine
 10
213.4861458384556
 20
337.5463873795808
 30
0.0
 11
212.1777238535521
 21
338.3018051647785
 31
0.0
  0
ARC
  5
35CB
330
1E
100
AcDbEntity
  8
0
  6
CONTINUOUS
100
AcDbCircle
 10
216.7361458384556
 20
336.2473492739041
 30
0.0
 40
3.5
100
AcDbArc
 50
158.2132107017373
 51
201.7867892982619
  0
LINE
  5
35CC
330
1E
100
AcDbEntity
  8
0
  6
CONTINUOUS
100
AcDbLine
 10
221.2945678233592
 20
334.1928933830298
 30
0.0
 11
219.9861458384556
 21
334.9483111682274
 31
0.0
  0
LINE
  5
35CD
330
1E
100
AcDbEntity
  8
0
  6
CONTINUOUS
100
AcDbLine
 10
219.9861458384556
 20
337.5463873795808
 30
0.0
 11
221.2945678233592
 21
338.3018051647785
 31
0.0
  0
LINE
  5
35CE
330
1E
100
AcDbEntity
  8
0
  6
CONTINUOUS
100
AcDbLine
 10
219.4861458384556
 20
338.4124127833652
 30
0.0
 11
220.7945678233592
 21
339.1678305685629
 31
0.0
  0
ARC
  5
35CF
330
1E
100
AcDbEntity
  8
0
  6
CONTINUOUS
100
AcDbCircle
 10
216.7361458384556
 20
336.2473492739041
 30
0.0
 40
3.5
100
AcDbArc
 50
338.2132107017382
 51
21.78678929826177
  0
ARC
  5
35D0
330
1E
100
AcDbEntity
  8
0
  6
CONTINUOUS
100
AcDbCircle
 10
216.7361458384556
 20
336.2473492739041
 30
0.0
 40
3.5
100
AcDbArc
 50
98.21321070173791
 51
141.7867892982627
  0
CIRCLE
  5
35D1
330
1E
100
AcDbEntity
  8
0
  6
CONTINUOUS
100
AcDbCircle
 10
216.7361458384556
 20
336.2473492739041
 30
0.0
 40
2.5
  0
POLYLINE
  5
35D2
330
1E
100
AcDbEntity
  8
0
  6
CONTINUOUS
100
AcDb2dPolyline
 66
     1
 10
0.0
 20
0.0
 30
0.0
 70
     1
  0
VERTEX
  5
42C1
330
35D2
100
AcDbEntity
  8
0
  6
CONTINUOUS
100
AcDbVertex
100
AcDb2dVertex
 10
215.8701204346712
 20
337.7473492739041
 30
0.0
  0
VERTEX
  5
42C2
330
35D2
100
AcDbEntity
  8
0
  6
CONTINUOUS
100
AcDbVertex
100
AcDb2dVertex
 10
215.0040950308867
 20
336.2473492739041
 30
0.0
  0
VERTEX
  5
42C3
330
35D2
100
AcDbEntity
  8
0
  6
CONTINUOUS
100
AcDbVertex
100
AcDb2dVertex
 10
215.8701204346712
 20
334.7473492739041
 30
0.0
  0
VERTEX
  5
42C4
330
35D2
100
AcDbEntity
  8
0
  6
CONTINUOUS
100
AcDbVertex
100
AcDb2dVertex
 10
217.60217124224
 20
334.7473492739041
 30
0.0
  0
VERTEX
  5
42C5
330
35D2
100
AcDbEntity
  8
0
  6
CONTINUOUS
100
AcDbVertex
100
AcDb2dVertex
 10
218.4681966460244
 20
336.2473492739041
 30
0.0
  0
VERTEX
  5
42C6
330
35D2
100
AcDbEntity
  8
0
  6
CONTINUOUS
100
AcDbVertex
100
AcDb2dVertex
 10
217.60217124224
 20
337.7473492739041
 30
0.0
  0
SEQEND
  5
42C7
330
35D2
100
AcDbEntity
  8
0
  6
CONTINUOUS
  0
ARC
  5
35D3
330
1E
100
AcDbEntity
  8
0
  6
CONTINUOUS
100
AcDbCircle
 10
216.7361458384556
 20
336.2473492739041
 30
0.0
 40
3.5
100
AcDbArc
 50
38.21321070173869
 51
81.7867892982621
  0
LINE
  5
35D4
330
1E
100
AcDbEntity
  8
0
  6
CONTINUOUS
100
AcDbLine
 10
217.2361458384556
 20
341.2222864594372
 30
0.0
 11
217.2361458384556
 21
339.7114508890419
 31
0.0
  0
LINE
  5
35D5
330
1E
100
AcDbEntity
  8
0
  6
CONTINUOUS
100
AcDbLine
 10
216.2361458384556
 20
341.2222864594372
 30
0.0
 11
216.2361458384556
 21
339.7114508890419
 31
0.0
  0
LINE
  5
35D6
330
1E
100
AcDbEntity
  8
HIDDEN
  6
HIDDEN
100
AcDbLine
 10
212.7361458384557
 20
352.0973492739041
 30
0.0
 11
214.6991367537004
 21
355.4973492739041
 31
0.0
  0
LINE
  5
35D7
330
1E
100
AcDbEntity
  8
HIDDEN
  6
HIDDEN
100
AcDbLine
 10
191.7361458384557
 20
359.4973492739041
 30
0.0
 11
209.7361458384557
 21
359.4973492739041
 31
0.0
  0
LINE
  5
35D8
330
1E
100
AcDbEntity
  8
HIDDEN
  6
HIDDEN
100
AcDbLine
 10
197.7361458384557
 20
358.8973492739041
 30
0.0
 11
212.7361458384557
 21
358.8973492739041
 31
0.0
  0
ARC
  5
35D9
330
1E
100
AcDbEntity
  8
0
  6
CONTINUOUS
100
AcDbCircle
 10
287.7361458384558
 20
336.2473492739039
 30
0.0
 40
3.5
100
AcDbArc
 50
218.2132107017387
 51
261.786789298262
  0
LINE
  5
35DA
330
1E
100
AcDbEntity
  8
0
  6
CONTINUOUS
100
AcDbLine
 10
283.6777238535522
 20
333.3268679792451
 30
0.0
 11
284.9861458384558
 21
334.0822857644428
 31
0.0
  0
LINE
  5
35DB
330
1E
100
AcDbEntity
  8
0
100
AcDbLine
 10
223.7361458384557
 20
292.2473492739042
 30
0.0
 11
223.7361458384557
 21
362.247349273904
 31
0.0
  0
LINE
  5
35DC
330
1E
100
AcDbEntity
  8
0
100
AcDbLine
 10
223.7361458384557
 20
289.7473492739042
 30
0.0
 11
223.7361458384556
 21
364.7473492739042
 31
0.0
  0
LINE
  5
35DD
330
1E
100
AcDbEntity
  8
0
100
AcDbLine
 10
280.7361458384557
 20
292.2473492739042
 30
0.0
 11
280.7361458384557
 21
362.247349273904
 31
0.0
  0
LINE
  5
35DE
330
1E
100
AcDbEntity
  8
0
100
AcDbLine
 10
280.7361458384557
 20
289.7473492739042
 30
0.0
 11
280.7361458384557
 21
364.7473492739042
 31
0.0
  0
LINE
  5
35DF
330
1E
100
AcDbEntity
  8
0
100
AcDbLine
 10
280.7361458384557
 20
292.2473492739042
 30
0.0
 11
223.7361458384557
 21
292.2473492739042
 31
0.0
  0
LINE
  5
35E1
330
1E
100
AcDbEntity
  8
0
  6
CONTINUOUS
100
AcDbLine
 10
287.2361458384558
 20
332.7832476587662
 30
0.0
 11
287.2361458384558
 21
331.2724120883708
 31
0.0
  0
LINE
  5
35E2
330
1E
100
AcDbEntity
  8
0
100
AcDbLine
 10
280.7361458384556
 20
362.247349273904
 30
0.0
 11
223.7361458384557
 21
362.247349273904
 31
0.0
  0
LINE
  5
35E4
330
1E
100
AcDbEntity
  8
0
100
AcDbLine
 10
237.7361458384557
 20
376.7473492739042
 30
0.0
 11
276.7361458384556
 21
376.7473492739041
 31
0.0
  0
LINE
  5
35E5
330
1E
100
AcDbEntity
  8
0
100
AcDbLine
 10
236.7361458384558
 20
377.7473492739042
 30
0.0
 11
237.7361458384557
 21
376.7473492739042
 31
0.0
  0
ARC
  5
35E6
330
1E
100
AcDbEntity
  8
0
  6
CONTINUOUS
100
AcDbCircle
 10
287.7361458384558
 20
336.2473492739039
 30
0.0
 40
3.5
100
AcDbArc
 50
158.2132107017373
 51
201.7867892982619
  0
ARC
  5
35E7
330
1E
100
AcDbEntity
  8
0
  6
CONTINUOUS
100
AcDbCircle
 10
287.7361458384558
 20
336.2473492739039
 30
0.0
 40
3.5
100
AcDbArc
 50
98.21321070173791
 51
141.7867892982627
  0
LINE
  5
35E8
330
1E
100
AcDbEntity
  8
0
  6
CONTINUOUS
100
AcDbLine
 10
284.9861458384558
 20
338.412412783365
 30
0.0
 11
283.6777238535522
 21
339.1678305685626
 31
0.0
  0
LINE
  5
35E9
330
1E
100
AcDbEntity
  8
0
  6
CONTINUOUS
100
AcDbLine
 10
284.4861458384558
 20
337.5463873795806
 30
0.0
 11
283.1777238535524
 21
338.3018051647782
 31
0.0
  0
LINE
  5
35EA
330
1E
100
AcDbEntity
  8
0
  6
CONTINUOUS
100
AcDbLine
 10
283.1777238535524
 20
334.1928933830295
 30
0.0
 11
284.4861458384558
 21
334.9483111682272
 31
0.0
  0
LINE
  5
35EB
330
1E
100
AcDbEntity
  8
0
  6
CONTINUOUS
100
AcDbLine
 10
287.2361458384558
 20
341.222286459437
 30
0.0
 11
287.2361458384558
 21
339.7114508890417
 31
0.0
  0
LINE
  5
35EC
330
1E
100
AcDbEntity
  8
0
100
AcDbLine
 10
223.7361458384557
 20
461.4513930423631
 30
0.0
 11
191.736145838456
 21
461.9513930423631
 31
0.0
  0
LINE
  5
35ED
330
1E
100
AcDbEntity
  8
HIDDEN
  6
HIDDEN
100
AcDbLine
 10
191.736145838456
 20
466.701393042363
 30
0.0
 11
209.736145838456
 21
466.701393042363
 31
0.0
  0
LINE
  5
35EE
330
1E
100
AcDbEntity
  8
HIDDEN
  6
HIDDEN
100
AcDbLine
 10
197.736145838456
 20
467.301393042363
 30
0.0
 11
212.7361458384561
 21
467.301393042363
 31
0.0
  0
LINE
  5
35EF
330
1E
100
AcDbEntity
  8
HIDDEN
  6
HIDDEN
100
AcDbLine
 10
212.7361458384561
 20
467.301393042363
 30
0.0
 11
214.6991367537008
 21
470.701393042363
 31
0.0
  0
LINE
  5
35F0
330
1E
100
AcDbEntity
  8
DIM
100
AcDbLine
 10
236.7361458384557
 20
397.9825652951357
 30
0.0
 11
236.7361458384557
 21
433.747349273904
 31
0.0
  0
LINE
  5
35F1
330
1E
100
AcDbEntity
  8
0
100
AcDbLine
 10
237.7361458384557
 20
396.7473492739041
 30
0.0
 11
276.7361458384556
 21
396.7473492739041
 31
0.0
  0
LINE
  5
35F2
330
1E
100
AcDbEntity
  8
0
100
AcDbLine
 10
237.7361458384557
 20
396.7473492739041
 30
0.0
 11
236.7361458384558
 21
395.7473492739041
 31
0.0
  0
LINE
  5
35F3
330
1E
100
AcDbEntity
  8
0
100
AcDbLine
 10
280.7361458384556
 20
463.9513930423631
 30
0.0
 11
223.7361458384557
 21
463.9513930423631
 31
0.0
  0
SOLID
  5
35F4
330
1E
100
AcDbEntity
  8
DIM
100
AcDbTrace
 10
239.7361458384557
 20
432.247349273904
 30
0.0
 11
239.7361458384557
 21
433.247349273904
 31
0.0
 12
236.7361458384557
 22
432.747349273904
 32
0.0
 13
236.7361458384557
 23
432.747349273904
 33
0.0
  0
LINE
  5
35F5
330
1E
100
AcDbEntity
  8
0
100
AcDbLine
 10
223.7361458384557
 20
536.4513930423629
 30
0.0
 11
191.7361458384559
 21
535.951393042363
 31
0.0
  0
LINE
  5
35F6
330
1E
100
AcDbEntity
  8
0
100
AcDbLine
 10
187.7361458384559
 20
477.451393042363
 30
0.0
 11
187.7361458384559
 21
520.451393042363
 31
0.0
  0
LINE
  5
35F7
330
1E
100
AcDbEntity
  8
0
 62
     2
100
AcDbLine
 10
191.736145838456
 20
476.451393042363
 30
0.0
 11
188.7361458384559
 21
476.451393042363
 31
0.0
  0
ARC
  5
35F8
330
1E
100
AcDbEntity
  8
0
100
AcDbCircle
 10
188.7361458384559
 20
477.451393042363
 30
0.0
 40
1.0
100
AcDbArc
 50
180.0
 51
270.0
  0
LINE
  5
35F9
330
1E
100
AcDbEntity
  8
HIDDEN
  6
HIDDEN
100
AcDbLine
 10
191.7361458384559
 20
474.7013930423632
 30
0.0
 11
209.736145838456
 21
474.701393042363
 31
0.0
  0
LINE
  5
35FA
330
1E
100
AcDbEntity
  8
HIDDEN
  6
HIDDEN
100
AcDbLine
 10
197.736145838456
 20
474.1013930423632
 30
0.0
 11
212.7361458384561
 21
474.1013930423632
 31
0.0
  0
LINE
  5
35FB
330
1E
100
AcDbEntity
  8
0
100
AcDbLine
 10
191.7361458384559
 20
521.451393042363
 30
0.0
 11
188.7361458384559
 21
521.451393042363
 31
0.0
  0
ARC
  5
35FC
330
1E
100
AcDbEntity
  8
0
100
AcDbCircle
 10
188.7361458384559
 20
520.451393042363
 30
0.0
 40
1.0
100
AcDbArc
 50
90.0
 51
180.0
  0
LINE
  5
35FD
330
1E
100
AcDbEntity
  8
HIDDEN
  6
HIDDEN
100
AcDbLine
 10
191.736145838456
 20
531.201393042363
 30
0.0
 11
209.736145838456
 21
531.201393042363
 31
0.0
  0
LINE
  5
35FE
330
1E
100
AcDbEntity
  8
HIDDEN
  6
HIDDEN
100
AcDbLine
 10
191.7361458384559
 20
523.201393042363
 30
0.0
 11
209.736145838456
 21
523.201393042363
 31
0.0
  0
LINE
  5
35FF
330
1E
100
AcDbEntity
  8
HIDDEN
  6
HIDDEN
100
AcDbLine
 10
197.736145838456
 20
523.8013930423631
 30
0.0
 11
212.7361458384561
 21
523.8013930423631
 31
0.0
  0
LINE
  5
3600
330
1E
100
AcDbEntity
  8
HIDDEN
  6
HIDDEN
100
AcDbLine
 10
197.736145838456
 20
530.601393042363
 30
0.0
 11
212.7361458384561
 21
530.601393042363
 31
0.0
  0
LINE
  5
3601
330
1E
100
AcDbEntity
  8
HIDDEN
  6
HIDDEN
100
AcDbLine
 10
197.736145838456
 20
531.201393042363
 30
0.0
 11
197.736145838456
 21
523.201393042363
 31
0.0
  0
LINE
  5
3602
330
1E
100
AcDbEntity
  8
HIDDEN
  6
HIDDEN
100
AcDbLine
 10
209.736145838456
 20
531.201393042363
 30
0.0
 11
209.736145838456
 21
523.201393042363
 31
0.0
  0
LINE
  5
3603
330
1E
100
AcDbEntity
  8
HIDDEN
  6
HIDDEN
100
AcDbLine
 10
212.7361458384561
 20
530.601393042363
 30
0.0
 11
214.6991367537008
 21
527.201393042363
 31
0.0
  0
LINE
  5
3604
330
1E
100
AcDbEntity
  8
HIDDEN
  6
HIDDEN
100
AcDbLine
 10
212.7361458384561
 20
523.8013930423631
 30
0.0
 11
214.6991367537008
 21
527.201393042363
 31
0.0
  0
LINE
  5
3605
330
1E
100
AcDbEntity
  8
HIDDEN
  6
HIDDEN
100
AcDbLine
 10
212.7361458384561
 20
530.601393042363
 30
0.0
 11
212.7361458384561
 21
523.8013930423631
 31
0.0
  0
LINE
  5
3606
330
1E
100
AcDbEntity
  8
0
100
AcDbLine
 10
280.7361458384557
 20
514.9513930423632
 30
0.0
 11
280.7361458384556
 21
536.4513930423633
 31
0.0
  0
LINE
  5
3607
330
1E
100
AcDbEntity
  8
0
100
AcDbLine
 10
280.7361458384557
 20
480.1612835837897
 30
0.0
 11
223.7361458384557
 21
480.1612835837897
 31
0.0
  0
LINE
  5
3608
330
1E
100
AcDbEntity
  8
0
100
AcDbLine
 10
280.7361458384557
 20
517.7415025009366
 30
0.0
 11
223.7361458384557
 21
517.7415025009366
 31
0.0
  0
LINE
  5
3609
330
1E
100
AcDbEntity
  8
0
100
AcDbLine
 10
237.7361458384557
 20
508.9513930423631
 30
0.0
 11
276.7361458384556
 21
508.9513930423631
 31
0.0
  0
LINE
  5
360A
330
1E
100
AcDbEntity
  8
0
100
AcDbLine
 10
237.7361458384557
 20
488.9513930423632
 30
0.0
 11
276.7361458384556
 21
488.9513930423631
 31
0.0
  0
LINE
  5
360B
330
1E
100
AcDbEntity
  8
0
100
AcDbLine
 10
237.7361458384557
 20
508.9513930423631
 30
0.0
 11
237.7361458384557
 21
488.9513930423632
 31
0.0
  0
LINE
  5
360C
330
1E
100
AcDbEntity
  8
0
100
AcDbLine
 10
236.7361458384558
 20
507.9513930423631
 30
0.0
 11
236.7361458384558
 21
489.9513930423632
 31
0.0
  0
LINE
  5
360D
330
1E
100
AcDbEntity
  8
0
100
AcDbLine
 10
236.7361458384558
 20
489.9513930423632
 30
0.0
 11
237.7361458384557
 21
488.9513930423632
 31
0.0
  0
LINE
  5
360E
330
1E
100
AcDbEntity
  8
0
100
AcDbLine
 10
237.7361458384557
 20
508.9513930423631
 30
0.0
 11
236.7361458384558
 21
507.9513930423631
 31
0.0
  0
LINE
  5
360F
330
1E
100
AcDbEntity
  8
0
100
AcDbLine
 10
276.7361458384556
 20
514.9513930423632
 30
0.0
 11
276.7361458384556
 21
482.951393042363
 31
0.0
  0
LINE
  5
3610
330
1E
100
AcDbEntity
  8
0
100
AcDbLine
 10
280.7361458384556
 20
533.9513930423631
 30
0.0
 11
223.7361458384557
 21
533.9513930423631
 31
0.0
  0
LINE
  5
3611
330
1E
100
AcDbEntity
  8
DIM
100
AcDbLine
 10
422.7361458384557
 20
255.2473492739041
 30
0.0
 11
422.7361458384557
 21
399.2473492739041
 31
0.0
  0
LINE
  5
3612
330
1E
100
AcDbEntity
  8
DIM
100
AcDbLine
 10
588.0681961640038
 20
239.747349273904
 30
0.0
 11
588.0681961640038
 21
414.7473492739041
 31
0.0
  0
LINE
  5
3613
330
1E
100
AcDbEntity
  8
0
100
AcDbLine
 10
332.7361458384551
 20
229.747349273904
 30
0.0
 11
332.7361458384561
 21
424.747349273904
 31
0.0
  0
LINE
  5
3614
330
1E
100
AcDbEntity
  8
0
100
AcDbLine
 10
312.7361458384557
 20
424.747349273904
 30
0.0
 11
312.7361458384558
 21
229.747349273904
 31
0.0
  0
LINE
  5
3615
330
1E
100
AcDbEntity
  8
DIM
100
AcDbLine
 10
414.7361458384557
 20
270.7473492739042
 30
0.0
 11
414.7361458384557
 21
383.7473492739041
 31
0.0
  0
LINE
  5
3616
330
1E
100
AcDbEntity
  8
DIM
100
AcDbLine
 10
572.0681961640038
 20
277.747349273904
 30
0.0
 11
572.0681961640038
 21
376.747349273904
 31
0.0
  0
LINE
  5
3617
330
1E
100
AcDbEntity
  8
DIM
100
AcDbLine
 10
596.0681961640038
 20
229.747349273904
 30
0.0
 11
596.0681961640038
 21
424.7473492739041
 31
0.0
  0
LINE
  5
3618
330
1E
100
AcDbEntity
  8
DIM
100
AcDbLine
 10
580.0681961640038
 20
255.2473492739041
 30
0.0
 11
580.0681961640038
 21
399.2473492739041
 31
0.0
  0
LINE
  5
3619
330
1E
100
AcDbEntity
  8
CENTER
  6
CENTER
100
AcDbLine
 10
479.8181961640036
 20
424.747349273904
 30
0.0
 11
479.8181961640039
 21
229.747349273904
 31
0.0
  0
LINE
  5
361A
330
1E
100
AcDbEntity
  8
CENTER
  6
CENTER
100
AcDbLine
 10
536.3181961640036
 20
424.747349273904
 30
0.0
 11
536.3181961640038
 21
229.747349273904
 31
0.0
  0
LINE
  5
361B
330
1E
100
AcDbEntity
  8
0
100
AcDbLine
 10
386.7361458384557
 20
402.2473492739041
 30
0.0
 11
386.7361458384557
 21
252.2473492739041
 31
0.0
  0
LINE
  5
361C
330
1E
100
AcDbEntity
  8
0
100
AcDbLine
 10
470.5681961640037
 20
402.2473492739041
 30
0.0
 11
470.5681961640037
 21
252.2473492739041
 31
0.0
  0
LINE
  5
361D
330
1E
100
AcDbEntity
  8
0
100
AcDbLine
 10
545.5681961640038
 20
402.2473492739041
 30
0.0
 11
545.5681961640038
 21
252.2473492739041
 31
0.0
  0
LINE
  5
361E
330
1E
100
AcDbEntity
  8
0
100
AcDbLine
 10
548.0681961640039
 20
424.747349273904
 30
0.0
 11
548.0681961640039
 21
229.747349273904
 31
0.0
  0
LINE
  5
361F
330
1E
100
AcDbEntity
  8
CENTER
  6
CENTER
100
AcDbLine
 10
508.0681961640037
 20
427.747349273904
 30
0.0
 11
508.0681961640037
 21
226.747349273904
 31
0.0
  0
LINE
  5
3620
330
1E
100
AcDbEntity
  8
0
100
AcDbLine
 10
468.0681961640036
 20
424.747349273904
 30
0.0
 11
468.0681961640036
 21
229.747349273904
 31
0.0
  0
LINE
  5
3621
330
1E
100
AcDbEntity
  8
0
100
AcDbLine
 10
406.7361458384557
 20
402.2473492739041
 30
0.0
 11
406.7361458384557
 21
252.2473492739041
 31
0.0
  0
LINE
  5
3622
330
1E
100
AcDbEntity
  8
DIM
100
AcDbLine
 10
549.0681961640039
 20
239.747349273904
 30
0.0
 11
589.0681961640039
 21
239.747349273904
 31
0.0
  0
LINE
  5
3623
330
1E
100
AcDbEntity
  8
DIM
100
AcDbLine
 10
547.3181961640039
 20
274.747349273904
 30
0.0
 11
573.0681961640039
 21
274.747349273904
 31
0.0
  0
LINE
  5
3624
330
1E
100
AcDbEntity
  8
DIM
100
AcDbLine
 10
549.0681961640039
 20
229.747349273904
 30
0.0
 11
597.0681961640038
 21
229.747349273904
 31
0.0
  0
LINE
  5
3625
330
1E
100
AcDbEntity
  8
DIM
100
AcDbLine
 10
546.5681961640038
 20
252.2473492739041
 30
0.0
 11
581.0681961640039
 21
252.2473492739041
 31
0.0
  0
LINE
  5
3626
330
1E
100
AcDbEntity
  8
DIM
100
AcDbLine
 10
357.8574185570971
 20
251.7473492739041
 30
0.0
 11
423.7361458384557
 21
251.7473492739041
 31
0.0
  0
LINE
  5
3627
330
1E
100
AcDbEntity
  8
0
  6
CONTINUOUS
100
AcDbLine
 10
332.7361458384561
 20
158.7534017485723
 30
0.0
 11
356.7361458384557
 21
158.7534017485723
 31
0.0
  0
LINE
  5
3628
330
1E
100
AcDbEntity
  8
0
  6
CONTINUOUS
100
AcDbLine
 10
332.7361458384558
 20
126.7534017485723
 30
0.0
 11
356.7361458384557
 21
126.7534017485724
 31
0.0
  0
LINE
  5
3629
330
1E
100
AcDbEntity
  8
0
100
AcDbLine
 10
332.7361458384558
 20
102.7534017485722
 30
0.0
 11
332.7361458384561
 21
182.7534017485723
 31
0.0
  0
LINE
  5
362A
330
1E
100
AcDbEntity
  8
0
100
AcDbLine
 10
312.7361458384557
 20
182.7534017485723
 30
0.0
 11
312.7361458384557
 21
102.7534017485722
 31
0.0
  0
LINE
  5
362B
330
1E
100
AcDbEntity
  8
HIDDEN
  6
HIDDEN
100
AcDbLine
 10
312.7361458384557
 20
119.0034017485724
 30
0.0
 11
332.7361458384562
 21
119.0034017485725
 31
0.0
  0
LINE
  5
362C
330
1E
100
AcDbEntity
  8
HIDDEN
  6
HIDDEN
100
AcDbLine
 10
312.7361458384557
 20
110.0034017485723
 30
0.0
 11
332.7361458384562
 21
110.0034017485725
 31
0.0
  0
LINE
  5
362D
330
1E
100
AcDbEntity
  8
0
100
AcDbLine
 10
312.7361458384557
 20
102.7534017485722
 30
0.0
 11
332.7361458384558
 21
102.7534017485722
 31
0.0
  0
LINE
  5
362E
330
1E
100
AcDbEntity
  8
0
100
AcDbLine
 10
337.7361458384557
 20
126.7534017485724
 30
0.0
 11
337.7361458384557
 21
122.2534017485723
 31
0.0
  0
LINE
  5
362F
330
1E
100
AcDbEntity
  8
0
100
AcDbLine
 10
336.7361458384559
 20
126.7534017485724
 30
0.0
 11
336.7361458384558
 21
121.2534017485723
 31
0.0
  0
LINE
  5
3630
330
1E
100
AcDbEntity
  8
0
100
AcDbLine
 10
337.7361458384557
 20
122.2534017485723
 30
0.0
 11
336.7361458384558
 21
121.2534017485723
 31
0.0
  0
LINE
  5
3631
330
1E
100
AcDbEntity
  8
0
100
AcDbLine
 10
332.7361458384555
 20
121.2534017485723
 30
0.0
 11
336.7361458384558
 21
121.2534017485723
 31
0.0
  0
LINE
  5
3632
330
1E
100
AcDbEntity
  8
0
100
AcDbLine
 10
312.7361458384557
 20
182.7534017485723
 30
0.0
 11
332.7361458384561
 21
182.7534017485723
 31
0.0
  0
LINE
  5
3633
330
1E
100
AcDbEntity
  8
HIDDEN
  6
HIDDEN
100
AcDbLine
 10
312.7361458384557
 20
175.5034017485724
 30
0.0
 11
332.7361458384562
 21
175.5034017485725
 31
0.0
  0
LINE
  5
3634
330
1E
100
AcDbEntity
  8
HIDDEN
  6
HIDDEN
100
AcDbLine
 10
312.7361458384557
 20
166.5034017485724
 30
0.0
 11
332.7361458384561
 21
166.5034017485725
 31
0.0
  0
LINE
  5
3635
330
1E
100
AcDbEntity
  8
CENTER
  6
CENTER
100
AcDbLine
 10
287.7361458384558
 20
165.5818479047337
 30
0.0
 11
287.7361458384558
 21
183.8575523165222
 31
0.0
  0
LINE
  5
3636
330
1E
100
AcDbEntity
  8
CENTER
  6
CENTER
100
AcDbLine
 10
296.7361458384557
 20
165.7011319125995
 30
0.0
 11
296.7361458384558
 21
183.6791087723343
 31
0.0
  0
LINE
  5
3637
330
1E
100
AcDbEntity
  8
0
100
AcDbLine
 10
336.7361458384558
 20
164.2534017485723
 30
0.0
 11
337.7361458384557
 21
163.2534017485723
 31
0.0
  0
LINE
  5
3638
330
1E
100
AcDbEntity
  8
0
100
AcDbLine
 10
336.7361458384558
 20
164.2534017485723
 30
0.0
 11
336.7361458384556
 21
158.7534017485723
 31
0.0
  0
LINE
  5
3639
330
1E
100
AcDbEntity
  8
0
100
AcDbLine
 10
332.7361458384558
 20
164.2534017485723
 30
0.0
 11
336.7361458384558
 21
164.2534017485723
 31
0.0
  0
LINE
  5
363A
330
1E
100
AcDbEntity
  8
0
100
AcDbLine
 10
337.7361458384557
 20
163.2534017485723
 30
0.0
 11
337.7361458384557
 21
158.7534017485723
 31
0.0
  0
LINE
  5
363B
330
1E
100
AcDbEntity
  8
0
100
AcDbLine
 10
386.7361458384557
 20
180.2534017485722
 30
0.0
 11
386.7361458384557
 21
105.2534017485722
 31
0.0
  0
LINE
  5
363C
330
1E
100
AcDbEntity
  8
0
100
AcDbLine
 10
406.7361458384557
 20
180.2534017485724
 30
0.0
 11
406.7361458384557
 21
105.2534017485722
 31
0.0
  0
LINE
  5
363D
330
1E
100
AcDbEntity
  8
0
100
AcDbLine
 10
356.7361458384557
 20
158.7534017485724
 30
0.0
 11
356.7361458384557
 21
126.7534017485723
 31
0.0
  0
LINE
  5
363E
330
1E
100
AcDbEntity
  8
CENTER
  6
CENTER
100
AcDbLine
 10
383.7361458384557
 20
114.5034017485724
 30
0.0
 11
409.7361458384557
 21
114.5034017485724
 31
0.0
  0
LINE
  5
363F
330
1E
100
AcDbEntity
  8
0
100
AcDbLine
 10
356.7361458384557
 20
132.7534017485723
 30
0.0
 11
386.7361458384557
 21
132.7534017485723
 31
0.0
  0
LINE
  5
3640
330
1E
100
AcDbEntity
  8
0
100
AcDbLine
 10
371.7361458384558
 20
115.7534017485722
 30
0.0
 11
386.7361458384557
 21
115.7534017485722
 31
0.0
  0
LINE
  5
3641
330
1E
100
AcDbEntity
  8
0
100
AcDbLine
 10
371.7361458384558
 20
132.7534017485724
 30
0.0
 11
371.7361458384558
 21
115.7534017485725
 31
0.0
  0
LINE
  5
3642
330
1E
100
AcDbEntity
  8
0
100
AcDbLine
 10
370.7361458384557
 20
130.2534017485725
 30
0.0
 11
368.7361458384557
 21
132.2534017485725
 31
0.0
  0
LINE
  5
3643
330
1E
100
AcDbEntity
  8
0
  6
CONTINUOUS
100
AcDbLine
 10
360.3601458384555
 20
130.7534017485723
 30
0.0
 11
356.7361458384557
 21
130.7534017485723
 31
0.0
  0
ARC
  5
3644
330
1E
100
AcDbEntity
  8
0
  6
CONTINUOUS
100
AcDbCircle
 10
349.4202388617096
 20
136.7534017485724
 30
0.0
 40
12.47724186909332
100
AcDbArc
 50
331.2574016731077
 51
341.3017735138037
  0
LINE
  5
3645
330
1E
100
AcDbEntity
  8
0
  6
CONTINUOUS
100
AcDbLine
 10
361.7361458384558
 20
132.7534017485723
 30
0.0
 11
361.7361458384558
 21
132.2534017485725
 31
0.0
  0
LINE
  5
3646
330
1E
100
AcDbEntity
  8
0
100
AcDbLine
 10
361.7361458384558
 20
132.2534017485725
 30
0.0
 11
368.7361458384557
 21
132.2534017485725
 31
0.0
  0
LINE
  5
3647
330
1E
100
AcDbEntity
  8
0
100
AcDbLine
 10
370.7361458384557
 20
130.2534017485725
 30
0.0
 11
371.7361458384558
 21
130.2534017485725
 31
0.0
  0
LINE
  5
3648
330
1E
100
AcDbEntity
  8
HIDDEN
  6
HIDDEN
100
AcDbLine
 10
395.2361458384557
 20
110.2534017485724
 30
0.0
 11
406.7361458384557
 21
110.2534017485724
 31
0.0
  0
LINE
  5
3649
330
1E
100
AcDbEntity
  8
HIDDEN
  6
HIDDEN
100
AcDbLine
 10
395.2361458384557
 20
118.7534017485724
 30
0.0
 11
406.7361458384557
 21
118.7534017485724
 31
0.0
  0
LINE
  5
364A
330
1E
100
AcDbEntity
  8
0
100
AcDbLine
 10
386.7361458384557
 20
105.2534017485722
 30
0.0
 11
406.7361458384557
 21
105.2534017485722
 31
0.0
  0
LINE
  5
364B
330
1E
100
AcDbEntity
  8
HIDDEN
  6
HIDDEN
100
AcDbLine
 10
395.2361458384557
 20
121.5034017485724
 30
0.0
 11
395.2361458384557
 21
107.5034017485724
 31
0.0
  0
LINE
  5
364C
330
1E
100
AcDbEntity
  8
HIDDEN
  6
HIDDEN
100
AcDbLine
 10
386.7361458384557
 20
107.5034017485724
 30
0.0
 11
395.2361458384557
 21
107.5034017485724
 31
0.0
  0
LINE
  5
364D
330
1E
100
AcDbEntity
  8
HIDDEN
  6
HIDDEN
100
AcDbLine
 10
386.7361458384557
 20
121.5034017485724
 30
0.0
 11
395.2361458384557
 21
121.5034017485724
 31
0.0
  0
LINE
  5
364E
330
1E
100
AcDbEntity
  8
CENTER
  6
CENTER
100
AcDbLine
 10
383.7361458384557
 20
171.0034017485724
 30
0.0
 11
409.7361458384557
 21
171.0034017485724
 31
0.0
  0
LINE
  5
364F
330
1E
100
AcDbEntity
  8
0
100
AcDbLine
 10
356.7361458384557
 20
152.7534017485724
 30
0.0
 11
386.7361458384557
 21
152.7534017485724
 31
0.0
  0
LINE
  5
3650
330
1E
100
AcDbEntity
  8
0
100
AcDbLine
 10
371.7361458384558
 20
169.7534017485725
 30
0.0
 11
386.7361458384557
 21
169.7534017485725
 31
0.0
  0
LINE
  5
3651
330
1E
100
AcDbEntity
  8
0
100
AcDbLine
 10
370.7361458384557
 20
155.2534017485724
 30
0.0
 11
368.7361458384557
 21
153.2534017485724
 31
0.0
  0
LINE
  5
3652
330
1E
100
AcDbEntity
  8
0
  6
CONTINUOUS
100
AcDbLine
 10
360.3601458384555
 20
154.7534017485723
 30
0.0
 11
356.7361458384557
 21
154.7534017485724
 31
0.0
  0
ARC
  5
3653
330
1E
100
AcDbEntity
  8
0
  6
CONTINUOUS
100
AcDbCircle
 10
349.4202388617096
 20
148.7534017485724
 30
0.0
 40
12.47724186909332
100
AcDbArc
 50
18.69822648619628
 51
28.74259832689224
  0
LINE
  5
3654
330
1E
100
AcDbEntity
  8
0
  6
CONTINUOUS
100
AcDbLine
 10
361.7361458384558
 20
153.2534017485725
 30
0.0
 11
361.7361458384559
 21
152.7534017485724
 31
0.0
  0
LINE
  5
3655
330
1E
100
AcDbEntity
  8
0
100
AcDbLine
 10
361.7361458384558
 20
153.2534017485725
 30
0.0
 11
368.7361458384559
 21
153.2534017485725
 31
0.0
  0
LINE
  5
3656
330
1E
100
AcDbEntity
  8
0
100
AcDbLine
 10
371.7361458384558
 20
169.7534017485725
 30
0.0
 11
371.7361458384558
 21
152.7534017485724
 31
0.0
  0
LINE
  5
3657
330
1E
100
AcDbEntity
  8
0
100
AcDbLine
 10
370.7361458384557
 20
155.2534017485724
 30
0.0
 11
371.7361458384558
 21
155.2534017485725
 31
0.0
  0
LINE
  5
3658
330
1E
100
AcDbEntity
  8
HIDDEN
  6
HIDDEN
100
AcDbLine
 10
395.2361458384557
 20
178.0034017485724
 30
0.0
 11
395.2361458384557
 21
164.0034017485723
 31
0.0
  0
LINE
  5
3659
330
1E
100
AcDbEntity
  8
HIDDEN
  6
HIDDEN
100
AcDbLine
 10
395.2361458384557
 20
166.7534017485724
 30
0.0
 11
406.7361458384556
 21
166.7534017485724
 31
0.0
  0
LINE
  5
365A
330
1E
100
AcDbEntity
  8
HIDDEN
  6
HIDDEN
100
AcDbLine
 10
386.7361458384557
 20
164.0034017485723
 30
0.0
 11
395.2361458384557
 21
164.0034017485723
 31
0.0
  0
LINE
  5
365B
330
1E
100
AcDbEntity
  8
HIDDEN
  6
HIDDEN
100
AcDbLine
 10
395.2361458384557
 20
175.2534017485723
 30
0.0
 11
406.7361458384556
 21
175.2534017485723
 31
0.0
  0
LINE
  5
365C
330
1E
100
AcDbEntity
  8
0
100
AcDbLine
 10
386.7361458384557
 20
180.2534017485722
 30
0.0
 11
406.7361458384557
 21
180.2534017485724
 31
0.0
  0
LINE
  5
365D
330
1E
100
AcDbEntity
  8
HIDDEN
  6
HIDDEN
100
AcDbLine
 10
386.7361458384557
 20
178.0034017485724
 30
0.0
 11
395.2361458384557
 21
178.0034017485724
 31
0.0
  0
LINE
  5
365E
330
1E
100
AcDbEntity
  8
0
  6
CONTINUOUS
100
AcDbLine
 10
332.7361458384554
 20
283.7473492739041
 30
0.0
 11
356.7361458384558
 21
283.7473492739042
 31
0.0
  0
LINE
  5
365F
330
1E
100
AcDbEntity
  8
0
  6
CONTINUOUS
100
AcDbLine
 10
332.7361458384552
 20
251.7473492739042
 30
0.0
 11
356.7361458384558
 21
251.7473492739042
 31
0.0
  0
LINE
  5
3660
330
1E
100
AcDbEntity
  8
DIM
100
AcDbLine
 10
403.7361458384557
 20
213.747349273904
 30
0.0
 11
315.7361458384558
 21
213.747349273904
 31
0.0
  0
LINE
  5
3661
330
1E
100
AcDbEntity
  8
HIDDEN
  6
HIDDEN
100
AcDbLine
 10
312.7361458384559
 20
235.247349273904
 30
0.0
 11
332.7361458384552
 21
235.247349273904
 31
0.0
  0
LINE
  5
3662
330
1E
100
AcDbEntity
  8
CENTER
  6
CENTER
100
AcDbLine
 10
309.7361458384558
 20
239.747349273904
 30
0.0
 11
335.7361458384551
 21
239.7473492739039
 31
0.0
  0
LINE
  5
3663
330
1E
100
AcDbEntity
  8
0
100
AcDbLine
 10
312.7361458384559
 20
229.747349273904
 30
0.0
 11
332.7361458384551
 21
229.747349273904
 31
0.0
  0
LINE
  5
3664
330
1E
100
AcDbEntity
  8
DIM
100
AcDbLine
 10
312.7361458384557
 20
228.400553171375
 30
0.0
 11
312.7361458384557
 21
212.747349273904
 31
0.0
  0
SOLID
  5
3665
330
1E
100
AcDbEntity
  8
DIM
100
AcDbTrace
 10
309.7361458384558
 20
214.247349273904
 30
0.0
 11
309.7361458384558
 21
213.247349273904
 31
0.0
 12
312.7361458384557
 22
213.747349273904
 32
0.0
 13
312.7361458384557
 23
213.747349273904
 33
0.0
  0
SOLID
  5
3666
330
1E
100
AcDbEntity
  8
DIM
100
AcDbTrace
 10
315.7361458384558
 20
214.247349273904
 30
0.0
 11
315.7361458384558
 21
213.247349273904
 31
0.0
 12
312.7361458384557
 22
213.747349273904
 32
0.0
 13
312.7361458384557
 23
213.747349273904
 33
0.0
  0
TEXT
  5
3667
330
1E
100
AcDbEntity
  8
DIM
100
AcDbText
 10
293.9621282991468
 20
223.247349273904
 30
0.0
 40
3.0
  1
36
  7
ROMANSS
 72
     1
 11
296.3192711562896
 21
224.747349273904
 31
0.0
100
AcDbText
 73
     2
  0
SOLID
  5
3668
330
1E
100
AcDbEntity
  8
DIM
100
AcDbTrace
 10
309.7361458384558
 20
222.247349273904
 30
0.0
 11
309.7361458384558
 21
221.2473492739039
 31
0.0
 12
312.7361458384557
 22
221.747349273904
 32
0.0
 13
312.7361458384557
 23
221.747349273904
 33
0.0
  0
TEXT
  5
3669
330
1E
100
AcDbEntity
  8
DIM
100
AcDbText
 10
320.4594703473572
 20
215.247349273904
 30
0.0
 40
3.0
  1
20
  7
ROMANSS
 72
     1
 11
322.8880417759287
 21
216.7473492739039
 31
0.0
100
AcDbText
 73
     2
  0
LINE
  5
366A
330
1E
100
AcDbEntity
  8
DIM
100
AcDbLine
 10
332.7361458384551
 20
228.400553171375
 30
0.0
 11
332.7361458384551
 21
212.747349273904
 31
0.0
  0
SOLID
  5
366B
330
1E
100
AcDbEntity
  8
DIM
100
AcDbTrace
 10
329.7361458384551
 20
214.247349273904
 30
0.0
 11
329.7361458384551
 21
213.247349273904
 31
0.0
 12
332.7361458384551
 22
213.747349273904
 32
0.0
 13
332.7361458384551
 23
213.747349273904
 33
0.0
  0
SOLID
  5
366C
330
1E
100
AcDbEntity
  8
DIM
100
AcDbTrace
 10
335.7361458384551
 20
214.247349273904
 30
0.0
 11
335.7361458384551
 21
213.247349273904
 31
0.0
 12
332.7361458384551
 22
213.747349273904
 32
0.0
 13
332.7361458384551
 23
213.747349273904
 33
0.0
  0
LINE
  5
366D
330
1E
100
AcDbEntity
  8
HIDDEN
  6
HIDDEN
100
AcDbLine
 10
312.7361458384557
 20
244.2473492739039
 30
0.0
 11
332.7361458384552
 21
244.2473492739039
 31
0.0
  0
LINE
  5
366E
330
1E
100
AcDbEntity
  8
DIM
100
AcDbLine
 10
386.7361458384557
 20
251.1290725159383
 30
0.0
 11
386.7361458384557
 21
220.747349273904
 31
0.0
  0
LINE
  5
366F
330
1E
100
AcDbEntity
  8
DIM
100
AcDbLine
 10
406.7361458384557
 20
250.8761922994673
 30
0.0
 11
406.7361458384557
 21
212.747349273904
 31
0.0
  0
TEXT
  5
3670
330
1E
100
AcDbEntity
  8
DIM
100
AcDbText
 10
367.5765843283579
 20
215.247349273904
 30
0.0
 40
3.0
  1
74
  7
ROMANSS
 72
     1
 11
370.0765843283579
 21
216.747349273904
 31
0.0
100
AcDbText
 73
     2
  0
SOLID
  5
3671
330
1E
100
AcDbEntity
  8
DIM
100
AcDbTrace
 10
403.7361458384557
 20
214.247349273904
 30
0.0
 11
403.7361458384557
 21
213.247349273904
 31
0.0
 12
406.7361458384557
 22
213.747349273904
 32
0.0
 13
406.7361458384557
 23
213.747349273904
 33
0.0
  0
LINE
  5
3672
330
1E
100
AcDbEntity
  8
DIM
100
AcDbLine
 10
403.7361458384557
 20
221.747349273904
 30
0.0
 11
389.7361458384557
 21
221.747349273904
 31
0.0
  0
SOLID
  5
3673
330
1E
100
AcDbEntity
  8
DIM
100
AcDbTrace
 10
389.7361458384557
 20
222.247349273904
 30
0.0
 11
389.7361458384557
 21
221.247349273904
 31
0.0
 12
386.7361458384557
 22
221.747349273904
 32
0.0
 13
386.7361458384557
 23
221.747349273904
 33
0.0
  0
TEXT
  5
3674
330
1E
100
AcDbEntity
  8
DIM
100
AcDbText
 10
394.3075744098842
 20
223.247349273904
 30
0.0
 40
3.0
  1
20
  7
ROMANSS
 72
     1
 11
396.7361458384557
 21
224.747349273904
 31
0.0
100
AcDbText
 73
     2
  0
SOLID
  5
3675
330
1E
100
AcDbEntity
  8
DIM
100
AcDbTrace
 10
403.7361458384557
 20
222.247349273904
 30
0.0
 11
403.7361458384557
 21
221.247349273904
 31
0.0
 12
406.7361458384557
 22
221.747349273904
 32
0.0
 13
406.7361458384557
 23
221.747349273904
 33
0.0
  0
LINE
  5
3676
330
1E
100
AcDbEntity
  8
CENTER
  6
CENTER
100
AcDbLine
 10
383.7361458384557
 20
274.7473492739038
 30
0.0
 11
409.7361458384557
 21
274.7473492739038
 31
0.0
  0
LINE
  5
3677
330
1E
100
AcDbEntity
  8
0
100
AcDbLine
 10
356.7361458384558
 20
277.7473492739042
 30
0.0
 11
386.7361458384558
 21
277.7473492739042
 31
0.0
  0
LINE
  5
3678
330
1E
100
AcDbEntity
  8
0
100
AcDbLine
 10
356.7361458384558
 20
257.7473492739041
 30
0.0
 11
386.7361458384557
 21
257.7473492739041
 31
0.0
  0
LINE
  5
3679
330
1E
100
AcDbEntity
  8
0
100
AcDbLine
 10
356.7361458384558
 20
283.7473492739042
 30
0.0
 11
356.7361458384558
 21
251.7473492739042
 31
0.0
  0
LINE
  5
367A
330
1E
100
AcDbEntity
  8
0
100
AcDbLine
 10
386.7361458384557
 20
252.2473492739041
 30
0.0
 11
406.7361458384557
 21
252.2473492739041
 31
0.0
  0
LINE
  5
367B
330
1E
100
AcDbEntity
  8
HIDDEN
  6
HIDDEN
100
AcDbLine
 10
395.2361458384557
 20
278.9973492739038
 30
0.0
 11
406.7361458384556
 21
278.9973492739038
 31
0.0
  0
LINE
  5
367C
330
1E
100
AcDbEntity
  8
HIDDEN
  6
HIDDEN
100
AcDbLine
 10
395.2361458384557
 20
270.4973492739038
 30
0.0
 11
406.7361458384556
 21
270.4973492739038
 31
0.0
  0
LINE
  5
367D
330
1E
100
AcDbEntity
  8
HIDDEN
  6
HIDDEN
100
AcDbLine
 10
395.2361458384557
 20
267.7473492739038
 30
0.0
 11
395.2361458384557
 21
281.7473492739038
 31
0.0
  0
LINE
  5
367E
330
1E
100
AcDbEntity
  8
HIDDEN
  6
HIDDEN
100
AcDbLine
 10
386.7361458384557
 20
267.7473492739038
 30
0.0
 11
395.2361458384557
 21
267.7473492739038
 31
0.0
  0
LINE
  5
367F
330
1E
100
AcDbEntity
  8
HIDDEN
  6
HIDDEN
100
AcDbLine
 10
386.7361458384557
 20
281.7473492739038
 30
0.0
 11
395.2361458384557
 21
281.7473492739038
 31
0.0
  0
LINE
  5
3680
330
1E
100
AcDbEntity
  8
DIM
100
AcDbLine
 10
410.7361458384559
 20
267.7473492739042
 30
0.0
 11
415.7361458384557
 21
267.7473492739042
 31
0.0
  0
SOLID
  5
3681
330
1E
100
AcDbEntity
  8
DIM
100
AcDbTrace
 10
414.2361458384557
 20
270.7473492739042
 30
0.0
 11
415.2361458384557
 21
270.7473492739042
 31
0.0
 12
414.7361458384557
 22
267.7473492739042
 32
0.0
 13
414.7361458384557
 23
267.7473492739042
 33
0.0
  0
LINE
  5
3682
330
1E
100
AcDbEntity
  8
CENTER
  6
CENTER
100
AcDbLine
 10
470.8181961640039
 20
239.7473492739041
 30
0.0
 11
488.8181961640039
 21
239.7473492739041
 31
0.0
  0
LINE
  5
3683
330
1E
100
AcDbEntity
  8
0
100
AcDbLine
 10
468.0681961640036
 20
229.747349273904
 30
0.0
 11
548.0681961640039
 21
229.747349273904
 31
0.0
  0
CIRCLE
  5
3684
330
1E
100
AcDbEntity
  8
HIDDEN
  6
HIDDEN
100
AcDbCircle
 10
479.8181961640036
 20
274.7473492739042
 30
0.0
 40
7.0
  0
LINE
  5
3685
330
1E
100
AcDbEntity
  8
CENTER
  6
CENTER
100
AcDbLine
 10
469.8181961640036
 20
274.7473492739042
 30
0.0
 11
489.8181961640037
 21
274.7473492739042
 31
0.0
  0
LINE
  5
3686
330
1E
100
AcDbEntity
  8
DIM
100
AcDbLine
 10
482.8181961640036
 20
221.747349273904
 30
0.0
 11
533.3181961640036
 21
221.747349273904
 31
0.0
  0
LINE
  5
3687
330
1E
100
AcDbEntity
  8
0
100
AcDbLine
 10
470.5681961640037
 20
252.2473492739041
 30
0.0
 11
545.5681961640038
 21
252.2473492739041
 31
0.0
  0
LINE
  5
3688
330
1E
100
AcDbEntity
  8
DIM
100
AcDbLine
 10
471.0681961640037
 20
205.747349273904
 30
0.0
 11
545.0681961640036
 21
205.747349273904
 31
0.0
  0
LINE
  5
3689
330
1E
100
AcDbEntity
  8
DIM
100
AcDbLine
 10
473.5681961640036
 20
213.747349273904
 30
0.0
 11
542.5681961640036
 21
213.747349273904
 31
0.0
  0
CIRCLE
  5
368A
330
1E
100
AcDbEntity
  8
0
  6
CONTINUOUS
100
AcDbCircle
 10
479.8181961640039
 20
239.7473492739041
 30
0.0
 40
4.5
  0
LINE
  5
368B
330
1E
100
AcDbEntity
  8
DIM
100
AcDbLine
 10
479.8181961640036
 20
244.247349273904
 30
0.0
 11
479.8181961640036
 21
220.747349273904
 31
0.0
  0
LINE
  5
368C
330
1E
100
AcDbEntity
  8
DIM
100
AcDbLine
 10
470.5681961640037
 20
250.7668322457753
 30
0.0
 11
470.5681961640037
 21
212.747349273904
 31
0.0
  0
LINE
  5
368D
330
1E
100
AcDbEntity
  8
DIM
100
AcDbLine
 10
468.0681961640036
 20
228.747349273904
 30
0.0
 11
468.0681961640036
 21
204.747349273904
 31
0.0
  0
SOLID
  5
368E
330
1E
100
AcDbEntity
  8
DIM
100
AcDbTrace
 10
471.0681961640037
 20
206.247349273904
 30
0.0
 11
471.0681961640037
 21
205.247349273904
 31
0.0
 12
468.0681961640036
 22
205.747349273904
 32
0.0
 13
468.0681961640036
 23
205.747349273904
 33
0.0
  0
SOLID
  5
368F
330
1E
100
AcDbEntity
  8
DIM
100
AcDbTrace
 10
473.5681961640036
 20
214.247349273904
 30
0.0
 11
473.5681961640036
 21
213.247349273904
 31
0.0
 12
470.5681961640037
 22
213.747349273904
 32
0.0
 13
470.5681961640037
 23
213.747349273904
 33
0.0
  0
SOLID
  5
3690
330
1E
100
AcDbEntity
  8
DIM
100
AcDbTrace
 10
482.8181961640036
 20
222.247349273904
 30
0.0
 11
482.8181961640036
 21
221.247349273904
 31
0.0
 12
479.8181961640036
 22
221.747349273904
 32
0.0
 13
479.8181961640036
 23
221.747349273904
 33
0.0
  0
SOLID
  5
3691
330
1E
100
AcDbEntity
  8
DIM
100
AcDbTrace
 10
422.2361458384557
 20
254.747349273904
 30
0.0
 11
423.2361458384557
 21
254.747349273904
 31
0.0
 12
422.7361458384557
 22
251.7473492739041
 32
0.0
 13
422.7361458384557
 23
251.7473492739041
 33
0.0
  0
CIRCLE
  5
3692
330
1E
100
AcDbEntity
  8
0
100
AcDbCircle
 10
479.8181961640036
 20
274.7473492739042
 30
0.0
 40
4.5
  0
CIRCLE
  5
3693
330
1E
100
AcDbEntity
  8
0
  6
CONTINUOUS
100
AcDbCircle
 10
536.3181961640038
 20
239.7473492739041
 30
0.0
 40
4.5
  0
LINE
  5
3694
330
1E
100
AcDbEntity
  8
DIM
100
AcDbLine
 10
536.3181961640036
 20
244.247349273904
 30
0.0
 11
536.3181961640036
 21
220.747349273904
 31
0.0
  0
LINE
  5
3695
330
1E
100
AcDbEntity
  8
DIM
100
AcDbLine
 10
545.5681961640038
 20
250.7668322457753
 30
0.0
 11
545.5681961640038
 21
212.747349273904
 31
0.0
  0
TEXT
  5
3696
330
1E
100
AcDbEntity
  8
DIM
100
AcDbText
 10
505.6396247354322
 20
215.247349273904
 30
0.0
 40
3.0
  1
75
  7
ROMANSS
 72
     1
 11
508.0681961640037
 21
216.747349273904
 31
0.0
100
AcDbText
 73
     2
  0
TEXT
  5
3697
330
1E
100
AcDbEntity
  8
DIM
100
AcDbText
 10
505.6396247354322
 20
207.247349273904
 30
0.0
 40
3.0
  1
80
  7
ROMANSS
 72
     1
 11
508.0681961640037
 21
208.747349273904
 31
0.0
100
AcDbText
 73
     2
  0
TEXT
  5
3698
330
1E
100
AcDbEntity
  8
DIM
100
AcDbText
 10
503.496767592575
 20
223.247349273904
 30
0.0
 40
3.0
  1
56.5
  7
ROMANSS
 72
     1
 11
508.0681961640037
 21
224.747349273904
 31
0.0
100
AcDbText
 73
     2
  0
LINE
  5
3699
330
1E
100
AcDbEntity
  8
DIM
100
AcDbLine
 10
548.0681961640039
 20
228.747349273904
 30
0.0
 11
548.0681961640039
 21
204.747349273904
 31
0.0
  0
SOLID
  5
369A
330
1E
100
AcDbEntity
  8
DIM
100
AcDbTrace
 10
545.0681961640036
 20
206.247349273904
 30
0.0
 11
545.0681961640036
 21
205.247349273904
 31
0.0
 12
548.0681961640039
 22
205.747349273904
 32
0.0
 13
548.0681961640039
 23
205.747349273904
 33
0.0
  0
SOLID
  5
369B
330
1E
100
AcDbEntity
  8
DIM
100
AcDbTrace
 10
542.5681961640036
 20
214.247349273904
 30
0.0
 11
542.5681961640036
 21
213.247349273904
 31
0.0
 12
545.5681961640038
 22
213.747349273904
 32
0.0
 13
545.5681961640038
 23
213.747349273904
 33
0.0
  0
LINE
  5
369C
330
1E
100
AcDbEntity
  8
CENTER
  6
CENTER
100
AcDbLine
 10
527.3181961640038
 20
239.7473492739041
 30
0.0
 11
545.3181961640039
 21
239.747349273904
 31
0.0
  0
SOLID
  5
369D
330
1E
100
AcDbEntity
  8
DIM
100
AcDbTrace
 10
533.3181961640036
 20
222.247349273904
 30
0.0
 11
533.3181961640036
 21
221.247349273904
 31
0.0
 12
536.3181961640036
 22
221.747349273904
 32
0.0
 13
536.3181961640036
 23
221.747349273904
 33
0.0
  0
LINE
  5
369E
330
1E
100
AcDbEntity
  8
CENTER
  6
CENTER
100
AcDbLine
 10
497.5681961640036
 20
267.7473492739042
 30
0.0
 11
518.5681961640036
 21
267.7473492739042
 31
0.0
  0
POLYLINE
  5
369F
330
1E
100
AcDbEntity
  8
0
100
AcDb2dPolyline
 66
     1
 10
0.0
 20
0.0
 30
0.0
 70
     1
  0
VERTEX
  5
42C8
330
369F
100
AcDbEntity
  8
0
100
AcDbVertex
100
AcDb2dVertex
 10
505.7587950872455
 20
271.7473492739042
 30
0.0
  0
VERTEX
  5
42C9
330
369F
100
AcDbEntity
  8
0
100
AcDbVertex
100
AcDb2dVertex
 10
503.4493940104873
 20
267.7473492739042
 30
0.0
  0
VERTEX
  5
42CA
330
369F
100
AcDbEntity
  8
0
100
AcDbVertex
100
AcDb2dVertex
 10
505.7587950872455
 20
263.7473492739041
 30
0.0
  0
VERTEX
  5
42CB
330
369F
100
AcDbEntity
  8
0
100
AcDbVertex
100
AcDb2dVertex
 10
510.3775972407618
 20
263.7473492739041
 30
0.0
  0
VERTEX
  5
42CC
330
369F
100
AcDbEntity
  8
0
100
AcDbVertex
100
AcDb2dVertex
 10
512.68699831752
 20
267.7473492739042
 30
0.0
  0
VERTEX
  5
42CD
330
369F
100
AcDbEntity
  8
0
100
AcDbVertex
100
AcDb2dVertex
 10
510.3775972407618
 20
271.7473492739042
 30
0.0
  0
SEQEND
  5
42CE
330
369F
100
AcDbEntity
  8
0
  0
CIRCLE
  5
36A0
330
1E
100
AcDbEntity
  8
0
100
AcDbCircle
 10
508.0681961640037
 20
267.7473492739042
 30
0.0
 40
7.307159353348731
  0
CIRCLE
  5
36A1
330
1E
100
AcDbEntity
  8
0
100
AcDbCircle
 10
508.0681961640037
 20
267.7473492739042
 30
0.0
 40
8.0
  0
ARC
  5
36A2
330
1E
100
AcDbEntity
  8
0
  6
CONTINUOUS
100
AcDbCircle
 10
508.0681961640037
 20
267.7473492739041
 30
0.0
 40
16.0
100
AcDbArc
 50
255.6384884370824
 51
284.361511562916
  0
CIRCLE
  5
36A3
330
1E
100
AcDbEntity
  8
0
100
AcDbCircle
 10
536.3181961640036
 20
274.7473492739041
 30
0.0
 40
4.5
  0
CIRCLE
  5
36A4
330
1E
100
AcDbEntity
  8
HIDDEN
  6
HIDDEN
100
AcDbCircle
 10
536.3181961640036
 20
274.7473492739041
 30
0.0
 40
7.0
  0
LINE
  5
36A5
330
1E
100
AcDbEntity
  8
CENTER
  6
CENTER
100
AcDbLine
 10
526.3181961640036
 20
274.7473492739041
 30
0.0
 11
546.3181961640039
 21
274.747349273904
 31
0.0
  0
SOLID
  5
36A6
330
1E
100
AcDbEntity
  8
DIM
100
AcDbTrace
 10
587.5681961640038
 20
242.747349273904
 30
0.0
 11
588.5681961640038
 21
242.747349273904
 31
0.0
 12
588.0681961640038
 22
239.747349273904
 32
0.0
 13
588.0681961640038
 23
239.747349273904
 33
0.0
  0
SOLID
  5
36A7
330
1E
100
AcDbEntity
  8
DIM
100
AcDbTrace
 10
595.5681961640038
 20
232.747349273904
 30
0.0
 11
596.5681961640038
 21
232.747349273904
 31
0.0
 12
596.0681961640038
 22
229.747349273904
 32
0.0
 13
596.0681961640038
 23
229.747349273904
 33
0.0
  0
SOLID
  5
36A8
330
1E
100
AcDbEntity
  8
DIM
100
AcDbTrace
 10
579.5681961640038
 20
255.2473492739041
 30
0.0
 11
580.5681961640039
 21
255.2473492739041
 31
0.0
 12
580.0681961640038
 22
252.2473492739041
 32
0.0
 13
580.0681961640038
 23
252.2473492739041
 33
0.0
  0
SOLID
  5
36A9
330
1E
100
AcDbEntity
  8
DIM
100
AcDbTrace
 10
571.5681961640038
 20
277.747349273904
 30
0.0
 11
572.5681961640039
 21
277.747349273904
 31
0.0
 12
572.0681961640038
 22
274.747349273904
 32
0.0
 13
572.0681961640038
 23
274.747349273904
 33
0.0
  0
LINE
  5
36AA
330
1E
100
AcDbEntity
  8
DIM
100
AcDbLine
 10
538.9309074824845
 20
361.9834676205054
 30
0.0
 11
574.3210994545361
 21
437.9131922502268
 31
0.0
  0
LINE
  5
36AB
330
1E
100
AcDbEntity
  8
DIM
100
AcDbLine
 10
549.0681961640039
 20
424.7473492739041
 30
0.0
 11
597.0681961640038
 21
424.7473492739041
 31
0.0
  0
LINE
  5
36AC
330
1E
100
AcDbEntity
  8
DIM
100
AcDbLine
 10
549.0681961640039
 20
414.7473492739041
 30
0.0
 11
589.0681961640039
 21
414.7473492739041
 31
0.0
  0
LINE
  5
36AD
330
1E
100
AcDbEntity
  8
DIM
100
AcDbLine
 10
544.3181961640036
 20
355.4973492739041
 30
0.0
 11
565.0681961640039
 21
355.4973492739041
 31
0.0
  0
LINE
  5
36AE
330
1E
100
AcDbEntity
  8
DIM
100
AcDbLine
 10
544.3181961640036
 20
341.247349273904
 30
0.0
 11
557.0681961640039
 21
341.247349273904
 31
0.0
  0
LINE
  5
36AF
330
1E
100
AcDbEntity
  8
DIM
100
AcDbLine
 10
547.3181961640039
 20
379.747349273904
 30
0.0
 11
573.0681961640039
 21
379.747349273904
 31
0.0
  0
LINE
  5
36B0
330
1E
100
AcDbEntity
  8
DIM
100
AcDbLine
 10
546.5681961640038
 20
402.2473492739041
 30
0.0
 11
581.0681961640039
 21
402.2473492739041
 31
0.0
  0
LINE
  5
36B1
330
1E
100
AcDbEntity
  8
DIM
100
AcDbLine
 10
544.3181961640036
 20
313.2473492739041
 30
0.0
 11
557.0681961640039
 21
313.2473492739041
 31
0.0
  0
LINE
  5
36B2
330
1E
100
AcDbEntity
  8
DIM
100
AcDbLine
 10
544.3181961640036
 20
298.9973492739041
 30
0.0
 11
565.0681961640039
 21
298.9973492739041
 31
0.0
  0
LINE
  5
36B3
330
1E
100
AcDbEntity
  8
CENTER
  6
CENTER
100
AcDbLine
 10
465.0681961640036
 20
327.2473492739041
 30
0.0
 11
551.0681961640038
 21
327.247349273904
 31
0.0
  0
LINE
  5
36B4
330
1E
100
AcDbEntity
  8
HIDDEN
  6
HIDDEN
100
AcDbLine
 10
395.2361458384557
 20
477.7013930423632
 30
0.0
 11
395.2361458384557
 21
463.7013930423632
 31
0.0
  0
LINE
  5
36B5
330
1E
100
AcDbEntity
  8
CENTER
  6
CENTER
100
AcDbLine
 10
296.7361458384556
 20
477.964655523226
 30
0.0
 11
296.7361458384558
 21
458.0256860186012
 31
0.0
  0
LINE
  5
36B6
330
1E
100
AcDbEntity
  8
CENTER
  6
CENTER
100
AcDbLine
 10
287.7361458384558
 20
477.7710148674873
 30
0.0
 11
287.7361458384558
 21
457.8472424744132
 31
0.0
  0
LINE
  5
36B7
330
1E
100
AcDbEntity
  8
0
100
AcDbLine
 10
371.7361458384558
 20
488.9513930423632
 30
0.0
 11
371.7361458384557
 21
471.9513930423633
 31
0.0
  0
LINE
  5
36B8
330
1E
100
AcDbEntity
  8
0
100
AcDbLine
 10
312.7361458384557
 20
538.9513930423631
 30
0.0
 11
312.7361458384557
 21
458.951393042363
 31
0.0
  0
LINE
  5
36B9
330
1E
100
AcDbEntity
  8
0
100
AcDbLine
 10
332.7361458384557
 20
458.951393042363
 30
0.0
 11
332.7361458384561
 21
538.9513930423631
 31
0.0
  0
LINE
  5
36BA
330
1E
100
AcDbEntity
  8
0
100
AcDbLine
 10
406.7361458384557
 20
536.4513930423632
 30
0.0
 11
406.7361458384557
 21
461.4513930423631
 31
0.0
  0
LINE
  5
36BB
330
1E
100
AcDbEntity
  8
0
100
AcDbLine
 10
386.7361458384557
 20
536.4513930423631
 30
0.0
 11
386.7361458384557
 21
461.4513930423631
 31
0.0
  0
TEXT
  5
36BC
330
1E
100
AcDbEntity
  8
DIM
100
AcDbText
 10
421.2361458384557
 20
324.3187778453326
 30
0.0
 40
3.0
  1
151
 50
90.0
  7
ROMANSS
 72
     1
 11
419.7361458384557
 21
327.247349273904
 31
0.0
100
AcDbText
 73
     2
  0
LINE
  5
36BD
330
1E
100
AcDbEntity
  8
DIM
100
AcDbLine
 10
357.6325921651014
 20
402.7473492739041
 30
0.0
 11
423.7361458384557
 21
402.7473492739041
 31
0.0
  0
TEXT
  5
36BE
330
1E
100
AcDbEntity
  8
DIM
100
AcDbText
 10
417.4866215828433
 20
419.7915263785091
 30
0.0
 40
3.0
  1
4-%%c6H7x6L
  7
ROMANSS
 72
     2
 11
442.6294787257004
 21
421.2915263785091
 31
0.0
100
AcDbText
 73
     2
  0
LINE
  5
36BF
330
1E
100
AcDbEntity
  8
HIDDEN
  6
HIDDEN
100
AcDbLine
 10
395.2361458384557
 20
386.7473492739041
 30
0.0
 11
395.2361458384557
 21
372.747349273904
 31
0.0
  0
LINE
  5
36C0
330
1E
100
AcDbEntity
  8
0
100
AcDbLine
 10
356.7361458384557
 20
402.7473492739042
 30
0.0
 11
356.7361458384557
 21
370.747349273904
 31
0.0
  0
LINE
  5
36C1
330
1E
100
AcDbEntity
  8
0
  6
CONTINUOUS
100
AcDbLine
 10
332.7361458384558
 20
370.747349273904
 30
0.0
 11
356.7361458384557
 21
370.7473492739041
 31
0.0
  0
LINE
  5
36C2
330
1E
100
AcDbEntity
  8
0
100
AcDbLine
 10
353.7361458384558
 20
335.2473492739042
 30
0.0
 11
351.7361458384557
 21
335.2473492739042
 31
0.0
  0
LINE
  5
36C3
330
1E
100
AcDbEntity
  8
0
 62
     2
100
AcDbLine
 10
353.7361458384558
 20
334.6473492739042
 30
0.0
 11
351.7361458384557
 21
334.6473492739042
 31
0.0
  0
LINE
  5
36C4
330
1E
100
AcDbEntity
  8
0
100
AcDbLine
 10
353.7361458384558
 20
319.2473492739041
 30
0.0
 11
351.7361458384557
 21
319.2473492739041
 31
0.0
  0
LINE
  5
36C5
330
1E
100
AcDbEntity
  8
0
 62
     2
100
AcDbLine
 10
353.7361458384558
 20
319.8473492739041
 30
0.0
 11
351.7361458384557
 21
319.8473492739041
 31
0.0
  0
LINE
  5
36C6
330
1E
100
AcDbEntity
  8
0
100
AcDbLine
 10
336.7361458384557
 20
348.7473492739039
 30
0.0
 11
336.7361458384558
 21
305.747349273904
 31
0.0
  0
LINE
  5
36C7
330
1E
100
AcDbEntity
  8
0
100
AcDbLine
 10
337.7361458384557
 20
347.747349273904
 30
0.0
 11
337.7361458384557
 21
306.747349273904
 31
0.0
  0
LINE
  5
36C8
330
1E
100
AcDbEntity
  8
0
100
AcDbLine
 10
348.7361458384557
 20
332.5151761503306
 30
0.0
 11
348.7361458384557
 21
337.2473492739041
 31
0.0
  0
LINE
  5
36C9
330
1E
100
AcDbEntity
  8
0
100
AcDbLine
 10
349.7361458384556
 20
318.2473492739042
 30
0.0
 11
349.7361458384557
 21
336.2473492739041
 31
0.0
  0
LINE
  5
36CA
330
1E
100
AcDbEntity
  8
0
100
AcDbLine
 10
351.7361458384557
 20
319.2473492739041
 30
0.0
 11
351.7361458384557
 21
335.2473492739042
 31
0.0
  0
ARC
  5
36CB
330
1E
100
AcDbEntity
  8
0
  6
CONTINUOUS
100
AcDbCircle
 10
287.7361458384558
 20
336.2473492739039
 30
0.0
 40
3.5
100
AcDbArc
 50
278.2132107017379
 51
321.7867892982612
  0
LINE
  5
36CC
330
1E
100
AcDbEntity
  8
0
  6
CONTINUOUS
100
AcDbLine
 10
291.7945678233594
 20
333.3268679792451
 30
0.0
 11
290.4861458384558
 21
334.0822857644428
 31
0.0
  0
LINE
  5
36CD
330
1E
100
AcDbEntity
  8
CENTER
  6
CENTER
100
AcDbLine
 10
287.7361458384558
 20
342.7473492739039
 30
0.0
 11
287.7361458384558
 21
329.7473492739041
 31
0.0
  0
LINE
  5
36CE
330
1E
100
AcDbEntity
  8
CENTER
  6
CENTER
100
AcDbLine
 10
296.7361458384556
 20
332.7473492739039
 30
0.0
 11
296.7361458384558
 21
307.7473492739039
 31
0.0
  0
CIRCLE
  5
36CF
330
1E
100
AcDbEntity
  8
0
100
AcDbCircle
 10
296.7361458384559
 20
320.2473492739039
 30
0.0
 40
7.5
  0
ARC
  5
36D0
330
1E
100
AcDbEntity
  8
0
 62
     2
100
AcDbCircle
 10
296.7361458384559
 20
320.2473492739039
 30
0.0
 40
8.25
100
AcDbArc
 50
257.9248038369547
 51
198.6623931654439
  0
CIRCLE
  5
36D1
330
1E
100
AcDbEntity
  8
0
100
AcDbCircle
 10
296.7361458384557
 20
320.2473492739039
 30
0.0
 40
8.499999999999957
  0
CIRCLE
  5
36D2
330
1E
100
AcDbEntity
  8
0
100
AcDbCircle
 10
296.7361458384557
 20
320.2473492739039
 30
0.0
 40
6.5
  0
LINE
  5
36D3
330
1E
100
AcDbEntity
  8
0
  6
CONTINUOUS
100
AcDbLine
 10
288.2361458384558
 20
332.7832476587662
 30
0.0
 11
288.2361458384558
 21
331.2724120883708
 31
0.0
  0
LINE
  5
36D4
330
1E
100
AcDbEntity
  8
0
100
AcDbLine
 10
337.7361458384557
 20
306.747349273904
 30
0.0
 11
336.7361458384557
 21
305.747349273904
 31
0.0
  0
LINE
  5
36D5
330
1E
100
AcDbEntity
  8
0
100
AcDbLine
 10
332.7361458384555
 20
305.747349273904
 30
0.0
 11
336.7361458384557
 21
305.747349273904
 31
0.0
  0
LINE
  5
36D6
330
1E
100
AcDbEntity
  8
0
100
AcDbLine
 10
348.7361458384556
 20
317.2473492739041
 30
0.0
 11
348.7361458384556
 21
321.9795223974778
 31
0.0
  0
LINE
  5
36D7
330
1E
100
AcDbEntity
  8
0
100
AcDbLine
 10
348.7361458384556
 20
317.2473492739042
 30
0.0
 11
337.7361458384557
 21
317.2473492739041
 31
0.0
  0
LINE
  5
36D8
330
1E
100
AcDbEntity
  8
0
100
AcDbLine
 10
351.7361458384557
 20
320.2473492739041
 30
0.0
 11
349.7361458384556
 21
320.2473492739041
 31
0.0
  0
LINE
  5
36D9
330
1E
100
AcDbEntity
  8
0
100
AcDbLine
 10
348.7361458384556
 20
317.2473492739042
 30
0.0
 11
349.7361458384556
 21
318.2473492739042
 31
0.0
  0
LINE
  5
36DA
330
1E
100
AcDbEntity
  8
0
  6
CONTINUOUS
100
AcDbLine
 10
349.7361458384557
 20
332.5151761503305
 30
0.0
 11
339.7361458384557
 21
332.5151761503305
 31
0.0
  0
LINE
  5
36DB
330
1E
100
AcDbEntity
  8
0
  6
CONTINUOUS
100
AcDbLine
 10
349.7361458384556
 20
321.9795223974778
 30
0.0
 11
339.7361458384557
 21
321.9795223974778
 31
0.0
  0
LINE
  5
36DC
330
1E
100
AcDbEntity
  8
0
  6
CONTINUOUS
 62
     4
100
AcDbLine
 10
349.7361458384557
 20
321.9795223974778
 30
0.0
 11
339.7361458384557
 21
332.5151761503305
 31
0.0
  0
LINE
  5
36DD
330
1E
100
AcDbEntity
  8
0
  6
CONTINUOUS
 62
     4
100
AcDbLine
 10
349.7361458384557
 20
332.5151761503305
 30
0.0
 11
339.7361458384557
 21
321.9795223974778
 31
0.0
  0
LINE
  5
36DE
330
1E
100
AcDbEntity
  8
0
100
AcDbLine
 10
339.7361458384557
 20
321.9795223974778
 30
0.0
 11
339.7361458384557
 21
332.5151761503305
 31
0.0
  0
ARC
  5
36DF
330
1E
100
AcDbEntity
  8
0
  6
CONTINUOUS
100
AcDbCircle
 10
348.2361458384557
 20
327.2473492739041
 30
0.0
 40
10.0
100
AcDbArc
 50
148.2116693829475
 51
211.7883306170515
  0
ARC
  5
36E0
330
1E
100
AcDbEntity
  8
0
  6
CONTINUOUS
100
AcDbCircle
 10
287.7361458384558
 20
336.2473492739039
 30
0.0
 40
3.5
100
AcDbArc
 50
38.21321070173869
 51
81.7867892982621
  0
ARC
  5
36E1
330
1E
100
AcDbEntity
  8
0
  6
CONTINUOUS
100
AcDbCircle
 10
287.7361458384558
 20
336.2473492739039
 30
0.0
 40
3.5
100
AcDbArc
 50
338.2132107017382
 51
21.78678929826177
  0
LINE
  5
36E2
330
1E
100
AcDbEntity
  8
0
  6
CONTINUOUS
100
AcDbLine
 10
290.4861458384558
 20
338.412412783365
 30
0.0
 11
291.7945678233594
 21
339.1678305685626
 31
0.0
  0
LINE
  5
36E3
330
1E
100
AcDbEntity
  8
0
  6
CONTINUOUS
100
AcDbLine
 10
288.2361458384558
 20
341.222286459437
 30
0.0
 11
288.2361458384558
 21
339.7114508890417
 31
0.0
  0
LINE
  5
36E4
330
1E
100
AcDbEntity
  8
0
  6
CONTINUOUS
100
AcDbLine
 10
290.9861458384558
 20
337.5463873795806
 30
0.0
 11
292.2945678233594
 21
338.3018051647782
 31
0.0
  0
LINE
  5
36E5
330
1E
100
AcDbEntity
  8
0
  6
CONTINUOUS
100
AcDbLine
 10
292.2945678233594
 20
334.1928933830295
 30
0.0
 11
290.9861458384558
 21
334.9483111682272
 31
0.0
  0
LINE
  5
36E6
330
1E
100
AcDbEntity
  8
0
100
AcDbLine
 10
336.7361458384557
 20
348.7473492739039
 30
0.0
 11
337.7361458384557
 21
347.747349273904
 31
0.0
  0
LINE
  5
36E7
330
1E
100
AcDbEntity
  8
0
100
AcDbLine
 10
332.7361458384558
 20
348.7473492739039
 30
0.0
 11
336.7361458384557
 21
348.7473492739039
 31
0.0
  0
LINE
  5
36E8
330
1E
100
AcDbEntity
  8
0
100
AcDbLine
 10
348.7361458384557
 20
337.2473492739041
 30
0.0
 11
337.7361458384557
 21
337.247349273904
 31
0.0
  0
LINE
  5
36E9
330
1E
100
AcDbEntity
  8
0
100
AcDbLine
 10
351.7361458384557
 20
334.2473492739042
 30
0.0
 11
349.7361458384557
 21
334.2473492739042
 31
0.0
  0
LINE
  5
36EA
330
1E
100
AcDbEntity
  8
0
100
AcDbLine
 10
349.7361458384557
 20
336.2473492739041
 30
0.0
 11
348.7361458384557
 21
337.2473492739041
 31
0.0
  0
LINE
  5
36EB
330
1E
100
AcDbEntity
  8
0
100
AcDbLine
 10
371.7361458384557
 20
354.2473492739041
 30
0.0
 11
371.7361458384557
 21
300.2473492739042
 31
0.0
  0
LINE
  5
36EC
330
1E
100
AcDbEntity
  8
0
 62
     4
100
AcDbLine
 10
361.7361458384558
 20
320.4650192907789
 30
0.0
 11
368.7361458384557
 21
334.0296792570293
 31
0.0
  0
LINE
  5
36ED
330
1E
100
AcDbEntity
  8
0
 62
     4
100
AcDbLine
 10
361.7361458384558
 20
334.0296792570293
 30
0.0
 11
368.7361458384557
 21
320.4650192907789
 31
0.0
  0
POLYLINE
  5
36EE
330
1E
100
AcDbEntity
  8
0
  6
CONTINUOUS
100
AcDb2dPolyline
 66
     1
 10
0.0
 20
0.0
 30
0.0
  0
VERTEX
  5
42CF
330
36EE
100
AcDbEntity
  8
0
  6
CONTINUOUS
100
AcDbVertex
100
AcDb2dVertex
 10
361.0577393719441
 20
339.9223492738814
 30
0.0
 42
-0.4293774845420222
  0
VERTEX
  5
42D0
330
36EE
100
AcDbEntity
  8
0
  6
CONTINUOUS
100
AcDbVertex
100
AcDb2dVertex
 10
360.3601458384555
 20
335.2473492738821
 30
0.0
 42
-0.0851703918331037
  0
VERTEX
  5
42D1
330
36EE
100
AcDbEntity
  8
0
  6
CONTINUOUS
100
AcDbVertex
100
AcDb2dVertex
 10
361.7361458384558
 20
327.2473492738821
 30
0.0
  0
SEQEND
  5
42D2
330
36EE
100
AcDbEntity
  8
0
  6
CONTINUOUS
  0
LINE
  5
36EF
330
1E
100
AcDbEntity
  8
0
  6
CONTINUOUS
100
AcDbLine
 10
361.7361458384558
 20
338.7473492738821
 30
0.0
 11
361.7361458384558
 21
315.7473492738821
 31
0.0
  0
LINE
  5
36F0
330
1E
100
AcDbEntity
  8
0
  6
CONTINUOUS
100
AcDbLine
 10
353.7361458384558
 20
338.7473492738811
 30
0.0
 11
353.7361458384558
 21
315.7473492738811
 31
0.0
  0
POLYLINE
  5
36F1
330
1E
100
AcDbEntity
  8
0
  6
CONTINUOUS
100
AcDb2dPolyline
 66
     1
 10
0.0
 20
0.0
 30
0.0
  0
VERTEX
  5
42D3
330
36F1
100
AcDbEntity
  8
0
  6
CONTINUOUS
100
AcDbVertex
100
AcDb2dVertex
 10
354.4145523049674
 20
339.9223492738804
 30
0.0
 42
0.4293774845420222
  0
VERTEX
  5
42D4
330
36F1
100
AcDbEntity
  8
0
  6
CONTINUOUS
100
AcDbVertex
100
AcDb2dVertex
 10
355.112145838456
 20
335.2473492738811
 30
0.0
 42
0.0851703918331037
  0
VERTEX
  5
42D5
330
36F1
100
AcDbEntity
  8
0
  6
CONTINUOUS
100
AcDbVertex
100
AcDb2dVertex
 10
353.7361458384558
 20
327.2473492738811
 30
0.0
  0
SEQEND
  5
42D6
330
36F1
100
AcDbEntity
  8
0
  6
CONTINUOUS
  0
ARC
  5
36F2
330
1E
100
AcDbEntity
  8
0
100
AcDbCircle
 10
358.2361458384559
 20
327.2473492739041
 30
0.0
 40
12.49999999999988
100
AcDbArc
 50
327.1401196211103
 51
32.85988037888964
  0
LINE
  5
36F3
330
1E
100
AcDbEntity
  8
0
100
AcDbLine
 10
368.7361458384557
 20
334.0296792570294
 30
0.0
 11
368.7361458384557
 21
320.4650192907789
 31
0.0
  0
LINE
  5
36F4
330
1E
100
AcDbEntity
  8
CENTER
  6
CENTER
100
AcDbLine
 10
383.7361458384557
 20
298.9973492739038
 30
0.0
 11
409.7361458384557
 21
298.9973492739037
 31
0.0
  0
LINE
  5
36F5
330
1E
100
AcDbEntity
  8
CENTER
  6
CENTER
100
AcDbLine
 10
383.7361458384557
 20
313.2473492739038
 30
0.0
 11
409.7361458384557
 21
313.2473492739037
 31
0.0
  0
LINE
  5
36F6
330
1E
100
AcDbEntity
  8
0
100
AcDbLine
 10
371.7361458384557
 20
300.2473492739042
 30
0.0
 11
386.7361458384557
 21
300.2473492739042
 31
0.0
  0
LINE
  5
36F7
330
1E
100
AcDbEntity
  8
0
100
AcDbLine
 10
370.7361458384557
 20
314.7473492739041
 30
0.0
 11
368.7361458384557
 21
316.7473492739041
 31
0.0
  0
POLYLINE
  5
36F8
330
1E
100
AcDbEntity
  8
0
  6
CONTINUOUS
100
AcDb2dPolyline
 66
     1
 10
0.0
 20
0.0
 30
0.0
  0
VERTEX
  5
42D7
330
36F8
100
AcDbEntity
  8
0
  6
CONTINUOUS
100
AcDbVertex
100
AcDb2dVertex
 10
361.0577393719441
 20
314.5723492738828
 30
0.0
 42
0.4293774845420222
  0
VERTEX
  5
42D8
330
36F8
100
AcDbEntity
  8
0
  6
CONTINUOUS
100
AcDbVertex
100
AcDb2dVertex
 10
360.3601458384555
 20
319.2473492738821
 30
0.0
 42
0.0851703918331037
  0
VERTEX
  5
42D9
330
36F8
100
AcDbEntity
  8
0
  6
CONTINUOUS
100
AcDbVertex
100
AcDb2dVertex
 10
361.7361458384558
 20
327.2473492738821
 30
0.0
  0
SEQEND
  5
42DA
330
36F8
100
AcDbEntity
  8
0
  6
CONTINUOUS
  0
POLYLINE
  5
36F9
330
1E
100
AcDbEntity
  8
0
  6
CONTINUOUS
100
AcDb2dPolyline
 66
     1
 10
0.0
 20
0.0
 30
0.0
  0
VERTEX
  5
42DB
330
36F9
100
AcDbEntity
  8
0
  6
CONTINUOUS
100
AcDbVertex
100
AcDb2dVertex
 10
354.4145523049674
 20
314.5723492738818
 30
0.0
 42
-0.4293774845420222
  0
VERTEX
  5
42DC
330
36F9
100
AcDbEntity
  8
0
  6
CONTINUOUS
100
AcDbVertex
100
AcDb2dVertex
 10
355.112145838456
 20
319.2473492738811
 30
0.0
 42
-0.0851703918331037
  0
VERTEX
  5
42DD
330
36F9
100
AcDbEntity
  8
0
  6
CONTINUOUS
100
AcDbVertex
100
AcDb2dVertex
 10
353.7361458384558
 20
327.2473492738811
 30
0.0
  0
SEQEND
  5
42DE
330
36F9
100
AcDbEntity
  8
0
  6
CONTINUOUS
  0
LINE
  5
36FA
330
1E
100
AcDbEntity
  8
0
  6
CONTINUOUS
100
AcDbLine
 10
361.7361458384558
 20
315.7473492738821
 30
0.0
 11
360.3793329054306
 21
313.3973492738817
 31
0.0
  0
LINE
  5
36FB
330
1E
100
AcDbEntity
  8
0
  6
CONTINUOUS
100
AcDbLine
 10
353.7361458384558
 20
315.7473492738811
 30
0.0
 11
355.0929587714809
 21
313.3973492738807
 31
0.0
  0
LINE
  5
36FC
330
1E
100
AcDbEntity
  8
0
  6
CONTINUOUS
100
AcDbLine
 10
355.0929587714809
 20
313.3973492738807
 30
0.0
 11
360.3601458384555
 21
313.3973492738817
 31
0.0
  0
LINE
  5
36FD
330
1E
100
AcDbEntity
  8
0
  6
CONTINUOUS
100
AcDbLine
 10
355.112145838456
 20
319.2473492738811
 30
0.0
 11
360.3601458384555
 21
319.2473492738821
 31
0.0
  0
LINE
  5
36FE
330
1E
100
AcDbEntity
  8
0
100
AcDbLine
 10
368.7361458384557
 20
320.4650192907789
 30
0.0
 11
361.7361458384558
 21
320.4650192907789
 31
0.0
  0
LINE
  5
36FF
330
1E
100
AcDbEntity
  8
0
100
AcDbLine
 10
361.7361458384558
 20
316.7473492739041
 30
0.0
 11
368.7361458384557
 21
316.7473492739041
 31
0.0
  0
LINE
  5
3700
330
1E
100
AcDbEntity
  8
0
100
AcDbLine
 10
370.7361458384557
 20
314.7473492739041
 30
0.0
 11
371.7361458384557
 21
314.7473492739041
 31
0.0
  0
LINE
  5
3701
330
1E
100
AcDbEntity
  8
HIDDEN
  6
HIDDEN
100
AcDbLine
 10
400.7361458384558
 20
310.2473492739036
 30
0.0
 11
400.7361458384557
 21
316.2473492739036
 31
0.0
  0
LINE
  5
3702
330
1E
100
AcDbEntity
  8
HIDDEN
  6
HIDDEN
100
AcDbLine
 10
386.7361458384557
 20
302.3973492739037
 30
0.0
 11
406.7361458384557
 21
302.3973492739036
 31
0.0
  0
LINE
  5
3703
330
1E
100
AcDbEntity
  8
HIDDEN
  6
HIDDEN
100
AcDbLine
 10
386.7361458384557
 20
302.9973492739038
 30
0.0
 11
406.7361458384557
 21
302.9973492739037
 31
0.0
  0
LINE
  5
3704
330
1E
100
AcDbEntity
  8
HIDDEN
  6
HIDDEN
100
AcDbLine
 10
386.7361458384557
 20
295.5973492739037
 30
0.0
 11
406.7361458384557
 21
295.5973492739037
 31
0.0
  0
LINE
  5
3705
330
1E
100
AcDbEntity
  8
HIDDEN
  6
HIDDEN
100
AcDbLine
 10
386.7361458384557
 20
294.9973492739037
 30
0.0
 11
406.7361458384557
 21
294.9973492739037
 31
0.0
  0
LINE
  5
3706
330
1E
100
AcDbEntity
  8
HIDDEN
  6
HIDDEN
100
AcDbLine
 10
400.7361458384558
 20
310.2473492739036
 30
0.0
 11
406.7361458384557
 21
310.2473492739036
 31
0.0
  0
LINE
  5
3707
330
1E
100
AcDbEntity
  8
HIDDEN
  6
HIDDEN
100
AcDbLine
 10
400.7361458384558
 20
316.2473492739036
 30
0.0
 11
406.7361458384557
 21
316.2473492739036
 31
0.0
  0
TEXT
  5
3708
330
1E
100
AcDbEntity
  8
DIM
100
AcDbText
 10
413.2361458384557
 20
324.0330635596184
 30
0.0
 40
3.0
  1
119
 50
90.0
  7
ROMANSS
 72
     1
 11
411.7361458384557
 21
327.2473492739042
 31
0.0
100
AcDbText
 73
     2
  0
LINE
  5
3709
330
1E
100
AcDbEntity
  8
CENTER
  6
CENTER
100
AcDbLine
 10
383.7361458384557
 20
379.747349273904
 30
0.0
 11
409.7361458384557
 21
379.747349273904
 31
0.0
  0
LINE
  5
370A
330
1E
100
AcDbEntity
  8
CENTER
  6
CENTER
100
AcDbLine
 10
383.7361458384557
 20
355.4973492739041
 30
0.0
 11
409.7361458384557
 21
355.4973492739041
 31
0.0
  0
LINE
  5
370B
330
1E
100
AcDbEntity
  8
CENTER
  6
CENTER
100
AcDbLine
 10
383.7361458384557
 20
341.2473492739041
 30
0.0
 11
409.7361458384557
 21
341.2473492739042
 31
0.0
  0
LINE
  5
370C
330
1E
100
AcDbEntity
  8
0
100
AcDbLine
 10
356.7361458384557
 20
376.7473492739041
 30
0.0
 11
386.7361458384557
 21
376.7473492739041
 31
0.0
  0
LINE
  5
370D
330
1E
100
AcDbEntity
  8
0
100
AcDbLine
 10
371.7361458384558
 20
354.2473492739042
 30
0.0
 11
386.7361458384557
 21
354.2473492739041
 31
0.0
  0
LINE
  5
370E
330
1E
100
AcDbEntity
  8
0
100
AcDbLine
 10
370.7361458384557
 20
339.747349273904
 30
0.0
 11
368.7361458384557
 21
337.747349273904
 31
0.0
  0
LINE
  5
370F
330
1E
100
AcDbEntity
  8
0
  6
CONTINUOUS
100
AcDbLine
 10
361.7361458384558
 20
338.7473492738821
 30
0.0
 11
360.3793329054306
 21
341.0973492738825
 31
0.0
  0
LINE
  5
3710
330
1E
100
AcDbEntity
  8
0
  6
CONTINUOUS
100
AcDbLine
 10
353.7361458384558
 20
338.7473492738811
 30
0.0
 11
355.0929587714809
 21
341.0973492738814
 31
0.0
  0
LINE
  5
3711
330
1E
100
AcDbEntity
  8
0
  6
CONTINUOUS
100
AcDbLine
 10
355.112145838456
 20
335.2473492738811
 30
0.0
 11
360.3601458384555
 21
335.2473492738821
 31
0.0
  0
LINE
  5
3712
330
1E
100
AcDbEntity
  8
0
  6
CONTINUOUS
100
AcDbLine
 10
355.0929587714809
 20
341.0973492738814
 30
0.0
 11
360.3601458384555
 21
341.0973492738825
 31
0.0
  0
LINE
  5
3713
330
1E
100
AcDbEntity
  8
0
100
AcDbLine
 10
368.7361458384557
 20
334.0296792570294
 30
0.0
 11
361.7361458384558
 21
334.0296792570294
 31
0.0
  0
LINE
  5
3714
330
1E
100
AcDbEntity
  8
0
100
AcDbLine
 10
361.7361458384558
 20
337.7473492739041
 30
0.0
 11
368.7361458384558
 21
337.7473492739041
 31
0.0
  0
LINE
  5
3715
330
1E
100
AcDbEntity
  8
0
100
AcDbLine
 10
370.7361458384557
 20
339.747349273904
 30
0.0
 11
371.7361458384557
 21
339.7473492739041
 31
0.0
  0
LINE
  5
3716
330
1E
100
AcDbEntity
  8
HIDDEN
  6
HIDDEN
100
AcDbLine
 10
386.7361458384557
 20
352.0973492739041
 30
0.0
 11
406.7361458384557
 21
352.0973492739043
 31
0.0
  0
LINE
  5
3717
330
1E
100
AcDbEntity
  8
HIDDEN
  6
HIDDEN
100
AcDbLine
 10
386.7361458384557
 20
351.4973492739041
 30
0.0
 11
406.7361458384557
 21
351.4973492739042
 31
0.0
  0
LINE
  5
3718
330
1E
100
AcDbEntity
  8
HIDDEN
  6
HIDDEN
100
AcDbLine
 10
400.7361458384558
 20
344.2473492739042
 30
0.0
 11
406.7361458384557
 21
344.2473492739042
 31
0.0
  0
LINE
  5
3719
330
1E
100
AcDbEntity
  8
HIDDEN
  6
HIDDEN
100
AcDbLine
 10
400.7361458384558
 20
338.2473492739042
 30
0.0
 11
406.7361458384557
 21
338.2473492739042
 31
0.0
  0
LINE
  5
371A
330
1E
100
AcDbEntity
  8
HIDDEN
  6
HIDDEN
100
AcDbLine
 10
400.7361458384558
 20
344.2473492739043
 30
0.0
 11
400.7361458384557
 21
338.2473492739042
 31
0.0
  0
LINE
  5
371B
330
1E
100
AcDbEntity
  8
HIDDEN
  6
HIDDEN
100
AcDbLine
 10
386.7361458384557
 20
358.8973492739041
 30
0.0
 11
406.7361458384557
 21
358.8973492739041
 31
0.0
  0
LINE
  5
371C
330
1E
100
AcDbEntity
  8
HIDDEN
  6
HIDDEN
100
AcDbLine
 10
386.7361458384557
 20
359.4973492739041
 30
0.0
 11
406.7361458384557
 21
359.4973492739042
 31
0.0
  0
LINE
  5
371D
330
1E
100
AcDbEntity
  8
HIDDEN
  6
HIDDEN
100
AcDbLine
 10
395.2361458384557
 20
375.497349273904
 30
0.0
 11
406.7361458384556
 21
375.497349273904
 31
0.0
  0
LINE
  5
371E
330
1E
100
AcDbEntity
  8
HIDDEN
  6
HIDDEN
100
AcDbLine
 10
386.7361458384557
 20
372.747349273904
 30
0.0
 11
395.2361458384557
 21
372.747349273904
 31
0.0
  0
LINE
  5
371F
330
1E
100
AcDbEntity
  8
0
  6
CONTINUOUS
100
AcDbLine
 10
332.736145838456
 20
402.7473492739041
 30
0.0
 11
356.7361458384557
 21
402.7473492739041
 31
0.0
  0
LINE
  5
3720
330
1E
100
AcDbEntity
  8
HIDDEN
  6
HIDDEN
100
AcDbLine
 10
312.7361458384557
 20
410.2473492739039
 30
0.0
 11
332.7361458384561
 21
410.2473492739041
 31
0.0
  0
LINE
  5
3721
330
1E
100
AcDbEntity
  8
HIDDEN
  6
HIDDEN
100
AcDbLine
 10
312.7361458384557
 20
419.2473492739039
 30
0.0
 11
332.7361458384562
 21
419.2473492739041
 31
0.0
  0
LINE
  5
3722
330
1E
100
AcDbEntity
  8
CENTER
  6
CENTER
100
AcDbLine
 10
309.7361458384556
 20
414.747349273904
 30
0.0
 11
335.7361458384561
 21
414.747349273904
 31
0.0
  0
LINE
  5
3723
330
1E
100
AcDbEntity
  8
0
100
AcDbLine
 10
312.7361458384557
 20
424.747349273904
 30
0.0
 11
332.7361458384562
 21
424.747349273904
 31
0.0
  0
TEXT
  5
3724
330
1E
100
AcDbEntity
  8
DIM
100
AcDbText
 10
312.538684162885
 20
434.247349273904
 30
0.0
 40
3.0
  1
170+Stroke
  7
ROMANSS
 72
     1
 11
325.1815413057422
 21
435.747349273904
 31
0.0
100
AcDbText
 73
     2
  0
LINE
  5
3725
330
1E
100
AcDbEntity
  8
HIDDEN
  6
HIDDEN
100
AcDbLine
 10
312.7361458384557
 20
466.2013930423632
 30
0.0
 11
332.7361458384562
 21
466.2013930423633
 31
0.0
  0
LINE
  5
3726
330
1E
100
AcDbEntity
  8
0
100
AcDbLine
 10
312.7361458384557
 20
458.951393042363
 30
0.0
 11
332.7361458384557
 21
458.951393042363
 31
0.0
  0
LINE
  5
3727
330
1E
100
AcDbEntity
  8
DIM
100
AcDbLine
 10
406.7361458384557
 20
403.7336235206568
 30
0.0
 11
406.7361458384557
 21
433.747349273904
 31
0.0
  0
LINE
  5
3728
330
1E
100
AcDbEntity
  8
0
100
AcDbLine
 10
356.7361458384557
 20
396.7473492739041
 30
0.0
 11
386.7361458384557
 21
396.7473492739041
 31
0.0
  0
LINE
  5
3729
330
1E
100
AcDbEntity
  8
HIDDEN
  6
HIDDEN
100
AcDbLine
 10
395.2361458384557
 20
383.9973492739041
 30
0.0
 11
406.7361458384556
 21
383.9973492739041
 31
0.0
  0
LINE
  5
372A
330
1E
100
AcDbEntity
  8
0
100
AcDbLine
 10
386.7361458384557
 20
402.2473492739041
 30
0.0
 11
406.7361458384557
 21
402.2473492739041
 31
0.0
  0
LINE
  5
372B
330
1E
100
AcDbEntity
  8
HIDDEN
  6
HIDDEN
100
AcDbLine
 10
386.7361458384557
 20
386.7473492739041
 30
0.0
 11
395.2361458384557
 21
386.7473492739041
 31
0.0
  0
LINE
  5
372C
330
1E
100
AcDbEntity
  8
DIM
100
AcDbLine
 10
410.7361458384557
 20
386.7473492739041
 30
0.0
 11
415.7361458384557
 21
386.7473492739041
 31
0.0
  0
SOLID
  5
372D
330
1E
100
AcDbEntity
  8
DIM
100
AcDbTrace
 10
414.2361458384557
 20
383.7473492739041
 30
0.0
 11
415.2361458384557
 21
383.7473492739041
 31
0.0
 12
414.7361458384557
 22
386.7473492739041
 32
0.0
 13
414.7361458384557
 23
386.7473492739041
 33
0.0
  0
LINE
  5
372E
330
1E
100
AcDbEntity
  8
CENTER
  6
CENTER
100
AcDbLine
 10
383.7361458384557
 20
470.7013930423632
 30
0.0
 11
409.7361458384557
 21
470.7013930423632
 31
0.0
  0
LINE
  5
372F
330
1E
100
AcDbEntity
  8
0
100
AcDbLine
 10
371.7361458384558
 20
471.9513930423629
 30
0.0
 11
386.7361458384557
 21
471.951393042363
 31
0.0
  0
SOLID
  5
3730
330
1E
100
AcDbEntity
  8
DIM
100
AcDbTrace
 10
403.7361458384557
 20
432.247349273904
 30
0.0
 11
403.7361458384557
 21
433.247349273904
 31
0.0
 12
406.7361458384557
 22
432.747349273904
 32
0.0
 13
406.7361458384557
 23
432.747349273904
 33
0.0
  0
LINE
  5
3731
330
1E
100
AcDbEntity
  8
HIDDEN
  6
HIDDEN
100
AcDbLine
 10
395.2361458384557
 20
466.4513930423632
 30
0.0
 11
406.7361458384557
 21
466.4513930423632
 31
0.0
  0
LINE
  5
3732
330
1E
100
AcDbEntity
  8
0
100
AcDbLine
 10
386.7361458384557
 20
461.4513930423631
 30
0.0
 11
406.7361458384557
 21
461.4513930423631
 31
0.0
  0
LINE
  5
3733
330
1E
100
AcDbEntity
  8
HIDDEN
  6
HIDDEN
100
AcDbLine
 10
386.7361458384557
 20
463.7013930423632
 30
0.0
 11
395.2361458384557
 21
463.7013930423632
 31
0.0
  0
CIRCLE
  5
3734
330
1E
100
AcDbEntity
  8
0
100
AcDbCircle
 10
508.0681961640037
 20
386.7473492739041
 30
0.0
 40
7.307159353348731
  0
CIRCLE
  5
3735
330
1E
100
AcDbEntity
  8
0
100
AcDbCircle
 10
508.0681961640037
 20
386.7473492739041
 30
0.0
 40
8.0
  0
CIRCLE
  5
3736
330
1E
100
AcDbEntity
  8
0
100
AcDbCircle
 10
536.3181961640036
 20
379.747349273904
 30
0.0
 40
4.5
  0
CIRCLE
  5
3737
330
1E
100
AcDbEntity
  8
HIDDEN
  6
HIDDEN
100
AcDbCircle
 10
536.3181961640036
 20
379.747349273904
 30
0.0
 40
7.0
  0
CIRCLE
  5
3738
330
1E
100
AcDbEntity
  8
0
100
AcDbCircle
 10
479.8181961640036
 20
379.7473492739041
 30
0.0
 40
4.5
  0
LINE
  5
3739
330
1E
100
AcDbEntity
  8
DIM
100
AcDbLine
 10
477.3069265221786
 20
346.6965118060483
 30
0.0
 11
444.4905344960668
 21
418.2915263785091
 31
0.0
  0
CIRCLE
  5
373A
330
1E
100
AcDbEntity
  8
HIDDEN
  6
HIDDEN
100
AcDbCircle
 10
479.8181961640036
 20
379.7473492739041
 30
0.0
 40
7.0
  0
LINE
  5
373B
330
1E
100
AcDbEntity
  8
CENTER
  6
CENTER
100
AcDbLine
 10
469.8181961640036
 20
379.747349273904
 30
0.0
 11
489.8181961640037
 21
379.747349273904
 31
0.0
  0
LINE
  5
373C
330
1E
100
AcDbEntity
  8
CENTER
  6
CENTER
100
AcDbLine
 10
472.8181961640037
 20
355.4973492739041
 30
0.0
 11
486.8181961640036
 21
355.4973492739041
 31
0.0
  0
LINE
  5
373D
330
1E
100
AcDbEntity
  8
CENTER
  6
CENTER
100
AcDbLine
 10
472.8181961640037
 20
341.2473492739041
 30
0.0
 11
486.8181961640036
 21
341.2473492739041
 31
0.0
  0
LINE
  5
373E
330
1E
100
AcDbEntity
  8
CENTER
  6
CENTER
100
AcDbLine
 10
472.8181961640037
 20
313.2473492739041
 30
0.0
 11
486.8181961640036
 21
313.2473492739041
 31
0.0
  0
LINE
  5
373F
330
1E
100
AcDbEntity
  8
CENTER
  6
CENTER
100
AcDbLine
 10
472.8181961640037
 20
298.9973492739041
 30
0.0
 11
486.8181961640036
 21
298.9973492739041
 31
0.0
  0
CIRCLE
  5
3740
330
1E
100
AcDbEntity
  8
0
100
AcDbCircle
 10
479.8181961640036
 20
313.2473492739041
 30
0.0
 40
3.0
  0
CIRCLE
  5
3741
330
1E
100
AcDbEntity
  8
0
100
AcDbCircle
 10
479.8181961640036
 20
298.9973492739041
 30
0.0
 40
3.399999999999999
  0
ARC
  5
3742
330
1E
100
AcDbEntity
  8
0
 62
     2
100
AcDbCircle
 10
479.8181961640036
 20
298.9973492739041
 30
0.0
 40
4.0
100
AcDbArc
 50
251.1895726755587
 51
196.75811967889
  0
CIRCLE
  5
3743
330
1E
100
AcDbEntity
  8
0
100
AcDbCircle
 10
479.8181961640036
 20
355.4973492739041
 30
0.0
 40
3.399999999999999
  0
ARC
  5
3744
330
1E
100
AcDbEntity
  8
0
 62
     2
100
AcDbCircle
 10
479.8181961640036
 20
355.4973492739041
 30
0.0
 40
4.0
100
AcDbArc
 50
251.1895726755587
 51
196.758119678889
  0
SOLID
  5
3745
330
1E
100
AcDbEntity
  8
DIM
100
AcDbTrace
 10
477.7614540993588
 20
346.9048497084636
 30
0.0
 11
476.8523989449986
 21
346.488173903633
 31
0.0
 12
478.5569539366706
 22
343.9693463429678
 32
0.0
 13
478.5569539366706
 23
343.9693463429678
 33
0.0
  0
CIRCLE
  5
3746
330
1E
100
AcDbEntity
  8
0
100
AcDbCircle
 10
479.8181961640036
 20
341.2473492739041
 30
0.0
 40
3.0
  0
LINE
  5
3747
330
1E
100
AcDbEntity
  8
CENTER
  6
CENTER
100
AcDbLine
 10
500.0681961640037
 20
304.747349273904
 30
0.0
 11
516.0681961640036
 21
304.747349273904
 31
0.0
  0
POLYLINE
  5
3748
330
1E
100
AcDbEntity
  8
0
100
AcDb2dPolyline
 66
     1
 10
0.0
 20
0.0
 30
0.0
 70
     1
  0
VERTEX
  5
42DF
330
3748
100
AcDbEntity
  8
0
100
AcDbVertex
100
AcDb2dVertex
 10
506.6248204910295
 20
307.2473492739042
 30
0.0
  0
VERTEX
  5
42E0
330
3748
100
AcDbEntity
  8
0
100
AcDbVertex
100
AcDb2dVertex
 10
505.1814448180555
 20
304.7473492739042
 30
0.0
  0
VERTEX
  5
42E1
330
3748
100
AcDbEntity
  8
0
100
AcDbVertex
100
AcDb2dVertex
 10
506.6248204910295
 20
302.2473492739042
 30
0.0
  0
VERTEX
  5
42E2
330
3748
100
AcDbEntity
  8
0
100
AcDbVertex
100
AcDb2dVertex
 10
509.5115718369777
 20
302.2473492739042
 30
0.0
  0
VERTEX
  5
42E3
330
3748
100
AcDbEntity
  8
0
100
AcDbVertex
100
AcDb2dVertex
 10
510.9549475099518
 20
304.7473492739042
 30
0.0
  0
VERTEX
  5
42E4
330
3748
100
AcDbEntity
  8
0
100
AcDbVertex
100
AcDb2dVertex
 10
509.5115718369777
 20
307.2473492739042
 30
0.0
  0
SEQEND
  5
42E5
330
3748
100
AcDbEntity
  8
0
  0
CIRCLE
  5
3749
330
1E
100
AcDbEntity
  8
0
100
AcDbCircle
 10
508.0681961640037
 20
304.7473492739042
 30
0.0
 40
4.53810623556582
  0
CIRCLE
  5
374A
330
1E
100
AcDbEntity
  8
0
100
AcDbCircle
 10
508.0681961640037
 20
304.7473492739042
 30
0.0
 40
5.0
  0
POLYLINE
  5
374B
330
1E
100
AcDbEntity
  8
0
100
AcDb2dPolyline
 66
     1
 10
0.0
 20
0.0
 30
0.0
 70
     1
  0
VERTEX
  5
42E6
330
374B
100
AcDbEntity
  8
0
100
AcDbVertex
100
AcDb2dVertex
 10
506.6248204910295
 20
329.747349273904
 30
0.0
  0
VERTEX
  5
42E7
330
374B
100
AcDbEntity
  8
0
100
AcDbVertex
100
AcDb2dVertex
 10
505.1814448180555
 20
327.247349273904
 30
0.0
  0
VERTEX
  5
42E8
330
374B
100
AcDbEntity
  8
0
100
AcDbVertex
100
AcDb2dVertex
 10
506.6248204910295
 20
324.747349273904
 30
0.0
  0
VERTEX
  5
42E9
330
374B
100
AcDbEntity
  8
0
100
AcDbVertex
100
AcDb2dVertex
 10
509.5115718369777
 20
324.747349273904
 30
0.0
  0
VERTEX
  5
42EA
330
374B
100
AcDbEntity
  8
0
100
AcDbVertex
100
AcDb2dVertex
 10
510.9549475099518
 20
327.247349273904
 30
0.0
  0
VERTEX
  5
42EB
330
374B
100
AcDbEntity
  8
0
100
AcDbVertex
100
AcDb2dVertex
 10
509.5115718369777
 20
329.747349273904
 30
0.0
  0
SEQEND
  5
42EC
330
374B
100
AcDbEntity
  8
0
  0
CIRCLE
  5
374C
330
1E
100
AcDbEntity
  8
0
100
AcDbCircle
 10
508.0681961640037
 20
327.247349273904
 30
0.0
 40
4.25
  0
CIRCLE
  5
374D
330
1E
100
AcDbEntity
  8
0
100
AcDbCircle
 10
508.0681961640037
 20
327.247349273904
 30
0.0
 40
5.0
  0
CIRCLE
  5
374E
330
1E
100
AcDbEntity
  8
0
100
AcDbCircle
 10
536.3181961640036
 20
313.2473492739041
 30
0.0
 40
3.0
  0
LINE
  5
374F
330
1E
100
AcDbEntity
  8
CENTER
  6
CENTER
100
AcDbLine
 10
529.3181961640036
 20
298.9973492739041
 30
0.0
 11
543.3181961640037
 21
298.9973492739041
 31
0.0
  0
CIRCLE
  5
3750
330
1E
100
AcDbEntity
  8
0
100
AcDbCircle
 10
536.3181961640036
 20
298.9973492739041
 30
0.0
 40
3.399999999999999
  0
ARC
  5
3751
330
1E
100
AcDbEntity
  8
0
 62
     2
100
AcDbCircle
 10
536.3181961640036
 20
298.9973492739041
 30
0.0
 40
4.0
100
AcDbArc
 50
251.1895726755587
 51
196.75811967889
  0
LINE
  5
3752
330
1E
100
AcDbEntity
  8
CENTER
  6
CENTER
100
AcDbLine
 10
529.3181961640036
 20
313.2473492739041
 30
0.0
 11
543.3181961640037
 21
313.2473492739041
 31
0.0
  0
LINE
  5
3753
330
1E
100
AcDbEntity
  8
CENTER
  6
CENTER
100
AcDbLine
 10
500.0681961640037
 20
349.747349273904
 30
0.0
 11
516.0681961640036
 21
349.747349273904
 31
0.0
  0
CIRCLE
  5
3754
330
1E
100
AcDbEntity
  8
0
100
AcDbCircle
 10
508.0681961640037
 20
349.747349273904
 30
0.0
 40
5.0
  0
POLYLINE
  5
3755
330
1E
100
AcDbEntity
  8
0
100
AcDb2dPolyline
 66
     1
 10
0.0
 20
0.0
 30
0.0
 70
     1
  0
VERTEX
  5
42ED
330
3755
100
AcDbEntity
  8
0
100
AcDbVertex
100
AcDb2dVertex
 10
506.6248204910295
 20
352.247349273904
 30
0.0
  0
VERTEX
  5
42EE
330
3755
100
AcDbEntity
  8
0
100
AcDbVertex
100
AcDb2dVertex
 10
505.1814448180555
 20
349.747349273904
 30
0.0
  0
VERTEX
  5
42EF
330
3755
100
AcDbEntity
  8
0
100
AcDbVertex
100
AcDb2dVertex
 10
506.6248204910295
 20
347.2473492739041
 30
0.0
  0
VERTEX
  5
42F0
330
3755
100
AcDbEntity
  8
0
100
AcDbVertex
100
AcDb2dVertex
 10
509.5115718369777
 20
347.2473492739041
 30
0.0
  0
VERTEX
  5
42F1
330
3755
100
AcDbEntity
  8
0
100
AcDbVertex
100
AcDb2dVertex
 10
510.9549475099518
 20
349.747349273904
 30
0.0
  0
VERTEX
  5
42F2
330
3755
100
AcDbEntity
  8
0
100
AcDbVertex
100
AcDb2dVertex
 10
509.5115718369777
 20
352.247349273904
 30
0.0
  0
SEQEND
  5
42F3
330
3755
100
AcDbEntity
  8
0
  0
CIRCLE
  5
3756
330
1E
100
AcDbEntity
  8
0
100
AcDbCircle
 10
508.0681961640037
 20
349.747349273904
 30
0.0
 40
4.53810623556582
  0
CIRCLE
  5
3757
330
1E
100
AcDbEntity
  8
0
100
AcDbCircle
 10
536.3181961640036
 20
355.4973492739041
 30
0.0
 40
3.399999999999999
  0
ARC
  5
3758
330
1E
100
AcDbEntity
  8
0
 62
     2
100
AcDbCircle
 10
536.3181961640036
 20
355.4973492739041
 30
0.0
 40
4.0
100
AcDbArc
 50
251.1895726755587
 51
196.75811967889
  0
LINE
  5
3759
330
1E
100
AcDbEntity
  8
CENTER
  6
CENTER
100
AcDbLine
 10
529.3181961640036
 20
341.247349273904
 30
0.0
 11
543.3181961640037
 21
341.247349273904
 31
0.0
  0
LINE
  5
375A
330
1E
100
AcDbEntity
  8
CENTER
  6
CENTER
100
AcDbLine
 10
529.3181961640036
 20
355.4973492739041
 30
0.0
 11
543.3181961640037
 21
355.4973492739041
 31
0.0
  0
CIRCLE
  5
375B
330
1E
100
AcDbEntity
  8
0
100
AcDbCircle
 10
536.3181961640036
 20
341.247349273904
 30
0.0
 40
3.0
  0
LINE
  5
375C
330
1E
100
AcDbEntity
  8
CENTER
  6
CENTER
100
AcDbLine
 10
526.3181961640036
 20
379.747349273904
 30
0.0
 11
546.3181961640039
 21
379.747349273904
 31
0.0
  0
SOLID
  5
375D
330
1E
100
AcDbEntity
  8
DIM
100
AcDbTrace
 10
538.4777160582363
 20
362.1946962477978
 30
0.0
 11
539.3840989067327
 21
361.7722389932129
 31
0.0
 12
537.6635357187296
 22
359.264319075016
 32
0.0
 13
537.6635357187296
 23
359.264319075016
 33
0.0
  0
LINE
  5
375E
330
1E
100
AcDbEntity
  8
CENTER
  6
CENTER
100
AcDbLine
 10
470.8181961640036
 20
414.7473492739041
 30
0.0
 11
488.8181961640036
 21
414.7473492739041
 31
0.0
  0
LINE
  5
375F
330
1E
100
AcDbEntity
  8
0
100
AcDbLine
 10
468.0681961640036
 20
424.747349273904
 30
0.0
 11
548.0681961640039
 21
424.747349273904
 31
0.0
  0
LINE
  5
3760
330
1E
100
AcDbEntity
  8
0
100
AcDbLine
 10
470.5681961640037
 20
402.2473492739041
 30
0.0
 11
545.5681961640038
 21
402.2473492739041
 31
0.0
  0
LINE
  5
3761
330
1E
100
AcDbEntity
  8
DIM
100
AcDbLine
 10
475.4869976126504
 20
388.758860613752
 30
0.0
 11
449.9975814844863
 21
438.2081592355064
 31
0.0
  0
SOLID
  5
3762
330
1E
100
AcDbEntity
  8
DIM
100
AcDbTrace
 10
422.2361458384557
 20
399.7473492739041
 30
0.0
 11
423.2361458384557
 21
399.7473492739041
 31
0.0
 12
422.7361458384557
 22
402.7473492739041
 32
0.0
 13
422.7361458384557
 23
402.7473492739041
 33
0.0
  0
LINE
  5
3763
330
1E
100
AcDbEntity
  8
DIM
100
AcDbLine
 10
444.4905344960668
 20
418.2915263785091
 30
0.0
 11
420.5044787257004
 21
418.2915263785091
 31
0.0
  0
SOLID
  5
3764
330
1E
100
AcDbEntity
  8
DIM
100
AcDbTrace
 10
475.0425671901004
 20
388.5297719856798
 30
0.0
 11
475.9314280352005
 21
388.9879492418243
 31
0.0
 12
476.861529381084
 22
386.092278078452
 32
0.0
 13
476.861529381084
 23
386.092278078452
 33
0.0
  0
CIRCLE
  5
3765
330
1E
100
AcDbEntity
  8
0
  6
CONTINUOUS
100
AcDbCircle
 10
479.8181961640036
 20
414.7473492739041
 30
0.0
 40
4.5
  0
TEXT
  5
3766
330
1E
100
AcDbEntity
  8
DIM
100
AcDbText
 10
427.999069746713
 20
434.1553524935277
 30
0.0
 40
3.0
  1
%%c14x8.5dp
  7
ROMANSS
 11
427.999069746713
 21
435.6553524935278
 31
0.0
100
AcDbText
 73
     2
  0
LINE
  5
3767
330
1E
100
AcDbEntity
  8
DIM
100
AcDbLine
 10
426.9264545534675
 20
438.2081592355064
 30
0.0
 11
449.9975814844863
 21
438.2081592355064
 31
0.0
  0
TEXT
  5
3768
330
1E
100
AcDbEntity
  8
DIM
100
AcDbText
 10
431.0512532629409
 20
439.7081592355064
 30
0.0
 40
3.0
  1
4-%%c9
  7
ROMANSS
 11
431.0512532629409
 21
441.2081592355064
 31
0.0
100
AcDbText
 73
     2
  0
LINE
  5
3769
330
1E
100
AcDbEntity
  8
DIM
100
AcDbLine
 10
532.9369601631746
 20
421.4391012462684
 30
0.0
 11
524.9955130039329
 21
438.4774913301338
 31
0.0
  0
LINE
  5
376A
330
1E
100
AcDbEntity
  8
CENTER
  6
CENTER
100
AcDbLine
 10
497.5681961640036
 20
386.7473492739041
 30
0.0
 11
518.5681961640036
 21
386.7473492739041
 31
0.0
  0
POLYLINE
  5
376B
330
1E
100
AcDbEntity
  8
0
100
AcDb2dPolyline
 66
     1
 10
0.0
 20
0.0
 30
0.0
 70
     1
  0
VERTEX
  5
42F4
330
376B
100
AcDbEntity
  8
0
100
AcDbVertex
100
AcDb2dVertex
 10
505.7587950872455
 20
390.7473492739041
 30
0.0
  0
VERTEX
  5
42F5
330
376B
100
AcDbEntity
  8
0
100
AcDbVertex
100
AcDb2dVertex
 10
503.4493940104873
 20
386.7473492739041
 30
0.0
  0
VERTEX
  5
42F6
330
376B
100
AcDbEntity
  8
0
100
AcDbVertex
100
AcDb2dVertex
 10
505.7587950872455
 20
382.7473492739041
 30
0.0
  0
VERTEX
  5
42F7
330
376B
100
AcDbEntity
  8
0
100
AcDbVertex
100
AcDb2dVertex
 10
510.3775972407618
 20
382.7473492739041
 30
0.0
  0
VERTEX
  5
42F8
330
376B
100
AcDbEntity
  8
0
100
AcDbVertex
100
AcDb2dVertex
 10
512.68699831752
 20
386.7473492739041
 30
0.0
  0
VERTEX
  5
42F9
330
376B
100
AcDbEntity
  8
0
100
AcDbVertex
100
AcDb2dVertex
 10
510.3775972407618
 20
390.7473492739041
 30
0.0
  0
SEQEND
  5
42FA
330
376B
100
AcDbEntity
  8
0
  0
ARC
  5
376C
330
1E
100
AcDbEntity
  8
0
  6
CONTINUOUS
100
AcDbCircle
 10
508.0681961640037
 20
386.7473492739041
 30
0.0
 40
16.0
100
AcDbArc
 50
75.63848843708398
 51
104.361511562916
  0
SOLID
  5
376D
330
1E
100
AcDbEntity
  8
DIM
100
AcDbTrace
 10
533.3901515874229
 20
421.6503298735608
 30
0.0
 11
532.4837687389265
 21
421.2278726189759
 31
0.0
 12
534.2043319269296
 22
418.7199527007789
 32
0.0
 13
534.2043319269296
 23
418.7199527007789
 33
0.0
  0
LINE
  5
376E
330
1E
100
AcDbEntity
  8
CENTER
  6
CENTER
100
AcDbLine
 10
527.3181961640037
 20
414.7473492739041
 30
0.0
 11
545.3181961640036
 21
414.7473492739041
 31
0.0
  0
CIRCLE
  5
376F
330
1E
100
AcDbEntity
  8
0
  6
CONTINUOUS
100
AcDbCircle
 10
536.3181961640036
 20
414.7473492739041
 30
0.0
 40
4.5
  0
TEXT
  5
3770
330
1E
100
AcDbEntity
  8
DIM
100
AcDbText
 10
512.8526558610758
 20
439.9774913301339
 30
0.0
 40
3.0
  1
4-%%c9
  7
ROMANSS
 72
     2
 11
523.9955130039329
 21
441.4774913301338
 31
0.0
100
AcDbText
 73
     2
  0
LINE
  5
3771
330
1E
100
AcDbEntity
  8
DIM
100
AcDbLine
 10
524.9955130039329
 20
438.4774913301338
 30
0.0
 11
513.4955130039329
 21
438.4774913301338
 31
0.0
  0
LINE
  5
3772
330
1E
100
AcDbEntity
  8
0
  6
CONTINUOUS
100
AcDbLine
 10
332.736145838456
 20
514.9513930423632
 30
0.0
 11
356.7361458384557
 21
514.9513930423632
 31
0.0
  0
LINE
  5
3773
330
1E
100
AcDbEntity
  8
0
  6
CONTINUOUS
100
AcDbLine
 10
332.7361458384558
 20
482.951393042363
 30
0.0
 11
356.7361458384557
 21
482.9513930423631
 31
0.0
  0
LINE
  5
3774
330
1E
100
AcDbEntity
  8
0
100
AcDbLine
 10
336.7361458384557
 20
520.4513930423631
 30
0.0
 11
336.7361458384556
 21
514.9513930423632
 31
0.0
  0
LINE
  5
3775
330
1E
100
AcDbEntity
  8
0
100
AcDbLine
 10
337.7361458384557
 20
519.4513930423632
 30
0.0
 11
337.7361458384557
 21
514.9513930423632
 31
0.0
  0
LINE
  5
3776
330
1E
100
AcDbEntity
  8
HIDDEN
  6
HIDDEN
100
AcDbLine
 10
312.7361458384557
 20
475.2013930423632
 30
0.0
 11
332.7361458384562
 21
475.2013930423633
 31
0.0
  0
LINE
  5
3777
330
1E
100
AcDbEntity
  8
0
100
AcDbLine
 10
337.7361458384557
 20
478.4513930423631
 30
0.0
 11
336.7361458384557
 21
477.4513930423632
 31
0.0
  0
LINE
  5
3778
330
1E
100
AcDbEntity
  8
0
100
AcDbLine
 10
336.7361458384558
 20
482.9513930423631
 30
0.0
 11
336.7361458384558
 21
477.4513930423632
 31
0.0
  0
LINE
  5
3779
330
1E
100
AcDbEntity
  8
0
100
AcDbLine
 10
332.7361458384555
 20
477.4513930423632
 30
0.0
 11
336.7361458384557
 21
477.4513930423632
 31
0.0
  0
LINE
  5
377A
330
1E
100
AcDbEntity
  8
0
100
AcDbLine
 10
337.7361458384557
 20
482.9513930423631
 30
0.0
 11
337.7361458384557
 21
478.4513930423631
 31
0.0
  0
LINE
  5
377B
330
1E
100
AcDbEntity
  8
HIDDEN
  6
HIDDEN
100
AcDbLine
 10
312.7361458384557
 20
522.7013930423631
 30
0.0
 11
332.7361458384561
 21
522.7013930423632
 31
0.0
  0
LINE
  5
377C
330
1E
100
AcDbEntity
  8
HIDDEN
  6
HIDDEN
100
AcDbLine
 10
312.7361458384557
 20
531.7013930423631
 30
0.0
 11
332.7361458384562
 21
531.7013930423633
 31
0.0
  0
LINE
  5
377D
330
1E
100
AcDbEntity
  8
0
100
AcDbLine
 10
312.7361458384557
 20
538.9513930423631
 30
0.0
 11
332.736145838456
 21
538.9513930423631
 31
0.0
  0
LINE
  5
377E
330
1E
100
AcDbEntity
  8
0
100
AcDbLine
 10
336.7361458384557
 20
520.4513930423631
 30
0.0
 11
337.7361458384557
 21
519.4513930423632
 31
0.0
  0
LINE
  5
377F
330
1E
100
AcDbEntity
  8
0
100
AcDbLine
 10
332.7361458384558
 20
520.4513930423631
 30
0.0
 11
336.7361458384557
 21
520.4513930423631
 31
0.0
  0
LINE
  5
3780
330
1E
100
AcDbEntity
  8
0
100
AcDbLine
 10
371.7361458384557
 20
525.9513930423633
 30
0.0
 11
371.7361458384558
 21
508.9513930423631
 31
0.0
  0
LINE
  5
3781
330
1E
100
AcDbEntity
  8
0
100
AcDbLine
 10
356.7361458384557
 20
508.9513930423631
 30
0.0
 11
386.7361458384557
 21
508.9513930423631
 31
0.0
  0
LINE
  5
3782
330
1E
100
AcDbEntity
  8
0
100
AcDbLine
 10
356.7361458384557
 20
488.9513930423631
 30
0.0
 11
386.7361458384557
 21
488.9513930423631
 31
0.0
  0
LINE
  5
3783
330
1E
100
AcDbEntity
  8
0
100
AcDbLine
 10
356.7361458384557
 20
514.9513930423632
 30
0.0
 11
356.7361458384557
 21
482.951393042363
 31
0.0
  0
LINE
  5
3784
330
1E
100
AcDbEntity
  8
0
100
AcDbLine
 10
370.7361458384557
 20
486.4513930423632
 30
0.0
 11
368.7361458384557
 21
488.4513930423633
 31
0.0
  0
LINE
  5
3785
330
1E
100
AcDbEntity
  8
0
  6
CONTINUOUS
100
AcDbLine
 10
360.3601458384555
 20
486.9513930423631
 30
0.0
 11
356.7361458384557
 21
486.9513930423631
 31
0.0
  0
ARC
  5
3786
330
1E
100
AcDbEntity
  8
0
  6
CONTINUOUS
100
AcDbCircle
 10
349.4202388617096
 20
492.9513930423631
 30
0.0
 40
12.47724186909332
100
AcDbArc
 50
331.2574016731077
 51
341.3017735138037
  0
LINE
  5
3787
330
1E
100
AcDbEntity
  8
0
  6
CONTINUOUS
100
AcDbLine
 10
361.7361458384558
 20
488.9513930423631
 30
0.0
 11
361.7361458384558
 21
488.4513930423633
 31
0.0
  0
LINE
  5
3788
330
1E
100
AcDbEntity
  8
0
100
AcDbLine
 10
361.7361458384558
 20
488.4513930423633
 30
0.0
 11
368.7361458384557
 21
488.4513930423633
 31
0.0
  0
LINE
  5
3789
330
1E
100
AcDbEntity
  8
0
100
AcDbLine
 10
370.7361458384557
 20
486.4513930423632
 30
0.0
 11
371.7361458384557
 21
486.4513930423632
 31
0.0
  0
LINE
  5
378A
330
1E
100
AcDbEntity
  8
0
100
AcDbLine
 10
370.7361458384557
 20
511.4513930423632
 30
0.0
 11
368.7361458384557
 21
509.4513930423631
 31
0.0
  0
LINE
  5
378B
330
1E
100
AcDbEntity
  8
0
  6
CONTINUOUS
100
AcDbLine
 10
360.3601458384555
 20
510.9513930423632
 30
0.0
 11
356.7361458384557
 21
510.9513930423632
 31
0.0
  0
ARC
  5
378C
330
1E
100
AcDbEntity
  8
0
  6
CONTINUOUS
100
AcDbCircle
 10
349.4202388617096
 20
504.9513930423631
 30
0.0
 40
12.47724186909332
100
AcDbArc
 50
18.69822648619628
 51
28.74259832689224
  0
LINE
  5
378D
330
1E
100
AcDbEntity
  8
0
100
AcDbLine
 10
361.7361458384558
 20
509.4513930423633
 30
0.0
 11
368.7361458384558
 21
509.4513930423633
 31
0.0
  0
LINE
  5
378E
330
1E
100
AcDbEntity
  8
0
  6
CONTINUOUS
100
AcDbLine
 10
361.7361458384558
 20
509.4513930423633
 30
0.0
 11
361.7361458384558
 21
508.9513930423631
 31
0.0
  0
LINE
  5
378F
330
1E
100
AcDbEntity
  8
0
100
AcDbLine
 10
370.7361458384557
 20
511.4513930423632
 30
0.0
 11
371.7361458384557
 21
511.4513930423632
 31
0.0
  0
LINE
  5
3790
330
1E
100
AcDbEntity
  8
HIDDEN
  6
HIDDEN
100
AcDbLine
 10
395.2361458384557
 20
474.9513930423632
 30
0.0
 11
406.7361458384557
 21
474.9513930423632
 31
0.0
  0
LINE
  5
3791
330
1E
100
AcDbEntity
  8
HIDDEN
  6
HIDDEN
100
AcDbLine
 10
386.7361458384557
 20
477.7013930423632
 30
0.0
 11
395.2361458384557
 21
477.7013930423632
 31
0.0
  0
LINE
  5
3792
330
1E
100
AcDbEntity
  8
CENTER
  6
CENTER
100
AcDbLine
 10
383.7361458384557
 20
527.2013930423631
 30
0.0
 11
409.7361458384557
 21
527.2013930423631
 31
0.0
  0
LINE
  5
3793
330
1E
100
AcDbEntity
  8
0
100
AcDbLine
 10
371.7361458384558
 20
525.9513930423634
 30
0.0
 11
386.7361458384557
 21
525.9513930423633
 31
0.0
  0
LINE
  5
3794
330
1E
100
AcDbEntity
  8
HIDDEN
  6
HIDDEN
100
AcDbLine
 10
395.2361458384557
 20
522.9513930423632
 30
0.0
 11
406.7361458384556
 21
522.9513930423632
 31
0.0
  0
LINE
  5
3795
330
1E
100
AcDbEntity
  8
HIDDEN
  6
HIDDEN
100
AcDbLine
 10
395.2361458384557
 20
531.4513930423632
 30
0.0
 11
406.7361458384556
 21
531.4513930423632
 31
0.0
  0
LINE
  5
3796
330
1E
100
AcDbEntity
  8
0
100
AcDbLine
 10
386.7361458384557
 20
536.4513930423631
 30
0.0
 11
406.7361458384557
 21
536.4513930423632
 31
0.0
  0
LINE
  5
3797
330
1E
100
AcDbEntity
  8
HIDDEN
  6
HIDDEN
100
AcDbLine
 10
395.2361458384557
 20
534.2013930423632
 30
0.0
 11
395.2361458384557
 21
520.2013930423631
 31
0.0
  0
LINE
  5
3798
330
1E
100
AcDbEntity
  8
HIDDEN
  6
HIDDEN
100
AcDbLine
 10
386.7361458384557
 20
520.2013930423631
 30
0.0
 11
395.2361458384557
 21
520.2013930423631
 31
0.0
  0
LINE
  5
3799
330
1E
100
AcDbEntity
  8
HIDDEN
  6
HIDDEN
100
AcDbLine
 10
386.7361458384557
 20
534.2013930423632
 30
0.0
 11
395.2361458384557
 21
534.2013930423632
 31
0.0
  0
LINE
  5
379A
330
1E
100
AcDbEntity
  8
DIM
100
AcDbLine
 10
564.0681961640039
 20
301.997349273904
 30
0.0
 11
564.0681961640039
 21
352.497349273904
 31
0.0
  0
LINE
  5
379B
330
1E
100
AcDbEntity
  8
DIM
100
AcDbLine
 10
556.0681961640039
 20
316.247349273904
 30
0.0
 11
556.0681961640039
 21
338.2473492739041
 31
0.0
  0
SOLID
  5
379C
330
1E
100
AcDbEntity
  8
DIM
100
AcDbTrace
 10
563.5681961640038
 20
301.997349273904
 30
0.0
 11
564.5681961640039
 21
301.997349273904
 31
0.0
 12
564.0681961640039
 22
298.9973492739041
 32
0.0
 13
564.0681961640039
 23
298.9973492739041
 33
0.0
  0
SOLID
  5
379D
330
1E
100
AcDbEntity
  8
DIM
100
AcDbTrace
 10
555.5681961640039
 20
316.247349273904
 30
0.0
 11
556.5681961640039
 21
316.247349273904
 31
0.0
 12
556.0681961640039
 22
313.2473492739041
 32
0.0
 13
556.0681961640039
 23
313.2473492739041
 33
0.0
  0
TEXT
  5
379E
330
1E
100
AcDbEntity
  8
DIM
100
AcDbText
 10
554.5681961640038
 20
324.8187778453326
 30
0.0
 40
3.0
  1
28
 50
90.0
  7
ROMANSS
 72
     1
 11
553.0681961640039
 21
327.247349273904
 31
0.0
100
AcDbText
 73
     2
  0
TEXT
  5
379F
330
1E
100
AcDbEntity
  8
DIM
100
AcDbText
 10
562.5681961640038
 20
322.6759207024755
 30
0.0
 40
3.0
  1
56.5
 50
90.0
  7
ROMANSS
 72
     1
 11
561.0681961640039
 21
327.247349273904
 31
0.0
100
AcDbText
 73
     2
  0
TEXT
  5
37A0
330
1E
100
AcDbEntity
  8
DIM
100
AcDbText
 10
570.5681961640038
 20
323.6759207024755
 30
0.0
 40
3.0
  1
105
 50
90.0
  7
ROMANSS
 72
     1
 11
569.0681961640039
 21
327.247349273904
 31
0.0
100
AcDbText
 73
     2
  0
TEXT
  5
37A1
330
1E
100
AcDbEntity
  8
DIM
100
AcDbText
 10
578.5681961640039
 20
323.6759207024755
 30
0.0
 40
3.0
  1
150
 50
90.0
  7
ROMANSS
 72
     1
 11
577.0681961640039
 21
327.247349273904
 31
0.0
100
AcDbText
 73
     2
  0
TEXT
  5
37A2
330
1E
100
AcDbEntity
  8
DIM
100
AcDbText
 10
586.5681961640039
 20
323.6759207024755
 30
0.0
 40
3.0
  1
175
 50
90.0
  7
ROMANSS
 72
     1
 11
585.0681961640039
 21
327.247349273904
 31
0.0
100
AcDbText
 73
     2
  0
TEXT
  5
37A3
330
1E
100
AcDbEntity
  8
DIM
100
AcDbText
 10
594.5681961640039
 20
323.6759207024755
 30
0.0
 40
3.0
  1
195
 50
90.0
  7
ROMANSS
 72
     1
 11
593.0681961640039
 21
327.247349273904
 31
0.0
100
AcDbText
 73
     2
  0
SOLID
  5
37A4
330
1E
100
AcDbEntity
  8
DIM
100
AcDbTrace
 10
555.5681961640039
 20
338.2473492739041
 30
0.0
 11
556.5681961640039
 21
338.2473492739041
 31
0.0
 12
556.0681961640039
 22
341.247349273904
 32
0.0
 13
556.0681961640039
 23
341.247349273904
 33
0.0
  0
SOLID
  5
37A5
330
1E
100
AcDbEntity
  8
DIM
100
AcDbTrace
 10
563.5681961640038
 20
352.497349273904
 30
0.0
 11
564.5681961640039
 21
352.497349273904
 31
0.0
 12
564.0681961640039
 22
355.4973492739041
 32
0.0
 13
564.0681961640039
 23
355.4973492739041
 33
0.0
  0
SOLID
  5
37A6
330
1E
100
AcDbEntity
  8
DIM
100
AcDbTrace
 10
571.5681961640038
 20
376.747349273904
 30
0.0
 11
572.5681961640039
 21
376.747349273904
 31
0.0
 12
572.0681961640038
 22
379.747349273904
 32
0.0
 13
572.0681961640038
 23
379.747349273904
 33
0.0
  0
SOLID
  5
37A7
330
1E
100
AcDbEntity
  8
DIM
100
AcDbTrace
 10
579.5681961640038
 20
399.2473492739041
 30
0.0
 11
580.5681961640039
 21
399.2473492739041
 31
0.0
 12
580.0681961640038
 22
402.2473492739041
 32
0.0
 13
580.0681961640038
 23
402.2473492739041
 33
0.0
  0
SOLID
  5
37A8
330
1E
100
AcDbEntity
  8
DIM
100
AcDbTrace
 10
587.5681961640038
 20
411.7473492739041
 30
0.0
 11
588.5681961640038
 21
411.7473492739041
 31
0.0
 12
588.0681961640038
 22
414.7473492739041
 32
0.0
 13
588.0681961640038
 23
414.7473492739041
 33
0.0
  0
SOLID
  5
37A9
330
1E
100
AcDbEntity
  8
DIM
100
AcDbTrace
 10
595.5681961640038
 20
421.7473492739041
 30
0.0
 11
596.5681961640038
 21
421.7473492739041
 31
0.0
 12
596.0681961640038
 22
424.7473492739041
 32
0.0
 13
596.0681961640038
 23
424.7473492739041
 33
0.0
  0
TEXT
  5
37AA
330
1E
100
AcDbEntity
  8
DIM
100
AcDbText
 10
572.3771779415653
 20
439.4131922502268
 30
0.0
 40
3.0
  1
4-M8x16L
  7
ROMANSS
 72
     2
 11
594.5200350844224
 21
440.9131922502267
 31
0.0
100
AcDbText
 73
     2
  0
LINE
  5
37AB
330
1E
100
AcDbEntity
  8
DIM
100
AcDbLine
 10
594.8848566887927
 20
437.9131922502268
 30
0.0
 11
574.3210994545361
 21
437.9131922502268
 31
0.0
  0
LINE
  5
3819
330
1E
100
AcDbEntity
  8
CENTER
  6
CENTER
100
AcDbLine
 10
621.9388852912914
 20
358.1339703000775
 30
0.0
 11
776.3973867990894
 21
358.1339703000775
 31
0.0
  0
LINE
  5
381A
330
1E
100
AcDbEntity
  8
DIM
100
AcDbLine
 10
639.4388852912915
 20
276.0432485961649
 30
0.0
 11
758.4388852912915
 21
276.0432485961649
 31
0.0
  0
LINE
  5
381B
330
1E
100
AcDbEntity
  8
DIM
100
AcDbLine
 10
623.9388852912915
 20
215.9635626107224
 30
0.0
 11
773.9388852912915
 21
215.9635626107224
 31
0.0
  0
LINE
  5
381C
330
1E
100
AcDbEntity
  8
0
100
AcDbLine
 10
624.4388852912915
 20
368.1339703000775
 30
0.0
 11
773.4388852912915
 21
368.1339703000775
 31
0.0
  0
LINE
  5
381D
330
1E
100
AcDbEntity
  8
0
100
AcDbLine
 10
624.4388852912915
 20
348.1339703000775
 30
0.0
 11
773.4388852912915
 21
348.1339703000775
 31
0.0
  0
LINE
  5
381E
330
1E
100
AcDbEntity
  8
CENTER
  6
CENTER
100
AcDbLine
 10
621.3691952415261
 20
301.9635626107225
 30
0.0
 11
775.9388852912914
 21
301.9635626107224
 31
0.0
  0
LINE
  5
381F
330
1E
100
AcDbEntity
  8
0
100
AcDbLine
 10
625.9388852912916
 20
223.9635626107225
 30
0.0
 11
771.9388852912914
 21
223.9635626107225
 31
0.0
  0
LINE
  5
3820
330
1E
100
AcDbEntity
  8
0
100
AcDbLine
 10
668.4388852912915
 20
261.9635626107225
 30
0.0
 11
729.4388852912915
 21
261.9635626107225
 31
0.0
  0
LINE
  5
3821
330
1E
100
AcDbEntity
  8
DIM
100
AcDbLine
 10
639.4388852912917
 20
286.681553858577
 30
0.0
 11
639.4388852912917
 21
274.6152611870324
 31
0.0
  0
LINE
  5
3822
330
1E
100
AcDbEntity
  8
0
100
AcDbLine
 10
658.9388852912914
 20
271.4635626107225
 30
0.0
 11
658.9388852912914
 21
338.4635626107225
 31
0.0
  0
LINE
  5
3823
330
1E
100
AcDbEntity
  8
0
100
AcDbLine
 10
623.9388852912916
 20
225.9635626107225
 30
0.0
 11
623.9388852912915
 21
338.9635626107224
 31
0.0
  0
LINE
  5
3824
330
1E
100
AcDbEntity
  8
DIM
100
AcDbLine
 10
623.9388852912915
 20
223.2200337716562
 30
0.0
 11
623.9388852912915
 21
214.9635626107225
 31
0.0
  0
SOLID
  5
3825
330
1E
100
AcDbEntity
  8
DIM
100
AcDbTrace
 10
626.9388852912915
 20
216.4635626107225
 30
0.0
 11
626.9388852912915
 21
215.4635626107225
 31
0.0
 12
623.9388852912915
 22
215.9635626107224
 32
0.0
 13
623.9388852912915
 23
215.9635626107224
 33
0.0
  0
LINE
  5
3826
330
1E
100
AcDbEntity
  8
0
100
AcDbLine
 10
625.9388852912916
 20
223.9635626107225
 30
0.0
 11
623.9388852912916
 21
225.9635626107225
 31
0.0
  0
SOLID
  5
3827
330
1E
100
AcDbEntity
  8
DIM
100
AcDbTrace
 10
642.4388852912914
 20
276.5432485961649
 30
0.0
 11
642.4388852912914
 21
275.5432485961649
 31
0.0
 12
639.4388852912915
 22
276.0432485961649
 32
0.0
 13
639.4388852912915
 23
276.0432485961649
 33
0.0
  0
ARC
  5
3828
330
1E
100
AcDbEntity
  8
0
100
AcDbCircle
 10
668.4388852912915
 20
271.4635626107225
 30
0.0
 40
9.5
100
AcDbArc
 50
180.0
 51
270.0
  0
LINE
  5
3829
330
1E
100
AcDbEntity
  8
CENTER
  6
CENTER
100
AcDbLine
 10
698.9388852912916
 20
222.9635626107225
 30
0.0
 11
698.9388852912916
 21
274.5279346599492
 31
0.0
  0
TEXT
  5
382A
330
1E
100
AcDbEntity
  8
DIM
100
AcDbText
 10
694.7655721191205
 20
217.1635626107224
 30
0.0
 40
3.0
  1
150
  7
ROMANS
 72
     1
 11
699.2655721191205
 21
218.6635626107225
 31
0.0
100
AcDbText
 73
     2
  0
TEXT
  5
382B
330
1E
100
AcDbEntity
  8
DIM
100
AcDbText
 10
694.6833075881007
 20
277.3096847355124
 30
0.0
 40
3.0
  1
119
  7
ROMANS
 72
     1
 11
699.1118790166721
 21
278.8096847355124
 31
0.0
100
AcDbText
 73
     2
  0
ARC
  5
382C
330
1E
100
AcDbEntity
  8
0
100
AcDbCircle
 10
639.4388852912915
 20
301.9635626107224
 30
0.0
 40
10.0
100
AcDbArc
 50
94.30122230467302
 51
85.69877769532698
  0
LINE
  5
382D
330
1E
100
AcDbEntity
  8
0
100
AcDbLine
 10
638.6888852912915
 20
339.4635626107225
 30
0.0
 11
624.4388852912915
 21
339.4635626107225
 31
0.0
  0
LINE
  5
382E
330
1E
100
AcDbEntity
  8
CENTER
  6
CENTER
100
AcDbLine
 10
621.0471349529425
 20
325.7135626107225
 30
0.0
 11
662.0858667391678
 21
325.7135626107225
 31
0.0
  0
LINE
  5
382F
330
1E
100
AcDbEntity
  8
0
100
AcDbLine
 10
623.9388852912915
 20
338.9635626107225
 30
0.0
 11
624.4388852912915
 21
339.4635626107225
 31
0.0
  0
LINE
  5
3830
330
1E
100
AcDbEntity
  8
0
100
AcDbLine
 10
623.9388852912915
 20
348.6339703000775
 30
0.0
 11
623.9388852912915
 21
367.6339703000775
 31
0.0
  0
LINE
  5
3831
330
1E
100
AcDbEntity
  8
0
100
AcDbLine
 10
623.9388852912915
 20
348.6339703000775
 30
0.0
 11
624.4388852912915
 21
348.1339703000775
 31
0.0
  0
LINE
  5
3832
330
1E
100
AcDbEntity
  8
0
100
AcDbLine
 10
623.9388852912915
 20
367.6339703000775
 30
0.0
 11
624.4388852912915
 21
368.1339703000775
 31
0.0
  0
LINE
  5
3833
330
1E
100
AcDbEntity
  8
CENTER
  6
CENTER
100
AcDbLine
 10
698.9388852912916
 20
346.1339703000775
 30
0.0
 11
698.9388852912916
 21
370.7598975957123
 31
0.0
  0
LINE
  5
3834
330
1E
100
AcDbEntity
  8
CENTER
  6
CENTER
100
AcDbLine
 10
639.4388852912915
 20
346.1339703000775
 30
0.0
 11
639.4388852912915
 21
370.1339703000775
 31
0.0
  0
LINE
  5
3835
330
1E
100
AcDbEntity
  8
0
100
AcDbLine
 10
638.6888852912915
 20
311.935397948312
 30
0.0
 11
638.6888852912915
 21
339.4635626107225
 31
0.0
  0
LINE
  5
3836
330
1E
100
AcDbEntity
  8
0
100
AcDbLine
 10
640.1888852912914
 20
311.935397948312
 30
0.0
 11
640.1888852912914
 21
339.4635626107225
 31
0.0
  0
LINE
  5
3837
330
1E
100
AcDbEntity
  8
CENTER
  6
CENTER
100
AcDbLine
 10
639.4388852912915
 20
288.9635626107224
 30
0.0
 11
639.4388852912915
 21
341.3494257598218
 31
0.0
  0
LINE
  5
3838
330
1E
100
AcDbEntity
  8
0
100
AcDbLine
 10
657.9388852912915
 20
339.4635626107225
 30
0.0
 11
640.1888852912914
 21
339.4635626107225
 31
0.0
  0
LINE
  5
3839
330
1E
100
AcDbEntity
  8
0
100
AcDbLine
 10
638.6888852912915
 20
320.7135626107225
 30
0.0
 11
640.1888852912914
 21
320.7135626107225
 31
0.0
  0
LINE
  5
383A
330
1E
100
AcDbEntity
  8
0
100
AcDbLine
 10
638.6888852912915
 20
330.7135626107225
 30
0.0
 11
640.1888852912914
 21
330.7135626107225
 31
0.0
  0
LINE
  5
383B
330
1E
100
AcDbEntity
  8
0
100
AcDbLine
 10
657.9388852912915
 20
339.4635626107225
 30
0.0
 11
658.9388852912914
 21
338.4635626107225
 31
0.0
  0
LINE
  5
383C
330
1E
100
AcDbEntity
  8
CENTER
  6
CENTER
100
AcDbLine
 10
698.9388852912916
 20
282.0423893042425
 30
0.0
 11
698.9388852912916
 21
340.4635626107225
 31
0.0
  0
LINE
  5
383D
330
1E
100
AcDbEntity
  8
0
100
AcDbLine
 10
640.1888852912916
 20
348.1339703000775
 30
0.0
 11
640.1888852912914
 21
368.1339703000775
 31
0.0
  0
LINE
  5
383E
330
1E
100
AcDbEntity
  8
0
100
AcDbLine
 10
638.6888852912916
 20
348.1339703000775
 30
0.0
 11
638.6888852912915
 21
368.1339703000775
 31
0.0
  0
LINE
  5
383F
330
1E
100
AcDbEntity
  8
0
100
AcDbLine
 10
638.6888852912915
 20
353.1339703000774
 30
0.0
 11
640.1888852912914
 21
353.1339703000774
 31
0.0
  0
LINE
  5
3840
330
1E
100
AcDbEntity
  8
0
100
AcDbLine
 10
638.6888852912915
 20
363.1339703000775
 30
0.0
 11
640.1888852912914
 21
363.1339703000775
 31
0.0
  0
LINE
  5
3841
330
1E
100
AcDbEntity
  8
0
100
AcDbLine
 10
658.9388852912916
 20
348.1339703000775
 30
0.0
 11
658.9388852912916
 21
368.1339703000775
 31
0.0
  0
LINE
  5
3842
330
1E
100
AcDbEntity
  8
CENTER
  6
CENTER
100
AcDbLine
 10
815.4262021722869
 20
341.4635626107224
 30
0.0
 11
815.4262021722871
 21
221.7053234004436
 31
0.0
  0
LINE
  5
3843
330
1E
100
AcDbEntity
  8
DIM
100
AcDbLine
 10
758.4388852912915
 20
286.7380734228713
 30
0.0
 11
758.4388852912915
 21
274.6346292533234
 31
0.0
  0
TEXT
  5
3844
330
1E
100
AcDbEntity
  8
DIM
100
AcDbText
 10
789.0388852912915
 20
274.9437269370383
 30
0.0
 40
3.0
  1
115.5
 50
90.0
  7
ROMANS
 72
     1
 11
787.5388852912915
 21
281.5865840798955
 31
0.0
100
AcDbText
 73
     2
  0
LINE
  5
3845
330
1E
100
AcDbEntity
  8
DIM
100
AcDbLine
 10
789.9388852912916
 20
223.9635626107225
 30
0.0
 11
789.9388852912915
 21
339.4635626107224
 31
0.0
  0
LINE
  5
3846
330
1E
100
AcDbEntity
  8
DIM
100
AcDbLine
 10
781.9388852912916
 20
223.9635626107225
 30
0.0
 11
781.9388852912915
 21
339.4635626107225
 31
0.0
  0
LINE
  5
3847
330
1E
100
AcDbEntity
  8
0
100
AcDbLine
 10
738.9388852912916
 20
271.4635626107225
 30
0.0
 11
738.9388852912915
 21
338.4635626107225
 31
0.0
  0
LINE
  5
3848
330
1E
100
AcDbEntity
  8
0
100
AcDbLine
 10
825.4262021722871
 20
338.9635626107225
 30
0.0
 11
825.4262021722871
 21
224.4635626107225
 31
0.0
  0
LINE
  5
3849
330
1E
100
AcDbEntity
  8
0
100
AcDbLine
 10
805.4262021722871
 20
338.9635626107225
 30
0.0
 11
805.4262021722871
 21
224.4635626107225
 31
0.0
  0
LINE
  5
384A
330
1E
100
AcDbEntity
  8
0
100
AcDbLine
 10
773.9388852912915
 20
225.9635626107225
 30
0.0
 11
773.9388852912915
 21
338.9635626107225
 31
0.0
  0
LINE
  5
384B
330
1E
100
AcDbEntity
  8
HIDDEN
  6
HIDDEN
100
AcDbLine
 10
805.4262021722871
 20
261.9635626107225
 30
0.0
 11
825.4262021722871
 21
261.9635626107225
 31
0.0
  0
TEXT
  5
384C
330
1E
100
AcDbEntity
  8
DIM
100
AcDbText
 10
812.9786879001859
 20
217.1635626107224
 30
0.0
 40
3.0
  1
20
  7
ROMANS
 72
     1
 11
815.8358307573289
 21
218.6635626107224
 31
0.0
100
AcDbText
 73
     2
  0
LINE
  5
384D
330
1E
100
AcDbEntity
  8
DIM
100
AcDbLine
 10
808.4262021722871
 20
215.9635626107224
 30
0.0
 11
822.4262021722871
 21
215.9635626107224
 31
0.0
  0
LINE
  5
384E
330
1E
100
AcDbEntity
  8
0
100
AcDbLine
 10
805.926202172287
 20
223.9635626107225
 30
0.0
 11
824.9262021722872
 21
223.9635626107225
 31
0.0
  0
LINE
  5
384F
330
1E
100
AcDbEntity
  8
DIM
100
AcDbLine
 10
805.4262021722871
 20
223.4635626107225
 30
0.0
 11
805.4262021722871
 21
214.9635626107225
 31
0.0
  0
SOLID
  5
3850
330
1E
100
AcDbEntity
  8
DIM
100
AcDbTrace
 10
808.4262021722871
 20
215.4635626107225
 30
0.0
 11
808.4262021722871
 21
216.4635626107225
 31
0.0
 12
805.4262021722871
 22
215.9635626107224
 32
0.0
 13
805.4262021722871
 23
215.9635626107224
 33
0.0
  0
LINE
  5
3851
330
1E
100
AcDbEntity
  8
DIM
100
AcDbLine
 10
773.9388852912915
 20
223.3358762626867
 30
0.0
 11
773.9388852912915
 21
214.9635626107225
 31
0.0
  0
SOLID
  5
3852
330
1E
100
AcDbEntity
  8
DIM
100
AcDbTrace
 10
770.9388852912915
 20
216.4635626107225
 30
0.0
 11
770.9388852912915
 21
215.4635626107225
 31
0.0
 12
773.9388852912915
 22
215.9635626107224
 32
0.0
 13
773.9388852912915
 23
215.9635626107224
 33
0.0
  0
ARC
  5
3853
330
1E
100
AcDbEntity
  8
0
100
AcDbCircle
 10
729.4388852912915
 20
271.4635626107225
 30
0.0
 40
9.5
100
AcDbArc
 50
270.0
 51
0.0
  0
SOLID
  5
3854
330
1E
100
AcDbEntity
  8
DIM
100
AcDbTrace
 10
755.4388852912914
 20
276.5432485961649
 30
0.0
 11
755.4388852912914
 21
275.5432485961649
 31
0.0
 12
758.4388852912915
 22
276.0432485961649
 32
0.0
 13
758.4388852912915
 23
276.0432485961649
 33
0.0
  0
LINE
  5
3855
330
1E
100
AcDbEntity
  8
DIM
100
AcDbLine
 10
772.9388852912915
 20
223.9635626107225
 30
0.0
 11
790.9388852912916
 21
223.9635626107225
 31
0.0
  0
LINE
  5
3856
330
1E
100
AcDbEntity
  8
0
100
AcDbLine
 10
773.9388852912915
 20
225.9635626107225
 30
0.0
 11
771.9388852912914
 21
223.9635626107225
 31
0.0
  0
SOLID
  5
3857
330
1E
100
AcDbEntity
  8
DIM
100
AcDbTrace
 10
782.3555519579581
 20
226.4635626107224
 30
0.0
 11
781.5222186246248
 21
226.4635626107224
 31
0.0
 12
781.9388852912915
 22
223.9635626107224
 32
0.0
 13
781.9388852912915
 23
223.9635626107224
 33
0.0
  0
SOLID
  5
3858
330
1E
100
AcDbEntity
  8
DIM
100
AcDbTrace
 10
790.3555519579581
 20
226.4635626107225
 30
0.0
 11
789.5222186246249
 21
226.4635626107225
 31
0.0
 12
789.9388852912916
 22
223.9635626107225
 32
0.0
 13
789.9388852912916
 23
223.9635626107225
 33
0.0
  0
LINE
  5
3859
330
1E
100
AcDbEntity
  8
0
100
AcDbLine
 10
805.4262021722871
 20
224.4635626107225
 30
0.0
 11
805.926202172287
 21
223.9635626107225
 31
0.0
  0
TEXT
  5
385A
330
1E
100
AcDbEntity
  8
DIM
100
AcDbText
 10
781.0388852912915
 20
262.5282214988755
 30
0.0
 40
3.0
  1
78
 50
90.0
  7
ROMANS
 72
     1
 11
779.5388852912915
 21
265.3853643560183
 31
0.0
100
AcDbText
 73
     2
  0
SOLID
  5
385B
330
1E
100
AcDbEntity
  8
DIM
100
AcDbTrace
 10
822.4262021722871
 20
215.4635626107225
 30
0.0
 11
822.4262021722871
 21
216.4635626107225
 31
0.0
 12
825.4262021722871
 22
215.9635626107224
 32
0.0
 13
825.4262021722871
 23
215.9635626107224
 33
0.0
  0
LINE
  5
385C
330
1E
100
AcDbEntity
  8
DIM
100
AcDbLine
 10
825.4262021722871
 20
223.4635626107225
 30
0.0
 11
825.4262021722871
 21
214.9635626107225
 31
0.0
  0
LINE
  5
385D
330
1E
100
AcDbEntity
  8
0
100
AcDbLine
 10
825.4262021722871
 20
224.4635626107225
 30
0.0
 11
824.9262021722872
 21
223.9635626107225
 31
0.0
  0
POLYLINE
  5
385E
330
1E
100
AcDbEntity
  8
0
100
AcDb2dPolyline
 66
     1
 10
0.0
 20
0.0
 30
0.0
 70
     1
  0
VERTEX
  5
4302
330
385E
100
AcDbEntity
  8
0
100
AcDbVertex
100
AcDb2dVertex
 10
819.4262021722872
 20
323.404161533964
 30
0.0
  0
VERTEX
  5
4303
330
385E
100
AcDbEntity
  8
0
100
AcDbVertex
100
AcDb2dVertex
 10
819.426202172287
 20
328.022963687481
 30
0.0
  0
VERTEX
  5
4304
330
385E
100
AcDbEntity
  8
0
100
AcDbVertex
100
AcDb2dVertex
 10
815.4262021722871
 20
330.3323647642395
 30
0.0
  0
VERTEX
  5
4305
330
385E
100
AcDbEntity
  8
0
100
AcDbVertex
100
AcDb2dVertex
 10
811.4262021722872
 20
328.022963687481
 30
0.0
  0
VERTEX
  5
4306
330
385E
100
AcDbEntity
  8
0
100
AcDbVertex
100
AcDb2dVertex
 10
811.4262021722872
 20
323.404161533964
 30
0.0
  0
VERTEX
  5
4307
330
385E
100
AcDbEntity
  8
0
100
AcDbVertex
100
AcDb2dVertex
 10
815.4262021722871
 20
321.0947604572055
 30
0.0
  0
SEQEND
  5
4308
330
385E
100
AcDbEntity
  8
0
  0
CIRCLE
  5
385F
330
1E
100
AcDbEntity
  8
0
100
AcDbCircle
 10
815.4262021722869
 20
325.7135626107225
 30
0.0
 40
7.0
  0
CIRCLE
  5
3860
330
1E
100
AcDbEntity
  8
0
100
AcDbCircle
 10
815.4262021722869
 20
325.7135626107225
 30
0.0
 40
8.0
  0
CIRCLE
  5
3861
330
1E
100
AcDbEntity
  8
0
100
AcDbCircle
 10
815.4262021722869
 20
325.7135626107225
 30
0.0
 40
8.5
  0
LINE
  5
3862
330
1E
100
AcDbEntity
  8
CENTER
  6
CENTER
100
AcDbLine
 10
803.426202172287
 20
325.7135626107225
 30
0.0
 11
827.426202172287
 21
325.7135626107225
 31
0.0
  0
LINE
  5
3863
330
1E
100
AcDbEntity
  8
CENTER
  6
CENTER
100
AcDbLine
 10
803.4262021722872
 20
301.9635626107224
 30
0.0
 11
828.0521294679219
 21
301.9635626107224
 31
0.0
  0
LINE
  5
3864
330
1E
100
AcDbEntity
  8
0
100
AcDbLine
 10
805.926202172287
 20
339.4635626107225
 30
0.0
 11
824.9262021722872
 21
339.4635626107225
 31
0.0
  0
LINE
  5
3865
330
1E
100
AcDbEntity
  8
CENTER
  6
CENTER
100
AcDbLine
 10
758.4388852912915
 20
346.1339703000775
 30
0.0
 11
758.4388852912915
 21
370.1339703000775
 31
0.0
  0
LINE
  5
3866
330
1E
100
AcDbEntity
  8
CENTER
  6
CENTER
100
AcDbLine
 10
735.9383654062249
 20
325.7135626107225
 30
0.0
 11
776.9770971924502
 21
325.7135626107225
 31
0.0
  0
LINE
  5
3867
330
1E
100
AcDbEntity
  8
0
100
AcDbLine
 10
759.1888852912915
 20
339.4635626107224
 30
0.0
 11
773.4388852912915
 21
339.4635626107225
 31
0.0
  0
LINE
  5
3868
330
1E
100
AcDbEntity
  8
0
100
AcDbLine
 10
757.6888852912915
 20
311.935397948312
 30
0.0
 11
757.6888852912915
 21
339.4635626107225
 31
0.0
  0
LINE
  5
3869
330
1E
100
AcDbEntity
  8
0
100
AcDbLine
 10
759.1888852912915
 20
311.935397948312
 30
0.0
 11
759.1888852912915
 21
339.4635626107225
 31
0.0
  0
LINE
  5
386A
330
1E
100
AcDbEntity
  8
CENTER
  6
CENTER
100
AcDbLine
 10
758.4388852912915
 20
288.9635626107224
 30
0.0
 11
758.4388852912915
 21
341.3494257598218
 31
0.0
  0
ARC
  5
386B
330
1E
100
AcDbEntity
  8
0
100
AcDbCircle
 10
758.4388852912915
 20
301.9635626107224
 30
0.0
 40
10.0
100
AcDbArc
 50
94.30122230467302
 51
85.69877769532698
  0
LINE
  5
386C
330
1E
100
AcDbEntity
  8
0
100
AcDbLine
 10
739.9388852912915
 20
339.4635626107225
 30
0.0
 11
757.6888852912915
 21
339.4635626107225
 31
0.0
  0
LINE
  5
386D
330
1E
100
AcDbEntity
  8
0
100
AcDbLine
 10
738.9388852912915
 20
338.4635626107225
 30
0.0
 11
739.9388852912915
 21
339.4635626107225
 31
0.0
  0
LINE
  5
386E
330
1E
100
AcDbEntity
  8
0
100
AcDbLine
 10
757.6888852912915
 20
330.7135626107225
 30
0.0
 11
759.1888852912915
 21
330.7135626107225
 31
0.0
  0
LINE
  5
386F
330
1E
100
AcDbEntity
  8
0
100
AcDbLine
 10
757.6888852912915
 20
320.7135626107224
 30
0.0
 11
759.1888852912915
 21
320.7135626107224
 31
0.0
  0
LINE
  5
3870
330
1E
100
AcDbEntity
  8
DIM
100
AcDbLine
 10
777.5452375989659
 20
301.9635626107224
 30
0.0
 11
782.9388852912915
 21
301.9635626107224
 31
0.0
  0
SOLID
  5
3871
330
1E
100
AcDbEntity
  8
DIM
100
AcDbTrace
 10
781.5222186246248
 20
304.4635626107224
 30
0.0
 11
782.3555519579581
 21
304.4635626107224
 31
0.0
 12
781.9388852912915
 22
301.9635626107224
 32
0.0
 13
781.9388852912915
 23
301.9635626107224
 33
0.0
  0
SOLID
  5
3872
330
1E
100
AcDbEntity
  8
DIM
100
AcDbTrace
 10
781.5222186246248
 20
299.4635626107223
 30
0.0
 11
782.3555519579581
 21
299.4635626107223
 31
0.0
 12
781.9388852912915
 22
301.9635626107223
 32
0.0
 13
781.9388852912915
 23
301.9635626107223
 33
0.0
  0
TEXT
  5
3873
330
1E
100
AcDbEntity
  8
DIM
100
AcDbText
 10
781.0388852912915
 20
315.509282100282
 30
0.0
 40
3.0
  1
37.5
 50
90.0
  7
ROMANS
 72
     1
 11
779.5388852912915
 21
320.509282100282
 31
0.0
100
AcDbText
 73
     2
  0
LINE
  5
3874
330
1E
100
AcDbEntity
  8
DIM
100
AcDbLine
 10
774.4388852912916
 20
339.4635626107225
 30
0.0
 11
790.9388852912916
 21
339.4635626107225
 31
0.0
  0
LINE
  5
3875
330
1E
100
AcDbEntity
  8
0
100
AcDbLine
 10
773.4388852912915
 20
339.4635626107225
 30
0.0
 11
773.9388852912915
 21
338.9635626107225
 31
0.0
  0
SOLID
  5
3876
330
1E
100
AcDbEntity
  8
DIM
100
AcDbTrace
 10
790.3555519579581
 20
336.9635626107225
 30
0.0
 11
789.5222186246249
 21
336.9635626107225
 31
0.0
 12
789.9388852912916
 22
339.4635626107225
 32
0.0
 13
789.9388852912916
 23
339.4635626107225
 33
0.0
  0
SOLID
  5
3877
330
1E
100
AcDbEntity
  8
DIM
100
AcDbTrace
 10
781.5222186246248
 20
336.9635626107225
 30
0.0
 11
782.3555519579581
 21
336.9635626107225
 31
0.0
 12
781.9388852912915
 22
339.4635626107225
 32
0.0
 13
781.9388852912915
 23
339.4635626107225
 33
0.0
  0
LINE
  5
3878
330
1E
100
AcDbEntity
  8
0
100
AcDbLine
 10
805.926202172287
 20
339.4635626107225
 30
0.0
 11
805.4262021722871
 21
338.9635626107225
 31
0.0
  0
LINE
  5
3879
330
1E
100
AcDbEntity
  8
0
100
AcDbLine
 10
738.9388852912915
 20
348.1339703000775
 30
0.0
 11
738.9388852912915
 21
368.1339703000775
 31
0.0
  0
LINE
  5
387A
330
1E
100
AcDbEntity
  8
0
100
AcDbLine
 10
759.1888852912915
 20
348.1339703000775
 30
0.0
 11
759.1888852912915
 21
368.1339703000775
 31
0.0
  0
LINE
  5
387B
330
1E
100
AcDbEntity
  8
0
100
AcDbLine
 10
757.6888852912915
 20
348.1339703000775
 30
0.0
 11
757.6888852912915
 21
368.1339703000775
 31
0.0
  0
LINE
  5
387C
330
1E
100
AcDbEntity
  8
0
100
AcDbLine
 10
757.6888852912915
 20
363.1339703000775
 30
0.0
 11
759.1888852912915
 21
363.1339703000775
 31
0.0
  0
LINE
  5
387D
330
1E
100
AcDbEntity
  8
0
100
AcDbLine
 10
757.6888852912915
 20
353.1339703000774
 30
0.0
 11
759.1888852912915
 21
353.1339703000775
 31
0.0
  0
LINE
  5
387E
330
1E
100
AcDbEntity
  8
0
100
AcDbLine
 10
773.9388852912915
 20
348.6339703000775
 30
0.0
 11
773.9388852912915
 21
367.6339703000775
 31
0.0
  0
LINE
  5
387F
330
1E
100
AcDbEntity
  8
0
100
AcDbLine
 10
773.4388852912915
 20
348.1339703000775
 30
0.0
 11
773.9388852912915
 21
348.6339703000775
 31
0.0
  0
LINE
  5
3880
330
1E
100
AcDbEntity
  8
0
100
AcDbLine
 10
773.4388852912915
 20
368.1339703000775
 30
0.0
 11
773.9388852912915
 21
367.6339703000775
 31
0.0
  0
LINE
  5
3881
330
1E
100
AcDbEntity
  8
0
100
AcDbLine
 10
824.9262021722872
 20
339.4635626107225
 30
0.0
 11
825.4262021722871
 21
338.9635626107225
 31
0.0
  0
LINE
  5
4373
330
1E
100
AcDbEntity
  8
AM_VIS
100
AcDbLine
 10
280.7361458384558
 20
304.699784994445
 30
0.0
 11
223.7361458384557
 21
304.699784994445
 31
0.0
  0
LINE
  5
4374
330
1E
100
AcDbEntity
  8
AM_VIS
100
AcDbLine
 10
223.7361458384557
 20
310.0544191463989
 30
0.0
 11
280.7361458384558
 21
310.0544191463989
 31
0.0
  0
LINE
  5
4375
330
1E
100
AcDbEntity
  8
AM_VIS
100
AcDbLine
 10
223.7361458384557
 20
305.50859537991
 30
0.0
 11
280.7361458384558
 21
305.50859537991
 31
0.0
  0
ENDSEC
  0
SECTION
  2
OBJECTS
  0
DICTIONARY
  5
C
330
0
100
AcDbDictionary
  3
ACAD_GROUP
350
D
  3
ACAD_LAYOUT
350
19
  3
ACAD_MLINESTYLE
350
16
  3
ACAD_PLOTSETTINGS
350
18
  3
ACMDICTIONARY
350
432C
  3
AMG
350
4312
  3
AMGSNAPSETTINGS
350
4360
  3
DWGPROPS
350
4395
1001
ACAD
1000
TREAT_AS_HARD
1070
     0
  0
DICTIONARY
  5
3DAF
330
1E
100
AcDbDictionary
  3
ACAD_INDEX
350
4377
  3
ACAD_LAYOUTSELFREF
350
43EE
1001
ACAD
1000
TREAT_AS_HARD
1070
     1
  0
DICTIONARY
  5
3DB1
330
1A
100
AcDbDictionary
  3
ACAD_LAYOUTSELFREF
350
43ED
1001
ACAD
1000
TREAT_AS_HARD
1070
     1
  0
DICTIONARY
  5
D
102
{ACAD_REACTORS
330
C
102
}
330
C
100
AcDbDictionary
1001
ACAD
1000
TREAT_AS_HARD
1070
     0
  0
DICTIONARY
  5
19
102
{ACAD_REACTORS
330
C
102
}
330
C
100
AcDbDictionary
1001
ACAD
1000
TREAT_AS_HARD
1070
     0
  0
DICTIONARY
  5
16
102
{ACAD_REACTORS
330
C
102
}
330
C
100
AcDbDictionary
  3
STANDARD
350
17
1001
ACAD
1000
TREAT_AS_HARD
1070
     0
  0
DICTIONARY
  5
18
102
{ACAD_REACTORS
330
C
102
}
330
C
100
AcDbDictionary
1001
ACAD
1000
TREAT_AS_HARD
1070
     0
  0
DICTIONARY
  5
432C
102
{ACAD_REACTORS
330
C
102
}
330
C
100
AcDbDictionary
  3
ACMSTDDICTIONARY
350
4332
1001
ACAD
1000
TREAT_AS_HARD
1070
     0
  0
DICTIONARY
  5
4312
102
{ACAD_REACTORS
330
C
102
}
330
C
100
AcDbDictionary
  3
ACMGSETTINGS
350
4313
1001
ACAD
1000
TREAT_AS_HARD
1070
     0
  0
DICTIONARY
  5
4360
102
{ACAD_REACTORS
330
C
102
}
330
C
100
AcDbDictionary
1001
ACAD
1000
TREAT_AS_HARD
1070
     0
  0
XRECORD
  5
4395
102
{ACAD_REACTORS
330
C
102
}
330
C
100
AcDbXrecord
  1
DWGPROPS COOKIE
  2

  3

  4

  6

  7

  8

  9

300
AmdtFileType=84
301
=
302
=
303
=
304
=
305
=
306
=
307
=
308
=
309
=
 40
0.1068200810185185
 41
2450580.703446064
 42
2453335.4748514
  1

 90
        1
  0
DICTIONARY
  5
4377
102
{ACAD_REACTORS
330
3DAF
102
}
330
3DAF
100
AcDbDictionary
  3
*A1
350
4378
1001
ACAD
1000
TREAT_AS_HARD
1070
     0
  0
XRECORD
  5
43EE
102
{ACAD_REACTORS
330
3DAF
102
}
330
3DAF
100
AcDbXrecord
340
1E
  0
XRECORD
  5
43ED
102
{ACAD_REACTORS
330
3DB1
102
}
330
3DB1
100
AcDbXrecord
340
1A
  0
MLINESTYLE
  5
17
102
{ACAD_REACTORS
330
16
102
}
330
16
100
AcDbMlineStyle
  2
STANDARD
 70
     0
  3

 62
   256
 51
90.0
 52
90.0
 71
     2
 49
0.5
 62
   256
  6
BYLAYER
 49
-0.5
 62
   256
  6
BYLAYER
  0
DICTIONARY
  5
4332
102
{ACAD_REACTORS
330
432C
102
}
330
432C
100
AcDbDictionary
1001
ACAD
1000
TREAT_AS_HARD
1070
     0
  0
DICTIONARY
  5
4313
102
{ACAD_REACTORS
330
4312
102
}
330
4312
100
AcDbDictionary
  3
DWGSETTINGS
350
4314
1001
ACAD
1000
TREAT_AS_HARD
1070
     0
  0
LAYER_INDEX
  5
4378
102
{ACAD_REACTORS
330
4377
102
}
330
4377
100
AcDbIndex
 40
2453335.546059594
100
AcDbLayerIndex
  8
0
360
4379
 90
      565
  8
HIDDEN
360
437A
 90
      115
  8
DIM
360
437B
 90
      162
  8
CENTER
360
437C
 90
      101
  8
LOGO
360
437D
 90
      114
  8
AM_VIS
360
437E
 90
        3
  0
XRECORD
  5
4314
102
{ACAD_REACTORS
330
4313
102
}
330
4313
100
AcDbXrecord
  1
VERSION
140
15.0
  1
PRODUCT
  2
AutoCAD Mechanical 2000
  0
IDBUFFER
  5
4379
330
0
100
AcDbIdBuffer
330
B2E
330
B2F
330
B30
330
B32
330
F1C
330
346A
330
346B
330
346C
330
346D
330
3472
330
3473
330
3474
330
3475
330
3476
330
3477
330
3478
330
3479
330
347C
330
347D
330
347F
330
3480
330
3481
330
3489
330
348B
330
348D
330
348E
330
348F
330
3492
330
3493
330
3495
330
3496
330
3497
330
3498
330
3499
330
349A
330
349D
330
349F
330
34A0
330
34A1
330
34A3
330
34A5
330
34A6
330
34A7
330
34A8
330
34A9
330
34AA
330
34AB
330
34AC
330
34AD
330
34AE
330
34B8
330
34B9
330
34C5
330
34C6
330
34C7
330
34C8
330
34C9
330
34CA
330
34CB
330
34CC
330
34CD
330
34CE
330
34CF
330
34D0
330
34D1
330
34D2
330
34DB
330
34DC
330
34DD
330
34DE
330
34E2
330
34E6
330
34E7
330
34E9
330
34EA
330
34F0
330
34F2
330
34F4
330
34F5
330
34F6
330
34F7
330
34F8
330
34F9
330
34FA
330
34FB
330
34FC
330
34FE
330
34FF
330
3500
330
3501
330
3502
330
3503
330
3504
330
3506
330
3507
330
3508
330
3509
330
350A
330
350B
330
350C
330
350D
330
350E
330
350F
330
3510
330
3512
330
3513
330
3514
330
3515
330
3516
330
3517
330
3518
330
3519
330
351A
330
351B
330
351C
330
351D
330
351E
330
351F
330
3520
330
3521
330
3522
330
3523
330
3525
330
3526
330
3527
330
3528
330
3529
330
352A
330
352B
330
352D
330
352E
330
352F
330
3530
330
3531
330
3532
330
3533
330
3534
330
3535
330
3536
330
3537
330
3538
330
3539
330
353A
330
353B
330
353C
330
353D
330
353E
330
353F
330
3540
330
3541
330
3542
330
3543
330
3544
330
3545
330
3546
330
3547
330
3548
330
3549
330
354B
330
354D
330
354E
330
354F
330
3550
330
3551
330
3552
330
3553
330
3554
330
3555
330
3556
330
3557
330
3558
330
3559
330
355B
330
355C
330
355D
330
355E
330
355F
330
3560
330
3561
330
3562
330
3563
330
3564
330
3565
330
3566
330
3567
330
3568
330
3569
330
356B
330
356C
330
356E
330
356F
330
3570
330
3571
330
3573
330
3574
330
3575
330
3576
330
3577
330
3578
330
3579
330
357A
330
357B
330
357C
330
357D
330
357E
330
357F
330
3580
330
3581
330
3582
330
3583
330
3584
330
3585
330
3586
330
3587
330
3588
330
3589
330
358A
330
358D
330
358E
330
358F
330
3591
330
3593
330
3594
330
3595
330
3596
330
3597
330
3599
330
359A
330
359B
330
359D
330
359E
330
359F
330
35A0
330
35A1
330
35A2
330
35A3
330
35A5
330
35A6
330
35A7
330
35A8
330
35AC
330
35AD
330
35B9
330
35BA
330
35BB
330
35BC
330
35BE
330
35BF
330
35C0
330
35C1
330
35C8
330
35C9
330
35CA
330
35CB
330
35CC
330
35CD
330
35CE
330
35CF
330
35D0
330
35D1
330
35D2
330
35D3
330
35D4
330
35D5
330
35D9
330
35DA
330
35DB
330
35DC
330
35DD
330
35DE
330
35DF
330
35E1
330
35E2
330
35E4
330
35E5
330
35E6
330
35E7
330
35E8
330
35E9
330
35EA
330
35EB
330
35EC
330
35F1
330
35F2
330
35F3
330
35F5
330
35F6
330
35F7
330
35F8
330
35FB
330
35FC
330
3606
330
3607
330
3608
330
3609
330
360A
330
360B
330
360C
330
360D
330
360E
330
360F
330
3610
330
3613
330
3614
330
361B
330
361C
330
361D
330
361E
330
3620
330
3621
330
3627
330
3628
330
3629
330
362A
330
362D
330
362E
330
362F
330
3630
330
3631
330
3632
330
3637
330
3638
330
3639
330
363A
330
363B
330
363C
330
363D
330
363F
330
3640
330
3641
330
3642
330
3643
330
3644
330
3645
330
3646
330
3647
330
364A
330
364F
330
3650
330
3651
330
3652
330
3653
330
3654
330
3655
330
3656
330
3657
330
365C
330
365E
330
365F
330
3663
330
3677
330
3678
330
3679
330
367A
330
3683
330
3687
330
368A
330
3692
330
3693
330
369F
330
36A0
330
36A1
330
36A2
330
36A3
330
36B7
330
36B8
330
36B9
330
36BA
330
36BB
330
36C0
330
36C1
330
36C2
330
36C3
330
36C4
330
36C5
330
36C6
330
36C7
330
36C8
330
36C9
330
36CA
330
36CB
330
36CC
330
36CF
330
36D0
330
36D1
330
36D2
330
36D3
330
36D4
330
36D5
330
36D6
330
36D7
330
36D8
330
36D9
330
36DA
330
36DB
330
36DC
330
36DD
330
36DE
330
36DF
330
36E0
330
36E1
330
36E2
330
36E3
330
36E4
330
36E5
330
36E6
330
36E7
330
36E8
330
36E9
330
36EA
330
36EB
330
36EC
330
36ED
330
36EE
330
36EF
330
36F0
330
36F1
330
36F2
330
36F3
330
36F6
330
36F7
330
36F8
330
36F9
330
36FA
330
36FB
330
36FC
330
36FD
330
36FE
330
36FF
330
3700
330
370C
330
370D
330
370E
330
370F
330
3710
330
3711
330
3712
330
3713
330
3714
330
3715
330
371F
330
3723
330
3726
330
3728
330
372A
330
372F
330
3732
330
3734
330
3735
330
3736
330
3738
330
3740
330
3741
330
3742
330
3743
330
3744
330
3746
330
3748
330
3749
330
374A
330
374B
330
374C
330
374D
330
374E
330
3750
330
3751
330
3754
330
3755
330
3756
330
3757
330
3758
330
375B
330
375F
330
3760
330
3765
330
376B
330
376C
330
376F
330
3772
330
3773
330
3774
330
3775
330
3777
330
3778
330
3779
330
377A
330
377D
330
377E
330
377F
330
3780
330
3781
330
3782
330
3783
330
3784
330
3785
330
3786
330
3787
330
3788
330
3789
330
378A
330
378B
330
378C
330
378D
330
378E
330
378F
330
3793
330
3796
330
381C
330
381D
330
381F
330
3820
330
3822
330
3823
330
3826
330
3828
330
382C
330
382D
330
382F
330
3830
330
3831
330
3832
330
3835
330
3836
330
3838
330
3839
330
383A
330
383B
330
383D
330
383E
330
383F
330
3840
330
3841
330
3847
330
3848
330
3849
330
384A
330
384E
330
3853
330
3856
330
3859
330
385D
330
385E
330
385F
330
3860
330
3861
330
3864
330
3867
330
3868
330
3869
330
386B
330
386C
330
386D
330
386E
330
386F
330
3875
330
3878
330
3879
330
387A
330
387B
330
387C
330
387D
330
387E
330
387F
330
3880
330
3881
  0
IDBUFFER
  5
437A
330
0
100
AcDbIdBuffer
330
34AF
330
34B0
330
34B1
330
34B2
330
34B3
330
34B4
330
34B5
330
34B6
330
34B7
330
34BA
330
34BB
330
34BC
330
34BD
330
34C0
330
34C1
330
34C2
330
34C3
330
34C4
330
34EB
330
34EC
330
34ED
330
34EE
330
35AF
330
35B0
330
35B1
330
35B2
330
35B3
330
35B4
330
35B5
330
35B6
330
35B7
330
35C2
330
35C3
330
35C4
330
35C5
330
35C6
330
35C7
330
35D6
330
35D7
330
35D8
330
35ED
330
35EE
330
35EF
330
35F9
330
35FA
330
35FD
330
35FE
330
35FF
330
3600
330
3601
330
3602
330
3603
330
3604
330
3605
330
362B
330
362C
330
3633
330
3634
330
3648
330
3649
330
364B
330
364C
330
364D
330
3658
330
3659
330
365A
330
365B
330
365D
330
3661
330
366D
330
367B
330
367C
330
367D
330
367E
330
367F
330
3684
330
36A4
330
36B4
330
36BF
330
3701
330
3702
330
3703
330
3704
330
3705
330
3706
330
3707
330
3716
330
3717
330
3718
330
3719
330
371A
330
371B
330
371C
330
371D
330
371E
330
3720
330
3721
330
3725
330
3729
330
372B
330
3731
330
3733
330
3737
330
373A
330
3776
330
377B
330
377C
330
3790
330
3791
330
3794
330
3795
330
3797
330
3798
330
3799
330
384B
  0
IDBUFFER
  5
437B
330
0
100
AcDbIdBuffer
330
3471
330
3487
330
3488
330
348C
330
3491
330
34D3
330
34D4
330
34D5
330
34D6
330
34D7
330
34D8
330
34D9
330
34DA
330
34DF
330
34E0
330
34E1
330
34E3
330
34E4
330
34E5
330
34F1
330
35A9
330
35AA
330
35AB
330
35BD
330
35F0
330
35F4
330
3611
330
3612
330
3615
330
3616
330
3617
330
3618
330
3622
330
3623
330
3624
330
3625
330
3626
330
3660
330
3664
330
3665
330
3666
330
3667
330
3668
330
3669
330
366A
330
366B
330
366C
330
366E
330
366F
330
3670
330
3671
330
3672
330
3673
330
3674
330
3675
330
3680
330
3681
330
3686
330
3688
330
3689
330
368B
330
368C
330
368D
330
368E
330
368F
330
3690
330
3691
330
3694
330
3695
330
3696
330
3697
330
3698
330
3699
330
369A
330
369B
330
369D
330
36A6
330
36A7
330
36A8
330
36A9
330
36AA
330
36AB
330
36AC
330
36AD
330
36AE
330
36AF
330
36B0
330
36B1
330
36B2
330
36BC
330
36BD
330
36BE
330
3708
330
3724
330
3727
330
372C
330
372D
330
3730
330
3739
330
3745
330
375D
330
3761
330
3762
330
3763
330
3764
330
3766
330
3767
330
3768
330
3769
330
376D
330
3770
330
3771
330
379A
330
379B
330
379C
330
379D
330
379E
330
379F
330
37A0
330
37A1
330
37A2
330
37A3
330
37A4
330
37A5
330
37A6
330
37A7
330
37A8
330
37A9
330
37AA
330
37AB
330
381A
330
381B
330
3821
330
3824
330
3825
330
3827
330
382A
330
382B
330
3843
330
3844
330
3845
330
3846
330
384C
330
384D
330
384F
330
3850
330
3851
330
3852
330
3854
330
3855
330
3857
330
3858
330
385A
330
385B
330
385C
330
3870
330
3871
330
3872
330
3873
330
3874
330
3876
330
3877
  0
IDBUFFER
  5
437C
330
0
100
AcDbIdBuffer
330
3469
330
346E
330
346F
330
3470
330
347A
330
347B
330
347E
330
3482
330
3483
330
3484
330
3485
330
3486
330
348A
330
3490
330
3494
330
349B
330
349C
330
349E
330
34A2
330
34A4
330
34BE
330
34BF
330
34E8
330
34EF
330
34F3
330
34FD
330
3505
330
3511
330
3524
330
352C
330
354A
330
354C
330
355A
330
356A
330
356D
330
3572
330
358B
330
358C
330
3590
330
3592
330
3598
330
359C
330
35A4
330
35AE
330
35B8
330
3619
330
361A
330
361F
330
3635
330
3636
330
363E
330
364E
330
3662
330
3676
330
3682
330
3685
330
369C
330
369E
330
36A5
330
36B3
330
36B5
330
36B6
330
36CD
330
36CE
330
36F4
330
36F5
330
3709
330
370A
330
370B
330
3722
330
372E
330
373B
330
373C
330
373D
330
373E
330
373F
330
3747
330
374F
330
3752
330
3753
330
3759
330
375A
330
375C
330
375E
330
376A
330
376E
330
3792
330
3819
330
381E
330
3829
330
382E
330
3833
330
3834
330
3837
330
383C
330
3842
330
3862
330
3863
330
3865
330
3866
330
386A
  0
IDBUFFER
  5
437D
330
0
100
AcDbIdBuffer
330
FF4
330
FF5
330
FF6
330
FF7
330
FF8
330
FF9
330
FFA
330
FFB
330
FFC
330
FFD
330
FFE
330
FFF
330
1000
330
1001
330
1002
330
1003
330
1004
330
1005
330
1006
330
1007
330
1008
330
1009
330
100A
330
100B
330
100C
330
100D
330
100E
330
100F
330
1010
330
1011
330
1012
330
1013
330
1014
330
1015
330
1016
330
1017
330
1018
330
1019
330
101A
330
101B
330
101C
330
101D
330
101E
330
101F
330
1020
330
1021
330
1022
330
1023
330
1024
330
1025
330
1026
330
1027
330
1028
330
1029
330
102A
330
102B
330
102C
330
102D
330
102E
330
102F
330
1030
330
1031
330
1032
330
1033
330
1034
330
1035
330
1036
330
1037
330
1038
330
1039
330
103A
330
103B
330
103C
330
103D
330
103E
330
103F
330
1040
330
1041
330
1042
330
1043
330
1044
330
1045
330
1046
330
1047
330
1048
330
1049
330
104A
330
104B
330
104C
330
104D
330
104E
330
104F
330
1050
330
1051
330
1052
330
1053
330
1054
330
1055
330
1056
330
1057
330
1058
330
1059
330
105A
330
105B
330
105C
330
105D
330
105E
330
105F
330
1060
330
1061
330
1062
330
1063
330
1EC8
330
27F4
  0
IDBUFFER
  5
437E
330
0
100
AcDbIdBuffer
330
4373
330
4374
330
4375
  0
ENDSEC
  0
EOF
