  0
SECTION
  2
HEADER
  9
$ACADVER
  1
AC1015
  9
$ACADMAINTVER
 70
    20
  9
$DWGCODEPAGE
  3
ANSI_950
  9
$INSBASE
 10
0.0
 20
0.0
 30
0.0
  9
$EXTMIN
 10
201.9440474247373
 20
146.3419902300753
 30
0.0
  9
$EXTMAX
 10
979.5440474247387
 20
605.6834110620933
 30
691.8003119298816
  9
$LIMMIN
 10
0.0
 20
0.0
  9
$LIMMAX
 10
396.0
 20
273.0
  9
$ORTHOMODE
 70
     1
  9
$REGENMODE
 70
     1
  9
$FILLMODE
 70
     1
  9
$QTEXTMODE
 70
     0
  9
$MIRRTEXT
 70
     1
  9
$LTSCALE
 40
3.0
  9
$ATTMODE
 70
     1
  9
$TEXTSIZE
 40
3.0
  9
$TRACEWID
 40
0.05
  9
$TEXTSTYLE
  7
DAYUS
  9
$CLAYER
  8
0
  9
$CELTYPE
  6
BYLAYER
  9
$CECOLOR
 62
   256
  9
$CELTSCALE
 40
1.0
  9
$DISPSILH
 70
     0
  9
$DIMSCALE
 40
1.0
  9
$DIMASZ
 40
2.0
  9
$DIMEXO
 40
1.0
  9
$DIMDLI
 40
5.0
  9
$DIMRND
 40
0.0
  9
$DIMDLE
 40
0.0
  9
$DIMEXE
 40
1.5
  9
$DIMTP
 40
0.1
  9
$DIMTM
 40
0.1
  9
$DIMTXT
 40
2.0
  9
$DIMCEN
 40
3.0
  9
$DIMTSZ
 40
0.0
  9
$DIMTOL
 70
     0
  9
$DIMLIM
 70
     0
  9
$DIMTIH
 70
     0
  9
$DIMTOH
 70
     0
  9
$DIMSE1
 70
     0
  9
$DIMSE2
 70
     0
  9
$DIMTAD
 70
     1
  9
$DIMZIN
 70
     8
  9
$DIMBLK
  1

  9
$DIMASO
 70
     1
  9
$DIMSHO
 70
     0
  9
$DIMPOST
  1

  9
$DIMAPOST
  1
"
  9
$DIMALT
 70
     0
  9
$DIMALTD
 70
     2
  9
$DIMALTF
 40
0.0393701
  9
$DIMLFAC
 40
1.0
  9
$DIMTOFL
 70
     1
  9
$DIMTVP
 40
0.0
  9
$DIMTIX
 70
     0
  9
$DIMSOXD
 70
     0
  9
$DIMSAH
 70
     0
  9
$DIMBLK1
  1

  9
$DIMBLK2
  1

  9
$DIMSTYLE
  2
AM_ISO
  9
$DIMCLRD
 70
   256
  9
$DIMCLRE
 70
   256
  9
$DIMCLRT
 70
   256
  9
$DIMTFAC
 40
0.71
  9
$DIMGAP
 40
0.6
  9
$DIMJUST
 70
     0
  9
$DIMSD1
 70
     0
  9
$DIMSD2
 70
     0
  9
$DIMTOLJ
 70
     0
  9
$DIMTZIN
 70
     8
  9
$DIMALTZ
 70
     0
  9
$DIMALTTZ
 70
     0
  9
$DIMUPT
 70
     0
  9
$DIMDEC
 70
     2
  9
$DIMTDEC
 70
     8
  9
$DIMALTU
 70
     2
  9
$DIMALTTD
 70
     2
  9
$DIMTXSTY
  7
STANDARD
  9
$DIMAUNIT
 70
     0
  9
$DIMADEC
 70
     0
  9
$DIMALTRND
 40
0.0
  9
$DIMAZIN
 70
     2
  9
$DIMDSEP
 70
    46
  9
$DIMATFIT
 70
     3
  9
$DIMFRAC
 70
     0
  9
$DIMLDRBLK
  1

  9
$DIMLUNIT
 70
     2
  9
$DIMLWD
 70
    -1
  9
$DIMLWE
 70
    -1
  9
$DIMTMOVE
 70
     0
  9
$LUNITS
 70
     2
  9
$LUPREC
 70
     2
  9
$SKETCHINC
 40
0.1
  9
$FILLETRAD
 40
2.5
  9
$AUNITS
 70
     0
  9
$AUPREC
 70
     0
  9
$MENU
  1
C:\CACAD\ACAD
  9
$ELEVATION
 40
0.0
  9
$PELEVATION
 40
0.0
  9
$THICKNESS
 40
0.0
  9
$LIMCHECK
 70
     0
  9
$CHAMFERA
 40
3.0
  9
$CHAMFERB
 40
3.0
  9
$CHAMFERC
 40
0.0
  9
$CHAMFERD
 40
0.0
  9
$SKPOLY
 70
     0
  9
$TDCREATE
 40
2450294.602131481
  9
$TDUCREATE
 40
2450294.268798149
  9
$TDUPDATE
 40
2453388.431430290
  9
$TDUUPDATE
 40
2453388.098096956
  9
$TDINDWG
 40
0.4500546875
  9
$TDUSRTIMER
 40
0.4500514352
  9
$USRTIMER
 70
     1
  9
$ANGBASE
 50
0.0
  9
$ANGDIR
 70
     0
  9
$PDMODE
 70
    65
  9
$PDSIZE
 40
8.3
  9
$PLINEWID
 40
0.0
  9
$SPLFRAME
 70
     0
  9
$SPLINETYPE
 70
     6
  9
$SPLINESEGS
 70
     8
  9
$HANDSEED
  5
69C6
  9
$SURFTAB1
 70
     6
  9
$SURFTAB2
 70
     6
  9
$SURFTYPE
 70
     6
  9
$SURFU
 70
     6
  9
$SURFV
 70
     6
  9
$UCSBASE
  2

  9
$UCSNAME
  2

  9
$UCSORG
 10
0.0
 20
0.0
 30
0.0
  9
$UCSXDIR
 10
1.0
 20
0.0
 30
0.0
  9
$UCSYDIR
 10
0.0
 20
1.0
 30
0.0
  9
$UCSORTHOREF
  2

  9
$UCSORTHOVIEW
 70
     0
  9
$UCSORGTOP
 10
0.0
 20
0.0
 30
0.0
  9
$UCSORGBOTTOM
 10
0.0
 20
0.0
 30
0.0
  9
$UCSORGLEFT
 10
0.0
 20
0.0
 30
0.0
  9
$UCSORGRIGHT
 10
0.0
 20
0.0
 30
0.0
  9
$UCSORGFRONT
 10
0.0
 20
0.0
 30
0.0
  9
$UCSORGBACK
 10
0.0
 20
0.0
 30
0.0
  9
$PUCSBASE
  2

  9
$PUCSNAME
  2

  9
$PUCSORG
 10
0.0
 20
0.0
 30
0.0
  9
$PUCSXDIR
 10
1.0
 20
0.0
 30
0.0
  9
$PUCSYDIR
 10
0.0
 20
1.0
 30
0.0
  9
$PUCSORTHOREF
  2

  9
$PUCSORTHOVIEW
 70
     0
  9
$PUCSORGTOP
 10
0.0
 20
0.0
 30
0.0
  9
$PUCSORGBOTTOM
 10
0.0
 20
0.0
 30
0.0
  9
$PUCSORGLEFT
 10
0.0
 20
0.0
 30
0.0
  9
$PUCSORGRIGHT
 10
0.0
 20
0.0
 30
0.0
  9
$PUCSORGFRONT
 10
0.0
 20
0.0
 30
0.0
  9
$PUCSORGBACK
 10
0.0
 20
0.0
 30
0.0
  9
$USERI1
 70
     0
  9
$USERI2
 70
     0
  9
$USERI3
 70
     0
  9
$USERI4
 70
     0
  9
$USERI5
 70
     0
  9
$USERR1
 40
0.0
  9
$USERR2
 40
0.0
  9
$USERR3
 40
0.0
  9
$USERR4
 40
0.0
  9
$USERR5
 40
0.0
  9
$WORLDVIEW
 70
     1
  9
$SHADEDGE
 70
     3
  9
$SHADEDIF
 70
    70
  9
$TILEMODE
 70
     1
  9
$MAXACTVP
 70
    16
  9
$PINSBASE
 10
101.9887994410416
 20
50.0
 30
155.412184630939
  9
$PLIMCHECK
 70
     0
  9
$PEXTMIN
 10
1.000000000000000E+20
 20
1.000000000000000E+20
 30
1.000000000000000E+20
  9
$PEXTMAX
 10
-1.000000000000000E+20
 20
-1.000000000000000E+20
 30
-1.000000000000000E+20
  9
$PLIMMIN
 10
0.0
 20
0.0
  9
$PLIMMAX
 10
12.0
 20
9.0
  9
$UNITMODE
 70
     0
  9
$VISRETAIN
 70
     0
  9
$PLINEGEN
 70
     0
  9
$PSLTSCALE
 70
     0
  9
$TREEDEPTH
 70
  3020
  9
$CMLSTYLE
  2
STANDARD
  9
$CMLJUST
 70
     0
  9
$CMLSCALE
 40
1.0
  9
$PROXYGRAPHICS
 70
     1
  9
$MEASUREMENT
 70
     1
  9
$CELWEIGHT
370
    -1
  9
$ENDCAPS
280
     0
  9
$JOINSTYLE
280
     0
  9
$LWDISPLAY
290
     0
  9
$INSUNITS
 70
     4
  9
$HYPERLINKBASE
  1

  9
$STYLESHEET
  1
彩色出圖.ctb
  9
$XEDIT
290
     1
  9
$CEPSNTYPE
380
     0
  9
$PSTYLEMODE
290
     1
  9
$FINGERPRINTGUID
  2
{727C4F51-B094-446D-A919-594C4FA4BCB3}
  9
$VERSIONGUID
  2
{23740C7A-F7B5-4E71-AF47-A3AE732852BD}
  9
$EXTNAMES
290
     1
  9
$PSVPSCALE
 40
0.0
  9
$OLESTARTUP
290
     0
  0
ENDSEC
  0
SECTION
  2
CLASSES
  0
CLASS
  1
ACDBDICTIONARYWDFLT
  2
AcDbDictionaryWithDefault
  3
ObjectDBX Classes
 90
        0
280
     0
281
     0
  0
CLASS
  1
ACDBPLACEHOLDER
  2
AcDbPlaceHolder
  3
ObjectDBX Classes
 90
        0
280
     0
281
     0
  0
CLASS
  1
LAYOUT
  2
AcDbLayout
  3
ObjectDBX Classes
 90
        0
280
     0
281
     0
  0
CLASS
  1
IMAGEDEF
  2
AcDbRasterImageDef
  3
ISM
 90
        0
280
     0
281
     0
  0
CLASS
  1
ACME_DOCUMENT
  2
AcMeDbDoc
  3
AcMeServices
 90
        0
280
     0
281
     0
  0
CLASS
  1
AMGSETTINGSOBJ
  2
AmgSettingsObj
  3
"AcadM|Product Description: AutoCAD Mechanical 2000|Company: Autodesk"
 90
        0
280
     0
281
     0
  0
CLASS
  1
ACMESCOPE
  2
AcMeScope
  3
AcMeServices
 90
        0
280
     0
281
     0
  0
CLASS
  1
ACMECOMMANDHISTORY
  2
AcMeCommandHistory
  3
AcMeServices
 90
        0
280
     0
281
     0
  0
CLASS
  1
ACIMSYSVARMAN
  2
AcImSysVarManager
  3
AcMeServices
 90
        0
280
     0
281
     0
  0
CLASS
  1
ACIMREALSYSVAR
  2
AcImRealSysVar
  3
AcMeServices
 90
        0
280
     0
281
     0
  0
CLASS
  1
ACIMINTSYSVAR
  2
AcImIntSysVar
  3
AcMeServices
 90
        0
280
     0
281
     0
  0
CLASS
  1
ACMEDRAWINGMAN
  2
AcMeDrawingMan
  3
AcMeServices
 90
        0
280
     0
281
     0
  0
CLASS
  1
ACMEVIEW
  2
AcMeView
  3
AcMeServices
 90
        0
280
     0
281
     0
  0
CLASS
  1
ACDBENTITYCACHE
  2
AcMeEntityCache
  3
AcMeServices
 90
        0
280
     0
281
     0
  0
CLASS
  1
GSMANAGER
  2
AcMeGSManager
  3
AcMeServices
 90
        0
280
     0
281
     0
  0
CLASS
  1
AMDTINTERNALREACTOR
  2
AmdtInternalReactor
  3
AcMeServices
 90
        0
280
     0
281
     0
  0
CLASS
  1
ACMESTATEMGR
  2
AcMeStateMgr
  3
AcMeServices
 90
        0
280
     0
281
     0
  0
CLASS
  1
ACGREFMASTER
  2
AcGrefMaster
  3
AcAttribServices
 90
        0
280
     0
281
     0
  0
CLASS
  1
ACME_DATABASE
  2
AcMeDbDatabase
  3
AcMeServices
 90
        0
280
     0
281
     0
  0
CLASS
  1
ACRFINSADJUSTERMGR
  2
AcRfInsAdjusterMgr
  3
AcMeServices
 90
        0
280
     0
281
     0
  0
CLASS
  1
ACGREFACADMASTER
  2
AcGrefacadMaster
  3
AcGrefServices
 90
        0
280
     0
281
     0
  0
CLASS
  1
AMIMASTER
  2
AmiMaster
  3
AmiServices
 90
        0
280
     0
281
     0
  0
CLASS
  1
ACMDATADICTIONARY
  2
AcmDataDictionary
  3
"AcmSymBB|Product Description: AutoCAD Mechanical 2004 DX|Company: Autodesk"
 90
        0
280
     0
281
     0
  0
CLASS
  1
ACMDATAENTRYBLOCK
  2
AcmDataEntryBlock
  3
"AcmSymBB|Product Description: AutoCAD Mechanical 2004 DX|Company: Autodesk"
 90
    32768
280
     0
281
     0
  0
CLASS
  1
ACIMSTRSYSVAR
  2
AcImStrSysVar
  3
AcMeServices
 90
        0
280
     0
281
     0
  0
CLASS
  1
ACMSTANDARDANSI
  2
AcmStandardANSI
  3
"Amdt_StdImp|Product Description: AutoCAD Mechanical 2004 DX|Company: Autodesk"
 90
    32768
280
     0
281
     0
  0
CLASS
  1
AMGOBJPROPCFG
  2
AmgObjPropCfg
  3
"AmgLay|Product Description: AutoCAD Mechanical 2000|Company: Autodesk"
 90
        1
280
     0
281
     0
  0
CLASS
  1
ACMSURFSTANDARDANSI
  2
AcmSurfTextStdANSI
  3
"Amdt_StdImp|Product Description: AutoCAD Mechanical 2004 DX|Company: Autodesk"
 90
    32768
280
     0
281
     0
  0
CLASS
  1
ACMFCFSTANDARDANSI
  2
AcmFCFStdANSI
  3
"Amdt_StdImp|Product Description: AutoCAD Mechanical 2004 DX|Company: Autodesk"
 90
    32768
280
     0
281
     0
  0
CLASS
  1
ACMWELDSTANDARDANSI
  2
AcmWeldingStdANSI
  3
"Amdt_StdImp|Product Description: AutoCAD Mechanical 2004 DX|Company: Autodesk"
 90
    32768
280
     0
281
     0
  0
CLASS
  1
ACMIDSTANDARDANSI
  2
AcmIdStdANSI
  3
"Amdt_StdImp|Product Description: AutoCAD Mechanical 2004 DX|Company: Autodesk"
 90
    32768
280
     0
281
     0
  0
CLASS
  1
ACMDATUMSTANDARDANSI
  2
AcmDatumStdANSI
  3
"Amdt_StdImp|Product Description: AutoCAD Mechanical 2004 DX|Company: Autodesk"
 90
    32768
280
     0
281
     0
  0
CLASS
  1
ACMBOMSTANDARDANSI
  2
AcmBOMStdANSI
  3
"Amdt_StdImp|Product Description: AutoCAD Mechanical 2004 DX|Company: Autodesk"
 90
    32768
280
     0
281
     0
  0
CLASS
  1
ACMDETAILSTANDARDANSI
  2
AmdtDetailSymStdANSI
  3
"Amdt_StdImp|Product Description: AutoCAD Mechanical 2004 DX|Company: Autodesk"
 90
    32768
280
     0
281
     0
  0
CLASS
  1
ACMSECTIONSTANDARDANSI
  2
AmdtSectionSymStdANSI
  3
"Amdt_StdImp|Product Description: AutoCAD Mechanical 2004 DX|Company: Autodesk"
 90
    32768
280
     0
281
     0
  0
CLASS
  1
ACMCENTERLINESTANDARDANSI
  2
AmdtCenterLineStdANSI
  3
"Amdt_StdImp|Product Description: AutoCAD Mechanical 2004 DX|Company: Autodesk"
 90
    32768
280
     0
281
     0
  0
CLASS
  1
ACMNOTESTANDARDANSI
  2
AmdtNoteStdANSI
  3
"Amdt_StdImp|Product Description: AutoCAD Mechanical 2004 DX|Company: Autodesk"
 90
    32768
280
     0
281
     0
  0
CLASS
  1
ACAMGLAYSTD
  2
AcAmgLayStd
  3
"AcAmgLayStd|Product Description: AutoCAD Mechanical 2000|Company: Autodesk"
 90
        0
280
     0
281
     0
  0
CLASS
  1
ACAMGDIMSTD
  2
AcAmgDimStd
  3
"AcAmgDimStd|Product Description: AutoCAD Mechanical 2000|Company: Autodesk"
 90
        0
280
     0
281
     0
  0
CLASS
  1
ACAMGHOLECHARTSTDANSI
  2
AcAmgHoleChartStdANSI
  3
ACMSYMBB_MODULE_NAME
 90
    32768
280
     0
281
     0
  0
CLASS
  1
ACAMGTITLESTD
  2
AcAmgTitleStd
  3
"TITLEAPP"
 90
        0
280
     0
281
     0
  0
CLASS
  1
ACAMGFILTERDAT
  2
AcAmgFilterDat
  3
"AcadM|Product Description: AutoCAD Mechanical 2000|Company: Autodesk"
 90
    32768
280
     0
281
     0
  0
CLASS
  1
AMDTFORMULAUPDATEDISPATCHER
  2
AmdtFormulaUpdateDispatcher
  3
AcMeServices
 90
    32768
280
     0
281
     0
  0
CLASS
  1
LAYER_INDEX
  2
AcDbLayerIndex
  3
ObjectDBX Classes
 90
    32768
280
     0
281
     0
  0
CLASS
  1
IDBUFFER
  2
AcDbIdBuffer
  3
ObjectDBX Classes
 90
    32768
280
     0
281
     0
  0
CLASS
  1
DICTIONARYVAR
  2
AcDbDictionaryVar
  3
ObjectDBX Classes
 90
        0
280
     0
281
     0
  0
CLASS
  1
ACMSTANDARDISO
  2
AcmStandardISO
  3
"Amdt_StdImp|Product Description: AutoCAD Mechanical 2004 DX|Company: Autodesk"
 90
        0
280
     0
281
     0
  0
CLASS
  1
AMDTEDGESTANDARDISO
  2
AmdtEdgeStdISO
  3
"Amdt_StdImp|Product Description: AutoCAD Mechanical 2004 DX|Company: Autodesk"
 90
    32768
280
     0
281
     0
  0
CLASS
  1
ACMSURFSTANDARDISO
  2
AcmSurfTextStdISO
  3
"Amdt_StdImp|Product Description: AutoCAD Mechanical 2004 DX|Company: Autodesk"
 90
        0
280
     0
281
     0
  0
CLASS
  1
ACMFCFSTANDARDISO
  2
AcmFCFStdISO
  3
"Amdt_StdImp|Product Description: AutoCAD Mechanical 2004 DX|Company: Autodesk"
 90
        0
280
     0
281
     0
  0
CLASS
  1
ACMWELDSTANDARDISO
  2
AcmWeldingStdISO
  3
"Amdt_StdImp|Product Description: AutoCAD Mechanical 2004 DX|Company: Autodesk"
 90
        0
280
     0
281
     0
  0
CLASS
  1
ACMIDSTANDARDISO
  2
AcmIdStdISO
  3
"Amdt_StdImp|Product Description: AutoCAD Mechanical 2004 DX|Company: Autodesk"
 90
        0
280
     0
281
     0
  0
CLASS
  1
ACMDATUMSTANDARDISO
  2
AcmDatumStdISO
  3
"Amdt_StdImp|Product Description: AutoCAD Mechanical 2004 DX|Company: Autodesk"
 90
        0
280
     0
281
     0
  0
CLASS
  1
ACMBOMSTANDARDISO
  2
AcmBOMStdISO
  3
"Amdt_StdImp|Product Description: AutoCAD Mechanical 2004 DX|Company: Autodesk"
 90
        0
280
     0
281
     0
  0
CLASS
  1
ACMDETAILSTANDARDISO
  2
AmdtDetailSymStdISO
  3
"Amdt_StdImp|Product Description: AutoCAD Mechanical 2004 DX|Company: Autodesk"
 90
        0
280
     0
281
     0
  0
CLASS
  1
ACMSECTIONSTANDARDISO
  2
AmdtSectionSymStdISO
  3
"Amdt_StdImp|Product Description: AutoCAD Mechanical 2004 DX|Company: Autodesk"
 90
        0
280
     0
281
     0
  0
CLASS
  1
ACMCENTERLINESTANDARDISO
  2
AmdtCenterLineStdISO
  3
"Amdt_StdImp|Product Description: AutoCAD Mechanical 2004 DX|Company: Autodesk"
 90
        0
280
     0
281
     0
  0
CLASS
  1
ACMNOTESTANDARDISO
  2
AmdtNoteStdISO
  3
"Amdt_StdImp|Product Description: AutoCAD Mechanical 2004 DX|Company: Autodesk"
 90
        0
280
     0
281
     0
  0
CLASS
  1
ACAMGHOLECHARTSTDISO
  2
AcAmgHoleChartStdISO
  3
ACMSYMBB_MODULE_NAME
 90
        0
280
     0
281
     0
  0
CLASS
  1
AMDTNOTE
  2
AmdtNote
  3
"AcmSymBB|Product Description: AutoCAD Mechanical 2004 DX|Company: Autodesk"
 90
    33791
280
     0
281
     1
  0
CLASS
  1
STDPART2D
  2
AmgStdPart
  3
"AmgStdPart|Product Description: AutoCAD Mechanical 2000|Company: Autodesk"
 90
    33791
280
     0
281
     1
  0
CLASS
  1
TABLESTYLE
  2
AcDbTableStyle
  3
ObjectDBX Classes
 90
     2047
280
     0
281
     0
  0
CLASS
  1
AM_DRAWING_MGR
  2
AcDmDwgMgr
  3
AcMechDwgViewMgmt
 90
        0
280
     0
281
     0
  0
CLASS
  1
AM_DWG_DOCUMENT
  2
AcDmDwgDocument
  3
AcMechDwgViewMgmt
 90
        0
280
     0
281
     0
  0
CLASS
  1
AM_DWG_SHEET
  2
AcDmSheet
  3
AcMechDwgViewMgmt
 90
        0
280
     0
281
     0
  0
CLASS
  1
AM_VIEWDIMPARMAP
  2
AcDmViewDimParMap
  3
AcMechDwgViewMgmt
 90
        0
280
     0
281
     0
  0
CLASS
  1
AM_DWGMGR_NAME
  2
AcDmDwgMgrName
  3
AcMechDwgViewMgmt
 90
        0
280
     0
281
     0
  0
CLASS
  1
AMDTMENUSTATEMGR
  2
AmdtMenuStateMgr
  3
McadcomServices
 90
        0
280
     0
281
     0
  0
CLASS
  1
AMDTMCOMMENUSTATE
  2
AmdtMcomMenuState
  3
McadcomServices
 90
        0
280
     0
281
     0
  0
CLASS
  1
MAPIAMMOUDLE
  2
MApiAmModule
  3
MApiAmServices
 90
        0
280
     0
281
     0
  0
CLASS
  1
AMDTADMENUSTATE
  2
AmdtAdMenuState
  3
DesignerServices
 90
        0
280
     0
281
     0
  0
CLASS
  1
ADAPPL
  2
AcAdAppl
  3
DesignerServices
 90
        0
280
     0
281
     0
  0
CLASS
  1
DEPMGR
  2
AcAdDepMgr
  3
DesignerServices
 90
        0
280
     0
281
     0
  0
CLASS
  1
PARAMMGR
  2
AcAdParamMgr
  3
DesignerServices
 90
        0
280
     0
281
     0
  0
CLASS
  1
PARAMSCOPE
  2
AcAdParamScope
  3
DesignerServices
 90
        0
280
     0
281
     0
  0
CLASS
  1
NAMEDAPPL
  2
AcAdNamedAppl
  3
DesignerServices
 90
        0
280
     0
281
     0
  0
CLASS
  1
AMDTDMMENUSTATE
  2
AmdtDmMenuState
  3
AcMechDwgViewMgmt
 90
        0
280
     0
281
     0
  0
CLASS
  1
AMDTAMMENUSTATE
  2
AmdtAmMenuState
  3
DesignerAssemblies
 90
        0
280
     0
281
     0
  0
CLASS
  1
ACAMPROJECT
  2
AcAmProject
  3
DesignerAssemblies
 90
        0
280
     0
281
     0
  0
CLASS
  1
ACAMGRCOMPDEF
  2
AcAmGrCompDef
  3
DesignerAssemblies
 90
        0
280
     0
281
     0
  0
CLASS
  1
ACCMCONTEXT
  2
AcCmContext
  3
DesignerAssemblies
 90
        0
280
     0
281
     0
  0
CLASS
  1
ACAMCOMPDEF
  2
AcAmCompDef
  3
DesignerAssemblies
 90
        0
280
     0
281
     0
  0
CLASS
  1
ACAMCOMPDEFMGR
  2
AcAmCompDefMgr
  3
DesignerAssemblies
 90
        0
280
     0
281
     0
  0
CLASS
  1
AMCONTEXTMGR
  2
AcAmContextMgr
  3
DesignerAssemblies
 90
        0
280
     0
281
     0
  0
CLASS
  1
ACAMCONTEXTMODELER
  2
AcAmContextModeler
  3
DesignerAssemblies
 90
        0
280
     0
281
     0
  0
CLASS
  1
ACMTHREADLINESTANDARDISO
  2
AmdtThreadLineStdISO
  3
"Amdt_StdImp|Product Description: AutoCAD Mechanical 2004 DX|Company: Autodesk"
 90
        0
280
     0
281
     0
  0
CLASS
  1
ACMTHREADLINESTANDARDANSI
  2
AmdtThreadLineStdANSI
  3
"Amdt_StdImp|Product Description: AutoCAD Mechanical 2004 DX|Company: Autodesk"
 90
    32768
280
     0
281
     0
  0
CLASS
  1
CATALOGSTATE
  2
AcAmCatalogState
  3
DesignerAssemblies
 90
        0
280
     0
281
     0
  0
CLASS
  1
ACAMGRCOMPDEFSET
  2
AcAmGrCompDefSet
  3
DesignerAssemblies
 90
        0
280
     0
281
     0
  0
CLASS
  1
AMDTBROWSERDBTAB
  2
AmdtBrowserDbTab
  3
McadcomServices
 90
        0
280
     0
281
     0
  0
CLASS
  1
CBROWSERAPPOBJECT
  2
CBrowserAppObject
  3
McadcomServices
 90
        0
280
     0
281
     0
  0
CLASS
  1
DM_PLACEHOLDER
  2
AcDmSelsetPlaceholder
  3
AcMechDwgViewMgmt
 90
        0
280
     0
281
     0
  0
CLASS
  1
VAACXREFPANELOBJECT
  2
VaAcXREFPanelObject
  3
VAAC_ADDIN
 90
        0
280
     0
281
     0
  0
CLASS
  1
VAACIMAGEINVENTORY
  2
VaAcImageInventory
  3
VAAC_ADDIN
 90
        0
280
     0
281
     0
  0
CLASS
  1
SORTENTSTABLE
  2
AcDbSortentsTable
  3
ObjectDBX Classes
 90
    32768
280
     0
281
     0
  0
CLASS
  1
ACRFATTGENMGR
  2
AcRfAttGeneralMgr
  3
AcAttribServices
 90
        0
280
     0
281
     0
  0
CLASS
  1
AMDTEDGESTANDARDISO13715
  2
AmdtEdgeStdISO13715
  3
"Amdt_StdImp|Product Description: AutoCAD Mechanical 2004 DX|Company: Autodesk"
 90
        0
280
     0
281
     0
  0
CLASS
  1
AMDTNOTETEMPLATEDB
  2
AmdtNoteTemplateDB
  3
AMDT_STDIMP_MODULE_NAME
 90
        0
280
     0
281
     0
  0
ENDSEC
  0
SECTION
  2
TABLES
  0
TABLE
  2
VPORT
  5
8
330
0
100
AcDbSymbolTable
 70
     3
  0
VPORT
  5
69BF
330
8
100
AcDbSymbolTableRecord
100
AcDbViewportTableRecord
  2
*Active
 70
     0
 10
0.0
 20
0.0
 11
1.0
 21
1.0
 12
590.7413656145132
 22
376.0202256809811
 13
0.0
 23
0.0
 14
2.5
 24
2.5
 15
10.0
 25
10.0
 16
0.0
 26
0.0
 36
1.0
 17
0.0
 27
0.0
 37
0.0
 40
464.6620939839259
 41
1.81766917293233
 42
50.0
 43
0.0
 44
0.0
 50
0.0
 51
0.0
 71
     0
 72
   100
 73
     1
 74
     1
 75
     0
 76
     0
 77
     0
 78
     0
281
     0
 65
     1
110
0.0
120
0.0
130
0.0
111
1.0
121
0.0
131
0.0
112
0.0
122
1.0
132
0.0
 79
     0
146
0.0
  0
ENDTAB
  0
TABLE
  2
LTYPE
  5
5
330
0
100
AcDbSymbolTable
 70
    16
  0
LTYPE
  5
13
330
5
100
AcDbSymbolTableRecord
100
AcDbLinetypeTableRecord
  2
BYBLOCK
 70
     0
  3

 72
    65
 73
     0
 40
0.0
  0
LTYPE
  5
14
330
5
100
AcDbSymbolTableRecord
100
AcDbLinetypeTableRecord
  2
BYLAYER
 70
     0
  3

 72
    65
 73
     0
 40
0.0
  0
LTYPE
  5
15
330
5
100
AcDbSymbolTableRecord
100
AcDbLinetypeTableRecord
  2
CONTINUOUS
 70
     0
  3
Solid line
 72
    65
 73
     0
 40
0.0
  0
LTYPE
  5
23
330
5
100
AcDbSymbolTableRecord
100
AcDbLinetypeTableRecord
  2
HIDDEN
 70
     0
  3
_ _ _ _ _ _ _ _ _ _ _ _ _ _ _ _ _ _ _ _ _ _ _
 72
    65
 73
     2
 40
0.375
 49
0.25
 74
     0
 49
-0.125
 74
     0
  0
LTYPE
  5
24
330
5
100
AcDbSymbolTableRecord
100
AcDbLinetypeTableRecord
  2
CENTER
 70
     0
  3
____ _ ____ _ ____ _ ____ _ ____ _ ____ _ ____
 72
    65
 73
     4
 40
2.0
 49
1.25
 74
     0
 49
-0.25
 74
     0
 49
0.25
 74
     0
 49
-0.25
 74
     0
  0
LTYPE
  5
7CE
330
5
100
AcDbSymbolTableRecord
100
AcDbLinetypeTableRecord
  2
AMCONSTR
 70
     0
  3
_______________________
 72
    65
 73
     2
 40
9999.0
 49
9999.0
 74
     0
 49
0.0
 74
     0
  0
LTYPE
  5
7CF
330
5
100
AcDbSymbolTableRecord
100
AcDbLinetypeTableRecord
  2
AM_ISO08W050X2
 70
     0
  3
__ . __ . __ . __ . __ . __
 72
    65
 73
     4
 40
9.0
 49
6.0
 74
     0
 49
-0.75
 74
     0
 49
1.5
 74
     0
 49
-0.75
 74
     0
  0
LTYPE
  5
7D4
330
5
100
AcDbSymbolTableRecord
100
AcDbLinetypeTableRecord
  2
PHANTOM2
 70
     0
  3
Phantom (.5x) ___ _ _ ___ _ _ ___ _ _ ___ _ _
 72
    65
 73
     6
 40
1.25
 49
0.625
 74
     0
 49
-0.125
 74
     0
 49
0.125
 74
     0
 49
-0.125
 74
     0
 49
0.125
 74
     0
 49
-0.125
 74
     0
  0
LTYPE
  5
7E3
330
5
100
AcDbSymbolTableRecord
100
AcDbLinetypeTableRecord
  2
ACANSTGB
 70
     0
  3
__ . . __ . .
 72
    65
 73
     6
 40
0.35433070866
 49
0.15748031496
 74
     0
 49
-0.03937007874
 74
     0
 49
0.03937007874
 74
     0
 49
-0.03937007874
 74
     0
 49
0.03937007874
 74
     0
 49
-0.03937007874
 74
     0
  0
LTYPE
  5
7E4
330
5
100
AcDbSymbolTableRecord
100
AcDbLinetypeTableRecord
  2
ACANSTGL
 70
     0
  3
_ _ _ _ _
 72
    65
 73
     2
 40
0.11811023622
 49
0.07874015748
 74
     0
 49
-0.03937007874
 74
     0
  0
LTYPE
  5
C13
330
5
100
AcDbSymbolTableRecord
100
AcDbLinetypeTableRecord
  2
ACISOWELD
 70
     0
  3
_ _ _ _ _
 72
    65
 73
     2
 40
2.0
 49
2.0
 74
     0
 49
-1.0
 74
     0
  0
LTYPE
  5
C14
330
5
100
AcDbSymbolTableRecord
100
AcDbLinetypeTableRecord
  2
ACISOTGB
 70
     0
  3
__ . . __ . .
 72
    65
 73
     6
 40
9.0
 49
4.0
 74
     0
 49
-1.0
 74
     0
 49
1.0
 74
     0
 49
-1.0
 74
     0
 49
1.0
 74
     0
 49
-1.0
 74
     0
  0
LTYPE
  5
C15
330
5
100
AcDbSymbolTableRecord
100
AcDbLinetypeTableRecord
  2
ACISOTGL
 70
     0
  3
_ _ _ _ _
 72
    65
 73
     2
 40
3.0
 49
2.0
 74
     0
 49
-1.0
 74
     0
  0
LTYPE
  5
16FD
330
5
100
AcDbSymbolTableRecord
100
AcDbLinetypeTableRecord
  2
AM_ISO02W050
 70
     0
  3
__ __ __ __ __ __ __ __ __ __ __ __ __ __ __
 72
    65
 73
     2
 40
7.5
 49
6.0
 74
     0
 49
-1.5
 74
     0
  0
LTYPE
  5
16FE
330
5
100
AcDbSymbolTableRecord
100
AcDbLinetypeTableRecord
  2
AM_ISO08W050
 70
     0
  3
____ . ____ . ____ . ____ . ____ . ____ . ____
 72
    65
 73
     4
 40
18.0
 49
12.0
 74
     0
 49
-1.5
 74
     0
 49
3.0
 74
     0
 49
-1.5
 74
     0
  0
LTYPE
  5
16FF
330
5
100
AcDbSymbolTableRecord
100
AcDbLinetypeTableRecord
  2
AM_ISO09W050
 70
     0
  3
_____ . . _____ . . _____ . . ____ .. ____
 72
    65
 73
     6
 40
22.5
 49
12.0
 74
     0
 49
-1.5
 74
     0
 49
3.0
 74
     0
 49
-1.5
 74
     0
 49
3.0
 74
     0
 49
-1.5
 74
     0
  0
LTYPE
  5
1700
330
5
100
AcDbSymbolTableRecord
100
AcDbLinetypeTableRecord
  2
AM_ISO02W050x2
 70
     0
  3
 _ _ _ _ _ _ _ _ _ _ _ _
 72
    65
 73
     2
 40
3.75
 49
3.0
 74
     0
 49
-0.75
 74
     0
  0
LTYPE
  5
1701
330
5
100
AcDbSymbolTableRecord
100
AcDbLinetypeTableRecord
  2
Amzigzag
 70
     0
  3
/\/-/\/-/\/-/\/-/\/-/\/
 72
    65
 73
     2
 40
11.0001
 49
0.0001
 74
     4
 75
   135
340
7D2
 46
0.04
 50
0.0
 44
0.0
 45
0.0
 49
-11.0
 74
     0
  0
ENDTAB
  0
TABLE
  2
LAYER
  5
2
102
{ACAD_XDICTIONARY
360
688C
102
}
330
0
100
AcDbSymbolTable
 70
     9
  0
LAYER
  5
10
330
2
100
AcDbSymbolTableRecord
100
AcDbLayerTableRecord
  2
0
 70
     0
 62
     7
  6
CONTINUOUS
370
    -3
390
B32
  0
LAYER
  5
26
330
2
100
AcDbSymbolTableRecord
100
AcDbLayerTableRecord
  2
DEFPOINTS
 70
     0
 62
     7
  6
CONTINUOUS
290
     0
370
    -3
390
B32
  0
LAYER
  5
516
330
2
100
AcDbSymbolTableRecord
100
AcDbLayerTableRecord
  2
ASHADE
 70
     0
 62
     7
  6
CONTINUOUS
370
    -3
390
B32
  0
LAYER
  5
7F7
330
2
100
AcDbSymbolTableRecord
100
AcDbLayerTableRecord
  2
LOGO
 70
     0
 62
     7
  6
CONTINUOUS
370
    -3
390
B32
  0
LAYER
  5
11C1
330
2
100
AcDbSymbolTableRecord
100
AcDbLayerTableRecord
  2
AM_5
 70
     0
 62
     5
  6
CONTINUOUS
370
    25
390
B32
  0
LAYER
  5
2E05
330
2
100
AcDbSymbolTableRecord
100
AcDbLayerTableRecord
  2
CENTER
 70
     0
 62
     1
  6
CENTER
370
    -3
390
B32
  0
LAYER
  5
2E06
330
2
100
AcDbSymbolTableRecord
100
AcDbLayerTableRecord
  2
DASHED
 70
     0
 62
     6
  6
HIDDEN
370
    -3
390
B32
  0
LAYER
  5
62F0
330
2
100
AcDbSymbolTableRecord
100
AcDbLayerTableRecord
  2
UMCL2
 70
     0
 62
     2
  6
CONTINUOUS
370
    -3
390
B32
  0
LAYER
  5
62F1
330
2
100
AcDbSymbolTableRecord
100
AcDbLayerTableRecord
  2
UMCL1
 70
     0
 62
     7
  6
CONTINUOUS
370
    -3
390
B32
  0
ENDTAB
  0
TABLE
  2
STYLE
  5
3
330
0
100
AcDbSymbolTable
 70
    11
  0
STYLE
  5
11
330
3
100
AcDbSymbolTableRecord
100
AcDbTextStyleTableRecord
  2
STANDARD
 70
     0
 40
0.0
 41
1.0
 50
0.0
 71
     0
 42
3.5
  3
ISOCP.SHX
  4

  0
STYLE
  5
22
330
3
100
AcDbSymbolTableRecord
100
AcDbTextStyleTableRecord
  2
DAYUS
 70
     0
 40
0.0
 41
1.0
 50
0.0
 71
     0
 42
3.0
  3
simplex
  4
dayus
  0
STYLE
  5
27B
330
3
100
AcDbSymbolTableRecord
100
AcDbTextStyleTableRecord
  2
CHINESET
 70
     0
 40
0.0
 41
1.0
 50
0.0
 71
     0
 42
4.0
  3
simplex.shx
  4
chineset.shx
  0
STYLE
  5
7D2
330
3
100
AcDbSymbolTableRecord
100
AcDbTextStyleTableRecord
  2

 70
     1
 40
0.0
 41
1.0
 50
0.0
 71
     0
 42
4.0
  3
ltypeshp.shx
  4

  0
STYLE
  5
7D7
330
3
100
AcDbSymbolTableRecord
100
AcDbTextStyleTableRecord
  2
ACANSTS
 70
     0
 40
1.0
 41
1.0
 50
0.0
 71
     0
 42
4.0
  3
romans.shx
  4
chineset.shx
  0
STYLE
  5
7E2
330
3
100
AcDbSymbolTableRecord
100
AcDbTextStyleTableRecord
  2
ACANSGDT
 70
     0
 40
0.0
 41
1.0
 50
0.0
 71
     0
 42
4.0
  3
amgdtans.shx
  4

  0
STYLE
  5
7F8
330
3
100
AcDbSymbolTableRecord
100
AcDbTextStyleTableRecord
  2
LOGO
 70
     0
 40
0.0
 41
1.0
 50
0.0
 71
     0
 42
5.0
  3
LEI00DP.TTF
  4

1001
ACAD
1000
文鼎中粗隸
1071
    34865
  0
STYLE
  5
C19
330
3
100
AcDbSymbolTableRecord
100
AcDbTextStyleTableRecord
  2
ACISOTS
 70
     0
 40
1.0
 41
1.0
 50
0.0
 71
     0
 42
2.5
  3
isocp.shx
  4
chineset.shx
  0
STYLE
  5
C1A
330
3
100
AcDbSymbolTableRecord
100
AcDbTextStyleTableRecord
  2
ACISOGDT
 70
     0
 40
0.0
 41
1.0
 50
0.0
 71
     0
 42
2.5
  3
amgdt.shx
  4

  0
STYLE
  5
62F3
330
3
100
AcDbSymbolTableRecord
100
AcDbTextStyleTableRecord
  2
ROMANSS
 70
     0
 40
0.0
 41
1.0
 50
0.0
 71
     0
 42
3.0
  3
ROMANSS.SHX
  4
LMP
  0
ENDTAB
  0
TABLE
  2
VIEW
  5
6
330
0
100
AcDbSymbolTable
 70
     0
  0
ENDTAB
  0
TABLE
  2
UCS
  5
7
330
0
100
AcDbSymbolTable
 70
     0
  0
ENDTAB
  0
TABLE
  2
APPID
  5
9
330
0
100
AcDbSymbolTable
 70
    29
  0
APPID
  5
12
330
9
100
AcDbSymbolTableRecord
100
AcDbRegAppTableRecord
  2
ACAD
 70
     0
  0
APPID
  5
514
330
9
100
AcDbSymbolTableRecord
100
AcDbRegAppTableRecord
  2
AVE_RENDER
 70
     0
  0
APPID
  5
515
330
9
100
AcDbSymbolTableRecord
100
AcDbRegAppTableRecord
  2
AVE_ENTITY_MATERIAL
 70
     0
  0
APPID
  5
522
330
9
100
AcDbSymbolTableRecord
100
AcDbRegAppTableRecord
  2
AVE_FINISH
 70
     0
  0
APPID
  5
523
330
9
100
AcDbSymbolTableRecord
100
AcDbRegAppTableRecord
  2
AVE_MATERIAL
 70
     0
  0
APPID
  5
524
330
9
100
AcDbSymbolTableRecord
100
AcDbRegAppTableRecord
  2
AVE_GLOBAL
 70
     0
  0
APPID
  5
7AD
330
9
100
AcDbSymbolTableRecord
100
AcDbRegAppTableRecord
  2
MCAD_NO_VIS
 70
     0
  0
APPID
  5
7AE
330
9
100
AcDbSymbolTableRecord
100
AcDbRegAppTableRecord
  2
ACAD_TEMP_GRAPHIC
 70
     0
  0
APPID
  5
7BF
330
9
100
AcDbSymbolTableRecord
100
AcDbRegAppTableRecord
  2
ACATTRIBSERVICES
 70
     0
  0
APPID
  5
C22
330
9
100
AcDbSymbolTableRecord
100
AcDbRegAppTableRecord
  2
GENIUS_GENODEF_13
 70
     0
  0
APPID
  5
C23
330
9
100
AcDbSymbolTableRecord
100
AcDbRegAppTableRecord
  2
GENIUS_GENOREF_13
 70
     0
  0
APPID
  5
C24
330
9
100
AcDbSymbolTableRecord
100
AcDbRegAppTableRecord
  2
GENIUS_GENOBJ-N-CEN_13
 70
     0
  0
APPID
  5
16D2
330
9
100
AcDbSymbolTableRecord
100
AcDbRegAppTableRecord
  2
GENIUS_GENDTOL_13
 70
     0
  0
APPID
  5
353F
330
9
100
AcDbSymbolTableRecord
100
AcDbRegAppTableRecord
  2
GENIUS_GENDIMSH_14
 70
     0
  0
APPID
  5
4D84
330
9
100
AcDbSymbolTableRecord
100
AcDbRegAppTableRecord
  2
GEVID1082602174
 70
     0
  0
APPID
  5
4D85
330
9
100
AcDbSymbolTableRecord
100
AcDbRegAppTableRecord
  2
GEVDC
 70
     0
  0
APPID
  5
4D88
330
9
100
AcDbSymbolTableRecord
100
AcDbRegAppTableRecord
  2
GENIUS_GENBH_13
 70
     0
  0
APPID
  5
4D8E
330
9
100
AcDbSymbolTableRecord
100
AcDbRegAppTableRecord
  2
GENIUS_GENOLIS_13
 70
     0
  0
APPID
  5
4D8F
330
9
100
AcDbSymbolTableRecord
100
AcDbRegAppTableRecord
  2
GENIUS_GENOENT_13
 70
     0
  0
APPID
  5
4D90
330
9
100
AcDbSymbolTableRecord
100
AcDbRegAppTableRecord
  2
GENIUS_GENOBJ-NBEHI-BHF_13
 70
     0
  0
APPID
  5
4D92
330
9
100
AcDbSymbolTableRecord
100
AcDbRegAppTableRecord
  2
GENIUS_GENOBJ-NBEHI-BHB_13
 70
     0
  0
APPID
  5
5F39
330
9
100
AcDbSymbolTableRecord
100
AcDbRegAppTableRecord
  2
GEVID1082701535
 70
     0
  0
APPID
  5
5F3B
330
9
100
AcDbSymbolTableRecord
100
AcDbRegAppTableRecord
  2
GEVRADREF
 70
     0
  0
APPID
  5
62C2
330
9
100
AcDbSymbolTableRecord
100
AcDbRegAppTableRecord
  2
AD_DRAW
 70
     0
  0
APPID
  5
62E0
330
9
100
AcDbSymbolTableRecord
100
AcDbRegAppTableRecord
  2
DESIGNERASSEMBLIES
 70
     0
  0
APPID
  5
62E6
330
9
100
AcDbSymbolTableRecord
100
AcDbRegAppTableRecord
  2
ACADM_DIM_EDIT
 70
     0
  0
APPID
  5
62E7
330
9
100
AcDbSymbolTableRecord
100
AcDbRegAppTableRecord
  2
AMDT_DM_ADJ
 70
     0
  0
APPID
  5
67CA
330
9
100
AcDbSymbolTableRecord
100
AcDbRegAppTableRecord
  2
GENIUS_GENREC_14
 70
     0
  0
APPID
  5
67CB
330
9
100
AcDbSymbolTableRecord
100
AcDbRegAppTableRecord
  2
GENIUS_GENOBJ-N-REC_13
 70
     0
  0
ENDTAB
  0
TABLE
  2
DIMSTYLE
  5
A
330
0
100
AcDbSymbolTable
 70
    15
100
AcDbDimStyleTable
 71
     1
340
C1B
  0
DIMSTYLE
105
7E8
330
A
100
AcDbSymbolTableRecord
100
AcDbDimStyleTableRecord
  2
AM_ANSI
 70
     0
  4
mm
 41
0.1
 42
0.05
 43
0.5
 44
0.1
 47
0.1
 48
0.1
 78
     7
140
0.12
141
0.0
146
0.71
147
0.06
176
   256
177
   256
178
     2
274
     4
284
     7
340
11
  0
DIMSTYLE
105
7E9
330
A
100
AcDbSymbolTableRecord
100
AcDbDimStyleTableRecord
  2
AM_ANSI$3
 70
     0
  4
mm
 41
0.1
 42
0.05
 43
0.5
 44
0.1
 47
0.1
 48
0.1
 78
     7
140
0.12
141
0.0
146
0.71
147
0.06
176
   256
177
   256
178
     2
274
     4
284
     7
288
     1
340
11
  0
DIMSTYLE
105
7EA
330
A
100
AcDbSymbolTableRecord
100
AcDbDimStyleTableRecord
  2
AM_ANSI$4
 70
     0
  4
mm
 41
0.1
 42
0.05
 43
0.5
 44
0.1
 47
0.1
 48
0.1
 78
     7
140
0.12
141
0.0
146
0.71
147
0.06
176
   256
177
   256
178
     2
274
     4
284
     7
288
     1
340
11
  0
DIMSTYLE
105
7EB
330
A
100
AcDbSymbolTableRecord
100
AcDbDimStyleTableRecord
  2
AM_ANSI$7
 70
     0
  4
mm
 41
0.1
 42
0.05
 43
0.5
 44
0.1
 47
0.1
 48
0.1
 78
     7
140
0.24
141
0.0
146
0.71
147
0.06
176
   256
177
   256
178
     2
274
     4
284
     7
340
11
  0
DIMSTYLE
105
7EC
330
A
100
AcDbSymbolTableRecord
100
AcDbDimStyleTableRecord
  2
AM_ANSI$SF
 70
     0
  4
mm
 41
0.1
 42
0.05
 43
0.5
 44
0.1
 47
0.1
 48
0.1
 75
     1
 76
     1
 78
     7
140
0.12
141
0.0
146
0.71
147
0.06
176
   256
177
   256
178
     2
274
     4
284
     7
340
11
  0
DIMSTYLE
105
7F1
330
A
100
AcDbSymbolTableRecord
100
AcDbDimStyleTableRecord
  2
AM_ANSI$SH
 70
     0
  4
mm
 41
0.1
 42
0.05
 43
0.5
 44
0.1
 47
0.1
 48
0.1
 75
     1
 76
     1
 78
     7
140
0.12
141
0.0
146
0.71
147
0.06
173
     1
176
   256
177
   256
178
     2
274
     4
284
     7
340
11
341
7ED
343
7ED
  0
DIMSTYLE
105
C1B
330
A
100
AcDbSymbolTableRecord
100
AcDbDimStyleTableRecord
  2
AM_ISO
 70
     0
  4
"
 41
2.0
 42
1.0
 43
5.0
 44
1.5
 47
0.1
 48
0.1
 73
     0
 74
     0
 77
     1
 78
     8
 79
     2
140
2.0
141
3.0
143
0.0393701
146
0.71
147
0.6
172
     1
176
   256
177
   256
178
   256
271
     2
272
     2
283
     0
284
     8
340
11
371
    -1
372
    -1
  0
DIMSTYLE
105
C1C
330
A
100
AcDbSymbolTableRecord
100
AcDbDimStyleTableRecord
  2
AM_ISO$3
 70
     0
  4
"
 41
2.0
 42
1.0
 43
5.0
 44
1.5
 47
0.1
 48
0.1
 73
     0
 77
     1
 78
     8
 79
     2
140
2.0
141
3.0
143
0.0393701
146
0.71
147
0.6
176
   256
177
   256
178
   256
271
     2
272
     2
283
     0
284
     8
288
     1
289
     0
340
11
371
    -1
372
    -1
  0
DIMSTYLE
105
C1D
330
A
100
AcDbSymbolTableRecord
100
AcDbDimStyleTableRecord
  2
AM_ISO$4
 70
     0
  4
"
 41
2.0
 42
1.0
 43
5.0
 44
1.5
 47
0.1
 48
0.1
 73
     0
 77
     1
 78
     8
 79
     2
140
2.0
141
3.0
143
0.0393701
146
0.71
147
0.6
176
   256
177
   256
178
   256
271
     2
272
     2
283
     0
284
     8
288
     1
289
     0
340
11
371
    -1
372
    -1
  0
DIMSTYLE
105
C1E
330
A
100
AcDbSymbolTableRecord
100
AcDbDimStyleTableRecord
  2
AM_ISO$6
 70
     0
  4
"
 41
2.0
 42
1.0
 43
5.0
 44
1.5
 47
0.1
 48
0.1
 73
     0
 74
     0
 78
     8
 79
     2
140
2.0
141
3.0
143
0.0393701
146
0.71
147
0.6
172
     1
176
   256
177
   256
178
   256
271
     2
272
     2
283
     0
284
     8
340
11
371
    -1
372
    -1
  0
DIMSTYLE
105
C1F
330
A
100
AcDbSymbolTableRecord
100
AcDbDimStyleTableRecord
  2
AM_ISO$7
 70
     0
  4
"
 41
2.0
 42
1.0
 43
5.0
 44
1.5
 47
0.1
 48
0.1
 73
     0
 74
     0
 77
     1
 78
     8
 79
     2
140
5.0
141
3.0
143
0.0393701
146
0.71
147
0.6
172
     1
176
   256
177
   256
178
   256
271
     2
272
     2
283
     0
284
     8
340
11
371
    -1
372
    -1
  0
DIMSTYLE
105
C20
330
A
100
AcDbSymbolTableRecord
100
AcDbDimStyleTableRecord
  2
AM_ISO$SF
 70
     0
  4
"
 41
2.5
 42
1.0
 43
10.0
 44
1.0
 47
0.1
 48
0.1
 73
     0
 74
     0
 75
     1
 76
     1
 77
     1
 78
     8
 79
     2
140
3.5
141
0.0
143
0.0393701
146
0.71
147
1.5
172
     1
176
   256
177
   256
178
     2
271
     2
272
     3
274
     4
283
     0
284
     8
340
11
371
    -1
372
    -1
  0
DIMSTYLE
105
C21
330
A
100
AcDbSymbolTableRecord
100
AcDbDimStyleTableRecord
  2
AM_ISO$SH
 70
     0
  4
"
 41
2.5
 42
1.0
 43
10.0
 44
1.0
 47
0.1
 48
0.1
 73
     0
 74
     0
 75
     1
 76
     1
 77
     1
 78
     8
 79
     2
140
3.5
141
0.0
143
0.0393701
144
2.0
146
0.71
147
1.5
172
     1
173
     1
176
   256
177
   256
178
     2
271
     2
272
     3
274
     4
283
     0
284
     8
340
11
341
7ED
343
7ED
371
    -1
372
    -1
  0
DIMSTYLE
105
62F4
330
A
100
AcDbSymbolTableRecord
100
AcDbDimStyleTableRecord
  2
Standard
 70
     0
340
11
  0
ENDTAB
  0
TABLE
  2
BLOCK_RECORD
  5
1
330
0
100
AcDbSymbolTable
 70
     5
  0
BLOCK_RECORD
  5
1E
102
{ACAD_XDICTIONARY
360
708
102
}
330
1
100
AcDbSymbolTableRecord
100
AcDbBlockTableRecord
  2
*MODEL_SPACE
340
B33
  0
BLOCK_RECORD
  5
1A
102
{ACAD_XDICTIONARY
360
70A
102
}
330
1
100
AcDbSymbolTableRecord
100
AcDbBlockTableRecord
  2
*PAPER_SPACE
340
B34
  0
BLOCK_RECORD
  5
517
330
1
100
AcDbSymbolTableRecord
100
AcDbBlockTableRecord
  2
AVE_RENDER
340
0
102
{BLKREFS
331
51A
331
51B
331
51C
331
51D
331
51E
331
51F
331
520
331
521
102
}
  0
BLOCK_RECORD
  5
525
330
1
100
AcDbSymbolTableRecord
100
AcDbBlockTableRecord
  2
AVE_GLOBAL
340
0
102
{BLKREFS
331
528
102
}
  0
BLOCK_RECORD
  5
7ED
330
1
100
AcDbSymbolTableRecord
100
AcDbBlockTableRecord
  2
GENAXEH
340
0
  0
ENDTAB
  0
ENDSEC
  0
SECTION
  2
BLOCKS
  0
BLOCK
  5
29
330
1E
100
AcDbEntity
  8
0
100
AcDbBlockBegin
  2
*MODEL_SPACE
 70
     0
 10
0.0
 20
0.0
 30
0.0
  3
*MODEL_SPACE
  1

  0
ENDBLK
  5
2A
330
1E
100
AcDbEntity
  8
0
100
AcDbBlockEnd
  0
BLOCK
  5
27
330
1A
100
AcDbEntity
 67
     1
  8
0
100
AcDbBlockBegin
  2
*PAPER_SPACE
 70
     0
 10
0.0
 20
0.0
 30
0.0
  3
*PAPER_SPACE
  1

  0
ENDBLK
  5
28
330
1A
100
AcDbEntity
 67
     1
  8
0
100
AcDbBlockEnd
  0
BLOCK
  5
518
330
517
100
AcDbEntity
  8
0
100
AcDbBlockBegin
  2
AVE_RENDER
 70
     0
 10
0.0
 20
0.0
 30
0.0
  3
AVE_RENDER
  1
AVE_RENDER
  0
ENDBLK
  5
519
330
517
100
AcDbEntity
  8
0
100
AcDbBlockEnd
  0
BLOCK
  5
526
330
525
100
AcDbEntity
  8
0
100
AcDbBlockBegin
  2
AVE_GLOBAL
 70
     0
 10
0.0
 20
0.0
 30
0.0
  3
AVE_GLOBAL
  1
AVE_GLOBAL
  0
ENDBLK
  5
527
330
525
100
AcDbEntity
  8
0
100
AcDbBlockEnd
  0
BLOCK
  5
7EF
330
7ED
100
AcDbEntity
  8
0
100
AcDbBlockBegin
  2
GENAXEH
 70
     0
 10
0.0
 20
0.0
 30
0.0
  3
GENAXEH
  1

  0
LINE
  5
7EE
330
7ED
100
AcDbEntity
  8
0
100
AcDbLine
 10
-1.0
 20
0.0
 30
0.0
 11
1.0
 21
0.0
 31
0.0
  0
ENDBLK
  5
7F0
330
7ED
100
AcDbEntity
  8
0
100
AcDbBlockEnd
  0
ENDSEC
  0
SECTION
  2
ENTITIES
  0
INSERT
  5
51A
330
1E
100
AcDbEntity
  8
ASHADE
 62
     1
100
AcDbBlockReference
  2
AVE_RENDER
 10
0.0
 20
0.0
 30
0.0
1001
AVE_RENDER
1002
{
1070
     7
1000
Pref
1070
    30
1070
    20
1070
     1
1070
     0
1000

1070
    10
1070
     1
1070
    10
1040
1.0
1070
     1
1040
0.3
1040
0.7
1040
0.0
1040
10.0
1010
-1.0
1020
-1.0
1030
-1.0
1040
0.3
1070
    49
1070
     0
1070
     0
1010
1.0
1020
1.0
1030
1.0
1040
45.0
1070
     1
1070
     0
1000
WCS
1040
0.0
1070
     0
1040
10.0
1002
}
  0
INSERT
  5
51B
330
1E
100
AcDbEntity
  8
ASHADE
 62
     3
100
AcDbBlockReference
  2
AVE_RENDER
 10
0.0
 20
0.0
 30
0.0
1001
AVE_RENDER
1002
{
1070
     0
1000
Full Opt
1070
     0
1070
     1
1070
     1
1070
     1
1070
     0
1070
     0
1070
     0
1070
     1
1070
     1
1040
0.0001
1040
0.0001
1002
}
  0
INSERT
  5
51C
330
1E
100
AcDbEntity
  8
ASHADE
 62
     4
100
AcDbBlockReference
  2
AVE_RENDER
 10
0.0
 20
0.0
 30
0.0
1001
AVE_RENDER
1002
{
1070
     0
1000
Quick Opt
1070
     0
1070
     1
1070
     1
1070
     1
1070
     0
1070
     0
1070
     1
1002
}
  0
INSERT
  5
51D
330
1E
100
AcDbEntity
  8
ASHADE
 62
     5
100
AcDbBlockReference
  2
AVE_RENDER
 10
0.0
 20
0.0
 30
0.0
1001
AVE_RENDER
1002
{
1070
     1
1000
Scanl Opt
1070
     2
1070
     0
1070
     2
1040
2.0
1040
4.0
1070
     0
1070
     1
1070
     0
1040
0.03
1002
}
  0
INSERT
  5
51E
330
1E
100
AcDbEntity
  8
ASHADE
 62
     6
100
AcDbBlockReference
  2
AVE_RENDER
 10
0.0
 20
0.0
 30
0.0
1001
AVE_RENDER
1002
{
1070
     2
1000
Raytr Opt
1070
     2
1070
     0
1070
     2
1040
2.0
1040
4.0
1070
     0
1070
     1
1070
     1
1040
0.03
1070
     3
1040
0.03
1002
}
  0
INSERT
  5
51F
330
1E
100
AcDbEntity
  8
ASHADE
 62
     7
100
AcDbBlockReference
  2
AVE_RENDER
 10
0.0
 20
0.0
 30
0.0
1001
AVE_RENDER
1002
{
1070
     0
1000
RFile Opt
1070
     1
1070
   640
1070
   480
1070
 10000
1070
     1
1070
     8
1070
     8
1070
     0
1070
     0
1070
     0
1070
     0
1070
     0
1070
     0
1070
     0
1002
}
  0
INSERT
  5
520
330
1E
100
AcDbEntity
  8
ASHADE
 62
     8
100
AcDbBlockReference
  2
AVE_RENDER
 10
0.0
 20
0.0
 30
0.0
1001
AVE_RENDER
1002
{
1070
     0
1000
Fog Opt
1070
     0
1070
     0
1040
0.0
1040
1.0
1040
0.0
1040
1.0
1010
0.5
1020
0.5
1030
0.5
1002
}
  0
INSERT
  5
521
330
1E
100
AcDbEntity
  8
ASHADE
 62
     9
100
AcDbBlockReference
  2
AVE_RENDER
 10
0.0
 20
0.0
 30
0.0
1001
AVE_RENDER
1002
{
1070
     0
1000
BG Opt
1070
     0
1070
     1
1010
0.0
1020
0.0
1030
0.0
1010
1.0
1020
0.0
1030
0.0
1010
0.0
1020
1.0
1030
0.0
1010
0.0
1020
0.0
1030
1.0
1040
0.5
1040
0.33
1040
0.0
1000

1070
     1
1000

1070
     1
1070
     1
1040
1.0
1040
1.0
1040
0.0
1040
0.0
1070
     0
1002
}
  0
INSERT
  5
528
330
1E
100
AcDbEntity
  8
ASHADE
 62
     1
100
AcDbBlockReference
  2
AVE_GLOBAL
 10
0.0
 20
0.0
 30
0.0
1001
AVE_MATERIAL
1002
{
1000
*整體*
1000
2
1000
整體修飾.
1002
{
1002
}
1002
{
1070
    63
1002
{
1002
{
1010
-1.0
1020
-1.0
1030
-1.0
1002
}
1040
0.1000000014901161
1000

1040
0.0
1002
{
1002
}
1040
0.0
1002
{
1002
}
1040
0.0
1002
}
1002
{
1002
{
1010
-1.0
1020
-1.0
1030
-1.0
1002
}
1040
0.6999999880790711
1000

1040
0.0
1002
{
1002
}
1040
0.0
1002
{
1002
}
1040
0.0
1002
}
1002
{
1002
{
1010
-1.0
1020
-1.0
1030
-1.0
1002
}
1040
0.2000000029802322
1000

1040
0.0
1002
{
1002
}
1040
0.0
1002
{
1002
}
1040
0.0
1002
}
1002
{
1070
     0
1002
{
1070
     1
1002
{
1040
1.0
1040
1.0
1000

1040
0.0
1002
{
1002
}
1040
0.0
1002
{
1002
}
1040
0.0
1002
}
1002
}
1040
1.0
1040
0.0
1040
0.0
1002
}
1002
{
1040
1.0
1040
1.0
1000

1040
0.0
1002
{
1002
}
1040
0.0
1002
{
1002
}
1040
0.0
1002
}
1002
{
1040
0.5
1040
1.0
1000

1040
0.0
1002
{
1002
}
1040
0.0
1002
{
1002
}
1040
0.0
1002
}
1002
{
1070
     0
1040
0.0
1002
{
1002
}
1040
1.0
1002
{
1002
}
1040
0.0
1002
}
1002
{
1040
0.0
1002
{
1002
{
1010
0.0
1020
0.0
1030
0.0
1002
}
1040
1.0
1000

1040
0.0
1002
{
1002
}
1040
0.0
1002
{
1002
}
1040
0.0
1002
}
1002
}
1002
{
1002
{
1070
     1
1002
{
1040
0.0
1040
1.0
1000

1040
0.0
1002
{
1002
}
1040
0.0
1002
{
1002
}
1040
0.0
1002
}
1002
}
1040
0.0
1002
{
1002
}
1010
1.0
1020
0.0
1030
0.0
1010
0.0
1020
1.0
1030
0.0
1010
0.0
1020
0.0
1030
1.0
1070
     0
1002
}
1002
{
1002
{
1040
1.0
1040
1.0
1002
{
1070
     1
1002
{
1040
1.0
1040
1.0
1000

1040
0.0
1002
{
1002
}
1040
0.0
1002
{
1002
}
1040
0.0
1002
}
1002
}
1002
}
1070
     0
1040
0.0
1002
{
1002
}
1002
}
1002
{
1002
}
1002
}
1002
{
1071
        3
1070
     3
1070
     0
1002
{
1070
     2
1070
     0
1070
     0
1040
0.0
1002
}
1070
     0
1070
     2
1002
{
1002
}
1002
}
1002
{
1040
8030.0
1040
190.3000030517578
1040
0.3050000071525574
1040
228.0
1040
545.0
1040
14.0
1040
17.39999961853027
1040
0.4560000002384186
1002
}
1002
}
  0
TEXT
  5
2F4E
330
1E
100
AcDbEntity
  8
LOGO
 62
     7
100
AcDbText
 10
440.2837729897625
 20
205.6560181026559
 30
0.0
 40
14.07420814479638
  1
Order example:
 41
0.8
  7
CHINESET
100
AcDbText
  0
TEXT
  5
2F4F
330
1E
100
AcDbEntity
  8
LOGO
 62
     7
100
AcDbText
 10
442.8088023199039
 20
225.4695890685492
 30
0.0
 40
21.11131221719457
  1
訂購代號:
  7
CHINESET
100
AcDbText
  0
LINE
  5
2F50
330
1E
100
AcDbEntity
  8
LOGO
 62
     1
100
AcDbLine
 10
979.5440474247387
 20
251.8985513160483
 30
0.0
 11
201.9440474247373
 21
251.8985513160483
 31
0.0
  0
LINE
  5
2F51
330
1E
100
AcDbEntity
  8
LOGO
 62
     1
100
AcDbLine
 10
979.5440474247387
 20
146.3419902300753
 30
0.0
 11
201.9440474247373
 21
146.3419902300753
 31
0.0
  0
LINE
  5
2F62
330
1E
100
AcDbEntity
  8
0
 62
     4
100
AcDbLine
 10
979.5440474247373
 20
251.8985513160483
 30
0.0
 11
201.9440474247382
 21
251.8985513160483
 31
0.0
  0
LINE
  5
2F64
330
1E
100
AcDbEntity
  8
LOGO
 62
     1
100
AcDbLine
 10
434.1684818138779
 20
146.3419902300753
 30
0.0
 11
434.1684818138779
 21
251.8985513160483
 31
0.0
  0
LINE
  5
2F65
330
1E
100
AcDbEntity
  8
LOGO
 62
     1
100
AcDbLine
 10
201.9440474247373
 20
146.3419902300753
 30
0.0
 11
201.9440474247373
 21
251.8985513160483
 31
0.0
  0
TEXT
  5
2F66
330
1E
100
AcDbEntity
  8
LOGO
  6
Continuous
 62
     5
100
AcDbText
 10
230.5548430729573
 20
167.0784173566745
 30
0.0
 40
15.83348416289592
  1
金器工業股份有限公司
  7
CHINESET
100
AcDbText
  0
TEXT
  5
2F67
330
1E
100
AcDbEntity
  8
LOGO
  6
Continuous
 62
     5
100
AcDbText
 10
209.9328467714442
 20
151.241831072276
 30
0.0
 40
10.55565610859728
  1
MINDMAN INDUSTRIAL CO.,LTD
 41
0.85
  7
CHINESET
100
AcDbText
  0
LINE
  5
2F68
330
1E
100
AcDbEntity
  8
LOGO
 62
     1
100
AcDbLine
 10
434.1684818138779
 20
230.7872390988541
 30
0.0
 11
279.352192221118
 21
230.7872390988541
 31
0.0
  0
LINE
  5
2F69
330
1E
100
AcDbEntity
  8
LOGO
 62
     1
100
AcDbLine
 10
434.1684818138779
 20
209.6759268816589
 30
0.0
 11
279.352192221118
 21
209.6759268816589
 31
0.0
  0
LINE
  5
2F6A
330
1E
100
AcDbEntity
  8
LOGO
 62
     1
100
AcDbLine
 10
434.1684818138779
 20
188.5646146644647
 30
0.0
 11
201.9440474247373
 21
188.5646146644647
 31
0.0
  0
SOLID
  5
2F6B
330
1E
100
AcDbEntity
  8
LOGO
 62
     5
100
AcDbTrace
 10
212.8957100428035
 20
206.1118904656743
 30
0.0
 11
217.4596987637444
 21
206.1118904656725
 31
0.0
 12
236.5025482545697
 22
249.3910938539107
 32
0.0
 13
241.0665369755102
 23
249.3910938539072
 33
0.0
  0
SOLID
  5
2F6C
330
1E
100
AcDbEntity
  8
LOGO
 62
     5
100
AcDbTrace
 10
219.3482458206888
 20
206.1118904656743
 30
0.0
 11
223.9122345416287
 21
206.1118904656743
 31
0.0
 12
241.0665369755102
 22
245.9287575828497
 32
0.0
 13
236.5025482545697
 23
229.1941322727311
 33
0.0
  0
SOLID
  5
2F6D
330
1E
100
AcDbEntity
  8
LOGO
 62
     2
100
AcDbTrace
 10
217.4596987637444
 20
206.1118904656725
 30
0.0
 11
219.3482458206888
 21
206.1118904656743
 31
0.0
 12
241.0665369755102
 22
249.3910938539072
 32
0.0
 13
242.9550840324528
 23
249.3910938539072
 33
0.0
  0
SOLID
  5
2F6E
330
1E
100
AcDbEntity
  8
LOGO
 62
     5
100
AcDbTrace
 10
205.578516896003
 20
190.3739983244991
 30
0.0
 11
207.1523061101232
 21
190.3739983244991
 31
0.0
 12
211.5842190310398
 22
198.2429443950854
 32
0.0
 13
213.1580082451566
 23
198.2429443950854
 33
0.0
  0
SOLID
  5
2F6F
330
1E
100
AcDbEntity
  8
LOGO
 62
     5
100
AcDbTrace
 10
211.5842190310398
 20
198.2429443950854
 30
0.0
 11
213.1580082451566
 21
198.2429443950854
 31
0.0
 12
211.5842190310398
 22
190.3739983244991
 32
0.0
 13
213.1580082451566
 23
190.3739983244991
 33
0.0
  0
SOLID
  5
2F70
330
1E
100
AcDbEntity
  8
LOGO
 62
     5
100
AcDbTrace
 10
211.5842190310398
 20
190.3739983244991
 30
0.0
 11
213.1580082451566
 21
190.3739983244991
 31
0.0
 12
217.589921166079
 22
198.2429443950854
 32
0.0
 13
219.1637103801949
 23
198.2429443950854
 33
0.0
  0
SOLID
  5
2F71
330
1E
100
AcDbEntity
  8
LOGO
 62
     5
100
AcDbTrace
 10
217.589921166079
 20
198.2429443950854
 30
0.0
 11
219.1637103801949
 21
198.2429443950854
 31
0.0
 12
217.589921166079
 22
190.3739983244991
 32
0.0
 13
219.1637103801949
 23
190.3739983244991
 33
0.0
  0
POLYLINE
  5
2F72
330
1E
100
AcDbEntity
  8
LOGO
 62
     5
100
AcDb2dPolyline
 66
     1
 10
0.0
 20
0.0
 30
0.0
 40
1.576311312217194
 41
1.576311312217194
  0
VERTEX
  5
2F73
330
2F72
100
AcDbEntity
  8
LOGO
 62
     5
100
AcDbVertex
100
AcDb2dVertex
 10
270.3427995052495
 20
195.0953659668502
 30
0.0
 42
1.0
  0
VERTEX
  5
2F74
330
2F72
100
AcDbEntity
  8
LOGO
 62
     5
100
AcDbVertex
100
AcDb2dVertex
 10
265.6138655685972
 20
195.0953659668502
 30
0.0
 42
1.0
  0
SEQEND
  5
2F75
330
2F72
100
AcDbEntity
  8
LOGO
 62
     5
  0
POLYLINE
  5
2F76
330
1E
100
AcDbEntity
  8
LOGO
 62
     5
100
AcDb2dPolyline
 66
     1
 10
0.0
 20
0.0
 30
0.0
 70
     1
  0
VERTEX
  5
2F77
330
2F76
100
AcDbEntity
  8
LOGO
 62
     5
100
AcDbVertex
100
AcDb2dVertex
 10
256.6996147550256
 20
194.3084713597919
 30
0.0
 42
1.000000057330635
  0
VERTEX
  5
2F78
330
2F76
100
AcDbEntity
  8
LOGO
 62
     5
100
AcDbVertex
100
AcDb2dVertex
 10
261.4209823973795
 20
194.3084713597919
 30
0.0
 42
1.000000057330635
  0
SEQEND
  5
2F79
330
2F76
100
AcDbEntity
  8
LOGO
 62
     5
  0
CIRCLE
  5
2F7A
330
1E
100
AcDbEntity
  8
LOGO
 62
     5
100
AcDbCircle
 10
259.0602985762034
 20
194.3084713597919
 30
0.0
 40
2.360683821176471
  0
POLYLINE
  5
2F7B
330
1E
100
AcDbEntity
  8
LOGO
 62
     5
100
AcDb2dPolyline
 66
     1
 10
0.0
 20
0.0
 30
0.0
 70
     1
 40
1.576311312217194
 41
1.576311312217194
  0
VERTEX
  5
2F7C
330
2F7B
100
AcDbEntity
  8
LOGO
 62
     5
100
AcDbVertex
100
AcDb2dVertex
 10
255.9076759517682
 20
194.3084713597919
 30
0.0
 42
1.0
  0
VERTEX
  5
2F7D
330
2F7B
100
AcDbEntity
  8
LOGO
 62
     5
100
AcDbVertex
100
AcDb2dVertex
 10
262.212921200637
 20
194.3084713597919
 30
0.0
 42
1.0
  0
SEQEND
  5
2F7E
330
2F7B
100
AcDbEntity
  8
LOGO
 62
     5
  0
LINE
  5
2F7F
330
1E
100
AcDbEntity
  8
LOGO
 62
     5
100
AcDbLine
 10
271.125910965158
 20
190.3739983244991
 30
0.0
 11
271.125910965158
 21
195.0953659668502
 31
0.0
  0
SOLID
  5
2F80
330
1E
100
AcDbEntity
  8
LOGO
 62
     5
100
AcDbTrace
 10
261.4208250184615
 20
198.2429443950854
 30
0.0
 11
262.9946142325774
 21
198.2429443950854
 31
0.0
 12
261.4208250184615
 22
190.3739983244991
 32
0.0
 13
262.9946142325774
 23
190.3739983244991
 33
0.0
  0
SOLID
  5
2F81
330
1E
100
AcDbEntity
  8
LOGO
 62
     5
100
AcDbTrace
 10
264.8307541086863
 20
190.3739983244991
 30
0.0
 11
266.4045433228059
 21
190.3739983244991
 31
0.0
 12
264.8307541086863
 22
198.2429443950854
 32
0.0
 13
266.4045433228059
 23
198.2429443950854
 33
0.0
  0
SOLID
  5
2F82
330
1E
100
AcDbEntity
  8
LOGO
 62
     5
100
AcDbTrace
 10
269.5521217510411
 20
195.0953659668502
 30
0.0
 11
271.125910965158
 21
195.0953659668502
 31
0.0
 12
269.5521217510411
 22
190.3739983244991
 32
0.0
 13
271.125910965158
 23
190.3739983244991
 33
0.0
  0
LINE
  5
2F83
330
1E
100
AcDbEntity
  8
LOGO
 62
     1
100
AcDbLine
 10
279.352192221118
 20
188.5646146644647
 30
0.0
 11
279.352192221118
 21
251.8985513160483
 31
0.0
  0
SOLID
  5
2F84
330
1E
100
AcDbEntity
  8
LOGO
 62
     5
100
AcDbTrace
 10
264.6733751872745
 20
245.9287575828497
 30
0.0
 11
260.1093864663337
 21
229.1941322727311
 31
0.0
 12
264.6733751872745
 22
206.1118904656725
 32
0.0
 13
260.1093864663337
 23
206.1118904656725
 33
0.0
  0
SOLID
  5
2F85
330
1E
100
AcDbEntity
  8
LOGO
 62
     5
100
AcDbTrace
 10
266.5619222442172
 20
206.1118904656725
 30
0.0
 11
271.125910965158
 21
206.1118904656725
 31
0.0
 12
266.5619222442172
 22
249.3910938539072
 32
0.0
 13
271.125910965158
 23
249.3910938539107
 33
0.0
  0
SOLID
  5
2F86
330
1E
100
AcDbEntity
  8
LOGO
 62
     2
100
AcDbTrace
 10
264.6733751872745
 20
249.3910938539107
 30
0.0
 11
266.5619222442172
 21
249.3910938539072
 31
0.0
 12
264.6733751872745
 22
206.1118904656725
 32
0.0
 13
266.5619222442172
 23
206.1118904656725
 33
0.0
  0
POLYLINE
  5
2F87
330
1E
100
AcDbEntity
  8
LOGO
 62
     5
100
AcDb2dPolyline
 66
     1
 10
0.0
 20
0.0
 30
0.0
 40
1.576311312217194
 41
1.576311312217194
  0
VERTEX
  5
2F88
330
2F87
100
AcDbEntity
  8
LOGO
 62
     5
100
AcDbVertex
100
AcDb2dVertex
 10
247.785049183615
 20
195.0953659668502
 30
0.0
 42
1.0
  0
VERTEX
  5
2F89
330
2F87
100
AcDbEntity
  8
LOGO
 62
     5
100
AcDbVertex
100
AcDb2dVertex
 10
243.0561152469626
 20
195.0953659668502
 30
0.0
 42
1.0
  0
SEQEND
  5
2F8A
330
2F87
100
AcDbEntity
  8
LOGO
 62
     5
  0
POLYLINE
  5
2F8B
330
1E
100
AcDbEntity
  8
LOGO
 62
     5
100
AcDb2dPolyline
 66
     1
 10
0.0
 20
0.0
 30
0.0
 40
1.576311312217194
 41
1.576311312217194
  0
VERTEX
  5
2F8C
330
2F8B
100
AcDbEntity
  8
LOGO
 62
     5
100
AcDbVertex
100
AcDb2dVertex
 10
252.5064168259671
 20
195.0953659668502
 30
0.0
 42
1.0
  0
VERTEX
  5
2F8D
330
2F8B
100
AcDbEntity
  8
LOGO
 62
     5
100
AcDbVertex
100
AcDb2dVertex
 10
247.7774828893144
 20
195.0953659668502
 30
0.0
 42
1.0
  0
SEQEND
  5
2F8E
330
2F8B
100
AcDbEntity
  8
LOGO
 62
     5
  0
POLYLINE
  5
2F8F
330
1E
100
AcDbEntity
  8
LOGO
 62
     5
100
AcDb2dPolyline
 66
     1
 10
0.0
 20
0.0
 30
0.0
 40
1.576311312217194
 41
1.576311312217194
  0
VERTEX
  5
2F90
330
2F8F
100
AcDbEntity
  8
LOGO
 62
     5
100
AcDbVertex
100
AcDb2dVertex
 10
229.948666504333
 20
195.0953659668502
 30
0.0
 42
1.0
  0
VERTEX
  5
2F91
330
2F8F
100
AcDbEntity
  8
LOGO
 62
     5
100
AcDbVertex
100
AcDb2dVertex
 10
225.2197325676816
 20
195.0953659668502
 30
0.0
 42
1.0
  0
SEQEND
  5
2F92
330
2F8F
100
AcDbEntity
  8
LOGO
 62
     5
  0
SOLID
  5
2F93
330
1E
100
AcDbEntity
  8
LOGO
 62
     5
100
AcDbTrace
 10
224.4366211077736
 20
198.2429443950854
 30
0.0
 11
226.0104103218891
 21
198.2429443950854
 31
0.0
 12
224.4366211077736
 22
190.3739983244991
 32
0.0
 13
226.0104103218891
 23
190.3739983244991
 33
0.0
  0
SOLID
  5
2F94
330
1E
100
AcDbEntity
  8
LOGO
 62
     5
100
AcDbTrace
 10
229.1579887501252
 20
195.0953659668502
 30
0.0
 11
230.7317779642439
 21
195.0953659668502
 31
0.0
 12
229.1579887501252
 22
190.3739983244991
 32
0.0
 13
230.7317779642439
 23
190.3739983244991
 33
0.0
  0
POLYLINE
  5
2F95
330
1E
100
AcDbEntity
  8
LOGO
 62
     5
100
AcDb2dPolyline
 66
     1
 10
0.0
 20
0.0
 30
0.0
 70
     1
 40
1.576311312217194
 41
1.576311312217194
  0
VERTEX
  5
2F96
330
2F95
100
AcDbEntity
  8
LOGO
 62
     5
100
AcDbVertex
100
AcDb2dVertex
 10
233.3499256301334
 20
194.3084713597919
 30
0.0
 42
1.0
  0
VERTEX
  5
2F97
330
2F95
100
AcDbEntity
  8
LOGO
 62
     5
100
AcDbVertex
100
AcDb2dVertex
 10
239.6551708790021
 20
194.3084713597919
 30
0.0
 42
1.0
  0
SEQEND
  5
2F98
330
2F95
100
AcDbEntity
  8
LOGO
 62
     5
  0
SOLID
  5
2F99
330
1E
100
AcDbEntity
  8
LOGO
 62
     5
100
AcDbTrace
 10
238.863074696826
 20
200.6036282162632
 30
0.0
 11
240.4368639109419
 21
200.6036282162632
 31
0.0
 12
238.863074696826
 22
190.3739983244991
 32
0.0
 13
240.4368639109419
 23
190.3739983244991
 33
0.0
  0
SOLID
  5
2F9A
330
1E
100
AcDbEntity
  8
LOGO
 62
     5
100
AcDbTrace
 10
242.2730037870552
 20
198.2429443950854
 30
0.0
 11
243.846793001172
 21
198.2429443950854
 31
0.0
 12
242.2730037870552
 22
190.3739983244991
 32
0.0
 13
243.846793001172
 23
190.3739983244991
 33
0.0
  0
SOLID
  5
2F9B
330
1E
100
AcDbEntity
  8
LOGO
 62
     5
100
AcDbTrace
 10
246.9943714294072
 20
195.0953659668502
 30
0.0
 11
248.568160643524
 21
195.0953659668502
 31
0.0
 12
246.9943714294072
 22
190.3739983244991
 32
0.0
 13
248.568160643524
 23
190.3739983244991
 33
0.0
  0
SOLID
  5
2F9C
330
1E
100
AcDbEntity
  8
LOGO
 62
     5
100
AcDbTrace
 10
251.7157390717592
 20
195.0953659668502
 30
0.0
 11
253.289528285875
 21
195.0953659668502
 31
0.0
 12
251.7157390717592
 22
190.3739983244955
 32
0.0
 13
253.289528285875
 23
190.3739983244955
 33
0.0
  0
SOLID
  5
2F9D
330
1E
100
AcDbEntity
  8
LOGO
 62
     5
100
AcDbTrace
 10
221.0266920175432
 20
199.3445968449669
 30
0.0
 11
222.6004812316643
 21
199.3445968449669
 31
0.0
 12
221.0266920175432
 22
200.6036282162632
 32
0.0
 13
222.6004812316643
 23
200.6036282162632
 33
0.0
  0
SOLID
  5
2F9E
330
1E
100
AcDbEntity
  8
LOGO
 62
     5
100
AcDbTrace
 10
221.0266920175432
 20
198.2429443950854
 30
0.0
 11
222.6004812316643
 21
198.2429443950854
 31
0.0
 12
221.0266920175432
 22
190.3739983244955
 32
0.0
 13
222.6004812316643
 23
190.3739983244991
 33
0.0
  0
SOLID
  5
2F9F
330
1E
100
AcDbEntity
  8
LOGO
 62
     5
100
AcDbTrace
 10
236.5025482545697
 20
206.1118904656743
 30
0.0
 11
241.0665369755102
 21
206.1118904656743
 31
0.0
 12
236.5025482545697
 22
229.1941322727311
 32
0.0
 13
241.0665369755102
 23
245.9287575828497
 33
0.0
  0
SOLID
  5
2FA0
330
1E
100
AcDbEntity
  8
LOGO
 62
     5
100
AcDbTrace
 10
242.9550840324528
 20
249.3910938539072
 30
0.0
 11
247.5190727533936
 21
249.3910938539107
 31
0.0
 12
242.9550840324528
 22
209.5742267367319
 32
0.0
 13
247.5190727533936
 23
226.3088520468504
 33
0.0
  0
SOLID
  5
2FA1
330
1E
100
AcDbEntity
  8
LOGO
 62
     2
100
AcDbTrace
 10
241.0665369755102
 20
249.3910938539072
 30
0.0
 11
242.9550840324528
 21
249.3910938539072
 31
0.0
 12
241.0665369755102
 22
206.1118904656743
 32
0.0
 13
242.9550840324528
 23
206.1118904656743
 33
0.0
  0
SOLID
  5
2FA2
330
1E
100
AcDbEntity
  8
LOGO
 62
     5
100
AcDbTrace
 10
242.9550840324528
 20
209.5742267367319
 30
0.0
 11
247.5190727533936
 21
226.3088520468504
 31
0.0
 12
264.6733751872745
 22
249.3910938539107
 32
0.0
 13
260.1093864663337
 23
249.3910938539107
 33
0.0
  0
SOLID
  5
2FA3
330
1E
100
AcDbEntity
  8
LOGO
 62
     5
100
AcDbTrace
 10
242.9550840324528
 20
206.1118904656743
 30
0.0
 11
247.5190727533936
 21
206.1118904656743
 31
0.0
 12
264.6733751872745
 22
245.9287575828497
 32
0.0
 13
260.1093864663337
 23
229.1941322727311
 33
0.0
  0
SOLID
  5
2FA4
330
1E
100
AcDbEntity
  8
LOGO
 62
     2
100
AcDbTrace
 10
241.0665369755102
 20
206.1118904656743
 30
0.0
 11
242.9550840324528
 21
206.1118904656743
 31
0.0
 12
264.6733751872745
 22
249.3910938539107
 32
0.0
 13
266.5619222442172
 23
249.3910938539072
 33
0.0
  0
TEXT
  5
2FA5
330
1E
100
AcDbEntity
  8
LOGO
 62
     6
100
AcDbText
 10
379.6326657404656
 20
193.8424427187631
 30
0.0
 40
10.55565610859728
  1
m/m
  7
CHINESET
 72
     1
 11
398.2307265032322
 21
199.1202707730618
 31
0.0
100
AcDbText
 73
     2
  0
TEXT
  5
2FA6
330
1E
100
AcDbEntity
  8
LOGO
 62
     6
100
AcDbText
 10
379.6326657404656
 20
236.0650671531526
 30
0.0
 40
10.55565610859728
  1
1 : 1
  7
CHINESET
 72
     1
 11
398.2307265032322
 21
241.3428952074513
 31
0.0
100
AcDbText
 73
     2
  0
LINE
  5
2FA7
330
1E
100
AcDbEntity
  8
LOGO
 62
     1
100
AcDbLine
 10
363.797441089896
 20
188.5646146644647
 30
0.0
 11
363.797441089896
 21
251.8985513160483
 31
0.0
  0
CIRCLE
  5
2FA8
330
1E
100
AcDbEntity
  8
LOGO
  6
Continuous
 62
     6
100
AcDbCircle
 10
383.3425586555595
 20
220.2541616159169
 30
0.0
 40
6.128862388789257
  0
CIRCLE
  5
2FA9
330
1E
100
AcDbEntity
  8
LOGO
  6
Continuous
 62
     6
100
AcDbCircle
 10
383.3425586555595
 20
220.2541616159169
 30
0.0
 40
3.590970802340395
  0
LINE
  5
2FAA
330
1E
100
AcDbEntity
  8
LOGO
 62
     6
100
AcDbLine
 10
421.8570410698303
 20
214.1252992271273
 30
0.0
 11
421.8570410698303
 21
226.3830240047065
 31
0.0
  0
LINE
  5
2FAB
330
1E
100
AcDbEntity
  8
LOGO
 62
     6
100
AcDbLine
 10
402.6434092944625
 20
216.6631908135768
 30
0.0
 11
402.6434092944625
 21
223.8451324182579
 31
0.0
  0
LINE
  5
2FAC
330
1E
100
AcDbEntity
  8
LOGO
  6
Continuous
 62
     6
100
AcDbLine
 10
402.6434092944625
 20
223.8451324182579
 30
0.0
 11
421.8570410698303
 21
226.3830240047065
 31
0.0
  0
LINE
  5
2FAD
330
1E
100
AcDbEntity
  8
LOGO
  6
Continuous
 62
     6
100
AcDbLine
 10
402.6434092944625
 20
216.6631908135768
 30
0.0
 11
421.8570410698303
 21
214.1252992271273
 31
0.0
  0
LINE
  5
2FE5
330
1E
100
AcDbEntity
  8
LOGO
 62
     6
100
AcDbLine
 10
780.3944240407173
 20
193.8424427187636
 30
0.0
 11
780.3944240407173
 21
155.1383703205729
 31
0.0
  0
LINE
  5
2FE6
330
1E
100
AcDbEntity
  8
LOGO
 62
     6
100
AcDbLine
 10
688.717129182253
 20
193.8424427187636
 30
0.0
 11
688.717129182253
 21
155.1383703205729
 31
0.0
  0
LINE
  5
2FE7
330
1E
100
AcDbEntity
  8
LOGO
 62
     6
100
AcDbLine
 10
656.7649915460066
 20
193.8424427187636
 30
0.0
 11
656.7649915460066
 21
155.1383703205729
 31
0.0
  0
LINE
  5
2FE8
330
1E
100
AcDbEntity
  8
LOGO
 62
     6
100
AcDbLine
 10
586.3939508220251
 20
193.8424427187636
 30
0.0
 11
586.3939508220251
 21
155.1383703205729
 31
0.0
  0
LINE
  5
2FE9
330
1E
100
AcDbEntity
  8
LOGO
 62
     6
100
AcDbLine
 10
656.7649915460066
 20
155.1383703205729
 30
0.0
 11
586.3939508220251
 21
155.1383703205729
 31
0.0
  0
LINE
  5
2FEA
330
1E
100
AcDbEntity
  8
LOGO
 62
     6
100
AcDbLine
 10
780.3944240407173
 20
155.1383703205729
 30
0.0
 11
688.717129182253
 21
155.1383703205729
 31
0.0
  0
LINE
  5
2FEB
330
1E
100
AcDbEntity
  8
LOGO
  6
Continuous
 62
     7
100
AcDbLine
 10
669.2578383540844
 20
225.3972416381814
 30
0.0
 11
683.240816090424
 21
225.3972416381814
 31
0.0
  0
LINE
  5
2FEC
330
1E
100
AcDbEntity
  8
LOGO
 62
     6
100
AcDbLine
 10
663.8020956184046
 20
241.3428952074513
 30
0.0
 11
579.3568467496267
 21
241.3428952074513
 31
0.0
  0
LINE
  5
2FED
330
1E
100
AcDbEntity
  8
LOGO
 62
     6
100
AcDbLine
 10
663.8020956184046
 20
209.6759268816589
 30
0.0
 11
579.3568467496267
 21
209.6759268816589
 31
0.0
  0
LINE
  5
2FEE
330
1E
100
AcDbEntity
  8
LOGO
 62
     6
100
AcDbLine
 10
579.3568467496267
 20
241.3428952074513
 30
0.0
 11
579.3568467496267
 21
209.6759268816589
 31
0.0
  0
LINE
  5
2FEF
330
1E
100
AcDbEntity
  8
LOGO
 62
     6
100
AcDbLine
 10
663.8020956184046
 20
241.3428952074513
 30
0.0
 11
663.8020956184046
 21
209.6759268816589
 31
0.0
  0
LINE
  5
2FF0
330
1E
100
AcDbEntity
  8
LOGO
 62
     6
100
AcDbLine
 10
621.5794711840154
 20
209.6759268816589
 30
0.0
 11
621.5794711840154
 21
193.8424427187636
 31
0.0
  0
TEXT
  5
2FF1
330
1E
100
AcDbEntity
  8
LOGO
  6
Continuous
 62
     7
100
AcDbText
 10
587.6505765492384
 20
216.7130309540573
 30
0.0
 40
17.59276018099547
  1
MHBD
  7
CHINESET
 72
     1
 11
621.5794711840154
 21
225.5094110445551
 31
0.0
100
AcDbText
 73
     2
  0
LINE
  5
2FF2
330
1E
100
AcDbEntity
  8
LOGO
 62
     6
100
AcDbLine
 10
656.7649915460066
 20
193.8424427187636
 30
0.0
 11
586.3939508220251
 21
193.8424427187636
 31
0.0
  0
LINE
  5
2FF3
330
1E
100
AcDbEntity
  8
LOGO
 62
     6
100
AcDbLine
 10
780.3944240407173
 20
241.3428952074513
 30
0.0
 11
688.717129182253
 21
241.3428952074513
 31
0.0
  0
LINE
  5
2FF4
330
1E
100
AcDbEntity
  8
LOGO
 62
     6
100
AcDbLine
 10
780.3944240407173
 20
193.8424427187636
 30
0.0
 11
688.717129182253
 21
193.8424427187636
 31
0.0
  0
LINE
  5
2FF5
330
1E
100
AcDbEntity
  8
LOGO
 62
     6
100
AcDbLine
 10
780.3944240407173
 20
209.6759268816589
 30
0.0
 11
688.717129182253
 21
209.6759268816589
 31
0.0
  0
TEXT
  5
2FF6
330
1E
100
AcDbEntity
  8
LOGO
  6
Continuous
 62
     7
100
AcDbText
 10
711.9365135216342
 20
216.5135279450367
 30
0.0
 40
17.59276018099547
  1
078
  7
CHINESET
 72
     1
 11
734.5557766114855
 21
225.3099080355344
 31
0.0
100
AcDbText
 73
     2
  0
LINE
  5
2FF7
330
1E
100
AcDbEntity
  8
LOGO
 62
     6
100
AcDbLine
 10
734.5557766114855
 20
209.6759268816589
 30
0.0
 11
734.5557766114855
 21
193.8424427187636
 31
0.0
  0
LINE
  5
2FF8
330
1E
100
AcDbEntity
  8
LOGO
 62
     6
100
AcDbLine
 10
688.717129182253
 20
241.3428952074513
 30
0.0
 11
688.717129182253
 21
209.6759268816589
 31
0.0
  0
LINE
  5
2FFD
330
1E
100
AcDbEntity
  8
LOGO
 62
     6
100
AcDbLine
 10
780.3944240407173
 20
241.3428952074513
 30
0.0
 11
780.3944240407173
 21
209.6759268816589
 31
0.0
  0
LINE
  5
2FFE
330
1E
100
AcDbEntity
  8
LOGO
 62
     1
100
AcDbLine
 10
979.5440474247387
 20
146.3419902300753
 30
0.0
 11
979.5440474247387
 21
251.8985513160483
 31
0.0
  0
TEXT
  5
3075
330
1E
100
AcDbEntity
  8
LOGO
 62
     6
100
AcDbText
 10
288.0558961642339
 20
236.0702618658045
 30
691.8003119298816
 40
10.55565610859728
  1
比例 Scale:
 41
0.9
  7
CHINESET
 72
     4
 11
321.5748166555073
 21
241.3428952074513
 31
691.8003119298816
100
AcDbText
  0
TEXT
  5
3076
330
1E
100
AcDbEntity
  8
LOGO
 62
     6
100
AcDbText
 10
291.7456634557659
 20
215.1022371392567
 30
691.8003119298816
 40
10.55565610859728
  1
投影 View:
 41
0.9
  7
CHINESET
 72
     4
 11
321.5748166555073
 21
220.231582990256
 31
691.8003119298816
100
AcDbText
  0
TEXT
  5
3077
330
1E
100
AcDbEntity
  8
LOGO
 62
     6
100
AcDbText
 10
292.7776673342404
 20
193.8424427187631
 30
691.8003119298816
 40
10.55565610859728
  1
單位 Unit:
 41
0.9
  7
CHINESET
 72
     4
 11
321.5748166555073
 21
199.1202707730618
 31
691.8003119298816
100
AcDbText
  0
TEXT
  5
3078
330
1E
100
AcDbEntity
  8
LOGO
  6
Continuous
 62
     6
100
AcDbText
 10
604.8244614878292
 20
159.5365603658219
 30
691.8003119298816
 40
8.796380090497736
  1
Model
  7
CHINESET
 72
     4
 11
621.5794711840154
 21
163.9347504110708
 31
691.8003119298816
100
AcDbText
  0
TEXT
  5
3079
330
1E
100
AcDbEntity
  8
LOGO
  6
Continuous
 62
     6
100
AcDbText
 10
718.8479550213109
 20
159.5365603658219
 30
691.8003119298816
 40
8.796380090497736
  1
Ratio
  7
CHINESET
 72
     4
 11
734.5557766114855
 21
163.9347504110708
 31
691.8003119298816
100
AcDbText
  0
TEXT
  5
307B
330
1E
100
AcDbEntity
  8
LOGO
 62
     6
100
AcDbText
 10
607.5052630392191
 20
174.8505732635309
 30
691.8003119298816
 40
14.07420814479638
  1
型式
  7
CHINESET
 72
     4
 11
621.5794711840154
 21
181.5275105920662
 31
691.8003119298816
100
AcDbText
  0
TEXT
  5
307C
330
1E
100
AcDbEntity
  8
LOGO
 62
     6
100
AcDbText
 10
713.8842833988157
 20
174.6439391380455
 30
691.8003119298816
 40
14.07420814479638
  1
增壓比
  7
CHINESET
 72
     4
 11
734.5557766114855
 21
181.5275105920662
 31
691.8003119298816
100
AcDbText
  0
LINE
  5
650F
330
1E
100
AcDbEntity
  8
AM_5
100
AcDbLine
 10
360.9251960170589
 20
318.37201232376
 30
0.0
 11
353.8809832963579
 21
318.37201232376
 31
0.0
  0
LINE
  5
6510
330
1E
100
AcDbEntity
  8
AM_5
100
AcDbLine
 10
360.9251960170589
 20
323.3720123237601
 30
0.0
 11
353.8568806236931
 21
323.3720123237601
 31
0.0
  0
LINE
  5
6511
330
1E
100
AcDbEntity
  8
AM_5
100
AcDbLine
 10
355.0709836157439
 20
315.37201232376
 30
0.0
 11
355.0709836157439
 21
312.37201232376
 31
0.0
  0
SOLID
  5
6512
330
1E
100
AcDbEntity
  8
AM_5
100
AcDbTrace
 10
355.5709836157439
 20
326.3720123237602
 30
0.0
 11
354.5709836157439
 21
326.3720123237602
 31
0.0
 12
355.0709836157439
 22
323.3720123237601
 32
0.0
 13
355.0709836157439
 23
323.3720123237601
 33
0.0
  0
SOLID
  5
6513
330
1E
100
AcDbEntity
  8
AM_5
100
AcDbTrace
 10
355.5709836157439
 20
315.37201232376
 30
0.0
 11
354.5709836157439
 21
315.37201232376
 31
0.0
 12
355.0709836157439
 22
318.37201232376
 32
0.0
 13
355.0709836157439
 23
318.37201232376
 33
0.0
  0
LINE
  5
6514
330
1E
100
AcDbEntity
  8
AM_5
100
AcDbLine
 10
355.0709836157439
 20
318.37201232376
 30
0.0
 11
355.0709836157439
 21
324.37201232376
 31
0.0
  0
TEXT
  5
6515
330
1E
100
AcDbEntity
  8
AM_5
100
AcDbText
 10
353.5709836157439
 20
327.3710236465349
 30
0.0
 40
3.0
  1
5
 50
90.0
  7
ROMANSS
 72
     1
 11
352.0709836157439
 21
328.3710236465349
 31
0.0
100
AcDbText
 73
     2
  0
LINE
  5
6516
330
1E
100
AcDbEntity
  8
AM_5
100
AcDbLine
 10
355.0709836157439
 20
327.37201232376
 30
0.0
 11
355.0709836157439
 21
330.37201232376
 31
0.0
  0
LINE
  5
6517
330
1E
100
AcDbEntity
  8
AM_5
100
AcDbLine
 10
371.9251960170589
 20
315.3720123237603
 30
0.0
 11
371.9251960170589
 21
309.37201232376
 31
0.0
  0
LINE
  5
6518
330
1E
100
AcDbEntity
  8
AM_5
100
AcDbLine
 10
873.2469294658296
 20
314.3720123237598
 30
0.0
 11
873.2469294658296
 21
309.3720123237598
 31
0.0
  0
SOLID
  5
6519
330
1E
100
AcDbEntity
  8
AM_5
100
AcDbTrace
 10
876.2469294658295
 20
310.8720123237598
 30
0.0
 11
876.2469294658295
 21
309.8720123237598
 31
0.0
 12
873.2469294658296
 22
310.3720123237598
 32
0.0
 13
873.2469294658296
 23
310.3720123237598
 33
0.0
  0
TEXT
  5
651A
330
1E
100
AcDbEntity
  8
AM_5
100
AcDbText
 10
895.8183580372578
 20
311.8720123237598
 30
0.0
 40
3.0
  1
50
  7
ROMANSS
 72
     1
 11
898.2469294658294
 21
313.3720123237598
 31
0.0
100
AcDbText
 73
     2
  0
LINE
  5
651B
330
1E
100
AcDbEntity
  8
AM_5
100
AcDbLine
 10
860.7469294658296
 20
317.3720123237598
 30
0.0
 11
860.7469294658296
 21
301.3720123237598
 31
0.0
  0
SOLID
  5
651C
330
1E
100
AcDbEntity
  8
AM_5
100
AcDbTrace
 10
863.7469294658295
 20
302.8720123237598
 30
0.0
 11
863.7469294658295
 21
301.8720123237598
 31
0.0
 12
860.7469294658296
 22
302.3720123237598
 32
0.0
 13
860.7469294658296
 23
302.3720123237598
 33
0.0
  0
TEXT
  5
651D
330
1E
100
AcDbEntity
  8
AM_5
100
AcDbText
 10
895.8183580372581
 20
303.8720123237598
 30
0.0
 40
3.0
  1
75
  7
ROMANSS
 72
     1
 11
898.2469294658296
 21
305.3720123237598
 31
0.0
100
AcDbText
 73
     2
  0
LINE
  5
651E
330
1E
100
AcDbEntity
  8
AM_5
100
AcDbLine
 10
936.7469294658294
 20
318.3720123237598
 30
0.0
 11
953.7285582762967
 21
318.3720123237598
 31
0.0
  0
LINE
  5
651F
330
1E
100
AcDbEntity
  8
AM_5
100
AcDbLine
 10
940.2767387290781
 20
368.37201232376
 30
0.0
 11
944.7469294658288
 21
368.37201232376
 31
0.0
  0
LINE
  5
6520
330
1E
100
AcDbEntity
  8
AM_5
100
AcDbLine
 10
943.7469294658288
 20
318.3720123237598
 30
0.0
 11
943.7469294658287
 21
368.37201232376
 31
0.0
  0
SOLID
  5
6521
330
1E
100
AcDbEntity
  8
AM_5
100
AcDbTrace
 10
943.2469294658288
 20
321.3720123237598
 30
0.0
 11
944.2469294658287
 21
321.3720123237598
 31
0.0
 12
943.7469294658287
 22
318.3720123237598
 32
0.0
 13
943.7469294658287
 23
318.3720123237598
 33
0.0
  0
SOLID
  5
6522
330
1E
100
AcDbEntity
  8
AM_5
100
AcDbTrace
 10
943.2469294658288
 20
365.37201232376
 30
0.0
 11
944.2469294658287
 21
365.37201232376
 31
0.0
 12
943.7469294658287
 22
368.37201232376
 32
0.0
 13
943.7469294658287
 23
368.37201232376
 33
0.0
  0
TEXT
  5
6523
330
1E
100
AcDbEntity
  8
AM_5
100
AcDbText
 10
942.2469294658288
 20
340.6800577740682
 30
0.0
 40
3.0
  1
50
 50
90.0
  7
ROMANSS
 72
     1
 11
940.7469294658289
 21
343.1086292026396
 31
0.0
100
AcDbText
 73
     2
  0
LINE
  5
6524
330
1E
100
AcDbEntity
  8
AM_5
100
AcDbLine
 10
932.5939853937526
 20
405.87201232376
 30
0.0
 11
952.7469294658292
 21
405.8720123237601
 31
0.0
  0
SOLID
  5
6525
330
1E
100
AcDbEntity
  8
AM_5
100
AcDbTrace
 10
951.2469294658288
 20
321.3720123237598
 30
0.0
 11
952.2469294658288
 21
321.3720123237598
 31
0.0
 12
951.7469294658287
 22
318.3720123237598
 32
0.0
 13
951.7469294658287
 23
318.3720123237598
 33
0.0
  0
SOLID
  5
6526
330
1E
100
AcDbEntity
  8
AM_5
100
AcDbTrace
 10
951.2469294658291
 20
402.8720123237601
 30
0.0
 11
952.2469294658291
 21
402.8720123237601
 31
0.0
 12
951.7469294658292
 22
405.8720123237601
 32
0.0
 13
951.7469294658292
 23
405.8720123237601
 33
0.0
  0
TEXT
  5
6527
330
1E
100
AcDbEntity
  8
AM_5
100
AcDbText
 10
950.2469294658288
 20
357.3399284936346
 30
0.0
 40
3.0
  1
87.5
 50
90.0
  7
ROMANSS
 72
     1
 11
948.7469294658289
 21
361.9113570650632
 31
0.0
100
AcDbText
 73
     2
  0
LINE
  5
6528
330
1E
100
AcDbEntity
  8
AM_5
100
AcDbLine
 10
371.9251960170589
 20
310.3720123237601
 30
0.0
 11
371.9251960170589
 21
311.37201232376
 31
0.0
  0
SOLID
  5
6529
330
1E
100
AcDbEntity
  8
AM_5
100
AcDbTrace
 10
374.9251960170588
 20
310.87201232376
 30
0.0
 11
374.9251960170588
 21
309.87201232376
 31
0.0
 12
371.9251960170589
 22
310.3720123237601
 32
0.0
 13
371.9251960170589
 23
310.3720123237601
 33
0.0
  0
TEXT
  5
652A
330
1E
100
AcDbEntity
  8
AM_5
100
AcDbText
 10
536.1364542458679
 20
311.87201232376
 30
0.0
 40
3.0
  1
333
  7
ROMANSS
 72
     1
 11
539.9935971030108
 21
313.37201232376
 31
0.0
100
AcDbText
 73
     2
  0
LINE
  5
652B
330
1E
100
AcDbEntity
  8
AM_5
100
AcDbLine
 10
361.9251960170589
 20
317.37201232376
 30
0.0
 11
361.9251960170589
 21
292.9629657292275
 31
0.0
  0
SOLID
  5
652C
330
1E
100
AcDbEntity
  8
AM_5
100
AcDbTrace
 10
364.9251960170588
 20
302.87201232376
 30
0.0
 11
364.9251960170588
 21
301.87201232376
 31
0.0
 12
361.9251960170589
 22
302.37201232376
 32
0.0
 13
361.9251960170589
 23
302.37201232376
 33
0.0
  0
TEXT
  5
652D
330
1E
100
AcDbEntity
  8
AM_5
100
AcDbText
 10
536.1364542458679
 20
303.87201232376
 30
0.0
 40
3.0
  1
353
  7
ROMANSS
 72
     1
 11
539.9935971030108
 21
305.37201232376
 31
0.0
100
AcDbText
 73
     2
  0
SOLID
  5
652E
330
1E
100
AcDbEntity
  8
AM_5
100
AcDbTrace
 10
364.9251960170588
 20
294.87201232376
 30
0.0
 11
364.9251960170588
 21
293.8720123237601
 31
0.0
 12
361.9251960170589
 22
294.37201232376
 32
0.0
 13
361.9251960170589
 23
294.37201232376
 33
0.0
  0
SOLID
  5
652F
330
1E
100
AcDbEntity
  8
AM_5
100
AcDbTrace
 10
819.549273936783
 20
370.9434653975425
 30
0.0
 11
818.627501160436
 21
371.3311959080593
 31
0.0
 12
817.9251960170587
 22
368.3720123237602
 32
0.0
 13
817.9251960170587
 23
368.3720123237602
 33
0.0
  0
LINE
  5
6530
330
1E
100
AcDbEntity
  8
AM_5
100
AcDbLine
 10
819.0883875486095
 20
371.137330652801
 30
0.0
 11
835.9543613496409
 21
411.2337251192656
 31
0.0
  0
SOLID
  5
6531
330
1E
100
AcDbEntity
  8
AM_5
100
AcDbTrace
 10
797.9193599262428
 20
388.2422551285431
 30
0.0
 11
797.0428398863571
 21
387.7608897582902
 31
0.0
 12
798.9251960170588
 22
385.3720123237597
 32
0.0
 13
798.9251960170588
 23
385.3720123237597
 33
0.0
  0
LINE
  5
6532
330
1E
100
AcDbEntity
  8
AM_5
100
AcDbLine
 10
797.4810999063
 20
388.0015724434167
 30
0.0
 11
784.7225167984434
 21
411.2337251192657
 31
0.0
  0
LINE
  5
6533
330
1E
100
AcDbEntity
  8
AM_5
100
AcDbLine
 10
784.7225167984434
 20
411.2337251192657
 30
0.0
 11
769.2225167984434
 21
411.2337251192657
 31
0.0
  0
TEXT
  5
6534
330
1E
100
AcDbEntity
  8
AM_5
100
AcDbText
 10
769.4011013191389
 20
412.7337251192657
 30
0.0
 40
3.0
  1
PT1/4
  7
ROMANSS
 72
     2
 11
782.5439584619961
 21
414.2337251192657
 31
0.0
100
AcDbText
 73
     2
  0
SOLID
  5
6535
330
1E
100
AcDbEntity
  8
UMCL2
  6
Continuous
100
AcDbTrace
 10
412.4682400548435
 20
369.8103953310435
 30
0.0
 11
411.7490417829789
 21
369.1155904334304
 31
0.0
 12
414.1930556117503
 22
367.3053980666434
 32
0.0
 13
414.1930556117503
 23
367.3053980666434
 33
0.0
  0
LINE
  5
6536
330
1E
100
AcDbEntity
  8
AM_5
100
AcDbLine
 10
414.1930556117513
 20
367.3053980666426
 30
0.0
 11
376.6907279216472
 21
406.1243663241772
 31
0.0
  0
LINE
  5
6537
330
1E
100
AcDbEntity
  8
AM_5
100
AcDbLine
 10
376.6907279216472
 20
406.1243663241772
 30
0.0
 11
356.3373558056572
 21
406.1243663241772
 31
0.0
  0
TEXT
  5
6538
330
1E
100
AcDbEntity
  8
AM_5
100
AcDbText
 10
353.5694986628001
 20
407.6243663241772
 30
0.0
 40
3.0
  1
2-PT3/8
  7
ROMANSS
 72
     2
 11
373.7123558056572
 21
409.1243663241772
 31
0.0
100
AcDbText
 73
     2
  0
SOLID
  5
6539
330
1E
100
AcDbEntity
  8
AM_5
100
AcDbTrace
 10
706.9802816983327
 20
325.6140254465187
 30
0.0
 11
706.1420565946664
 21
326.1593498229989
 31
0.0
 12
704.9251960170587
 22
323.37201232376
 32
0.0
 13
704.9251960170587
 23
323.37201232376
 33
0.0
  0
LINE
  5
653A
330
1E
100
AcDbEntity
  8
AM_5
100
AcDbLine
 10
706.5611691464996
 20
325.8866876347589
 30
0.0
 11
716.9927675739535
 21
341.921231569315
 31
0.0
  0
LINE
  5
653B
330
1E
100
AcDbEntity
  8
AM_5
100
AcDbLine
 10
716.9927675739535
 20
341.921231569315
 30
0.0
 11
719.9927675739535
 21
341.921231569315
 31
0.0
  0
LINE
  5
653C
330
1E
100
AcDbEntity
  8
AM_5
100
AcDbLine
 10
719.9927675739535
 20
341.921231569315
 30
0.0
 11
733.4927675739535
 21
341.921231569315
 31
0.0
  0
TEXT
  5
653D
330
1E
100
AcDbEntity
  8
AM_5
100
AcDbText
 10
720.9927675739535
 20
343.4212315693149
 30
0.0
 40
3.0
  1
4-%%c9
  7
ROMANSS
 11
720.9927675739535
 21
344.921231569315
 31
0.0
100
AcDbText
 73
     2
  0
SOLID
  5
653E
330
1E
100
AcDbEntity
  8
AM_5
100
AcDbTrace
 10
368.9251960170589
 20
310.87201232376
 30
0.0
 11
368.9251960170589
 21
309.87201232376
 31
0.0
 12
371.9251960170589
 22
310.3720123237601
 32
0.0
 13
371.9251960170589
 23
310.3720123237601
 33
0.0
  0
SOLID
  5
653F
330
1E
100
AcDbEntity
  8
AM_5
100
AcDbTrace
 10
364.9251960170588
 20
310.8720123237601
 30
0.0
 11
364.9251960170588
 21
309.8720123237602
 31
0.0
 12
361.9251960170588
 22
310.3720123237601
 32
0.0
 13
361.9251960170588
 23
310.3720123237601
 33
0.0
  0
TEXT
  5
6540
330
1E
100
AcDbEntity
  8
AM_5
100
AcDbText
 10
363.9395006092075
 20
311.8720123237602
 30
0.0
 40
3.0
  1
10
  7
ROMANSS
 11
363.9395006092075
 21
313.3720123237602
 31
0.0
100
AcDbText
 73
     2
  0
LINE
  5
6541
330
1E
100
AcDbEntity
  8
UMCL1
100
AcDbLine
 10
872.8469294658294
 20
388.6473668212775
 30
0.0
 11
872.8469294658294
 21
348.0966578262427
 31
0.0
  0
LINE
  5
6542
330
1E
100
AcDbEntity
  8
UMCL1
100
AcDbLine
 10
923.6469294658295
 20
388.6473668212775
 30
0.0
 11
923.6469294658295
 21
348.0966578262425
 31
0.0
  0
LINE
  5
6543
330
1E
100
AcDbEntity
  8
UMCL1
100
AcDbLine
 10
877.971574968312
 20
393.77201232376
 30
0.0
 11
918.5222839633469
 21
393.77201232376
 31
0.0
  0
LINE
  5
6544
330
1E
100
AcDbEntity
  8
UMCL1
100
AcDbLine
 10
877.971574968312
 20
342.9720123237601
 30
0.0
 11
918.5222839633469
 21
342.9720123237601
 31
0.0
  0
ARC
  5
6545
330
1E
100
AcDbEntity
  8
UMCL1
100
AcDbCircle
 10
898.2469294658296
 20
368.37201232376
 30
0.0
 40
32.5
100
AcDbArc
 50
308.5983478875522
 51
321.4016521124475
  0
ARC
  5
6546
330
1E
100
AcDbEntity
  8
UMCL1
100
AcDbCircle
 10
898.2469294658296
 20
368.37201232376
 30
0.0
 40
32.5
100
AcDbArc
 50
38.59834788755251
 51
51.40165211244775
  0
ARC
  5
6547
330
1E
100
AcDbEntity
  8
UMCL1
100
AcDbCircle
 10
898.2469294658296
 20
368.37201232376
 30
0.0
 40
32.5
100
AcDbArc
 50
128.5983478875522
 51
141.4016521124475
  0
ARC
  5
6548
330
1E
100
AcDbEntity
  8
UMCL1
100
AcDbCircle
 10
898.2469294658296
 20
368.37201232376
 30
0.0
 40
32.5
100
AcDbArc
 50
218.5983478875499
 51
231.4016521124477
  0
LINE
  5
6549
330
1E
100
AcDbEntity
  8
CENTER
  6
CENTER
100
AcDbLine
 10
880.2469294658296
 20
394.87201232376
 30
0.0
 11
880.2469294658296
 21
377.87201232376
 31
0.0
  0
LINE
  5
654A
330
1E
100
AcDbEntity
  8
CENTER
  6
CENTER
100
AcDbLine
 10
916.2469294658295
 20
394.87201232376
 30
0.0
 11
916.2469294658295
 21
377.87201232376
 31
0.0
  0
LINE
  5
654B
330
1E
100
AcDbEntity
  8
CENTER
  6
CENTER
100
AcDbLine
 10
871.7469294658295
 20
386.37201232376
 30
0.0
 11
888.7469294658295
 21
386.37201232376
 31
0.0
  0
LINE
  5
654C
330
1E
100
AcDbEntity
  8
CENTER
  6
CENTER
100
AcDbLine
 10
871.7469294658295
 20
350.37201232376
 30
0.0
 11
888.7469294658295
 21
350.37201232376
 31
0.0
  0
CIRCLE
  5
654D
330
1E
100
AcDbEntity
  8
UMCL1
100
AcDbCircle
 10
916.2469294658295
 20
386.37201232376
 30
0.0
 40
5.5
  0
CIRCLE
  5
654E
330
1E
100
AcDbEntity
  8
UMCL1
100
AcDbCircle
 10
898.2469294658296
 20
368.37201232376
 30
0.0
 40
17.0
  0
LINE
  5
654F
330
1E
100
AcDbEntity
  8
CENTER
  6
CENTER
100
AcDbLine
 10
880.2469294658296
 20
358.87201232376
 30
0.0
 11
880.2469294658296
 21
341.87201232376
 31
0.0
  0
LINE
  5
6550
330
1E
100
AcDbEntity
  8
CENTER
  6
CENTER
100
AcDbLine
 10
907.7469294658296
 20
350.37201232376
 30
0.0
 11
924.7469294658296
 21
350.37201232376
 31
0.0
  0
LINE
  5
6551
330
1E
100
AcDbEntity
  8
CENTER
  6
CENTER
100
AcDbLine
 10
916.2469294658295
 20
358.87201232376
 30
0.0
 11
916.2469294658295
 21
341.87201232376
 31
0.0
  0
LINE
  5
6552
330
1E
100
AcDbEntity
  8
CENTER
  6
CENTER
100
AcDbLine
 10
907.7469294658296
 20
386.37201232376
 30
0.0
 11
924.7469294658296
 21
386.37201232376
 31
0.0
  0
LINE
  5
6553
330
1E
100
AcDbEntity
  8
UMCL1
100
AcDbLine
 10
817.9251960170587
 20
382.3720123237602
 30
0.0
 11
817.9251960170587
 21
354.3720123237601
 31
0.0
  0
LINE
  5
6554
330
1E
100
AcDbEntity
  8
CENTER
  6
CENTER
100
AcDbLine
 10
798.9251960170587
 20
387.3720123237601
 30
0.0
 11
798.9251960170587
 21
377.8720123237601
 31
0.0
  0
LINE
  5
6555
330
1E
100
AcDbEntity
  8
DASHED
  6
HIDDEN
100
AcDbLine
 10
803.3490533715223
 20
378.3855131934438
 30
0.0
 11
803.7069214092294
 21
385.3720123237602
 31
0.0
  0
LINE
  5
6556
330
1E
100
AcDbEntity
  8
DASHED
  6
HIDDEN
100
AcDbLine
 10
794.5067305478443
 20
378.4437553138626
 30
0.0
 11
794.1112189693614
 21
385.3720123237602
 31
0.0
  0
LINE
  5
6557
330
1E
100
AcDbEntity
  8
DASHED
  6
HIDDEN
100
AcDbLine
 10
803.8524073617908
 20
378.4381943484843
 30
0.0
 11
804.2075769233042
 21
385.3720123237602
 31
0.0
  0
LINE
  5
6558
330
1E
100
AcDbEntity
  8
DASHED
  6
HIDDEN
100
AcDbLine
 10
794.0134262271408
 20
378.3122056582107
 30
0.0
 11
793.6104049082015
 21
385.3720123237602
 31
0.0
  0
LINE
  5
6559
330
1E
100
AcDbEntity
  8
CENTER
  6
CENTER
100
AcDbLine
 10
819.9251960170586
 20
368.3720123237602
 30
0.0
 11
388.2520565306045
 21
368.3720123237602
 31
0.0
  0
LINE
  5
655A
330
1E
100
AcDbEntity
  8
UMCL1
100
AcDbLine
 10
817.9251960170587
 20
382.3720123237602
 30
0.0
 11
814.9251960170587
 21
385.3720123237602
 31
0.0
  0
LINE
  5
655B
330
1E
100
AcDbEntity
  8
UMCL1
100
AcDbLine
 10
814.9251960170587
 20
351.3720123237602
 30
0.0
 11
817.9251960170587
 21
354.3720123237601
 31
0.0
  0
LINE
  5
655C
330
1E
100
AcDbEntity
  8
UMCL1
100
AcDbLine
 10
682.9251960170586
 20
393.77201232376
 30
0.0
 11
672.9251960170586
 21
393.77201232376
 31
0.0
  0
LINE
  5
655D
330
1E
100
AcDbEntity
  8
CENTER
  6
CENTER
100
AcDbLine
 10
684.9251960170586
 20
350.37201232376
 30
0.0
 11
670.9251960170588
 21
350.37201232376
 31
0.0
  0
LINE
  5
655E
330
1E
100
AcDbEntity
  8
CENTER
  6
CENTER
100
AcDbLine
 10
684.9251960170586
 20
386.37201232376
 30
0.0
 11
670.9251960170586
 21
386.37201232376
 31
0.0
  0
CIRCLE
  5
655F
330
1E
100
AcDbEntity
  8
UMCL1
100
AcDbCircle
 10
916.2469294658295
 20
386.37201232376
 30
0.0
 40
5.0
  0
CIRCLE
  5
6560
330
1E
100
AcDbEntity
  8
UMCL1
100
AcDbCircle
 10
916.2469294658295
 20
386.37201232376
 30
0.0
 40
4.5
  0
POLYLINE
  5
6561
330
1E
100
AcDbEntity
  8
UMCL1
  6
Continuous
100
AcDb2dPolyline
 66
     1
 10
0.0
 20
0.0
 30
0.0
 70
     1
  0
VERTEX
  5
6562
330
6561
100
AcDbEntity
  8
UMCL1
  6
Continuous
100
AcDbVertex
100
AcDb2dVertex
 10
918.7469294658294
 20
384.928636650786
 30
0.0
  0
VERTEX
  5
6563
330
6561
100
AcDbEntity
  8
UMCL1
  6
Continuous
100
AcDbVertex
100
AcDb2dVertex
 10
918.7469294658294
 20
387.8153879967341
 30
0.0
  0
VERTEX
  5
6564
330
6561
100
AcDbEntity
  8
UMCL1
  6
Continuous
100
AcDbVertex
100
AcDb2dVertex
 10
916.2469294658293
 20
389.2587636697082
 30
0.0
  0
VERTEX
  5
6565
330
6561
100
AcDbEntity
  8
UMCL1
  6
Continuous
100
AcDbVertex
100
AcDb2dVertex
 10
913.7469294658295
 20
387.8153879967341
 30
0.0
  0
VERTEX
  5
6566
330
6561
100
AcDbEntity
  8
UMCL1
  6
Continuous
100
AcDbVertex
100
AcDb2dVertex
 10
913.7469294658295
 20
384.928636650786
 30
0.0
  0
VERTEX
  5
6567
330
6561
100
AcDbEntity
  8
UMCL1
  6
Continuous
100
AcDbVertex
100
AcDb2dVertex
 10
916.2469294658293
 20
383.4852609778119
 30
0.0
  0
SEQEND
  5
6568
330
6561
100
AcDbEntity
  8
UMCL1
  6
Continuous
  0
CIRCLE
  5
6569
330
1E
100
AcDbEntity
  8
UMCL1
100
AcDbCircle
 10
880.2469294658296
 20
386.37201232376
 30
0.0
 40
5.5
  0
CIRCLE
  5
656A
330
1E
100
AcDbEntity
  8
UMCL1
100
AcDbCircle
 10
880.2469294658296
 20
386.37201232376
 30
0.0
 40
5.0
  0
CIRCLE
  5
656B
330
1E
100
AcDbEntity
  8
UMCL1
100
AcDbCircle
 10
880.2469294658296
 20
386.37201232376
 30
0.0
 40
4.5
  0
POLYLINE
  5
656C
330
1E
100
AcDbEntity
  8
UMCL1
  6
Continuous
100
AcDb2dPolyline
 66
     1
 10
0.0
 20
0.0
 30
0.0
 70
     1
  0
VERTEX
  5
656D
330
656C
100
AcDbEntity
  8
UMCL1
  6
Continuous
100
AcDbVertex
100
AcDb2dVertex
 10
882.7469294658294
 20
384.928636650786
 30
0.0
  0
VERTEX
  5
656E
330
656C
100
AcDbEntity
  8
UMCL1
  6
Continuous
100
AcDbVertex
100
AcDb2dVertex
 10
882.7469294658294
 20
387.8153879967341
 30
0.0
  0
VERTEX
  5
656F
330
656C
100
AcDbEntity
  8
UMCL1
  6
Continuous
100
AcDbVertex
100
AcDb2dVertex
 10
880.2469294658294
 20
389.2587636697082
 30
0.0
  0
VERTEX
  5
6570
330
656C
100
AcDbEntity
  8
UMCL1
  6
Continuous
100
AcDbVertex
100
AcDb2dVertex
 10
877.7469294658294
 20
387.8153879967341
 30
0.0
  0
VERTEX
  5
6571
330
656C
100
AcDbEntity
  8
UMCL1
  6
Continuous
100
AcDbVertex
100
AcDb2dVertex
 10
877.7469294658294
 20
384.928636650786
 30
0.0
  0
VERTEX
  5
6572
330
656C
100
AcDbEntity
  8
UMCL1
  6
Continuous
100
AcDbVertex
100
AcDb2dVertex
 10
880.2469294658294
 20
383.4852609778119
 30
0.0
  0
SEQEND
  5
6573
330
656C
100
AcDbEntity
  8
UMCL1
  6
Continuous
  0
CIRCLE
  5
6574
330
1E
100
AcDbEntity
  8
UMCL1
100
AcDbCircle
 10
880.2469294658296
 20
350.37201232376
 30
0.0
 40
5.5
  0
CIRCLE
  5
6575
330
1E
100
AcDbEntity
  8
UMCL1
100
AcDbCircle
 10
880.2469294658296
 20
350.37201232376
 30
0.0
 40
5.0
  0
CIRCLE
  5
6576
330
1E
100
AcDbEntity
  8
UMCL1
100
AcDbCircle
 10
880.2469294658296
 20
350.37201232376
 30
0.0
 40
4.5
  0
POLYLINE
  5
6577
330
1E
100
AcDbEntity
  8
UMCL1
  6
Continuous
100
AcDb2dPolyline
 66
     1
 10
0.0
 20
0.0
 30
0.0
 70
     1
  0
VERTEX
  5
6578
330
6577
100
AcDbEntity
  8
UMCL1
  6
Continuous
100
AcDbVertex
100
AcDb2dVertex
 10
882.7469294658294
 20
348.9286366507859
 30
0.0
  0
VERTEX
  5
6579
330
6577
100
AcDbEntity
  8
UMCL1
  6
Continuous
100
AcDbVertex
100
AcDb2dVertex
 10
882.7469294658294
 20
351.8153879967341
 30
0.0
  0
VERTEX
  5
657A
330
6577
100
AcDbEntity
  8
UMCL1
  6
Continuous
100
AcDbVertex
100
AcDb2dVertex
 10
880.2469294658294
 20
353.2587636697082
 30
0.0
  0
VERTEX
  5
657B
330
6577
100
AcDbEntity
  8
UMCL1
  6
Continuous
100
AcDbVertex
100
AcDb2dVertex
 10
877.7469294658294
 20
351.8153879967341
 30
0.0
  0
VERTEX
  5
657C
330
6577
100
AcDbEntity
  8
UMCL1
  6
Continuous
100
AcDbVertex
100
AcDb2dVertex
 10
877.7469294658294
 20
348.9286366507859
 30
0.0
  0
VERTEX
  5
657D
330
6577
100
AcDbEntity
  8
UMCL1
  6
Continuous
100
AcDbVertex
100
AcDb2dVertex
 10
880.2469294658294
 20
347.4852609778119
 30
0.0
  0
SEQEND
  5
657E
330
6577
100
AcDbEntity
  8
UMCL1
  6
Continuous
  0
CIRCLE
  5
657F
330
1E
100
AcDbEntity
  8
UMCL1
100
AcDbCircle
 10
916.2469294658295
 20
350.37201232376
 30
0.0
 40
5.5
  0
CIRCLE
  5
6580
330
1E
100
AcDbEntity
  8
UMCL1
100
AcDbCircle
 10
916.2469294658295
 20
350.37201232376
 30
0.0
 40
5.0
  0
CIRCLE
  5
6581
330
1E
100
AcDbEntity
  8
UMCL1
100
AcDbCircle
 10
916.2469294658295
 20
350.37201232376
 30
0.0
 40
4.5
  0
POLYLINE
  5
6582
330
1E
100
AcDbEntity
  8
UMCL1
  6
Continuous
100
AcDb2dPolyline
 66
     1
 10
0.0
 20
0.0
 30
0.0
 70
     1
  0
VERTEX
  5
6583
330
6582
100
AcDbEntity
  8
UMCL1
  6
Continuous
100
AcDbVertex
100
AcDb2dVertex
 10
918.7469294658294
 20
348.9286366507859
 30
0.0
  0
VERTEX
  5
6584
330
6582
100
AcDbEntity
  8
UMCL1
  6
Continuous
100
AcDbVertex
100
AcDb2dVertex
 10
918.7469294658294
 20
351.8153879967341
 30
0.0
  0
VERTEX
  5
6585
330
6582
100
AcDbEntity
  8
UMCL1
  6
Continuous
100
AcDbVertex
100
AcDb2dVertex
 10
916.2469294658293
 20
353.2587636697082
 30
0.0
  0
VERTEX
  5
6586
330
6582
100
AcDbEntity
  8
UMCL1
  6
Continuous
100
AcDbVertex
100
AcDb2dVertex
 10
913.7469294658295
 20
351.8153879967341
 30
0.0
  0
VERTEX
  5
6587
330
6582
100
AcDbEntity
  8
UMCL1
  6
Continuous
100
AcDbVertex
100
AcDb2dVertex
 10
913.7469294658295
 20
348.9286366507859
 30
0.0
  0
VERTEX
  5
6588
330
6582
100
AcDbEntity
  8
UMCL1
  6
Continuous
100
AcDbVertex
100
AcDb2dVertex
 10
916.2469294658293
 20
347.4852609778119
 30
0.0
  0
SEQEND
  5
6589
330
6582
100
AcDbEntity
  8
UMCL1
  6
Continuous
  0
CIRCLE
  5
658A
330
1E
100
AcDbEntity
  8
UMCL1
  6
Continuous
100
AcDbCircle
 10
898.2469294658296
 20
368.3720123237599
 30
0.0
 40
14.00000000000023
  0
LINE
  5
658B
330
1E
100
AcDbEntity
  8
CENTER
  6
CENTER
100
AcDbLine
 10
858.7469294658296
 20
368.37201232376
 30
0.0
 11
939.1602215983027
 21
368.37201232376
 31
0.0
  0
LINE
  5
658C
330
1E
100
AcDbEntity
  8
CENTER
  6
CENTER
100
AcDbLine
 10
898.2469294658294
 20
411.0238886295354
 30
0.0
 11
898.2469294658294
 21
315.911835140715
 31
0.0
  0
LINE
  5
658D
330
1E
100
AcDbEntity
  8
UMCL1
100
AcDbLine
 10
935.7469294658296
 20
399.9116698995804
 30
0.0
 11
935.7469294658294
 21
318.3720123237598
 31
0.0
  0
LINE
  5
658E
330
1E
100
AcDbEntity
  8
UMCL1
100
AcDbLine
 10
860.7469294658296
 20
399.9116698995804
 30
0.0
 11
860.7469294658296
 21
318.3720123237598
 31
0.0
  0
LINE
  5
658F
330
1E
100
AcDbEntity
  8
UMCL1
100
AcDbLine
 10
866.7072718900092
 20
405.87201232376
 30
0.0
 11
929.7865870416499
 21
405.87201232376
 31
0.0
  0
LINE
  5
6590
330
1E
100
AcDbEntity
  8
CENTER
  6
CENTER
100
AcDbLine
 10
861.4969294658296
 20
396.62201232376
 30
0.0
 11
878.4969294658296
 21
396.62201232376
 31
0.0
  0
LINE
  5
6591
330
1E
100
AcDbEntity
  8
CENTER
  6
CENTER
100
AcDbLine
 10
926.4969294658296
 20
405.12201232376
 30
0.0
 11
926.4969294658296
 21
388.12201232376
 31
0.0
  0
LINE
  5
6592
330
1E
100
AcDbEntity
  8
CENTER
  6
CENTER
100
AcDbLine
 10
869.9969294658295
 20
405.12201232376
 30
0.0
 11
869.9969294658295
 21
388.12201232376
 31
0.0
  0
CIRCLE
  5
6593
330
1E
100
AcDbEntity
  8
UMCL1
100
AcDbCircle
 10
869.9969294658295
 20
396.62201232376
 30
0.0
 40
6.5
  0
CIRCLE
  5
6594
330
1E
100
AcDbEntity
  8
UMCL1
100
AcDbCircle
 10
926.4969294658296
 20
396.62201232376
 30
0.0
 40
6.5
  0
LINE
  5
6595
330
1E
100
AcDbEntity
  8
CENTER
  6
CENTER
100
AcDbLine
 10
917.9969294658295
 20
396.62201232376
 30
0.0
 11
934.9969294658295
 21
396.62201232376
 31
0.0
  0
ARC
  5
6596
330
1E
100
AcDbEntity
  8
UMCL1
100
AcDbCircle
 10
898.2469294658296
 20
368.37201232376
 30
0.0
 40
49.0
100
AcDbArc
 50
130.0657662857552
 51
139.934233714246
  0
ARC
  5
6597
330
1E
100
AcDbEntity
  8
UMCL1
100
AcDbCircle
 10
898.2469294658296
 20
368.37201232376
 30
0.0
 40
49.0
100
AcDbArc
 50
40.065766285754
 51
49.93423371424476
  0
LINE
  5
6598
330
1E
100
AcDbEntity
  8
UMCL1
100
AcDbLine
 10
672.9251960170588
 20
405.8720123237602
 30
0.0
 11
632.9251960170588
 21
405.8720123237602
 31
0.0
  0
LINE
  5
6599
330
1E
100
AcDbEntity
  8
UMCL1
100
AcDbLine
 10
672.9251960170588
 20
330.8720123237602
 30
0.0
 11
632.9251960170587
 21
330.8720123237602
 31
0.0
  0
LINE
  5
659A
330
1E
100
AcDbEntity
  8
UMCL1
100
AcDbLine
 10
632.9251960170588
 20
405.8720123237602
 30
0.0
 11
632.9251960170587
 21
330.8720123237602
 31
0.0
  0
LINE
  5
659B
330
1E
100
AcDbEntity
  8
CENTER
  6
CENTER
100
AcDbLine
 10
692.7102865138856
 20
340.1220123237603
 30
0.0
 11
660.2198960523816
 21
340.1220123237603
 31
0.0
  0
LINE
  5
659C
330
1E
100
AcDbEntity
  8
UMCL1
100
AcDbLine
 10
672.9251960170588
 20
405.8720123237602
 30
0.0
 11
672.9251960170588
 21
326.37201232376
 31
0.0
  0
LINE
  5
659D
330
1E
100
AcDbEntity
  8
UMCL1
100
AcDbLine
 10
435.9251960170587
 20
403.37201232376
 30
0.0
 11
632.9251960170588
 21
403.3720123237599
 31
0.0
  0
LINE
  5
659E
330
1E
100
AcDbEntity
  8
UMCL1
100
AcDbLine
 10
435.9251960170587
 20
333.3720123237601
 30
0.0
 11
632.9251960170589
 21
333.3720123237601
 31
0.0
  0
LINE
  5
659F
330
1E
100
AcDbEntity
  8
UMCL1
100
AcDbLine
 10
406.9251960170587
 20
346.7786285123486
 30
0.0
 11
406.9251960170587
 21
389.9653961351717
 31
0.0
  0
LINE
  5
65A0
330
1E
100
AcDbEntity
  8
UMCL1
100
AcDbLine
 10
403.9251960170588
 20
326.3720123237602
 30
0.0
 11
403.9251960170587
 21
405.3720123237601
 31
0.0
  0
LINE
  5
65A1
330
1E
100
AcDbEntity
  8
UMCL1
100
AcDbLine
 10
435.9251960170587
 20
393.3720123237602
 30
0.0
 11
409.8783267380571
 21
392.9650299912757
 31
0.0
  0
LINE
  5
65A2
330
1E
100
AcDbEntity
  8
UMCL1
100
AcDbLine
 10
435.9251960170587
 20
405.8720123237601
 30
0.0
 11
403.9251960170587
 21
405.3720123237601
 31
0.0
  0
LINE
  5
65A3
330
1E
100
AcDbEntity
  8
CENTER
  6
CENTER
100
AcDbLine
 10
401.9251960170588
 20
396.6220123237603
 30
0.0
 11
449.5788995331699
 21
396.6220123237603
 31
0.0
  0
ARC
  5
65A4
330
1E
100
AcDbEntity
  8
UMCL1
100
AcDbCircle
 10
409.9251960170588
 20
389.9653961351717
 30
0.0
 40
3.0
100
AcDbArc
 50
90.89517371021189
 51
180.0
  0
CIRCLE
  5
65A5
330
1E
100
AcDbEntity
  8
UMCL1
100
AcDbCircle
 10
419.9251960170587
 20
361.3720123237602
 30
0.0
 40
11.5
  0
LINE
  5
65A6
330
1E
100
AcDbEntity
  8
CENTER
  6
CENTER
100
AcDbLine
 10
435.425196017059
 20
377.3720123237601
 30
0.0
 11
422.4251960170589
 21
377.3720123237601
 31
0.0
  0
ARC
  5
65A7
330
1E
100
AcDbEntity
  8
UMCL1
 62
     2
100
AcDbCircle
 10
419.9251960170587
 20
361.3720123237602
 30
0.0
 40
8.25
100
AcDbArc
 50
77.92480383695485
 51
18.66239316544397
  0
CIRCLE
  5
65A8
330
1E
100
AcDbEntity
  8
UMCL1
100
AcDbCircle
 10
419.9251960170587
 20
361.3720123237602
 30
0.0
 40
7.5
  0
LINE
  5
65A9
330
1E
100
AcDbEntity
  8
CENTER
  6
CENTER
100
AcDbLine
 10
432.4251960170587
 20
361.3720123237602
 30
0.0
 11
407.4251960170587
 21
361.3720123237602
 31
0.0
  0
LINE
  5
65AA
330
1E
100
AcDbEntity
  8
CENTER
  6
CENTER
100
AcDbLine
 10
428.9251960170587
 20
383.8720123237601
 30
0.0
 11
428.9251960170587
 21
370.8720123237601
 31
0.0
  0
LINE
  5
65AB
330
1E
100
AcDbEntity
  8
CENTER
  6
CENTER
100
AcDbLine
 10
419.9251960170588
 20
373.8720123237602
 30
0.0
 11
419.9251960170587
 21
348.8720123237602
 31
0.0
  0
LINE
  5
65AC
330
1E
100
AcDbEntity
  8
UMCL1
100
AcDbLine
 10
435.9251960170587
 20
343.3720123237602
 30
0.0
 11
409.8783267380571
 21
343.7789946562446
 31
0.0
  0
LINE
  5
65AD
330
1E
100
AcDbEntity
  8
UMCL1
100
AcDbLine
 10
435.9251960170587
 20
330.8720123237602
 30
0.0
 11
403.9251960170587
 21
331.3720123237601
 31
0.0
  0
ARC
  5
65AE
330
1E
100
AcDbEntity
  8
UMCL1
100
AcDbCircle
 10
409.9251960170588
 20
346.7786285123486
 30
0.0
 40
3.0
100
AcDbArc
 50
180.0
 51
269.1048262897897
  0
LINE
  5
65AF
330
1E
100
AcDbEntity
  8
UMCL1
100
AcDbLine
 10
403.9251960170587
 20
390.8720123237602
 30
0.0
 11
399.925196017059
 21
390.8720123237602
 31
0.0
  0
ARC
  5
65B0
330
1E
100
AcDbEntity
  8
UMCL1
100
AcDbCircle
 10
399.9251960170589
 20
389.8720123237601
 30
0.0
 40
1.0
100
AcDbArc
 50
90.0
 51
180.0
  0
CIRCLE
  5
65B1
330
1E
100
AcDbEntity
  8
UMCL1
100
AcDbCircle
 10
419.9251960170587
 20
361.3720123237602
 30
0.0
 40
8.499999999999957
  0
CIRCLE
  5
65B2
330
1E
100
AcDbEntity
  8
UMCL1
100
AcDbCircle
 10
419.9251960170587
 20
361.3720123237602
 30
0.0
 40
5.5
  0
LINE
  5
65B3
330
1E
100
AcDbEntity
  8
UMCL1
100
AcDbLine
 10
817.9251960170587
 20
528.4743270904918
 30
0.0
 11
817.9251960170587
 21
500.4743270904919
 31
0.0
  0
LINE
  5
65B4
330
1E
100
AcDbEntity
  8
CENTER
  6
CENTER
100
AcDbLine
 10
798.9251960170588
 20
522.1340046530862
 30
0.0
 11
798.9251960170584
 21
506.495612484241
 31
0.0
  0
LINE
  5
65B5
330
1E
100
AcDbEntity
  8
CENTER
  6
CENTER
100
AcDbLine
 10
819.9251960170586
 20
514.4743270904919
 30
0.0
 11
357.4747570510463
 21
514.4743270904919
 31
0.0
  0
LINE
  5
65B6
330
1E
100
AcDbEntity
  8
UMCL1
100
AcDbLine
 10
682.9251960170586
 20
489.0743270904918
 30
0.0
 11
672.9251960170586
 21
489.0743270904918
 31
0.0
  0
LINE
  5
65B7
330
1E
100
AcDbEntity
  8
UMCL1
100
AcDbLine
 10
682.9251960170586
 20
539.8743270904917
 30
0.0
 11
672.9251960170586
 21
539.8743270904917
 31
0.0
  0
LINE
  5
65B8
330
1E
100
AcDbEntity
  8
CENTER
  6
CENTER
100
AcDbLine
 10
684.9251960170586
 20
496.4743270904917
 30
0.0
 11
670.9251960170588
 21
496.4743270904917
 31
0.0
  0
LINE
  5
65B9
330
1E
100
AcDbEntity
  8
CENTER
  6
CENTER
100
AcDbLine
 10
684.9251960170586
 20
532.4743270904917
 30
0.0
 11
670.9251960170586
 21
532.4743270904917
 31
0.0
  0
LINE
  5
65BA
330
1E
100
AcDbEntity
  8
UMCL1
100
AcDbLine
 10
711.9251960170589
 20
551.9743270904919
 30
0.0
 11
632.9251960170588
 21
551.9743270904919
 31
0.0
  0
LINE
  5
65BB
330
1E
100
AcDbEntity
  8
UMCL1
100
AcDbLine
 10
711.9251960170589
 20
476.9743270904919
 30
0.0
 11
632.9251960170587
 21
476.9743270904919
 31
0.0
  0
LINE
  5
65BC
330
1E
100
AcDbEntity
  8
CENTER
  6
CENTER
100
AcDbLine
 10
652.9251960170588
 20
523.4423590257348
 30
0.0
 11
652.9251960170588
 21
505.2588751002327
 31
0.0
  0
LINE
  5
65BD
330
1E
100
AcDbEntity
  8
CENTER
  6
CENTER
100
AcDbLine
 10
692.4481889657596
 20
486.224327090492
 30
0.0
 11
665.7553923740294
 21
486.224327090492
 31
0.0
  0
LINE
  5
65BE
330
1E
100
AcDbEntity
  8
UMCL1
100
AcDbLine
 10
682.9251960170592
 20
539.8743270904917
 30
0.0
 11
682.9251960170586
 21
489.0743270904918
 31
0.0
  0
LINE
  5
65BF
330
1E
100
AcDbEntity
  8
UMCL1
100
AcDbLine
 10
435.9251960170586
 20
533.2743270904919
 30
0.0
 11
632.9251960170587
 21
533.2743270904919
 31
0.0
  0
LINE
  5
65C0
330
1E
100
AcDbEntity
  8
UMCL1
100
AcDbLine
 10
435.9251960170587
 20
549.4743270904917
 30
0.0
 11
632.9251960170588
 21
549.4743270904917
 31
0.0
  0
LINE
  5
65C1
330
1E
100
AcDbEntity
  8
UMCL1
100
AcDbLine
 10
435.9251960170587
 20
495.6743270904921
 30
0.0
 11
632.9251960170587
 21
495.6743270904918
 31
0.0
  0
LINE
  5
65C2
330
1E
100
AcDbEntity
  8
UMCL1
100
AcDbLine
 10
435.9251960170587
 20
479.4743270904917
 30
0.0
 11
632.9251960170589
 21
479.4743270904919
 31
0.0
  0
LINE
  5
65C3
330
1E
100
AcDbEntity
  8
UMCL1
100
AcDbLine
 10
435.9251960170588
 20
476.9743270904919
 30
0.0
 11
435.9251960170587
 21
551.9743270904919
 31
0.0
  0
LINE
  5
65C4
330
1E
100
AcDbEntity
  8
UMCL1
100
AcDbLine
 10
403.9251960170587
 20
476.9743270904919
 30
0.0
 11
403.9251960170587
 21
551.9743270904919
 31
0.0
  0
LINE
  5
65C5
330
1E
100
AcDbEntity
  8
UMCL1
100
AcDbLine
 10
435.9251960170587
 20
551.9743270904919
 30
0.0
 11
403.9251960170587
 21
551.4743270904919
 31
0.0
  0
LINE
  5
65C6
330
1E
100
AcDbEntity
  8
CENTER
  6
CENTER
100
AcDbLine
 10
385.0569921598246
 20
542.7243270904921
 30
0.0
 11
416.6206305278861
 21
542.7243270904921
 31
0.0
  0
LINE
  5
65C7
330
1E
100
AcDbEntity
  8
CENTER
  6
CENTER
100
AcDbLine
 10
428.9251960170587
 20
495.5850606753191
 30
0.0
 11
428.9251960170587
 21
474.1590139630086
 31
0.0
  0
LINE
  5
65C8
330
1E
100
AcDbEntity
  8
CENTER
  6
CENTER
100
AcDbLine
 10
419.9251960170588
 20
495.5501809986644
 30
0.0
 11
419.9251960170587
 21
474.188875463551
 31
0.0
  0
LINE
  5
65C9
330
1E
100
AcDbEntity
  8
UMCL1
100
AcDbLine
 10
435.9251960170587
 20
476.9743270904919
 30
0.0
 11
403.9251960170587
 21
477.4743270904918
 31
0.0
  0
LINE
  5
65CA
330
1E
100
AcDbEntity
  8
CENTER
  6
CENTER
100
AcDbLine
 10
385.0569921598246
 20
486.224327090492
 30
0.0
 11
416.6206305278861
 21
486.224327090492
 31
0.0
  0
LINE
  5
65CB
330
1E
100
AcDbEntity
  8
UMCL1
100
AcDbLine
 10
403.9251960170588
 20
491.974327090492
 30
0.0
 11
399.9251960170588
 21
491.9743270904921
 31
0.0
  0
LINE
  5
65CC
330
1E
100
AcDbEntity
  8
UMCL1
100
AcDbLine
 10
403.9251960170587
 20
536.9743270904918
 30
0.0
 11
399.9251960170587
 21
536.9743270904918
 31
0.0
  0
ARC
  5
65CD
330
1E
100
AcDbEntity
  8
UMCL1
100
AcDbCircle
 10
399.9251960170588
 20
492.9743270904919
 30
0.0
 40
1.0
100
AcDbArc
 50
180.0
 51
270.0
  0
ARC
  5
65CE
330
1E
100
AcDbEntity
  8
UMCL1
100
AcDbCircle
 10
399.9251960170587
 20
535.974327090492
 30
0.0
 40
1.0
100
AcDbArc
 50
90.0
 51
180.0
  0
CIRCLE
  5
65CF
330
1E
100
AcDbEntity
  8
UMCL1
  6
Continuous
100
AcDbCircle
 10
798.9251960170587
 20
514.4743270904919
 30
0.0
 40
4.813977047697449
  0
LINE
  5
65D0
330
1E
100
AcDbEntity
  8
UMCL1
100
AcDbLine
 10
814.9251960170587
 20
497.4743270904918
 30
0.0
 11
814.9251960170586
 21
531.4743270904918
 31
0.0
  0
ARC
  5
65D1
330
1E
100
AcDbEntity
  8
UMCL1
  6
Continuous
 62
     2
100
AcDbCircle
 10
798.9251960170587
 20
514.4743270904919
 30
0.0
 40
5.314791108857207
100
AcDbArc
 50
77.6094087641967
 51
10.94694713193136
  0
LINE
  5
65D2
330
1E
100
AcDbEntity
  8
UMCL1
100
AcDbLine
 10
632.9251960170587
 20
551.9743270904919
 30
0.0
 11
632.9251960170587
 21
476.9743270904919
 31
0.0
  0
LINE
  5
65D3
330
1E
100
AcDbEntity
  8
UMCL1
100
AcDbLine
 10
672.9251960170586
 20
551.9743270904919
 30
0.0
 11
672.9251960170586
 21
476.9743270904919
 31
0.0
  0
LINE
  5
65D4
330
1E
100
AcDbEntity
  8
UMCL1
100
AcDbLine
 10
435.9251960170587
 20
539.8743270904922
 30
0.0
 11
435.9251960170588
 21
489.074327090492
 31
0.0
  0
LINE
  5
65D5
330
1E
100
AcDbEntity
  8
CENTER
  6
CENTER
100
AcDbLine
 10
250.9231189263742
 20
368.37201232376
 30
0.0
 11
329.9231189263742
 21
368.37201232376
 31
0.0
  0
LINE
  5
65D6
330
1E
100
AcDbEntity
  8
CENTER
  6
CENTER
100
AcDbLine
 10
290.4231189263741
 20
411.1678691049706
 30
0.0
 11
290.4231189263742
 21
316.2557235879318
 31
0.0
  0
LINE
  5
65D7
330
1E
100
AcDbEntity
  8
CENTER
  6
CENTER
100
AcDbLine
 10
252.9264089697628
 20
396.62201232376
 30
0.0
 11
270.6731189263742
 21
396.62201232376
 31
0.0
  0
LINE
  5
65D8
330
1E
100
AcDbEntity
  8
CENTER
  6
CENTER
100
AcDbLine
 10
318.6731189263742
 20
405.8687222803714
 30
0.0
 11
318.6731189263742
 21
387.4026196451321
 31
0.0
  0
LINE
  5
65D9
330
1E
100
AcDbEntity
  8
CENTER
  6
CENTER
100
AcDbLine
 10
262.1731189263742
 20
405.8687222803714
 30
0.0
 11
262.1731189263742
 21
388.12201232376
 31
0.0
  0
LINE
  5
65DA
330
1E
100
AcDbEntity
  8
CENTER
  6
CENTER
100
AcDbLine
 10
253.6731189263742
 20
340.12201232376
 30
0.0
 11
270.6731189263742
 21
340.12201232376
 31
0.0
  0
CIRCLE
  5
65DB
330
1E
100
AcDbEntity
  8
UMCL1
100
AcDbCircle
 10
262.1731189263742
 20
396.62201232376
 30
0.0
 40
6.5
  0
CIRCLE
  5
65DC
330
1E
100
AcDbEntity
  8
UMCL1
100
AcDbCircle
 10
318.6731189263742
 20
396.62201232376
 30
0.0
 40
6.5
  0
LINE
  5
65DD
330
1E
100
AcDbEntity
  8
CENTER
  6
CENTER
100
AcDbLine
 10
310.1731189263742
 20
340.12201232376
 30
0.0
 11
327.1731189263742
 21
340.12201232376
 31
0.0
  0
LINE
  5
65DE
330
1E
100
AcDbEntity
  8
CENTER
  6
CENTER
100
AcDbLine
 10
262.1731189263742
 20
348.62201232376
 30
0.0
 11
262.1731189263742
 21
331.62201232376
 31
0.0
  0
LINE
  5
65DF
330
1E
100
AcDbEntity
  8
CENTER
  6
CENTER
100
AcDbLine
 10
309.2929897795715
 20
396.62201232376
 30
0.0
 11
327.9198288829854
 21
396.62201232376
 31
0.0
  0
LINE
  5
65E0
330
1E
100
AcDbEntity
  8
CENTER
  6
CENTER
100
AcDbLine
 10
318.6731189263742
 20
348.62201232376
 30
0.0
 11
318.6731189263742
 21
331.62201232376
 31
0.0
  0
ARC
  5
65E1
330
1E
100
AcDbEntity
  8
UMCL1
100
AcDbCircle
 10
290.4231189263741
 20
368.3720123237599
 30
0.0
 40
23.5
100
AcDbArc
 50
221.8103148957796
 51
318.1896851042204
  0
LINE
  5
65E2
330
1E
100
AcDbEntity
  8
UMCL1
100
AcDbLine
 10
327.9231189263741
 20
318.3720123237599
 30
0.0
 11
252.9231189263741
 21
318.3720123237599
 31
0.0
  0
LINE
  5
65E3
330
1E
100
AcDbEntity
  8
UMCL1
100
AcDbLine
 10
327.9231189263741
 20
323.3720123237599
 30
0.0
 11
252.9231189263742
 21
323.3720123237598
 31
0.0
  0
ARC
  5
65E4
330
1E
100
AcDbEntity
  8
UMCL1
100
AcDbCircle
 10
309.4296967351224
 20
351.3720123237599
 30
0.0
 40
2.0
100
AcDbArc
 50
90.0
 51
138.1896851042203
  0
LINE
  5
65E5
330
1E
100
AcDbEntity
  8
UMCL1
100
AcDbLine
 10
324.9231189263741
 20
353.3720123237599
 30
0.0
 11
309.4296967351224
 21
353.3720123237599
 31
0.0
  0
LINE
  5
65E6
330
1E
100
AcDbEntity
  8
CENTER
  6
CENTER
100
AcDbLine
 10
315.4231189263741
 20
316.3720123237599
 30
0.0
 11
315.4231189263741
 21
325.3720123237599
 31
0.0
  0
LINE
  5
65E7
330
1E
100
AcDbEntity
  8
DASHED
  6
HIDDEN
100
AcDbLine
 10
319.9231189263741
 20
318.3720123237599
 30
0.0
 11
319.9231189263741
 21
323.3720123237599
 31
0.0
  0
LINE
  5
65E8
330
1E
100
AcDbEntity
  8
DASHED
  6
HIDDEN
100
AcDbLine
 10
310.9231189263741
 20
318.3720123237599
 30
0.0
 11
310.9231189263741
 21
323.3720123237599
 31
0.0
  0
ARC
  5
65E9
330
1E
100
AcDbEntity
  8
UMCL1
100
AcDbCircle
 10
324.9231189263741
 20
350.3720123237599
 30
0.0
 40
3.0
100
AcDbArc
 50
0.0
 51
90.0
  0
ARC
  5
65EA
330
1E
100
AcDbEntity
  8
UMCL1
100
AcDbCircle
 10
255.9231189263741
 20
350.3720123237599
 30
0.0
 40
3.0
100
AcDbArc
 50
90.0
 51
180.0
  0
ARC
  5
65EB
330
1E
100
AcDbEntity
  8
UMCL1
100
AcDbCircle
 10
271.4165411176259
 20
351.3720123237599
 30
0.0
 40
2.0
100
AcDbArc
 50
41.81031489577963
 51
90.0
  0
LINE
  5
65EC
330
1E
100
AcDbEntity
  8
UMCL1
100
AcDbLine
 10
271.4165411176259
 20
353.3720123237599
 30
0.0
 11
255.9231189263741
 21
353.3720123237599
 31
0.0
  0
LINE
  5
65ED
330
1E
100
AcDbEntity
  8
CENTER
  6
CENTER
100
AcDbLine
 10
265.4231189263741
 20
316.3720123237599
 30
0.0
 11
265.4231189263741
 21
325.3720123237599
 31
0.0
  0
LINE
  5
65EE
330
1E
100
AcDbEntity
  8
DASHED
  6
HIDDEN
100
AcDbLine
 10
269.9231189263741
 20
318.3720123237599
 30
0.0
 11
269.9231189263741
 21
323.3720123237599
 31
0.0
  0
LINE
  5
65EF
330
1E
100
AcDbEntity
  8
DASHED
  6
HIDDEN
100
AcDbLine
 10
260.9231189263741
 20
318.3720123237599
 30
0.0
 11
260.9231189263741
 21
323.3720123237598
 31
0.0
  0
CIRCLE
  5
65F0
330
1E
100
AcDbEntity
  8
UMCL1
  6
Continuous
100
AcDbCircle
 10
262.1731189263741
 20
340.1220123237599
 30
0.0
 40
6.5
  0
CIRCLE
  5
65F1
330
1E
100
AcDbEntity
  8
UMCL1
  6
Continuous
100
AcDbCircle
 10
262.1731189263741
 20
340.1220123237599
 30
0.0
 40
5.922632794457276
  0
POLYLINE
  5
65F2
330
1E
100
AcDbEntity
  8
UMCL1
  6
Continuous
100
AcDb2dPolyline
 66
     1
 10
0.0
 20
0.0
 30
0.0
 70
     1
  0
VERTEX
  5
65F3
330
65F2
100
AcDbEntity
  8
UMCL1
  6
Continuous
100
AcDbVertex
100
AcDb2dVertex
 10
263.9051697339423
 20
343.1220123237599
 30
0.0
  0
VERTEX
  5
65F4
330
65F2
100
AcDbEntity
  8
UMCL1
  6
Continuous
100
AcDbVertex
100
AcDb2dVertex
 10
265.6372205415122
 20
340.1220123237599
 30
0.0
  0
VERTEX
  5
65F5
330
65F2
100
AcDbEntity
  8
UMCL1
  6
Continuous
100
AcDbVertex
100
AcDb2dVertex
 10
263.9051697339423
 20
337.1220123237599
 30
0.0
  0
VERTEX
  5
65F6
330
65F2
100
AcDbEntity
  8
UMCL1
  6
Continuous
100
AcDbVertex
100
AcDb2dVertex
 10
260.441068118806
 20
337.1220123237599
 30
0.0
  0
VERTEX
  5
65F7
330
65F2
100
AcDbEntity
  8
UMCL1
  6
Continuous
100
AcDbVertex
100
AcDb2dVertex
 10
258.709017311236
 20
340.1220123237599
 30
0.0
  0
VERTEX
  5
65F8
330
65F2
100
AcDbEntity
  8
UMCL1
  6
Continuous
100
AcDbVertex
100
AcDb2dVertex
 10
260.441068118806
 20
343.1220123237599
 30
0.0
  0
SEQEND
  5
65F9
330
65F2
100
AcDbEntity
  8
UMCL1
  6
Continuous
  0
CIRCLE
  5
65FA
330
1E
100
AcDbEntity
  8
UMCL1
  6
Continuous
100
AcDbCircle
 10
318.6731189263741
 20
340.1220123237599
 30
0.0
 40
6.5
  0
CIRCLE
  5
65FB
330
1E
100
AcDbEntity
  8
UMCL1
  6
Continuous
100
AcDbCircle
 10
318.6731189263741
 20
340.1220123237599
 30
0.0
 40
5.922632794457276
  0
POLYLINE
  5
65FC
330
1E
100
AcDbEntity
  8
UMCL1
  6
Continuous
100
AcDb2dPolyline
 66
     1
 10
0.0
 20
0.0
 30
0.0
 70
     1
  0
VERTEX
  5
65FD
330
65FC
100
AcDbEntity
  8
UMCL1
  6
Continuous
100
AcDbVertex
100
AcDb2dVertex
 10
320.4051697339423
 20
343.1220123237599
 30
0.0
  0
VERTEX
  5
65FE
330
65FC
100
AcDbEntity
  8
UMCL1
  6
Continuous
100
AcDbVertex
100
AcDb2dVertex
 10
322.1372205415122
 20
340.1220123237599
 30
0.0
  0
VERTEX
  5
65FF
330
65FC
100
AcDbEntity
  8
UMCL1
  6
Continuous
100
AcDbVertex
100
AcDb2dVertex
 10
320.4051697339423
 20
337.1220123237599
 30
0.0
  0
VERTEX
  5
6600
330
65FC
100
AcDbEntity
  8
UMCL1
  6
Continuous
100
AcDbVertex
100
AcDb2dVertex
 10
316.941068118806
 20
337.1220123237599
 30
0.0
  0
VERTEX
  5
6601
330
65FC
100
AcDbEntity
  8
UMCL1
  6
Continuous
100
AcDbVertex
100
AcDb2dVertex
 10
315.209017311236
 20
340.1220123237599
 30
0.0
  0
VERTEX
  5
6602
330
65FC
100
AcDbEntity
  8
UMCL1
  6
Continuous
100
AcDbVertex
100
AcDb2dVertex
 10
316.941068118806
 20
343.1220123237599
 30
0.0
  0
SEQEND
  5
6603
330
65FC
100
AcDbEntity
  8
UMCL1
  6
Continuous
  0
LINE
  5
6604
330
1E
100
AcDbEntity
  8
CENTER
  6
CENTER
100
AcDbLine
 10
861.4969294658296
 20
340.1220123237599
 30
0.0
 11
878.4969294658296
 21
340.1220123237599
 31
0.0
  0
LINE
  5
6605
330
1E
100
AcDbEntity
  8
CENTER
  6
CENTER
100
AcDbLine
 10
917.9969294658295
 20
340.1220123237599
 30
0.0
 11
934.9969294658295
 21
340.1220123237599
 31
0.0
  0
LINE
  5
6606
330
1E
100
AcDbEntity
  8
CENTER
  6
CENTER
100
AcDbLine
 10
869.9969294658295
 20
348.6220123237599
 30
0.0
 11
869.9969294658295
 21
331.6220123237599
 31
0.0
  0
LINE
  5
6607
330
1E
100
AcDbEntity
  8
CENTER
  6
CENTER
100
AcDbLine
 10
926.4969294658296
 20
348.6220123237599
 30
0.0
 11
926.4969294658296
 21
331.6220123237599
 31
0.0
  0
LINE
  5
6608
330
1E
100
AcDbEntity
  8
UMCL1
100
AcDbLine
 10
935.7469294658296
 20
318.3720123237598
 30
0.0
 11
860.7469294658296
 21
318.3720123237598
 31
0.0
  0
LINE
  5
6609
330
1E
100
AcDbEntity
  8
UMCL1
100
AcDbLine
 10
935.7469294658296
 20
323.3720123237598
 30
0.0
 11
860.7469294658296
 21
323.3720123237597
 31
0.0
  0
LINE
  5
660A
330
1E
100
AcDbEntity
  8
CENTER
  6
CENTER
100
AcDbLine
 10
923.2469294658296
 20
315.6306523824915
 30
0.0
 11
923.2469294658296
 21
325.3720123237598
 31
0.0
  0
LINE
  5
660B
330
1E
100
AcDbEntity
  8
DASHED
  6
HIDDEN
100
AcDbLine
 10
927.7469294658295
 20
318.3720123237598
 30
0.0
 11
927.7469294658295
 21
323.3720123237598
 31
0.0
  0
LINE
  5
660C
330
1E
100
AcDbEntity
  8
DASHED
  6
HIDDEN
100
AcDbLine
 10
918.7469294658296
 20
318.3720123237598
 30
0.0
 11
918.7469294658296
 21
323.3720123237598
 31
0.0
  0
ARC
  5
660D
330
1E
100
AcDbEntity
  8
UMCL1
100
AcDbCircle
 10
932.7469294658296
 20
350.3720123237598
 30
0.0
 40
3.0
100
AcDbArc
 50
0.0
 51
90.0
  0
ARC
  5
660E
330
1E
100
AcDbEntity
  8
UMCL1
100
AcDbCircle
 10
863.7469294658295
 20
350.3720123237598
 30
0.0
 40
3.0
100
AcDbArc
 50
90.0
 51
180.0
  0
LINE
  5
660F
330
1E
100
AcDbEntity
  8
CENTER
  6
CENTER
100
AcDbLine
 10
873.2469294658296
 20
315.6022874597578
 30
0.0
 11
873.2469294658296
 21
325.3720123237598
 31
0.0
  0
LINE
  5
6610
330
1E
100
AcDbEntity
  8
DASHED
  6
HIDDEN
100
AcDbLine
 10
877.7469294658295
 20
318.3720123237598
 30
0.0
 11
877.7469294658295
 21
323.3720123237598
 31
0.0
  0
LINE
  5
6611
330
1E
100
AcDbEntity
  8
DASHED
  6
HIDDEN
100
AcDbLine
 10
868.7469294658296
 20
318.3720123237598
 30
0.0
 11
868.7469294658296
 21
323.3720123237597
 31
0.0
  0
CIRCLE
  5
6612
330
1E
100
AcDbEntity
  8
UMCL1
  6
Continuous
100
AcDbCircle
 10
869.9969294658295
 20
340.1220123237598
 30
0.0
 40
6.5
  0
CIRCLE
  5
6613
330
1E
100
AcDbEntity
  8
UMCL1
  6
Continuous
100
AcDbCircle
 10
869.9969294658295
 20
340.1220123237598
 30
0.0
 40
5.922632794457276
  0
POLYLINE
  5
6614
330
1E
100
AcDbEntity
  8
UMCL1
  6
Continuous
100
AcDb2dPolyline
 66
     1
 10
0.0
 20
0.0
 30
0.0
 70
     1
  0
VERTEX
  5
6615
330
6614
100
AcDbEntity
  8
UMCL1
  6
Continuous
100
AcDbVertex
100
AcDb2dVertex
 10
871.7289802733978
 20
343.1220123237598
 30
0.0
  0
VERTEX
  5
6616
330
6614
100
AcDbEntity
  8
UMCL1
  6
Continuous
100
AcDbVertex
100
AcDb2dVertex
 10
873.4610310809676
 20
340.1220123237598
 30
0.0
  0
VERTEX
  5
6617
330
6614
100
AcDbEntity
  8
UMCL1
  6
Continuous
100
AcDbVertex
100
AcDb2dVertex
 10
871.7289802733978
 20
337.1220123237598
 30
0.0
  0
VERTEX
  5
6618
330
6614
100
AcDbEntity
  8
UMCL1
  6
Continuous
100
AcDbVertex
100
AcDb2dVertex
 10
868.2648786582614
 20
337.1220123237598
 30
0.0
  0
VERTEX
  5
6619
330
6614
100
AcDbEntity
  8
UMCL1
  6
Continuous
100
AcDbVertex
100
AcDb2dVertex
 10
866.5328278506914
 20
340.1220123237598
 30
0.0
  0
VERTEX
  5
661A
330
6614
100
AcDbEntity
  8
UMCL1
  6
Continuous
100
AcDbVertex
100
AcDb2dVertex
 10
868.2648786582614
 20
343.1220123237598
 30
0.0
  0
SEQEND
  5
661B
330
6614
100
AcDbEntity
  8
UMCL1
  6
Continuous
  0
CIRCLE
  5
661C
330
1E
100
AcDbEntity
  8
UMCL1
  6
Continuous
100
AcDbCircle
 10
926.4969294658296
 20
340.1220123237598
 30
0.0
 40
6.5
  0
CIRCLE
  5
661D
330
1E
100
AcDbEntity
  8
UMCL1
  6
Continuous
100
AcDbCircle
 10
926.4969294658296
 20
340.1220123237598
 30
0.0
 40
5.922632794457276
  0
POLYLINE
  5
661E
330
1E
100
AcDbEntity
  8
UMCL1
  6
Continuous
100
AcDb2dPolyline
 66
     1
 10
0.0
 20
0.0
 30
0.0
 70
     1
  0
VERTEX
  5
661F
330
661E
100
AcDbEntity
  8
UMCL1
  6
Continuous
100
AcDbVertex
100
AcDb2dVertex
 10
928.2289802733977
 20
343.1220123237598
 30
0.0
  0
VERTEX
  5
6620
330
661E
100
AcDbEntity
  8
UMCL1
  6
Continuous
100
AcDbVertex
100
AcDb2dVertex
 10
929.9610310809677
 20
340.1220123237598
 30
0.0
  0
VERTEX
  5
6621
330
661E
100
AcDbEntity
  8
UMCL1
  6
Continuous
100
AcDbVertex
100
AcDb2dVertex
 10
928.2289802733977
 20
337.1220123237598
 30
0.0
  0
VERTEX
  5
6622
330
661E
100
AcDbEntity
  8
UMCL1
  6
Continuous
100
AcDbVertex
100
AcDb2dVertex
 10
924.7648786582614
 20
337.1220123237598
 30
0.0
  0
VERTEX
  5
6623
330
661E
100
AcDbEntity
  8
UMCL1
  6
Continuous
100
AcDbVertex
100
AcDb2dVertex
 10
923.0328278506915
 20
340.1220123237598
 30
0.0
  0
VERTEX
  5
6624
330
661E
100
AcDbEntity
  8
UMCL1
  6
Continuous
100
AcDbVertex
100
AcDb2dVertex
 10
924.7648786582614
 20
343.1220123237598
 30
0.0
  0
SEQEND
  5
6625
330
661E
100
AcDbEntity
  8
UMCL1
  6
Continuous
  0
LINE
  5
6626
330
1E
100
AcDbEntity
  8
UMCL1
100
AcDbLine
 10
877.8469294658293
 20
341.97201232376
 30
0.0
 11
918.5222839633469
 21
341.97201232376
 31
0.0
  0
LINE
  5
6627
330
1E
100
AcDbEntity
  8
UMCL1
100
AcDbLine
 10
871.8469294658293
 20
347.97201232376
 30
0.0
 11
877.8469294658293
 21
341.97201232376
 31
0.0
  0
LINE
  5
6628
330
1E
100
AcDbEntity
  8
UMCL1
100
AcDbLine
 10
871.8469294658293
 20
353.3720123237598
 30
0.0
 11
863.7469294658295
 21
353.3720123237598
 31
0.0
  0
LINE
  5
6629
330
1E
100
AcDbEntity
  8
UMCL1
100
AcDbLine
 10
871.8469294658293
 20
353.3720123237598
 30
0.0
 11
871.8469294658293
 21
347.97201232376
 31
0.0
  0
LINE
  5
662A
330
1E
100
AcDbEntity
  8
UMCL1
100
AcDbLine
 10
924.6469294658297
 20
347.97201232376
 30
0.0
 11
918.6469294658298
 21
341.97201232376
 31
0.0
  0
LINE
  5
662B
330
1E
100
AcDbEntity
  8
UMCL1
100
AcDbLine
 10
924.6469294658297
 20
353.3720123237598
 30
0.0
 11
924.6469294658297
 21
347.97201232376
 31
0.0
  0
LINE
  5
662C
330
1E
100
AcDbEntity
  8
UMCL1
100
AcDbLine
 10
932.7469294658296
 20
353.3720123237598
 30
0.0
 11
924.6469294658297
 21
353.3720123237598
 31
0.0
  0
POLYLINE
  5
662D
330
1E
100
AcDbEntity
  8
UMCL1
  6
Continuous
100
AcDb2dPolyline
 66
     1
 10
0.0
 20
0.0
 30
0.0
 70
     1
  0
VERTEX
  5
662E
330
662D
100
AcDbEntity
  8
UMCL1
  6
Continuous
100
AcDbVertex
100
AcDb2dVertex
 10
873.9969294658296
 20
394.3126112470015
 30
0.0
  0
VERTEX
  5
662F
330
662D
100
AcDbEntity
  8
UMCL1
  6
Continuous
100
AcDbVertex
100
AcDb2dVertex
 10
873.9969294658296
 20
398.9314134005185
 30
0.0
  0
VERTEX
  5
6630
330
662D
100
AcDbEntity
  8
UMCL1
  6
Continuous
100
AcDbVertex
100
AcDb2dVertex
 10
869.9969294658295
 20
401.240814477277
 30
0.0
  0
VERTEX
  5
6631
330
662D
100
AcDbEntity
  8
UMCL1
  6
Continuous
100
AcDbVertex
100
AcDb2dVertex
 10
865.9969294658296
 20
398.9314134005185
 30
0.0
  0
VERTEX
  5
6632
330
662D
100
AcDbEntity
  8
UMCL1
  6
Continuous
100
AcDbVertex
100
AcDb2dVertex
 10
865.9969294658296
 20
394.3126112470015
 30
0.0
  0
VERTEX
  5
6633
330
662D
100
AcDbEntity
  8
UMCL1
  6
Continuous
100
AcDbVertex
100
AcDb2dVertex
 10
869.9969294658295
 20
392.003210170243
 30
0.0
  0
SEQEND
  5
6634
330
662D
100
AcDbEntity
  8
UMCL1
  6
Continuous
  0
CIRCLE
  5
6635
330
1E
100
AcDbEntity
  8
UMCL1
  6
Continuous
100
AcDbCircle
 10
869.9969294658295
 20
396.62201232376
 30
0.0
 40
3.399999999999999
  0
ARC
  5
6636
330
1E
100
AcDbEntity
  8
UMCL1
  6
Continuous
 62
     2
100
AcDbCircle
 10
869.9969294658295
 20
396.62201232376
 30
0.0
 40
4.0
100
AcDbArc
 50
79.71689228694978
 51
8.413254743410176
  0
CIRCLE
  5
6637
330
1E
100
AcDbEntity
  8
UMCL1
100
AcDbCircle
 10
869.9969294658295
 20
396.62201232376
 30
0.0
 40
5.25
  0
POLYLINE
  5
6638
330
1E
100
AcDbEntity
  8
UMCL1
  6
Continuous
100
AcDb2dPolyline
 66
     1
 10
0.0
 20
0.0
 30
0.0
 70
     1
  0
VERTEX
  5
6639
330
6638
100
AcDbEntity
  8
UMCL1
  6
Continuous
100
AcDbVertex
100
AcDb2dVertex
 10
930.4969294658295
 20
394.3126112470015
 30
0.0
  0
VERTEX
  5
663A
330
6638
100
AcDbEntity
  8
UMCL1
  6
Continuous
100
AcDbVertex
100
AcDb2dVertex
 10
930.4969294658295
 20
398.9314134005185
 30
0.0
  0
VERTEX
  5
663B
330
6638
100
AcDbEntity
  8
UMCL1
  6
Continuous
100
AcDbVertex
100
AcDb2dVertex
 10
926.4969294658296
 20
401.240814477277
 30
0.0
  0
VERTEX
  5
663C
330
6638
100
AcDbEntity
  8
UMCL1
  6
Continuous
100
AcDbVertex
100
AcDb2dVertex
 10
922.4969294658295
 20
398.9314134005185
 30
0.0
  0
VERTEX
  5
663D
330
6638
100
AcDbEntity
  8
UMCL1
  6
Continuous
100
AcDbVertex
100
AcDb2dVertex
 10
922.4969294658295
 20
394.3126112470015
 30
0.0
  0
VERTEX
  5
663E
330
6638
100
AcDbEntity
  8
UMCL1
  6
Continuous
100
AcDbVertex
100
AcDb2dVertex
 10
926.4969294658296
 20
392.003210170243
 30
0.0
  0
SEQEND
  5
663F
330
6638
100
AcDbEntity
  8
UMCL1
  6
Continuous
  0
CIRCLE
  5
6640
330
1E
100
AcDbEntity
  8
UMCL1
  6
Continuous
100
AcDbCircle
 10
926.4969294658296
 20
396.62201232376
 30
0.0
 40
3.399999999999999
  0
ARC
  5
6641
330
1E
100
AcDbEntity
  8
UMCL1
  6
Continuous
 62
     2
100
AcDbCircle
 10
926.4969294658296
 20
396.62201232376
 30
0.0
 40
4.0
100
AcDbArc
 50
79.71689228694978
 51
8.413254743410176
  0
CIRCLE
  5
6642
330
1E
100
AcDbEntity
  8
UMCL1
100
AcDbCircle
 10
926.4969294658296
 20
396.62201232376
 30
0.0
 40
5.25
  0
POLYLINE
  5
6643
330
1E
100
AcDbEntity
  8
UMCL1
  6
Continuous
100
AcDb2dPolyline
 66
     1
 10
0.0
 20
0.0
 30
0.0
 70
     1
  0
VERTEX
  5
6644
330
6643
100
AcDbEntity
  8
UMCL1
  6
Continuous
100
AcDbVertex
100
AcDb2dVertex
 10
266.1731189263742
 20
394.3126112470015
 30
0.0
  0
VERTEX
  5
6645
330
6643
100
AcDbEntity
  8
UMCL1
  6
Continuous
100
AcDbVertex
100
AcDb2dVertex
 10
266.1731189263742
 20
398.9314134005185
 30
0.0
  0
VERTEX
  5
6646
330
6643
100
AcDbEntity
  8
UMCL1
  6
Continuous
100
AcDbVertex
100
AcDb2dVertex
 10
262.1731189263742
 20
401.240814477277
 30
0.0
  0
VERTEX
  5
6647
330
6643
100
AcDbEntity
  8
UMCL1
  6
Continuous
100
AcDbVertex
100
AcDb2dVertex
 10
258.1731189263742
 20
398.9314134005185
 30
0.0
  0
VERTEX
  5
6648
330
6643
100
AcDbEntity
  8
UMCL1
  6
Continuous
100
AcDbVertex
100
AcDb2dVertex
 10
258.1731189263742
 20
394.3126112470015
 30
0.0
  0
VERTEX
  5
6649
330
6643
100
AcDbEntity
  8
UMCL1
  6
Continuous
100
AcDbVertex
100
AcDb2dVertex
 10
262.1731189263742
 20
392.003210170243
 30
0.0
  0
SEQEND
  5
664A
330
6643
100
AcDbEntity
  8
UMCL1
  6
Continuous
  0
CIRCLE
  5
664B
330
1E
100
AcDbEntity
  8
UMCL1
  6
Continuous
100
AcDbCircle
 10
262.1731189263742
 20
396.62201232376
 30
0.0
 40
3.399999999999999
  0
ARC
  5
664C
330
1E
100
AcDbEntity
  8
UMCL1
  6
Continuous
 62
     2
100
AcDbCircle
 10
262.1731189263742
 20
396.62201232376
 30
0.0
 40
4.0
100
AcDbArc
 50
79.71689228694978
 51
8.413254743410176
  0
CIRCLE
  5
664D
330
1E
100
AcDbEntity
  8
UMCL1
100
AcDbCircle
 10
262.1731189263742
 20
396.62201232376
 30
0.0
 40
5.25
  0
POLYLINE
  5
664E
330
1E
100
AcDbEntity
  8
UMCL1
  6
Continuous
100
AcDb2dPolyline
 66
     1
 10
0.0
 20
0.0
 30
0.0
 70
     1
  0
VERTEX
  5
664F
330
664E
100
AcDbEntity
  8
UMCL1
  6
Continuous
100
AcDbVertex
100
AcDb2dVertex
 10
322.6731189263742
 20
394.3126112470015
 30
0.0
  0
VERTEX
  5
6650
330
664E
100
AcDbEntity
  8
UMCL1
  6
Continuous
100
AcDbVertex
100
AcDb2dVertex
 10
322.6731189263742
 20
398.9314134005185
 30
0.0
  0
VERTEX
  5
6651
330
664E
100
AcDbEntity
  8
UMCL1
  6
Continuous
100
AcDbVertex
100
AcDb2dVertex
 10
318.6731189263742
 20
401.240814477277
 30
0.0
  0
VERTEX
  5
6652
330
664E
100
AcDbEntity
  8
UMCL1
  6
Continuous
100
AcDbVertex
100
AcDb2dVertex
 10
314.6731189263742
 20
398.9314134005185
 30
0.0
  0
VERTEX
  5
6653
330
664E
100
AcDbEntity
  8
UMCL1
  6
Continuous
100
AcDbVertex
100
AcDb2dVertex
 10
314.6731189263742
 20
394.3126112470015
 30
0.0
  0
VERTEX
  5
6654
330
664E
100
AcDbEntity
  8
UMCL1
  6
Continuous
100
AcDbVertex
100
AcDb2dVertex
 10
318.6731189263742
 20
392.003210170243
 30
0.0
  0
SEQEND
  5
6655
330
664E
100
AcDbEntity
  8
UMCL1
  6
Continuous
  0
CIRCLE
  5
6656
330
1E
100
AcDbEntity
  8
UMCL1
  6
Continuous
100
AcDbCircle
 10
318.6731189263742
 20
396.62201232376
 30
0.0
 40
3.399999999999999
  0
ARC
  5
6657
330
1E
100
AcDbEntity
  8
UMCL1
  6
Continuous
 62
     2
100
AcDbCircle
 10
318.6731189263742
 20
396.62201232376
 30
0.0
 40
4.0
100
AcDbArc
 50
79.71689228694978
 51
8.413254743410176
  0
CIRCLE
  5
6658
330
1E
100
AcDbEntity
  8
UMCL1
100
AcDbCircle
 10
318.6731189263742
 20
396.62201232376
 30
0.0
 40
5.25
  0
ARC
  5
6659
330
1E
100
AcDbEntity
  8
UMCL1
100
AcDbCircle
 10
262.4231189263741
 20
396.3720123237601
 30
0.0
 40
9.5
100
AcDbArc
 50
90.0
 51
180.0
  0
ARC
  5
665A
330
1E
100
AcDbEntity
  8
UMCL1
100
AcDbCircle
 10
318.4231189263741
 20
396.3720123237601
 30
0.0
 40
9.5
100
AcDbArc
 50
0.0
 51
90.0
  0
LINE
  5
665B
330
1E
100
AcDbEntity
  8
UMCL1
100
AcDbLine
 10
252.9231189263741
 20
396.3720123237601
 30
0.0
 11
252.9231189263742
 21
318.3720123237599
 31
0.0
  0
LINE
  5
665C
330
1E
100
AcDbEntity
  8
UMCL1
100
AcDbLine
 10
262.4231189263741
 20
405.8720123237601
 30
0.0
 11
318.4231189263742
 21
405.87201232376
 31
0.0
  0
LINE
  5
665D
330
1E
100
AcDbEntity
  8
UMCL1
100
AcDbLine
 10
327.9231189263742
 20
396.3720123237601
 30
0.0
 11
327.9231189263742
 21
318.3720123237599
 31
0.0
  0
LINE
  5
665E
330
1E
100
AcDbEntity
  8
UMCL1
100
AcDbLine
 10
361.9251960170589
 20
323.3720123237601
 30
0.0
 11
361.9251960170589
 21
318.3720123237602
 31
0.0
  0
LINE
  5
665F
330
1E
100
AcDbEntity
  8
UMCL1
100
AcDbLine
 10
398.9251960170589
 20
353.3720123237602
 30
0.0
 11
403.9251960170588
 21
353.3720123237602
 31
0.0
  0
ARC
  5
6660
330
1E
100
AcDbEntity
  8
UMCL1
100
AcDbCircle
 10
396.9251960170589
 20
325.3720123237601
 30
0.0
 40
2.0
100
AcDbArc
 50
270.0
 51
0.0
  0
ARC
  5
6661
330
1E
100
AcDbEntity
  8
UMCL1
100
AcDbCircle
 10
395.9251960170588
 20
326.3720123237602
 30
0.0
 40
8.0
100
AcDbArc
 50
270.0
 51
0.0
  0
LINE
  5
6662
330
1E
100
AcDbEntity
  8
UMCL1
100
AcDbLine
 10
361.9251960170589
 20
318.3720123237602
 30
0.0
 11
395.9251960170588
 21
318.3720123237602
 31
0.0
  0
LINE
  5
6663
330
1E
100
AcDbEntity
  8
UMCL1
100
AcDbLine
 10
361.9251960170589
 20
323.3720123237601
 30
0.0
 11
396.9251960170589
 21
323.3720123237601
 31
0.0
  0
LINE
  5
6664
330
1E
100
AcDbEntity
  8
CENTER
  6
CENTER
100
AcDbLine
 10
371.9251960170589
 20
316.3720123237601
 30
0.0
 11
371.9251960170589
 21
325.3720123237601
 31
0.0
  0
LINE
  5
6665
330
1E
100
AcDbEntity
  8
DASHED
  6
HIDDEN
100
AcDbLine
 10
376.4251960170589
 20
318.3720123237602
 30
0.0
 11
376.4251960170589
 21
323.3720123237601
 31
0.0
  0
LINE
  5
6666
330
1E
100
AcDbEntity
  8
DASHED
  6
HIDDEN
100
AcDbLine
 10
367.4251960170589
 20
318.3720123237602
 30
0.0
 11
367.4251960170589
 21
323.3720123237601
 31
0.0
  0
LINE
  5
6667
330
1E
100
AcDbEntity
  8
UMCL1
  6
Continuous
100
AcDbLine
 10
388.9251960170589
 20
346.0446451182181
 30
0.0
 11
389.4251960170588
 21
346.6220123237601
 31
0.0
  0
LINE
  5
6668
330
1E
100
AcDbEntity
  8
UMCL1
  6
Continuous
100
AcDbLine
 10
396.9251960170589
 20
347.8220123237591
 30
0.0
 11
398.9251960170589
 21
347.8220123237591
 31
0.0
  0
LINE
  5
6669
330
1E
100
AcDbEntity
  8
UMCL1
  6
Continuous
100
AcDbLine
 10
389.4251960170588
 20
346.6220123237601
 30
0.0
 11
396.9251960170589
 21
346.6220123237601
 31
0.0
  0
LINE
  5
666A
330
1E
100
AcDbEntity
  8
UMCL1
  6
Continuous
100
AcDbLine
 10
388.9251960170589
 20
334.1993795293022
 30
0.0
 11
389.4251960170588
 21
333.6220123237601
 31
0.0
  0
LINE
  5
666B
330
1E
100
AcDbEntity
  8
UMCL1
  6
Continuous
100
AcDbLine
 10
398.9251960170589
 20
340.7886789904262
 30
0.0
 11
396.9251960170589
 21
339.4553456570941
 31
0.0
  0
LINE
  5
666C
330
1E
100
AcDbEntity
  8
UMCL1
  6
Continuous
100
AcDbLine
 10
398.9251960170589
 20
332.4220123237594
 30
0.0
 11
396.9251960170589
 21
332.4220123237594
 31
0.0
  0
LINE
  5
666D
330
1E
100
AcDbEntity
  8
UMCL1
  6
Continuous
100
AcDbLine
 10
389.4251960170588
 20
333.6220123237601
 30
0.0
 11
396.9251960170589
 21
333.6220123237601
 31
0.0
  0
LINE
  5
666E
330
1E
100
AcDbEntity
  8
UMCL1
  6
Continuous
100
AcDbLine
 10
389.4251960170588
 20
333.6220123237601
 30
0.0
 11
389.4251960170588
 21
346.6220123237601
 31
0.0
  0
LINE
  5
666F
330
1E
100
AcDbEntity
  8
UMCL1
  6
Continuous
100
AcDbLine
 10
388.9251960170589
 20
346.0446451182181
 30
0.0
 11
388.9251960170589
 21
334.1993795293022
 31
0.0
  0
LINE
  5
6670
330
1E
100
AcDbEntity
  8
UMCL1
  6
Continuous
100
AcDbLine
 10
396.9251960170589
 20
332.4220123237594
 30
0.0
 11
396.9251960170589
 21
347.8220123237591
 31
0.0
  0
LINE
  5
6671
330
1E
100
AcDbEntity
  8
CENTER
  6
CENTER
100
AcDbLine
 10
385.9251960170589
 20
340.1220123237601
 30
0.0
 11
450.048020939117
 21
340.1220123237601
 31
0.0
  0
LINE
  5
6672
330
1E
100
AcDbEntity
  8
UMCL1
100
AcDbLine
 10
398.9251960170589
 20
389.8720123237601
 30
0.0
 11
398.9251960170589
 21
325.3720123237601
 31
0.0
  0
LINE
  5
6673
330
1E
100
AcDbEntity
  8
UMCL1
100
AcDbLine
 10
714.9251960170588
 20
323.37201232376
 30
0.0
 11
679.9251960170588
 21
323.37201232376
 31
0.0
  0
LINE
  5
6674
330
1E
100
AcDbEntity
  8
UMCL1
100
AcDbLine
 10
714.9251960170588
 20
318.37201232376
 30
0.0
 11
680.9251960170588
 21
318.37201232376
 31
0.0
  0
LINE
  5
6675
330
1E
100
AcDbEntity
  8
UMCL1
100
AcDbLine
 10
677.9251960170588
 20
353.37201232376
 30
0.0
 11
677.9251960170588
 21
325.37201232376
 31
0.0
  0
ARC
  5
6676
330
1E
100
AcDbEntity
  8
UMCL1
100
AcDbCircle
 10
680.9251960170588
 20
326.37201232376
 30
0.0
 40
8.0
100
AcDbArc
 50
180.0
 51
270.0
  0
ARC
  5
6677
330
1E
100
AcDbEntity
  8
UMCL1
100
AcDbCircle
 10
679.9251960170588
 20
325.37201232376
 30
0.0
 40
2.0
100
AcDbArc
 50
180.0
 51
270.0
  0
LINE
  5
6678
330
1E
100
AcDbEntity
  8
UMCL1
  6
CENTER
 62
     3
100
AcDbLine
 10
704.9251960170588
 20
316.3720123237601
 30
0.0
 11
704.9251960170588
 21
326.37201232376
 31
0.0
  0
LINE
  5
6679
330
1E
100
AcDbEntity
  8
UMCL1
  6
Continuous
100
AcDbLine
 10
687.9251960170588
 20
346.044645118218
 30
0.0
 11
687.4251960170588
 21
346.62201232376
 31
0.0
  0
LINE
  5
667A
330
1E
100
AcDbEntity
  8
UMCL1
  6
Continuous
100
AcDbLine
 10
679.9251960170588
 20
347.8220123237591
 30
0.0
 11
677.9251960170588
 21
347.8220123237591
 31
0.0
  0
LINE
  5
667B
330
1E
100
AcDbEntity
  8
UMCL1
  6
Continuous
100
AcDbLine
 10
687.4251960170588
 20
346.62201232376
 30
0.0
 11
679.9251960170588
 21
346.62201232376
 31
0.0
  0
LINE
  5
667C
330
1E
100
AcDbEntity
  8
UMCL1
  6
Continuous
100
AcDbLine
 10
687.9251960170588
 20
334.1993795293021
 30
0.0
 11
687.4251960170588
 21
333.62201232376
 31
0.0
  0
LINE
  5
667D
330
1E
100
AcDbEntity
  8
UMCL1
  6
Continuous
100
AcDbLine
 10
677.9251960170588
 20
340.7886789904262
 30
0.0
 11
679.9251960170588
 21
339.4553456570941
 31
0.0
  0
LINE
  5
667E
330
1E
100
AcDbEntity
  8
UMCL1
  6
Continuous
100
AcDbLine
 10
677.9251960170588
 20
332.4220123237594
 30
0.0
 11
679.9251960170588
 21
332.4220123237594
 31
0.0
  0
LINE
  5
667F
330
1E
100
AcDbEntity
  8
UMCL1
  6
Continuous
100
AcDbLine
 10
687.4251960170588
 20
333.62201232376
 30
0.0
 11
679.9251960170588
 21
333.62201232376
 31
0.0
  0
LINE
  5
6680
330
1E
100
AcDbEntity
  8
UMCL1
  6
Continuous
100
AcDbLine
 10
687.4251960170588
 20
333.62201232376
 30
0.0
 11
687.4251960170588
 21
346.62201232376
 31
0.0
  0
LINE
  5
6681
330
1E
100
AcDbEntity
  8
UMCL1
  6
Continuous
100
AcDbLine
 10
687.9251960170588
 20
346.044645118218
 30
0.0
 11
687.9251960170588
 21
334.1993795293021
 31
0.0
  0
LINE
  5
6682
330
1E
100
AcDbEntity
  8
UMCL1
  6
Continuous
100
AcDbLine
 10
679.9251960170588
 20
332.4220123237594
 30
0.0
 11
679.9251960170588
 21
347.8220123237591
 31
0.0
  0
LINE
  5
6683
330
1E
100
AcDbEntity
  8
UMCL1
100
AcDbLine
 10
677.9251960170588
 20
353.37201232376
 30
0.0
 11
672.9251960170588
 21
353.37201232376
 31
0.0
  0
LINE
  5
6684
330
1E
100
AcDbEntity
  8
UMCL1
100
AcDbLine
 10
714.9251960170588
 20
323.37201232376
 30
0.0
 11
714.9251960170588
 21
318.37201232376
 31
0.0
  0
LINE
  5
6685
330
1E
100
AcDbEntity
  8
DASHED
  6
HIDDEN
100
AcDbLine
 10
709.4251960170588
 20
318.3720123237602
 30
0.0
 11
709.4251960170588
 21
323.37201232376
 31
0.0
  0
LINE
  5
6686
330
1E
100
AcDbEntity
  8
DASHED
  6
HIDDEN
100
AcDbLine
 10
700.4251960170588
 20
318.3720123237602
 30
0.0
 11
700.4251960170588
 21
323.37201232376
 31
0.0
  0
LINE
  5
6687
330
1E
100
AcDbEntity
  8
UMCL1
100
AcDbLine
 10
682.9251960170587
 20
393.77201232376
 30
0.0
 11
682.9251960170587
 21
346.62201232376
 31
0.0
  0
LINE
  5
6688
330
1E
100
AcDbEntity
  8
UMCL1
  6
Continuous
100
AcDbLine
 10
396.9251960170587
 20
535.0243270904912
 30
0.0
 11
396.9251960170587
 21
550.4243270904908
 31
0.0
  0
LINE
  5
6689
330
1E
100
AcDbEntity
  8
UMCL1
  6
Continuous
100
AcDbLine
 10
388.9251960170587
 20
548.64695988495
 30
0.0
 11
388.9251960170587
 21
536.801694296034
 31
0.0
  0
LINE
  5
668A
330
1E
100
AcDbEntity
  8
UMCL1
  6
Continuous
100
AcDbLine
 10
389.4251960170588
 20
536.224327090492
 30
0.0
 11
389.4251960170588
 21
549.224327090492
 31
0.0
  0
LINE
  5
668B
330
1E
100
AcDbEntity
  8
UMCL1
  6
Continuous
100
AcDbLine
 10
389.4251960170588
 20
536.224327090492
 30
0.0
 11
396.9251960170587
 21
536.224327090492
 31
0.0
  0
LINE
  5
668C
330
1E
100
AcDbEntity
  8
UMCL1
  6
Continuous
100
AcDbLine
 10
398.9251960170587
 20
535.0243270904912
 30
0.0
 11
396.9251960170587
 21
535.0243270904912
 31
0.0
  0
LINE
  5
668D
330
1E
100
AcDbEntity
  8
UMCL1
  6
Continuous
100
AcDbLine
 10
398.9251960170587
 20
543.3909937571581
 30
0.0
 11
396.9251960170587
 21
542.0576604238259
 31
0.0
  0
LINE
  5
668E
330
1E
100
AcDbEntity
  8
UMCL1
  6
Continuous
100
AcDbLine
 10
388.9251960170587
 20
536.801694296034
 30
0.0
 11
389.4251960170588
 21
536.224327090492
 31
0.0
  0
LINE
  5
668F
330
1E
100
AcDbEntity
  8
UMCL1
  6
Continuous
100
AcDbLine
 10
389.4251960170588
 20
549.224327090492
 30
0.0
 11
396.9251960170587
 21
549.224327090492
 31
0.0
  0
LINE
  5
6690
330
1E
100
AcDbEntity
  8
UMCL1
  6
Continuous
100
AcDbLine
 10
396.9251960170587
 20
550.4243270904908
 30
0.0
 11
398.9251960170587
 21
550.4243270904908
 31
0.0
  0
LINE
  5
6691
330
1E
100
AcDbEntity
  8
UMCL1
  6
Continuous
100
AcDbLine
 10
388.9251960170587
 20
548.64695988495
 30
0.0
 11
389.4251960170588
 21
549.224327090492
 31
0.0
  0
LINE
  5
6692
330
1E
100
AcDbEntity
  8
UMCL1
  6
Continuous
100
AcDbLine
 10
396.9251960170587
 20
478.5243270904913
 30
0.0
 11
396.9251960170587
 21
493.9243270904909
 31
0.0
  0
LINE
  5
6693
330
1E
100
AcDbEntity
  8
UMCL1
  6
Continuous
100
AcDbLine
 10
388.9251960170587
 20
492.1469598849499
 30
0.0
 11
388.9251960170587
 21
480.301694296034
 31
0.0
  0
LINE
  5
6694
330
1E
100
AcDbEntity
  8
UMCL1
  6
Continuous
100
AcDbLine
 10
389.4251960170588
 20
479.724327090492
 30
0.0
 11
389.4251960170588
 21
492.724327090492
 31
0.0
  0
LINE
  5
6695
330
1E
100
AcDbEntity
  8
UMCL1
  6
Continuous
100
AcDbLine
 10
389.4251960170588
 20
479.724327090492
 30
0.0
 11
396.9251960170587
 21
479.724327090492
 31
0.0
  0
LINE
  5
6696
330
1E
100
AcDbEntity
  8
UMCL1
  6
Continuous
100
AcDbLine
 10
398.9251960170587
 20
478.5243270904913
 30
0.0
 11
396.9251960170587
 21
478.5243270904913
 31
0.0
  0
LINE
  5
6697
330
1E
100
AcDbEntity
  8
UMCL1
  6
Continuous
100
AcDbLine
 10
398.9251960170587
 20
486.890993757158
 30
0.0
 11
396.9251960170587
 21
485.5576604238259
 31
0.0
  0
LINE
  5
6698
330
1E
100
AcDbEntity
  8
UMCL1
  6
Continuous
100
AcDbLine
 10
388.9251960170587
 20
480.301694296034
 30
0.0
 11
389.4251960170588
 21
479.724327090492
 31
0.0
  0
LINE
  5
6699
330
1E
100
AcDbEntity
  8
UMCL1
  6
Continuous
100
AcDbLine
 10
389.4251960170588
 20
492.724327090492
 30
0.0
 11
396.9251960170587
 21
492.724327090492
 31
0.0
  0
LINE
  5
669A
330
1E
100
AcDbEntity
  8
UMCL1
  6
Continuous
100
AcDbLine
 10
396.9251960170587
 20
493.9243270904909
 30
0.0
 11
398.9251960170587
 21
493.9243270904909
 31
0.0
  0
LINE
  5
669B
330
1E
100
AcDbEntity
  8
UMCL1
  6
Continuous
100
AcDbLine
 10
388.9251960170587
 20
492.1469598849499
 30
0.0
 11
389.4251960170588
 21
492.724327090492
 31
0.0
  0
ARC
  5
669C
330
1E
100
AcDbEntity
  8
UMCL1
100
AcDbCircle
 10
364.9251960170588
 20
548.974327090492
 30
0.0
 40
3.0
100
AcDbArc
 50
90.0
 51
180.0
  0
LINE
  5
669D
330
1E
100
AcDbEntity
  8
UMCL1
100
AcDbLine
 10
403.9251960170587
 20
551.9743270904919
 30
0.0
 11
364.9251960170588
 21
551.9743270904919
 31
0.0
  0
CIRCLE
  5
669E
330
1E
100
AcDbEntity
  8
UMCL1
100
AcDbCircle
 10
371.9251960170588
 20
539.4743270904919
 30
0.0
 40
4.5
  0
ARC
  5
669F
330
1E
100
AcDbEntity
  8
UMCL1
100
AcDbCircle
 10
364.9251960170588
 20
479.974327090492
 30
0.0
 40
3.0
100
AcDbArc
 50
180.0
 51
270.0
  0
LINE
  5
66A0
330
1E
100
AcDbEntity
  8
UMCL1
100
AcDbLine
 10
403.9251960170587
 20
476.9743270904919
 30
0.0
 11
364.9251960170588
 21
476.9743270904919
 31
0.0
  0
LINE
  5
66A1
330
1E
100
AcDbEntity
  8
UMCL1
100
AcDbLine
 10
361.9251960170588
 20
479.974327090492
 30
0.0
 11
361.9251960170588
 21
548.974327090492
 31
0.0
  0
LINE
  5
66A2
330
1E
100
AcDbEntity
  8
UMCL1
100
AcDbLine
 10
398.9251960170587
 20
476.9743270904919
 30
0.0
 11
398.9251960170587
 21
551.9743270904919
 31
0.0
  0
LINE
  5
66A3
330
1E
100
AcDbEntity
  8
CENTER
  6
CENTER
100
AcDbLine
 10
364.4251960170588
 20
539.4743270904919
 30
0.0
 11
379.4251960170588
 21
539.4743270904919
 31
0.0
  0
LINE
  5
66A4
330
1E
100
AcDbEntity
  8
CENTER
  6
CENTER
100
AcDbLine
 10
371.9251960170588
 20
531.974327090492
 30
0.0
 11
371.9251960170588
 21
546.974327090492
 31
0.0
  0
LINE
  5
66A5
330
1E
100
AcDbEntity
  8
CENTER
  6
CENTER
100
AcDbLine
 10
364.4251960170588
 20
489.4743270904919
 30
0.0
 11
379.4251960170588
 21
489.4743270904919
 31
0.0
  0
CIRCLE
  5
66A6
330
1E
100
AcDbEntity
  8
UMCL1
100
AcDbCircle
 10
371.9251960170588
 20
489.4743270904919
 30
0.0
 40
4.5
  0
LINE
  5
66A7
330
1E
100
AcDbEntity
  8
CENTER
  6
CENTER
100
AcDbLine
 10
371.9251960170588
 20
481.974327090492
 30
0.0
 11
371.9251960170588
 21
496.974327090492
 31
0.0
  0
ARC
  5
66A8
330
1E
100
AcDbEntity
  8
UMCL1
100
AcDbCircle
 10
711.9251960170589
 20
479.9743270904918
 30
0.0
 40
3.0
100
AcDbArc
 50
270.0
 51
0.0
  0
CIRCLE
  5
66A9
330
1E
100
AcDbEntity
  8
UMCL1
100
AcDbCircle
 10
704.925196017059
 20
489.4743270904918
 30
0.0
 40
4.5
  0
CIRCLE
  5
66AA
330
1E
100
AcDbEntity
  8
UMCL1
100
AcDbCircle
 10
704.925196017059
 20
539.4743270904918
 30
0.0
 40
4.5
  0
ARC
  5
66AB
330
1E
100
AcDbEntity
  8
UMCL1
100
AcDbCircle
 10
711.9251960170589
 20
548.9743270904917
 30
0.0
 40
3.0
100
AcDbArc
 50
0.0
 51
90.0
  0
LINE
  5
66AC
330
1E
100
AcDbEntity
  8
UMCL1
  6
Continuous
100
AcDbLine
 10
687.925196017059
 20
492.1469598849497
 30
0.0
 11
687.4251960170589
 21
492.7243270904917
 31
0.0
  0
LINE
  5
66AD
330
1E
100
AcDbEntity
  8
UMCL1
  6
Continuous
100
AcDbLine
 10
687.925196017059
 20
480.3016942960338
 30
0.0
 11
687.4251960170589
 21
479.7243270904917
 31
0.0
  0
LINE
  5
66AE
330
1E
100
AcDbEntity
  8
UMCL1
  6
Continuous
100
AcDbLine
 10
677.9251960170589
 20
486.8909937571578
 30
0.0
 11
679.925196017059
 21
485.5576604238257
 31
0.0
  0
LINE
  5
66AF
330
1E
100
AcDbEntity
  8
UMCL1
  6
Continuous
100
AcDbLine
 10
677.9251960170589
 20
478.524327090491
 30
0.0
 11
679.925196017059
 21
478.524327090491
 31
0.0
  0
LINE
  5
66B0
330
1E
100
AcDbEntity
  8
UMCL1
  6
Continuous
100
AcDbLine
 10
687.4251960170589
 20
479.7243270904917
 30
0.0
 11
679.925196017059
 21
479.7243270904917
 31
0.0
  0
LINE
  5
66B1
330
1E
100
AcDbEntity
  8
UMCL1
  6
Continuous
100
AcDbLine
 10
687.4251960170589
 20
479.7243270904917
 30
0.0
 11
687.4251960170589
 21
492.7243270904917
 31
0.0
  0
LINE
  5
66B2
330
1E
100
AcDbEntity
  8
UMCL1
  6
Continuous
100
AcDbLine
 10
687.925196017059
 20
492.1469598849497
 30
0.0
 11
687.925196017059
 21
480.3016942960338
 31
0.0
  0
LINE
  5
66B3
330
1E
100
AcDbEntity
  8
UMCL1
  6
Continuous
100
AcDbLine
 10
687.925196017059
 20
548.6469598849497
 30
0.0
 11
687.4251960170589
 21
549.2243270904918
 31
0.0
  0
LINE
  5
66B4
330
1E
100
AcDbEntity
  8
UMCL1
  6
Continuous
100
AcDbLine
 10
679.925196017059
 20
550.4243270904907
 30
0.0
 11
677.9251960170589
 21
550.4243270904907
 31
0.0
  0
LINE
  5
66B5
330
1E
100
AcDbEntity
  8
UMCL1
  6
Continuous
100
AcDbLine
 10
687.4251960170589
 20
549.2243270904918
 30
0.0
 11
679.925196017059
 21
549.2243270904918
 31
0.0
  0
LINE
  5
66B6
330
1E
100
AcDbEntity
  8
UMCL1
  6
Continuous
100
AcDbLine
 10
687.925196017059
 20
536.8016942960338
 30
0.0
 11
687.4251960170589
 21
536.2243270904918
 31
0.0
  0
LINE
  5
66B7
330
1E
100
AcDbEntity
  8
UMCL1
  6
Continuous
100
AcDbLine
 10
677.9251960170589
 20
543.3909937571578
 30
0.0
 11
679.925196017059
 21
542.0576604238257
 31
0.0
  0
LINE
  5
66B8
330
1E
100
AcDbEntity
  8
UMCL1
  6
Continuous
100
AcDbLine
 10
687.4251960170589
 20
536.2243270904918
 30
0.0
 11
687.4251960170589
 21
549.2243270904918
 31
0.0
  0
LINE
  5
66B9
330
1E
100
AcDbEntity
  8
UMCL1
  6
Continuous
100
AcDbLine
 10
687.925196017059
 20
548.6469598849497
 30
0.0
 11
687.925196017059
 21
536.8016942960338
 31
0.0
  0
LINE
  5
66BA
330
1E
100
AcDbEntity
  8
CENTER
  6
CENTER
100
AcDbLine
 10
712.4251960170589
 20
539.4743270904918
 30
0.0
 11
697.4251960170589
 21
539.4743270904918
 31
0.0
  0
LINE
  5
66BB
330
1E
100
AcDbEntity
  8
CENTER
  6
CENTER
100
AcDbLine
 10
704.925196017059
 20
531.9743270904917
 30
0.0
 11
704.925196017059
 21
546.9743270904918
 31
0.0
  0
LINE
  5
66BC
330
1E
100
AcDbEntity
  8
CENTER
  6
CENTER
100
AcDbLine
 10
712.4251960170589
 20
489.4743270904918
 30
0.0
 11
697.4251960170589
 21
489.4743270904918
 31
0.0
  0
LINE
  5
66BD
330
1E
100
AcDbEntity
  8
CENTER
  6
CENTER
100
AcDbLine
 10
704.925196017059
 20
481.9743270904917
 30
0.0
 11
704.925196017059
 21
496.9743270904918
 31
0.0
  0
LINE
  5
66BE
330
1E
100
AcDbEntity
  8
UMCL1
  6
Continuous
100
AcDbLine
 10
687.4251960170589
 20
492.7243270904917
 30
0.0
 11
682.9251960170586
 21
492.7243270904916
 31
0.0
  0
LINE
  5
66BF
330
1E
100
AcDbEntity
  8
UMCL1
  6
Continuous
100
AcDbLine
 10
679.925196017059
 20
478.524327090491
 30
0.0
 11
679.925196017059
 21
489.0743270904918
 31
0.0
  0
LINE
  5
66C0
330
1E
100
AcDbEntity
  8
UMCL1
  6
Continuous
100
AcDbLine
 10
687.4251960170589
 20
536.2243270904918
 30
0.0
 11
682.9251960170592
 21
536.2243270904918
 31
0.0
  0
LINE
  5
66C1
330
1E
100
AcDbEntity
  8
UMCL1
  6
Continuous
100
AcDbLine
 10
679.925196017059
 20
539.8743270904917
 30
0.0
 11
679.925196017059
 21
550.4243270904907
 31
0.0
  0
LINE
  5
66C2
330
1E
100
AcDbEntity
  8
UMCL1
100
AcDbLine
 10
677.9251960170589
 20
476.9743270904918
 30
0.0
 11
677.9251960170589
 21
489.0743270904918
 31
0.0
  0
LINE
  5
66C3
330
1E
100
AcDbEntity
  8
UMCL1
100
AcDbLine
 10
677.9251960170589
 20
539.8743270904917
 30
0.0
 11
677.9251960170589
 21
551.9743270904918
 31
0.0
  0
LINE
  5
66C4
330
1E
100
AcDbEntity
  8
UMCL1
100
AcDbLine
 10
714.9251960170589
 20
479.9743270904918
 30
0.0
 11
714.925196017059
 21
497.4743270904919
 31
0.0
  0
LINE
  5
66C5
330
1E
100
AcDbEntity
  8
UMCL1
100
AcDbLine
 10
714.925196017059
 20
531.4743270904918
 30
0.0
 11
714.9251960170589
 21
548.9743270904917
 31
0.0
  0
LINE
  5
66C6
330
1E
100
AcDbEntity
  8
AM_5
100
AcDbLine
 10
923.246929465829
 20
314.3720123237598
 30
0.0
 11
923.246929465829
 21
309.3720123237598
 31
0.0
  0
SOLID
  5
66C7
330
1E
100
AcDbEntity
  8
AM_5
100
AcDbTrace
 10
920.2469294658291
 20
310.8720123237598
 30
0.0
 11
920.2469294658291
 21
309.8720123237598
 31
0.0
 12
923.246929465829
 22
310.3720123237598
 32
0.0
 13
923.246929465829
 23
310.3720123237598
 33
0.0
  0
LINE
  5
66C8
330
1E
100
AcDbEntity
  8
AM_5
100
AcDbLine
 10
935.746929465829
 20
317.3720123237598
 30
0.0
 11
935.746929465829
 21
301.3720123237598
 31
0.0
  0
SOLID
  5
66C9
330
1E
100
AcDbEntity
  8
AM_5
100
AcDbTrace
 10
932.7469294658293
 20
302.8720123237598
 30
0.0
 11
932.7469294658293
 21
301.8720123237598
 31
0.0
 12
935.746929465829
 22
302.3720123237598
 32
0.0
 13
935.746929465829
 23
302.3720123237598
 33
0.0
  0
LINE
  5
66CA
330
1E
100
AcDbEntity
  8
AM_5
100
AcDbLine
 10
873.2469294658296
 20
310.3720123237598
 30
0.0
 11
923.246929465829
 21
310.3720123237598
 31
0.0
  0
LINE
  5
66CB
330
1E
100
AcDbEntity
  8
AM_5
100
AcDbLine
 10
860.7469294658294
 20
302.3720123237598
 30
0.0
 11
935.746929465829
 21
302.3720123237597
 31
0.0
  0
LINE
  5
66CC
330
1E
100
AcDbEntity
  8
AM_5
100
AcDbLine
 10
951.7469294658287
 20
318.3720123237598
 30
0.0
 11
951.7469294658287
 21
405.87201232376
 31
0.0
  0
LINE
  5
66CD
330
1E
100
AcDbEntity
  8
CENTER
  6
CENTER
100
AcDbLine
 10
692.4481889657596
 20
542.7243270904916
 30
0.0
 11
665.7553923740294
 21
542.7243270904916
 31
0.0
  0
LINE
  5
66CE
330
1E
100
AcDbEntity
  8
UMCL1
100
AcDbLine
 10
814.9251960170587
 20
385.3720123237602
 30
0.0
 11
682.9251960170588
 21
385.3720123237602
 31
0.0
  0
LINE
  5
66CF
330
1E
100
AcDbEntity
  8
UMCL1
100
AcDbLine
 10
814.9251960170587
 20
351.3720123237602
 30
0.0
 11
682.9251960170587
 21
351.3720123237601
 31
0.0
  0
LINE
  5
66D0
330
1E
100
AcDbEntity
  8
UMCL1
100
AcDbLine
 10
435.9251960170583
 20
387.17201232376
 30
0.0
 11
632.9251960170585
 21
387.17201232376
 31
0.0
  0
LINE
  5
66D1
330
1E
100
AcDbEntity
  8
UMCL1
100
AcDbLine
 10
435.9251960170584
 20
349.5720123237601
 30
0.0
 11
632.9251960170585
 21
349.5720123237599
 31
0.0
  0
CIRCLE
  5
66D2
330
1E
100
AcDbEntity
  8
UMCL1
100
AcDbCircle
 10
428.9251960170587
 20
377.3720123237601
 30
0.0
 40
5.299999999999999
  0
CIRCLE
  5
66D3
330
1E
100
AcDbEntity
  8
UMCL1
100
AcDbCircle
 10
428.9251960170587
 20
377.3720123237601
 30
0.0
 40
5.0
  0
CIRCLE
  5
66D4
330
1E
100
AcDbEntity
  8
UMCL1
100
AcDbCircle
 10
428.9251960170587
 20
377.3720123237601
 30
0.0
 40
2.5
  0
POLYLINE
  5
66D5
330
1E
100
AcDbEntity
  8
UMCL1
  6
Continuous
100
AcDb2dPolyline
 66
     1
 10
0.0
 20
0.0
 30
0.0
 70
     1
  0
VERTEX
  5
66D6
330
66D5
100
AcDbEntity
  8
UMCL1
  6
Continuous
100
AcDbVertex
100
AcDb2dVertex
 10
430.9251960170588
 20
376.2173117853809
 30
0.0
  0
VERTEX
  5
66D7
330
66D5
100
AcDbEntity
  8
UMCL1
  6
Continuous
100
AcDbVertex
100
AcDb2dVertex
 10
430.9251960170588
 20
378.5267128621393
 30
0.0
  0
VERTEX
  5
66D8
330
66D5
100
AcDbEntity
  8
UMCL1
  6
Continuous
100
AcDbVertex
100
AcDb2dVertex
 10
428.9251960170587
 20
379.6814134005186
 30
0.0
  0
VERTEX
  5
66D9
330
66D5
100
AcDbEntity
  8
UMCL1
  6
Continuous
100
AcDbVertex
100
AcDb2dVertex
 10
426.9251960170588
 20
378.5267128621393
 30
0.0
  0
VERTEX
  5
66DA
330
66D5
100
AcDbEntity
  8
UMCL1
  6
Continuous
100
AcDbVertex
100
AcDb2dVertex
 10
426.9251960170588
 20
376.2173117853809
 30
0.0
  0
VERTEX
  5
66DB
330
66D5
100
AcDbEntity
  8
UMCL1
  6
Continuous
100
AcDbVertex
100
AcDb2dVertex
 10
428.9251960170587
 20
375.0626112470016
 30
0.0
  0
SEQEND
  5
66DC
330
66D5
100
AcDbEntity
  8
UMCL1
  6
Continuous
  0
LINE
  5
66DD
330
1E
100
AcDbEntity
  8
UMCL1
  6
Continuous
 62
     7
100
AcDbLine
 10
428.0751960170588
 20
381.2806565899986
 30
0.0
 11
428.0751960170588
 21
382.2992326354572
 31
0.0
  0
LINE
  5
66DE
330
1E
100
AcDbEntity
  8
UMCL1
  6
Continuous
 62
     7
100
AcDbLine
 10
429.7751960170587
 20
381.2806565899986
 30
0.0
 11
429.7751960170587
 21
382.2992326354572
 31
0.0
  0
LINE
  5
66DF
330
1E
100
AcDbEntity
  8
UMCL1
  6
Continuous
 62
     7
100
AcDbLine
 10
429.7751960170587
 20
372.4447920120631
 30
0.0
 11
429.7751960170587
 21
373.4633680575215
 31
0.0
  0
LINE
  5
66E0
330
1E
100
AcDbEntity
  8
UMCL1
  6
Continuous
 62
     7
100
AcDbLine
 10
428.0751960170588
 20
372.4447920120631
 30
0.0
 11
428.0751960170588
 21
373.4633680575215
 31
0.0
  0
LINE
  5
66E1
330
1E
100
AcDbEntity
  8
UMCL1
  6
Continuous
 62
     7
100
AcDbLine
 10
425.1152107881397
 20
378.5902128636626
 30
0.0
 11
424.2330980570864
 21
379.0995008863919
 31
0.0
  0
LINE
  5
66E2
330
1E
100
AcDbEntity
  8
UMCL1
  6
Continuous
 62
     7
100
AcDbLine
 10
425.9652107881398
 20
380.0624560500962
 30
0.0
 11
425.0830980570864
 21
380.5717440728254
 31
0.0
  0
LINE
  5
66E3
330
1E
100
AcDbEntity
  8
UMCL1
  6
Continuous
 62
     7
100
AcDbLine
 10
433.6172939770311
 20
375.6445237611283
 30
0.0
 11
432.7351812459778
 21
376.1538117838576
 31
0.0
  0
LINE
  5
66E4
330
1E
100
AcDbEntity
  8
UMCL1
  6
Continuous
 62
     7
100
AcDbLine
 10
432.7672939770311
 20
374.1722805746948
 30
0.0
 11
431.8851812459778
 21
374.6815685974241
 31
0.0
  0
LINE
  5
66E5
330
1E
100
AcDbEntity
  8
UMCL1
  6
Continuous
 62
     7
100
AcDbLine
 10
425.1152107881397
 20
376.1538117838576
 30
0.0
 11
424.2330980570864
 21
375.6445237611283
 31
0.0
  0
LINE
  5
66E6
330
1E
100
AcDbEntity
  8
UMCL1
  6
Continuous
 62
     7
100
AcDbLine
 10
425.9652107881398
 20
374.6815685974241
 30
0.0
 11
425.0830980570864
 21
374.1722805746948
 31
0.0
  0
LINE
  5
66E7
330
1E
100
AcDbEntity
  8
UMCL1
  6
Continuous
 62
     7
100
AcDbLine
 10
433.6172939770311
 20
379.0995008863919
 30
0.0
 11
432.7351812459778
 21
378.5902128636626
 31
0.0
  0
LINE
  5
66E8
330
1E
100
AcDbEntity
  8
UMCL1
  6
Continuous
 62
     7
100
AcDbLine
 10
432.7672939770311
 20
380.5717440728254
 30
0.0
 11
431.8851812459778
 21
380.0624560500962
 31
0.0
  0
ARC
  5
66E9
330
1E
100
AcDbEntity
  8
UMCL1
100
AcDbCircle
 10
428.9251960170587
 20
377.3720123237601
 30
0.0
 40
4.0
100
AcDbArc
 50
102.2688989959555
 51
137.7311010040431
  0
ARC
  5
66EA
330
1E
100
AcDbEntity
  8
UMCL1
100
AcDbCircle
 10
428.9251960170587
 20
377.3720123237601
 30
0.0
 40
4.0
100
AcDbArc
 50
162.2688989959575
 51
197.7311010040424
  0
ARC
  5
66EB
330
1E
100
AcDbEntity
  8
UMCL1
100
AcDbCircle
 10
428.9251960170587
 20
377.3720123237601
 30
0.0
 40
4.0
100
AcDbArc
 50
222.2688989959569
 51
257.7311010040444
  0
ARC
  5
66EC
330
1E
100
AcDbEntity
  8
UMCL1
100
AcDbCircle
 10
428.9251960170587
 20
377.3720123237601
 30
0.0
 40
4.0
100
AcDbArc
 50
282.2688989959555
 51
317.7311010040431
  0
ARC
  5
66ED
330
1E
100
AcDbEntity
  8
UMCL1
100
AcDbCircle
 10
428.9251960170587
 20
377.3720123237601
 30
0.0
 40
4.0
100
AcDbArc
 50
342.2688989959575
 51
17.73110100404245
  0
ARC
  5
66EE
330
1E
100
AcDbEntity
  8
UMCL1
100
AcDbCircle
 10
428.9251960170587
 20
377.3720123237601
 30
0.0
 40
4.0
100
AcDbArc
 50
42.2688989959569
 51
77.73110100404444
  0
LINE
  5
66EF
330
1E
100
AcDbEntity
  8
CENTER
  6
CENTER
100
AcDbLine
 10
652.9251960170588
 20
408.4577059553764
 30
0.0
 11
652.9251960170588
 21
352.2483094097434
 31
0.0
  0
LINE
  5
66F0
330
1E
100
AcDbEntity
  8
UMCL1
100
AcDbLine
 10
814.9251960170587
 20
385.3720123237602
 30
0.0
 11
814.9251960170587
 21
351.3720123237601
 31
0.0
  0
LINE
  5
66F1
330
1E
100
AcDbEntity
  8
AM_5
100
AcDbLine
 10
714.9251960170588
 20
317.37201232376
 30
0.0
 11
714.9251960170588
 21
301.244278335545
 31
0.0
  0
LINE
  5
66F2
330
1E
100
AcDbEntity
  8
AM_5
100
AcDbLine
 10
704.9251960170588
 20
315.3720123237602
 30
0.0
 11
704.9251960170588
 21
309.37201232376
 31
0.0
  0
LINE
  5
66F3
330
1E
100
AcDbEntity
  8
AM_5
100
AcDbLine
 10
704.9251960170588
 20
310.37201232376
 30
0.0
 11
704.9251960170588
 21
311.37201232376
 31
0.0
  0
SOLID
  5
66F4
330
1E
100
AcDbEntity
  8
AM_5
100
AcDbTrace
 10
701.9251960170588
 20
310.87201232376
 30
0.0
 11
701.9251960170588
 21
309.87201232376
 31
0.0
 12
704.9251960170588
 22
310.37201232376
 32
0.0
 13
704.9251960170588
 23
310.37201232376
 33
0.0
  0
SOLID
  5
66F5
330
1E
100
AcDbEntity
  8
AM_5
100
AcDbTrace
 10
711.9251960170588
 20
302.87201232376
 30
0.0
 11
711.9251960170588
 21
301.87201232376
 31
0.0
 12
714.9251960170588
 22
302.37201232376
 32
0.0
 13
714.9251960170588
 23
302.37201232376
 33
0.0
  0
SOLID
  5
66F6
330
1E
100
AcDbEntity
  8
AM_5
100
AcDbTrace
 10
707.9251960170588
 20
310.87201232376
 30
0.0
 11
707.9251960170588
 21
309.87201232376
 31
0.0
 12
704.9251960170588
 22
310.37201232376
 32
0.0
 13
704.9251960170588
 23
310.37201232376
 33
0.0
  0
SOLID
  5
66F7
330
1E
100
AcDbEntity
  8
AM_5
100
AcDbTrace
 10
711.9251960170588
 20
310.8720123237601
 30
0.0
 11
711.9251960170588
 21
309.8720123237601
 31
0.0
 12
714.9251960170588
 22
310.3720123237601
 32
0.0
 13
714.9251960170588
 23
310.3720123237601
 33
0.0
  0
TEXT
  5
66F8
330
1E
100
AcDbEntity
  8
AM_5
100
AcDbText
 10
707.4547549288379
 20
311.8720123237601
 30
0.0
 40
3.0
  1
10
  7
ROMANSS
 11
707.4547549288379
 21
313.3720123237601
 31
0.0
100
AcDbText
 73
     2
  0
LINE
  5
66F9
330
1E
100
AcDbEntity
  8
AM_5
100
AcDbLine
 10
361.9251960170589
 20
310.3720123237601
 30
0.0
 11
714.9251960170588
 21
310.3720123237601
 31
0.0
  0
LINE
  5
66FA
330
1E
100
AcDbEntity
  8
AM_5
100
AcDbLine
 10
361.9251960170589
 20
302.37201232376
 30
0.0
 11
714.9251960170588
 21
302.37201232376
 31
0.0
  0
LINE
  5
66FB
330
1E
100
AcDbEntity
  8
AM_5
100
AcDbLine
 10
817.9251960170583
 20
351.8662760906646
 30
0.0
 11
817.9251960170583
 21
292.906264157321
 31
0.0
  0
SOLID
  5
66FC
330
1E
100
AcDbEntity
  8
AM_5
100
AcDbTrace
 10
814.9251960170587
 20
294.87201232376
 30
0.0
 11
814.9251960170587
 21
293.8720123237601
 31
0.0
 12
817.9251960170587
 22
294.37201232376
 32
0.0
 13
817.9251960170587
 23
294.37201232376
 33
0.0
  0
LINE
  5
66FD
330
1E
100
AcDbEntity
  8
AM_5
100
AcDbLine
 10
361.9251960170589
 20
294.37201232376
 30
0.0
 11
817.9251960170583
 21
294.37201232376
 31
0.0
  0
TEXT
  5
66FE
330
1E
100
AcDbEntity
  8
AM_5
100
AcDbText
 10
582.7078828172963
 20
295.8720123237601
 30
0.0
 40
3.0
  1
456
  7
ROMANSS
 72
     1
 11
586.4935971030106
 21
297.37201232376
 31
0.0
100
AcDbText
 73
     2
  0
LINE
  5
66FF
330
1E
100
AcDbEntity
  8
AM_5
100
AcDbLine
 10
852.0911331384432
 20
411.2337251192657
 30
0.0
 11
835.9543613496409
 21
411.2337251192656
 31
0.0
  0
TEXT
  5
6700
330
1E
100
AcDbEntity
  8
AM_5
100
AcDbText
 10
838.7426953520803
 20
412.7337251192657
 30
0.0
 40
3.0
  1
PT1/4
  7
ROMANSS
 72
     2
 11
851.8855524949374
 21
414.2337251192657
 31
0.0
100
AcDbText
 73
     2
  0
ARC
  5
6701
330
1E
100
AcDbEntity
  8
UMCL1
 62
     2
100
AcDbCircle
 10
652.9251960170588
 20
368.3720123237602
 30
0.0
 40
8.25
100
AcDbArc
 50
77.92480383695485
 51
18.66239316544397
  0
CIRCLE
  5
6702
330
1E
100
AcDbEntity
  8
UMCL1
100
AcDbCircle
 10
652.9251960170588
 20
368.3720123237602
 30
0.0
 40
7.5
  0
CIRCLE
  5
6703
330
1E
100
AcDbEntity
  8
UMCL1
100
AcDbCircle
 10
652.9251960170588
 20
368.3720123237602
 30
0.0
 40
5.5
  0
LINE
  5
6704
330
1E
100
AcDbEntity
  8
DASHED
  6
HIDDEN
100
AcDbLine
 10
810.9386968867422
 20
363.9481549692965
 30
0.0
 11
817.9251960170585
 21
363.5902869315894
 31
0.0
  0
LINE
  5
6705
330
1E
100
AcDbEntity
  8
DASHED
  6
HIDDEN
100
AcDbLine
 10
810.996939007161
 20
372.7904777929746
 30
0.0
 11
817.9251960170585
 21
373.1859893714575
 31
0.0
  0
LINE
  5
6706
330
1E
100
AcDbEntity
  8
DASHED
  6
HIDDEN
100
AcDbLine
 10
810.9913780417826
 20
363.444800979028
 30
0.0
 11
817.9251960170585
 21
363.0896314175148
 31
0.0
  0
LINE
  5
6707
330
1E
100
AcDbEntity
  8
DASHED
  6
HIDDEN
100
AcDbLine
 10
810.8653893515091
 20
373.2837821136781
 30
0.0
 11
817.9251960170585
 21
373.6868034326174
 31
0.0
  0
LINE
  5
6708
330
1E
100
AcDbEntity
  8
DASHED
  6
HIDDEN
100
AcDbLine
 10
893.8284639966148
 20
378.4437553138631
 30
0.0
 11
893.4720200664836
 21
384.6876563572647
 31
0.0
  0
LINE
  5
6709
330
1E
100
AcDbEntity
  8
DASHED
  6
HIDDEN
100
AcDbLine
 10
893.3351596759115
 20
378.3122056582111
 30
0.0
 11
892.9798921433961
 21
384.5354995045664
 31
0.0
  0
LINE
  5
670A
330
1E
100
AcDbEntity
  8
DASHED
  6
HIDDEN
100
AcDbLine
 10
903.1741408105615
 20
378.4381943484848
 30
0.0
 11
903.4869121440133
 21
384.5442905037919
 31
0.0
  0
LINE
  5
670B
330
1E
100
AcDbEntity
  8
DASHED
  6
HIDDEN
100
AcDbLine
 10
902.670786820293
 20
378.3855131934442
 30
0.0
 11
902.9940159980618
 21
384.6957732095209
 31
0.0
  0
CIRCLE
  5
670C
330
1E
100
AcDbEntity
  8
UMCL1
  6
Continuous
100
AcDbCircle
 10
898.2469294658296
 20
368.3720123237599
 30
0.0
 40
5.498740770349174
  0
ARC
  5
670D
330
1E
100
AcDbEntity
  8
UMCL1
  6
Continuous
 62
     2
100
AcDbCircle
 10
898.2469294658296
 20
368.3720123237599
 30
0.0
 40
5.999520640273319
100
AcDbArc
 50
78.85295240550604
 51
7.140851044737992
  0
LINE
  5
670E
330
1E
100
AcDbEntity
  8
DASHED
  6
HIDDEN
100
AcDbLine
 10
810.9386968867422
 20
510.0504697360283
 30
0.0
 11
817.9251960170585
 21
509.6926016983211
 31
0.0
  0
LINE
  5
670F
330
1E
100
AcDbEntity
  8
DASHED
  6
HIDDEN
100
AcDbLine
 10
810.996939007161
 20
518.8927925597063
 30
0.0
 11
817.9251960170585
 21
519.2883041381892
 31
0.0
  0
LINE
  5
6710
330
1E
100
AcDbEntity
  8
DASHED
  6
HIDDEN
100
AcDbLine
 10
810.9913780417826
 20
509.5471157457597
 30
0.0
 11
817.9251960170585
 21
509.1919461842464
 31
0.0
  0
LINE
  5
6711
330
1E
100
AcDbEntity
  8
DASHED
  6
HIDDEN
100
AcDbLine
 10
810.8653893515091
 20
519.3860968804098
 30
0.0
 11
817.9251960170585
 21
519.789118199349
 31
0.0
  0
LINE
  5
6712
330
1E
100
AcDbEntity
  8
UMCL1
100
AcDbLine
 10
435.9251960170587
 20
330.8720123237602
 30
0.0
 11
435.9251960170588
 21
405.8720123237601
 31
0.0
  0
SOLID
  5
6713
330
1E
100
AcDbEntity
  8
AM_5
100
AcDbTrace
 10
651.9193599262426
 20
408.7422551285437
 30
0.0
 11
651.0428398863569
 21
408.2608897582908
 31
0.0
 12
652.9251960170587
 22
405.8720123237604
 32
0.0
 13
652.9251960170587
 23
405.8720123237604
 33
0.0
  0
LINE
  5
6714
330
1E
100
AcDbEntity
  8
AM_5
100
AcDbLine
 10
651.4810999062998
 20
408.5015724434174
 30
0.0
 11
638.7225167984432
 21
431.7337251192665
 31
0.0
  0
LINE
  5
6715
330
1E
100
AcDbEntity
  8
AM_5
100
AcDbLine
 10
638.7225167984432
 20
431.7337251192665
 30
0.0
 11
623.2225167984433
 21
431.7337251192665
 31
0.0
  0
TEXT
  5
6716
330
1E
100
AcDbEntity
  8
AM_5
100
AcDbText
 10
623.4011013191389
 20
433.2337251192664
 30
0.0
 40
3.0
  1
PT1/4
  7
ROMANSS
 72
     2
 11
636.5439584619959
 21
434.7337251192664
 31
0.0
100
AcDbText
 73
     2
  0
LINE
  5
6717
330
1E
100
AcDbEntity
  8
UMCL1
  6
HIDDEN
 62
     2
100
AcDbLine
 10
657.3490533715222
 20
398.8855131934445
 30
0.0
 11
657.7069214092293
 21
405.8720123237608
 31
0.0
  0
LINE
  5
6718
330
1E
100
AcDbEntity
  8
UMCL1
  6
HIDDEN
 62
     2
100
AcDbLine
 10
648.5067305478442
 20
398.9437553138633
 30
0.0
 11
648.1112189693613
 21
405.8720123237608
 31
0.0
  0
LINE
  5
6719
330
1E
100
AcDbEntity
  8
UMCL1
  6
HIDDEN
 62
     2
100
AcDbLine
 10
657.8524073617907
 20
398.938194348485
 30
0.0
 11
658.207576923304
 21
405.8720123237608
 31
0.0
  0
LINE
  5
671A
330
1E
100
AcDbEntity
  8
UMCL1
  6
HIDDEN
 62
     2
100
AcDbLine
 10
648.0134262271406
 20
398.8122056582114
 30
0.0
 11
647.6104049082014
 21
405.8720123237608
 31
0.0
  0
CIRCLE
  5
671B
330
1E
100
AcDbEntity
  8
UMCL1
  6
Continuous
100
AcDbCircle
 10
652.9251960170588
 20
514.4743270904919
 30
0.0
 40
4.813977047697449
  0
ARC
  5
671C
330
1E
100
AcDbEntity
  8
UMCL1
  6
Continuous
 62
     2
100
AcDbCircle
 10
652.9251960170588
 20
514.4743270904919
 30
0.0
 40
5.314791108857207
100
AcDbArc
 50
77.6094087641967
 51
10.94694713193136
  0
LINE
  5
671D
330
1E
100
AcDbEntity
  8
UMCL1
100
AcDbLine
 10
817.9251960170587
 20
528.4743270904918
 30
0.0
 11
814.9251960170587
 21
531.4743270904918
 31
0.0
  0
LINE
  5
671E
330
1E
100
AcDbEntity
  8
UMCL1
100
AcDbLine
 10
814.9251960170587
 20
531.4743270904918
 30
0.0
 11
682.9251960170592
 21
531.4743270904918
 31
0.0
  0
LINE
  5
671F
330
1E
100
AcDbEntity
  8
UMCL1
100
AcDbLine
 10
814.9251960170587
 20
497.4743270904919
 30
0.0
 11
682.9251960170587
 21
497.4743270904919
 31
0.0
  0
LINE
  5
6720
330
1E
100
AcDbEntity
  8
UMCL1
100
AcDbLine
 10
814.9251960170589
 20
497.4743270904919
 30
0.0
 11
817.9251960170587
 21
500.4743270904919
 31
0.0
  0
LWPOLYLINE
  5
67C9
330
1E
100
AcDbEntity
  8
0
 62
     4
100
AcDbPolyline
 90
        4
 70
     1
 43
0.0
 10
201.9440474247382
 20
605.6834110620933
 10
979.5440474247385
 20
605.6834110620933
 10
979.5440474247385
 20
251.8985513160483
 10
201.9440474247382
 20
251.8985513160484
1001
GENIUS_GENREC_14
1002
{
1000
PYDIR
1011
201.9440474247382
1021
251.8985513160483
1031
0.0
1002
}
1002
{
1000
PXDIR
1011
979.5440474247385
1021
605.6834110620933
1031
0.0
1002
}
1002
{
1000
PORI
1011
201.9440474247382
1021
605.6834110620933
1031
0.0
1002
}
1002
{
1000
PINS
1011
201.9440474247382
1021
605.6834110620933
1031
0.0
1002
}
1002
{
1000
PINS2
1011
979.5440474247385
1021
251.8985513160484
1031
0.0
1002
}
1002
{
1000
C
1070
     1
1002
}
1001
GENIUS_GENODEF_13
1002
{
1000
HIER
1070
     0
1002
}
1002
{
1000
MANEDIT
1070
     0
1002
}
1002
{
1000
NOSEL
1070
     0
1002
}
1002
{
1000
BEHIND
1070
     0
1002
}
1002
{
1000
OTHER
1070
     0
1002
}
1002
{
1000
REACTOR
1002
}
1001
GENIUS_GENOBJ-N-REC_13
1002
{
1000
OWNER
1000
GEN
1002
}
  0
ENDSEC
  0
SECTION
  2
OBJECTS
  0
DICTIONARY
  5
C
330
0
100
AcDbDictionary
281
     1
  3
ACAD_COLOR
350
628F
  3
ACAD_GROUP
350
D
  3
ACAD_IMAGE_DICT
350
3CB
  3
ACAD_LAYOUT
350
19
  3
ACAD_MATERIAL
350
628E
  3
ACAD_MLINESTYLE
350
16
  3
ACAD_PLOTSETTINGS
350
18
  3
ACAD_PLOTSTYLENAME
350
B31
  3
ACAD_TABLESTYLE
350
6290
  3
ACDBHEADERROUNDTRIPXREC
350
69C1
  3
AcDbVariableDictionary
350
BD2
  3
ACMDICTIONARY
350
7C2
  3
AMG
350
7A8
  3
AMGSNAPSETTINGS
350
895
  3
DWGPROPS
350
69C0
1001
ACAD
1000
TREAT_AS_HARD
1070
     0
  0
DICTIONARY
  5
688C
330
2
100
AcDbDictionary
280
     1
281
     1
  3
ACAD_LAYERFILTERS
360
6890
  3
ACLYDICTIONARY
360
688F
  0
DICTIONARY
  5
708
330
1E
100
AcDbDictionary
280
     1
281
     1
  3
ACAD_LAYOUTSELFREF
360
4E3B
1001
ACAD
1000
TREAT_AS_HARD
1070
     1
  0
DICTIONARY
  5
70A
330
1A
100
AcDbDictionary
280
     1
281
     1
  3
ACAD_LAYOUTSELFREF
360
4E3A
1001
ACAD
1000
TREAT_AS_HARD
1070
     1
  0
DICTIONARY
  5
628F
102
{ACAD_REACTORS
330
C
102
}
330
C
100
AcDbDictionary
281
     1
  0
DICTIONARY
  5
D
102
{ACAD_REACTORS
330
C
102
}
330
C
100
AcDbDictionary
281
     1
1001
ACAD
1000
TREAT_AS_HARD
1070
     0
  0
DICTIONARY
  5
3CB
102
{ACAD_REACTORS
330
C
102
}
330
C
100
AcDbDictionary
281
     1
  3
PLOT
350
3CC
1001
ACAD
1000
TREAT_AS_HARD
1070
     0
  0
DICTIONARY
  5
19
102
{ACAD_REACTORS
330
C
102
}
330
C
100
AcDbDictionary
281
     1
  3
Layout1
350
B34
  3
Model
350
B33
1001
ACAD
1000
TREAT_AS_HARD
1070
     0
  0
DICTIONARY
  5
628E
102
{ACAD_REACTORS
330
C
102
}
330
C
100
AcDbDictionary
281
     1
  0
DICTIONARY
  5
16
102
{ACAD_REACTORS
330
C
102
}
330
C
100
AcDbDictionary
281
     1
  3
STANDARD
350
17
1001
ACAD
1000
TREAT_AS_HARD
1070
     0
  0
DICTIONARY
  5
18
102
{ACAD_REACTORS
330
C
102
}
330
C
100
AcDbDictionary
281
     1
1001
ACAD
1000
TREAT_AS_HARD
1070
     0
  0
ACDBDICTIONARYWDFLT
  5
B31
102
{ACAD_REACTORS
330
C
102
}
330
C
100
AcDbDictionary
281
     1
  3
Normal
350
B32
100
AcDbDictionaryWithDefault
340
B32
  0
DICTIONARY
  5
6290
102
{ACAD_REACTORS
330
C
102
}
330
C
100
AcDbDictionary
281
     1
  3
Standard
350
6291
  0
DICTIONARY
  5
69C1
102
{ACAD_REACTORS
330
C
102
}
330
C
100
AcDbDictionary
281
     1
  0
DICTIONARY
  5
BD2
102
{ACAD_REACTORS
330
C
102
}
330
C
100
AcDbDictionary
281
     1
  3
CTABLESTYLE
350
680B
  3
DIMASSOC
350
BD4
  3
INDEXCTL
350
BD3
  3
PROJECTNAME
350
680C
  0
DICTIONARY
  5
7C2
102
{ACAD_REACTORS
330
C
102
}
330
C
100
AcDbDictionary
281
     1
  3
ACMSTDDICTIONARY
350
7C8
  3
AMDTSECTSYM_ARROWCOLOR
350
629C
1001
ACAD
1000
TREAT_AS_HARD
1070
     0
  0
DICTIONARY
  5
7A8
102
{ACAD_REACTORS
330
C
102
}
330
C
100
AcDbDictionary
281
     1
1001
ACAD
1000
TREAT_AS_HARD
1070
     0
  0
DICTIONARY
  5
895
102
{ACAD_REACTORS
330
C
102
}
330
C
100
AcDbDictionary
281
     1
1001
ACAD
1000
TREAT_AS_HARD
1070
     0
  0
XRECORD
  5
69C0
102
{ACAD_REACTORS
330
C
102
}
330
C
100
AcDbXrecord
280
     1
  1
DWGPROPS COOKIE
  2

  3

  4

  6

  7

  8

  9

300
AmdtFileType=84
301
=
302
=
303
=
304
=
305
=
306
=
307
=
308
=
309
=
 40
0.4500545138888889
 41
2450294.602131481
 42
2453388.43143029
  1

 90
        1
  0
DICTIONARY
  5
6890
102
{ACAD_REACTORS
330
688C
102
}
330
688C
100
AcDbDictionary
281
     1
  0
DICTIONARY
  5
688F
102
{ACAD_REACTORS
330
688C
102
}
330
688C
100
AcDbDictionary
281
     1
1001
ACAD
1000
<All
  0
XRECORD
  5
4E3B
102
{ACAD_REACTORS
330
708
102
}
330
708
100
AcDbXrecord
280
     1
340
1E
  0
XRECORD
  5
4E3A
102
{ACAD_REACTORS
330
70A
102
}
330
70A
100
AcDbXrecord
280
     1
340
1A
  0
IMAGEDEF
  5
3CC
102
{ACAD_REACTORS
330
3CB
102
}
330
3CB
100
AcDbRasterImageDef
 90
        0
  1
D:\CHI\plot.bmp
 10
694.0
 20
470.0
 11
0.264550269889837
 21
0.264550269889837
280
     1
281
     2
  0
LAYOUT
  5
B34
102
{ACAD_XDICTIONARY
360
69C4
102
}
102
{ACAD_REACTORS
330
19
102
}
330
19
100
AcDbPlotSettings
  1

  2
自動 PC-WM51 上的 Epson LQ-1070C+
  4

  6

 40
0.0
 41
0.0
 42
0.0
 43
0.0
 44
0.0
 45
0.0
 46
0.0
 47
0.0
 48
0.0
 49
0.0
140
0.0
141
0.0
142
1.0
143
1.0
 70
   688
 72
     0
 73
     0
 74
     5
  7

 75
    16
147
1.0
148
0.0
149
0.0
100
AcDbLayout
  1
Layout1
 70
     0
 71
     1
 10
0.0
 20
0.0
 11
12.0
 21
9.0
 12
101.9887994410416
 22
50.0
 32
155.412184630939
 14
1.000000000000000E+20
 24
1.000000000000000E+20
 34
1.000000000000000E+20
 15
-1.000000000000000E+20
 25
-1.000000000000000E+20
 35
-1.000000000000000E+20
146
0.0
 13
0.0
 23
0.0
 33
0.0
 16
1.0
 26
0.0
 36
0.0
 17
0.0
 27
1.0
 37
0.0
 76
     0
330
1A
  0
LAYOUT
  5
B33
102
{ACAD_XDICTIONARY
360
69C2
102
}
102
{ACAD_REACTORS
330
19
102
}
330
19
100
AcDbPlotSettings
  1

  2
DWF eView (optimized for viewing).pc3
  4
ISO_A4_(297.00_x_210.00_MM)
  6

 40
5.793749809265136
 41
17.79375076293945
 42
5.79376220703125
 43
17.79374694824219
 44
297.0
 45
210.0
 46
29.85
 47
0.0
 48
0.0
 49
0.0
140
0.0
141
0.0
142
1.0
143
0.6382186722569885
 70
 11956
 72
     1
 73
     0
 74
     1
  7

 75
     0
147
1.566861082994661
148
-200.235718928552
149
46.05760240554945
100
AcDbLayout
  1
Model
 70
     1
 71
     0
 10
0.0
 20
0.0
 11
12.0
 21
9.0
 12
0.0
 22
0.0
 32
0.0
 14
0.0
 24
0.0
 34
0.0
 15
0.0
 25
0.0
 35
0.0
146
0.0
 13
0.0
 23
0.0
 33
0.0
 16
1.0
 26
0.0
 36
0.0
 17
0.0
 27
1.0
 37
0.0
 76
     0
330
1E
  0
MLINESTYLE
  5
17
102
{ACAD_REACTORS
330
16
102
}
330
16
100
AcDbMlineStyle
  2
STANDARD
 70
     0
  3

 62
   256
 51
90.0
 52
90.0
 71
     2
 49
0.5
 62
   256
  6
BYLAYER
 49
-0.5
 62
   256
  6
BYLAYER
  0
ACDBPLACEHOLDER
  5
B32
102
{ACAD_REACTORS
330
B31
102
}
330
B31
  0
TABLESTYLE
  5
6291
102
{ACAD_REACTORS
330
6290
102
}
330
6290
100
AcDbTableStyle
  3
Standard
 70
     0
 71
     0
 40
1.5
 41
1.5
280
     0
281
     0
  7
STANDARD
140
4.5
170
     2
 62
     0
 63
     7
283
     0
274
    -2
284
     1
 64
     0
275
    -2
285
     1
 65
     0
276
    -2
286
     1
 66
     0
277
    -2
287
     1
 67
     0
278
    -2
288
     1
 68
     0
279
    -2
289
     1
 69
     0
  7
STANDARD
140
6.0
170
     5
 62
     0
 63
     7
283
     0
274
    -2
284
     1
 64
     0
275
    -2
285
     1
 65
     0
276
    -2
286
     1
 66
     0
277
    -2
287
     1
 67
     0
278
    -2
288
     1
 68
     0
279
    -2
289
     1
 69
     0
  7
STANDARD
140
4.5
170
     5
 62
     0
 63
     7
283
     0
274
    -2
284
     1
 64
     0
275
    -2
285
     1
 65
     0
276
    -2
286
     1
 66
     0
277
    -2
287
     1
 67
     0
278
    -2
288
     1
 68
     0
279
    -2
289
     1
 69
     0
  0
DICTIONARYVAR
  5
680B
102
{ACAD_REACTORS
330
BD2
102
}
330
BD2
100
DictionaryVariables
280
     0
  1
STANDARD
  0
DICTIONARYVAR
  5
BD4
102
{ACAD_REACTORS
330
BD2
102
}
330
BD2
100
DictionaryVariables
280
     0
  1
1
  0
DICTIONARYVAR
  5
BD3
102
{ACAD_REACTORS
330
BD2
102
}
330
BD2
100
DictionaryVariables
280
     0
  1
0
  0
DICTIONARYVAR
  5
680C
102
{ACAD_REACTORS
330
BD2
102
}
330
BD2
100
DictionaryVariables
280
     0
  1

  0
DICTIONARY
  5
7C8
102
{ACAD_REACTORS
330
7C2
102
}
330
7C2
100
AcDbDictionary
281
     1
1001
ACAD
1000
TREAT_AS_HARD
1070
     0
  0
XRECORD
  5
629C
102
{ACAD_REACTORS
330
7C2
102
}
330
7C2
100
AcDbXrecord
280
     1
 90
-1023410169
  0
DICTIONARY
  5
69C4
330
B34
100
AcDbDictionary
280
     1
281
     1
  3
ACAD_XREC_ROUNDTRIP
360
69C5
  0
DICTIONARY
  5
69C2
330
B33
100
AcDbDictionary
280
     1
281
     1
  3
ACAD_XREC_ROUNDTRIP
360
69C3
  0
XRECORD
  5
69C5
102
{ACAD_REACTORS
330
69C4
102
}
330
69C4
100
AcDbXrecord
280
     1
102
SHADEPLOT
 70
     0
102
SHADEPLOTRESLEVEL
 70
     2
102
SHADEPLOTCUSTOMDPI
 70
   300
  0
XRECORD
  5
69C3
102
{ACAD_REACTORS
330
69C2
102
}
330
69C2
100
AcDbXrecord
280
     1
102
SHADEPLOT
 70
     0
102
SHADEPLOTRESLEVEL
 70
     2
102
SHADEPLOTCUSTOMDPI
 70
   300
  0
ENDSEC
  0
EOF
