  0
SECTION
  2
HEADER
  9
$ACADVER
  1
AC1015
  9
$ACADMAINTVER
 70
    20
  9
$DWGCODEPAGE
  3
ANSI_950
  9
$INSBASE
 10
0.0
 20
0.0
 30
0.0
  9
$EXTMIN
 10
201.9440474247373
 20
146.3419902300753
 30
0.0
  9
$EXTMAX
 10
979.5440474247387
 20
574.5819034357504
 30
691.8003119298816
  9
$LIMMIN
 10
0.0
 20
0.0
  9
$LIMMAX
 10
396.0
 20
273.0
  9
$ORTHOMODE
 70
     1
  9
$REGENMODE
 70
     1
  9
$FILLMODE
 70
     1
  9
$QTEXTMODE
 70
     0
  9
$MIRRTEXT
 70
     1
  9
$LTSCALE
 40
3.0
  9
$ATTMODE
 70
     1
  9
$TEXTSIZE
 40
3.0
  9
$TRACEWID
 40
0.05
  9
$TEXTSTYLE
  7
DAYUS
  9
$CLAYER
  8
0
  9
$CELTYPE
  6
BYLAYER
  9
$CECOLOR
 62
   256
  9
$CELTSCALE
 40
1.0
  9
$DISPSILH
 70
     0
  9
$DIMSCALE
 40
1.0
  9
$DIMASZ
 40
2.0
  9
$DIMEXO
 40
1.0
  9
$DIMDLI
 40
5.0
  9
$DIMRND
 40
0.0
  9
$DIMDLE
 40
0.0
  9
$DIMEXE
 40
1.5
  9
$DIMTP
 40
0.1
  9
$DIMTM
 40
0.1
  9
$DIMTXT
 40
2.0
  9
$DIMCEN
 40
3.0
  9
$DIMTSZ
 40
0.0
  9
$DIMTOL
 70
     0
  9
$DIMLIM
 70
     0
  9
$DIMTIH
 70
     0
  9
$DIMTOH
 70
     0
  9
$DIMSE1
 70
     0
  9
$DIMSE2
 70
     0
  9
$DIMTAD
 70
     1
  9
$DIMZIN
 70
     8
  9
$DIMBLK
  1

  9
$DIMASO
 70
     1
  9
$DIMSHO
 70
     0
  9
$DIMPOST
  1

  9
$DIMAPOST
  1
"
  9
$DIMALT
 70
     0
  9
$DIMALTD
 70
     2
  9
$DIMALTF
 40
0.0393701
  9
$DIMLFAC
 40
1.0
  9
$DIMTOFL
 70
     1
  9
$DIMTVP
 40
0.0
  9
$DIMTIX
 70
     0
  9
$DIMSOXD
 70
     0
  9
$DIMSAH
 70
     0
  9
$DIMBLK1
  1

  9
$DIMBLK2
  1

  9
$DIMSTYLE
  2
AM_ISO
  9
$DIMCLRD
 70
   256
  9
$DIMCLRE
 70
   256
  9
$DIMCLRT
 70
   256
  9
$DIMTFAC
 40
0.71
  9
$DIMGAP
 40
0.6
  9
$DIMJUST
 70
     0
  9
$DIMSD1
 70
     0
  9
$DIMSD2
 70
     0
  9
$DIMTOLJ
 70
     0
  9
$DIMTZIN
 70
     8
  9
$DIMALTZ
 70
     0
  9
$DIMALTTZ
 70
     0
  9
$DIMUPT
 70
     0
  9
$DIMDEC
 70
     2
  9
$DIMTDEC
 70
     8
  9
$DIMALTU
 70
     2
  9
$DIMALTTD
 70
     2
  9
$DIMTXSTY
  7
STANDARD
  9
$DIMAUNIT
 70
     0
  9
$DIMADEC
 70
     0
  9
$DIMALTRND
 40
0.0
  9
$DIMAZIN
 70
     2
  9
$DIMDSEP
 70
    46
  9
$DIMATFIT
 70
     3
  9
$DIMFRAC
 70
     0
  9
$DIMLDRBLK
  1

  9
$DIMLUNIT
 70
     2
  9
$DIMLWD
 70
    -1
  9
$DIMLWE
 70
    -1
  9
$DIMTMOVE
 70
     0
  9
$LUNITS
 70
     2
  9
$LUPREC
 70
     2
  9
$SKETCHINC
 40
0.1
  9
$FILLETRAD
 40
2.5
  9
$AUNITS
 70
     0
  9
$AUPREC
 70
     0
  9
$MENU
  1
C:\CACAD\ACAD
  9
$ELEVATION
 40
0.0
  9
$PELEVATION
 40
0.0
  9
$THICKNESS
 40
0.0
  9
$LIMCHECK
 70
     0
  9
$CHAMFERA
 40
3.0
  9
$CHAMFERB
 40
3.0
  9
$CHAMFERC
 40
0.0
  9
$CHAMFERD
 40
0.0
  9
$SKPOLY
 70
     0
  9
$TDCREATE
 40
2450294.602131481
  9
$TDUCREATE
 40
2450294.268798149
  9
$TDUPDATE
 40
2453388.429090035
  9
$TDUUPDATE
 40
2453388.095756701
  9
$TDINDWG
 40
0.4502942593
  9
$TDUSRTIMER
 40
0.4502910069
  9
$USRTIMER
 70
     1
  9
$ANGBASE
 50
0.0
  9
$ANGDIR
 70
     0
  9
$PDMODE
 70
    65
  9
$PDSIZE
 40
8.3
  9
$PLINEWID
 40
0.0
  9
$SPLFRAME
 70
     0
  9
$SPLINETYPE
 70
     6
  9
$SPLINESEGS
 70
     8
  9
$HANDSEED
  5
6FDA
  9
$SURFTAB1
 70
     6
  9
$SURFTAB2
 70
     6
  9
$SURFTYPE
 70
     6
  9
$SURFU
 70
     6
  9
$SURFV
 70
     6
  9
$UCSBASE
  2

  9
$UCSNAME
  2

  9
$UCSORG
 10
0.0
 20
0.0
 30
0.0
  9
$UCSXDIR
 10
1.0
 20
0.0
 30
0.0
  9
$UCSYDIR
 10
0.0
 20
1.0
 30
0.0
  9
$UCSORTHOREF
  2

  9
$UCSORTHOVIEW
 70
     0
  9
$UCSORGTOP
 10
0.0
 20
0.0
 30
0.0
  9
$UCSORGBOTTOM
 10
0.0
 20
0.0
 30
0.0
  9
$UCSORGLEFT
 10
0.0
 20
0.0
 30
0.0
  9
$UCSORGRIGHT
 10
0.0
 20
0.0
 30
0.0
  9
$UCSORGFRONT
 10
0.0
 20
0.0
 30
0.0
  9
$UCSORGBACK
 10
0.0
 20
0.0
 30
0.0
  9
$PUCSBASE
  2

  9
$PUCSNAME
  2

  9
$PUCSORG
 10
0.0
 20
0.0
 30
0.0
  9
$PUCSXDIR
 10
1.0
 20
0.0
 30
0.0
  9
$PUCSYDIR
 10
0.0
 20
1.0
 30
0.0
  9
$PUCSORTHOREF
  2

  9
$PUCSORTHOVIEW
 70
     0
  9
$PUCSORGTOP
 10
0.0
 20
0.0
 30
0.0
  9
$PUCSORGBOTTOM
 10
0.0
 20
0.0
 30
0.0
  9
$PUCSORGLEFT
 10
0.0
 20
0.0
 30
0.0
  9
$PUCSORGRIGHT
 10
0.0
 20
0.0
 30
0.0
  9
$PUCSORGFRONT
 10
0.0
 20
0.0
 30
0.0
  9
$PUCSORGBACK
 10
0.0
 20
0.0
 30
0.0
  9
$USERI1
 70
     0
  9
$USERI2
 70
     0
  9
$USERI3
 70
     0
  9
$USERI4
 70
     0
  9
$USERI5
 70
     0
  9
$USERR1
 40
0.0
  9
$USERR2
 40
0.0
  9
$USERR3
 40
0.0
  9
$USERR4
 40
0.0
  9
$USERR5
 40
0.0
  9
$WORLDVIEW
 70
     1
  9
$SHADEDGE
 70
     3
  9
$SHADEDIF
 70
    70
  9
$TILEMODE
 70
     1
  9
$MAXACTVP
 70
    16
  9
$PINSBASE
 10
101.9887994410416
 20
50.0
 30
155.412184630939
  9
$PLIMCHECK
 70
     0
  9
$PEXTMIN
 10
1.000000000000000E+20
 20
1.000000000000000E+20
 30
1.000000000000000E+20
  9
$PEXTMAX
 10
-1.000000000000000E+20
 20
-1.000000000000000E+20
 30
-1.000000000000000E+20
  9
$PLIMMIN
 10
0.0
 20
0.0
  9
$PLIMMAX
 10
12.0
 20
9.0
  9
$UNITMODE
 70
     0
  9
$VISRETAIN
 70
     0
  9
$PLINEGEN
 70
     0
  9
$PSLTSCALE
 70
     0
  9
$TREEDEPTH
 70
  3020
  9
$CMLSTYLE
  2
STANDARD
  9
$CMLJUST
 70
     0
  9
$CMLSCALE
 40
1.0
  9
$PROXYGRAPHICS
 70
     1
  9
$MEASUREMENT
 70
     1
  9
$CELWEIGHT
370
    -1
  9
$ENDCAPS
280
     0
  9
$JOINSTYLE
280
     0
  9
$LWDISPLAY
290
     0
  9
$INSUNITS
 70
     4
  9
$HYPERLINKBASE
  1

  9
$STYLESHEET
  1
彩色出圖.ctb
  9
$XEDIT
290
     1
  9
$CEPSNTYPE
380
     0
  9
$PSTYLEMODE
290
     1
  9
$FINGERPRINTGUID
  2
{727C4F51-B094-446D-A919-594C4FA4BCB3}
  9
$VERSIONGUID
  2
{96D20CA4-8494-4250-979A-3C8D7A6E3C95}
  9
$EXTNAMES
290
     1
  9
$PSVPSCALE
 40
0.0
  9
$OLESTARTUP
290
     0
  0
ENDSEC
  0
SECTION
  2
CLASSES
  0
CLASS
  1
ACDBDICTIONARYWDFLT
  2
AcDbDictionaryWithDefault
  3
ObjectDBX Classes
 90
        0
280
     0
281
     0
  0
CLASS
  1
ACDBPLACEHOLDER
  2
AcDbPlaceHolder
  3
ObjectDBX Classes
 90
        0
280
     0
281
     0
  0
CLASS
  1
LAYOUT
  2
AcDbLayout
  3
ObjectDBX Classes
 90
        0
280
     0
281
     0
  0
CLASS
  1
IMAGEDEF
  2
AcDbRasterImageDef
  3
ISM
 90
        0
280
     0
281
     0
  0
CLASS
  1
ACME_DOCUMENT
  2
AcMeDbDoc
  3
AcMeServices
 90
        0
280
     0
281
     0
  0
CLASS
  1
AMGSETTINGSOBJ
  2
AmgSettingsObj
  3
"AcadM|Product Description: AutoCAD Mechanical 2000|Company: Autodesk"
 90
        0
280
     0
281
     0
  0
CLASS
  1
ACMESCOPE
  2
AcMeScope
  3
AcMeServices
 90
        0
280
     0
281
     0
  0
CLASS
  1
ACMECOMMANDHISTORY
  2
AcMeCommandHistory
  3
AcMeServices
 90
        0
280
     0
281
     0
  0
CLASS
  1
ACIMSYSVARMAN
  2
AcImSysVarManager
  3
AcMeServices
 90
        0
280
     0
281
     0
  0
CLASS
  1
ACIMREALSYSVAR
  2
AcImRealSysVar
  3
AcMeServices
 90
        0
280
     0
281
     0
  0
CLASS
  1
ACIMINTSYSVAR
  2
AcImIntSysVar
  3
AcMeServices
 90
        0
280
     0
281
     0
  0
CLASS
  1
ACMEDRAWINGMAN
  2
AcMeDrawingMan
  3
AcMeServices
 90
        0
280
     0
281
     0
  0
CLASS
  1
ACMEVIEW
  2
AcMeView
  3
AcMeServices
 90
        0
280
     0
281
     0
  0
CLASS
  1
ACDBENTITYCACHE
  2
AcMeEntityCache
  3
AcMeServices
 90
        0
280
     0
281
     0
  0
CLASS
  1
GSMANAGER
  2
AcMeGSManager
  3
AcMeServices
 90
        0
280
     0
281
     0
  0
CLASS
  1
AMDTINTERNALREACTOR
  2
AmdtInternalReactor
  3
AcMeServices
 90
        0
280
     0
281
     0
  0
CLASS
  1
ACMESTATEMGR
  2
AcMeStateMgr
  3
AcMeServices
 90
        0
280
     0
281
     0
  0
CLASS
  1
ACGREFMASTER
  2
AcGrefMaster
  3
AcAttribServices
 90
        0
280
     0
281
     0
  0
CLASS
  1
ACME_DATABASE
  2
AcMeDbDatabase
  3
AcMeServices
 90
        0
280
     0
281
     0
  0
CLASS
  1
ACRFINSADJUSTERMGR
  2
AcRfInsAdjusterMgr
  3
AcMeServices
 90
        0
280
     0
281
     0
  0
CLASS
  1
ACGREFACADMASTER
  2
AcGrefacadMaster
  3
AcGrefServices
 90
        0
280
     0
281
     0
  0
CLASS
  1
AMIMASTER
  2
AmiMaster
  3
AmiServices
 90
        0
280
     0
281
     0
  0
CLASS
  1
ACMDATADICTIONARY
  2
AcmDataDictionary
  3
"AcmSymBB|Product Description: AutoCAD Mechanical 2004 DX|Company: Autodesk"
 90
        0
280
     0
281
     0
  0
CLASS
  1
ACMDATAENTRYBLOCK
  2
AcmDataEntryBlock
  3
"AcmSymBB|Product Description: AutoCAD Mechanical 2004 DX|Company: Autodesk"
 90
    32768
280
     0
281
     0
  0
CLASS
  1
ACIMSTRSYSVAR
  2
AcImStrSysVar
  3
AcMeServices
 90
        0
280
     0
281
     0
  0
CLASS
  1
ACMSTANDARDANSI
  2
AcmStandardANSI
  3
"Amdt_StdImp|Product Description: AutoCAD Mechanical 2004 DX|Company: Autodesk"
 90
    32768
280
     0
281
     0
  0
CLASS
  1
AMGOBJPROPCFG
  2
AmgObjPropCfg
  3
"AmgLay|Product Description: AutoCAD Mechanical 2000|Company: Autodesk"
 90
        1
280
     0
281
     0
  0
CLASS
  1
ACMSURFSTANDARDANSI
  2
AcmSurfTextStdANSI
  3
"Amdt_StdImp|Product Description: AutoCAD Mechanical 2004 DX|Company: Autodesk"
 90
    32768
280
     0
281
     0
  0
CLASS
  1
ACMFCFSTANDARDANSI
  2
AcmFCFStdANSI
  3
"Amdt_StdImp|Product Description: AutoCAD Mechanical 2004 DX|Company: Autodesk"
 90
    32768
280
     0
281
     0
  0
CLASS
  1
ACMWELDSTANDARDANSI
  2
AcmWeldingStdANSI
  3
"Amdt_StdImp|Product Description: AutoCAD Mechanical 2004 DX|Company: Autodesk"
 90
    32768
280
     0
281
     0
  0
CLASS
  1
ACMIDSTANDARDANSI
  2
AcmIdStdANSI
  3
"Amdt_StdImp|Product Description: AutoCAD Mechanical 2004 DX|Company: Autodesk"
 90
    32768
280
     0
281
     0
  0
CLASS
  1
ACMDATUMSTANDARDANSI
  2
AcmDatumStdANSI
  3
"Amdt_StdImp|Product Description: AutoCAD Mechanical 2004 DX|Company: Autodesk"
 90
    32768
280
     0
281
     0
  0
CLASS
  1
ACMBOMSTANDARDANSI
  2
AcmBOMStdANSI
  3
"Amdt_StdImp|Product Description: AutoCAD Mechanical 2004 DX|Company: Autodesk"
 90
    32768
280
     0
281
     0
  0
CLASS
  1
ACMDETAILSTANDARDANSI
  2
AmdtDetailSymStdANSI
  3
"Amdt_StdImp|Product Description: AutoCAD Mechanical 2004 DX|Company: Autodesk"
 90
    32768
280
     0
281
     0
  0
CLASS
  1
ACMSECTIONSTANDARDANSI
  2
AmdtSectionSymStdANSI
  3
"Amdt_StdImp|Product Description: AutoCAD Mechanical 2004 DX|Company: Autodesk"
 90
    32768
280
     0
281
     0
  0
CLASS
  1
ACMCENTERLINESTANDARDANSI
  2
AmdtCenterLineStdANSI
  3
"Amdt_StdImp|Product Description: AutoCAD Mechanical 2004 DX|Company: Autodesk"
 90
    32768
280
     0
281
     0
  0
CLASS
  1
ACMNOTESTANDARDANSI
  2
AmdtNoteStdANSI
  3
"Amdt_StdImp|Product Description: AutoCAD Mechanical 2004 DX|Company: Autodesk"
 90
    32768
280
     0
281
     0
  0
CLASS
  1
ACAMGLAYSTD
  2
AcAmgLayStd
  3
"AcAmgLayStd|Product Description: AutoCAD Mechanical 2000|Company: Autodesk"
 90
        0
280
     0
281
     0
  0
CLASS
  1
ACAMGDIMSTD
  2
AcAmgDimStd
  3
"AcAmgDimStd|Product Description: AutoCAD Mechanical 2000|Company: Autodesk"
 90
        0
280
     0
281
     0
  0
CLASS
  1
ACAMGHOLECHARTSTDANSI
  2
AcAmgHoleChartStdANSI
  3
ACMSYMBB_MODULE_NAME
 90
    32768
280
     0
281
     0
  0
CLASS
  1
ACAMGTITLESTD
  2
AcAmgTitleStd
  3
"TITLEAPP"
 90
        0
280
     0
281
     0
  0
CLASS
  1
ACAMGFILTERDAT
  2
AcAmgFilterDat
  3
"AcadM|Product Description: AutoCAD Mechanical 2000|Company: Autodesk"
 90
    32768
280
     0
281
     0
  0
CLASS
  1
AMDTFORMULAUPDATEDISPATCHER
  2
AmdtFormulaUpdateDispatcher
  3
AcMeServices
 90
    32768
280
     0
281
     0
  0
CLASS
  1
LAYER_INDEX
  2
AcDbLayerIndex
  3
ObjectDBX Classes
 90
    32768
280
     0
281
     0
  0
CLASS
  1
IDBUFFER
  2
AcDbIdBuffer
  3
ObjectDBX Classes
 90
    32768
280
     0
281
     0
  0
CLASS
  1
DICTIONARYVAR
  2
AcDbDictionaryVar
  3
ObjectDBX Classes
 90
        0
280
     0
281
     0
  0
CLASS
  1
ACMSTANDARDISO
  2
AcmStandardISO
  3
"Amdt_StdImp|Product Description: AutoCAD Mechanical 2004 DX|Company: Autodesk"
 90
        0
280
     0
281
     0
  0
CLASS
  1
AMDTEDGESTANDARDISO
  2
AmdtEdgeStdISO
  3
"Amdt_StdImp|Product Description: AutoCAD Mechanical 2004 DX|Company: Autodesk"
 90
    32768
280
     0
281
     0
  0
CLASS
  1
ACMSURFSTANDARDISO
  2
AcmSurfTextStdISO
  3
"Amdt_StdImp|Product Description: AutoCAD Mechanical 2004 DX|Company: Autodesk"
 90
        0
280
     0
281
     0
  0
CLASS
  1
ACMFCFSTANDARDISO
  2
AcmFCFStdISO
  3
"Amdt_StdImp|Product Description: AutoCAD Mechanical 2004 DX|Company: Autodesk"
 90
        0
280
     0
281
     0
  0
CLASS
  1
ACMWELDSTANDARDISO
  2
AcmWeldingStdISO
  3
"Amdt_StdImp|Product Description: AutoCAD Mechanical 2004 DX|Company: Autodesk"
 90
        0
280
     0
281
     0
  0
CLASS
  1
ACMIDSTANDARDISO
  2
AcmIdStdISO
  3
"Amdt_StdImp|Product Description: AutoCAD Mechanical 2004 DX|Company: Autodesk"
 90
        0
280
     0
281
     0
  0
CLASS
  1
ACMDATUMSTANDARDISO
  2
AcmDatumStdISO
  3
"Amdt_StdImp|Product Description: AutoCAD Mechanical 2004 DX|Company: Autodesk"
 90
        0
280
     0
281
     0
  0
CLASS
  1
ACMBOMSTANDARDISO
  2
AcmBOMStdISO
  3
"Amdt_StdImp|Product Description: AutoCAD Mechanical 2004 DX|Company: Autodesk"
 90
        0
280
     0
281
     0
  0
CLASS
  1
ACMDETAILSTANDARDISO
  2
AmdtDetailSymStdISO
  3
"Amdt_StdImp|Product Description: AutoCAD Mechanical 2004 DX|Company: Autodesk"
 90
        0
280
     0
281
     0
  0
CLASS
  1
ACMSECTIONSTANDARDISO
  2
AmdtSectionSymStdISO
  3
"Amdt_StdImp|Product Description: AutoCAD Mechanical 2004 DX|Company: Autodesk"
 90
        0
280
     0
281
     0
  0
CLASS
  1
ACMCENTERLINESTANDARDISO
  2
AmdtCenterLineStdISO
  3
"Amdt_StdImp|Product Description: AutoCAD Mechanical 2004 DX|Company: Autodesk"
 90
        0
280
     0
281
     0
  0
CLASS
  1
ACMNOTESTANDARDISO
  2
AmdtNoteStdISO
  3
"Amdt_StdImp|Product Description: AutoCAD Mechanical 2004 DX|Company: Autodesk"
 90
        0
280
     0
281
     0
  0
CLASS
  1
ACAMGHOLECHARTSTDISO
  2
AcAmgHoleChartStdISO
  3
ACMSYMBB_MODULE_NAME
 90
        0
280
     0
281
     0
  0
CLASS
  1
AMDTNOTE
  2
AmdtNote
  3
"AcmSymBB|Product Description: AutoCAD Mechanical 2004 DX|Company: Autodesk"
 90
    33791
280
     0
281
     1
  0
CLASS
  1
STDPART2D
  2
AmgStdPart
  3
"AmgStdPart|Product Description: AutoCAD Mechanical 2000|Company: Autodesk"
 90
    33791
280
     0
281
     1
  0
CLASS
  1
TABLESTYLE
  2
AcDbTableStyle
  3
ObjectDBX Classes
 90
     2047
280
     0
281
     0
  0
CLASS
  1
AM_DRAWING_MGR
  2
AcDmDwgMgr
  3
AcMechDwgViewMgmt
 90
        0
280
     0
281
     0
  0
CLASS
  1
AM_DWG_DOCUMENT
  2
AcDmDwgDocument
  3
AcMechDwgViewMgmt
 90
        0
280
     0
281
     0
  0
CLASS
  1
AM_DWG_SHEET
  2
AcDmSheet
  3
AcMechDwgViewMgmt
 90
        0
280
     0
281
     0
  0
CLASS
  1
AM_VIEWDIMPARMAP
  2
AcDmViewDimParMap
  3
AcMechDwgViewMgmt
 90
        0
280
     0
281
     0
  0
CLASS
  1
AM_DWGMGR_NAME
  2
AcDmDwgMgrName
  3
AcMechDwgViewMgmt
 90
        0
280
     0
281
     0
  0
CLASS
  1
AMDTMENUSTATEMGR
  2
AmdtMenuStateMgr
  3
McadcomServices
 90
        0
280
     0
281
     0
  0
CLASS
  1
AMDTMCOMMENUSTATE
  2
AmdtMcomMenuState
  3
McadcomServices
 90
        0
280
     0
281
     0
  0
CLASS
  1
MAPIAMMOUDLE
  2
MApiAmModule
  3
MApiAmServices
 90
        0
280
     0
281
     0
  0
CLASS
  1
AMDTADMENUSTATE
  2
AmdtAdMenuState
  3
DesignerServices
 90
        0
280
     0
281
     0
  0
CLASS
  1
ADAPPL
  2
AcAdAppl
  3
DesignerServices
 90
        0
280
     0
281
     0
  0
CLASS
  1
DEPMGR
  2
AcAdDepMgr
  3
DesignerServices
 90
        0
280
     0
281
     0
  0
CLASS
  1
PARAMMGR
  2
AcAdParamMgr
  3
DesignerServices
 90
        0
280
     0
281
     0
  0
CLASS
  1
PARAMSCOPE
  2
AcAdParamScope
  3
DesignerServices
 90
        0
280
     0
281
     0
  0
CLASS
  1
NAMEDAPPL
  2
AcAdNamedAppl
  3
DesignerServices
 90
        0
280
     0
281
     0
  0
CLASS
  1
AMDTDMMENUSTATE
  2
AmdtDmMenuState
  3
AcMechDwgViewMgmt
 90
        0
280
     0
281
     0
  0
CLASS
  1
AMDTAMMENUSTATE
  2
AmdtAmMenuState
  3
DesignerAssemblies
 90
        0
280
     0
281
     0
  0
CLASS
  1
ACAMPROJECT
  2
AcAmProject
  3
DesignerAssemblies
 90
        0
280
     0
281
     0
  0
CLASS
  1
ACAMGRCOMPDEF
  2
AcAmGrCompDef
  3
DesignerAssemblies
 90
        0
280
     0
281
     0
  0
CLASS
  1
ACCMCONTEXT
  2
AcCmContext
  3
DesignerAssemblies
 90
        0
280
     0
281
     0
  0
CLASS
  1
ACAMCOMPDEF
  2
AcAmCompDef
  3
DesignerAssemblies
 90
        0
280
     0
281
     0
  0
CLASS
  1
ACAMCOMPDEFMGR
  2
AcAmCompDefMgr
  3
DesignerAssemblies
 90
        0
280
     0
281
     0
  0
CLASS
  1
AMCONTEXTMGR
  2
AcAmContextMgr
  3
DesignerAssemblies
 90
        0
280
     0
281
     0
  0
CLASS
  1
ACAMCONTEXTMODELER
  2
AcAmContextModeler
  3
DesignerAssemblies
 90
        0
280
     0
281
     0
  0
CLASS
  1
ACMTHREADLINESTANDARDISO
  2
AmdtThreadLineStdISO
  3
"Amdt_StdImp|Product Description: AutoCAD Mechanical 2004 DX|Company: Autodesk"
 90
        0
280
     0
281
     0
  0
CLASS
  1
ACMTHREADLINESTANDARDANSI
  2
AmdtThreadLineStdANSI
  3
"Amdt_StdImp|Product Description: AutoCAD Mechanical 2004 DX|Company: Autodesk"
 90
    32768
280
     0
281
     0
  0
CLASS
  1
CATALOGSTATE
  2
AcAmCatalogState
  3
DesignerAssemblies
 90
        0
280
     0
281
     0
  0
CLASS
  1
ACAMGRCOMPDEFSET
  2
AcAmGrCompDefSet
  3
DesignerAssemblies
 90
        0
280
     0
281
     0
  0
CLASS
  1
AMDTBROWSERDBTAB
  2
AmdtBrowserDbTab
  3
McadcomServices
 90
        0
280
     0
281
     0
  0
CLASS
  1
CBROWSERAPPOBJECT
  2
CBrowserAppObject
  3
McadcomServices
 90
        0
280
     0
281
     0
  0
CLASS
  1
DM_PLACEHOLDER
  2
AcDmSelsetPlaceholder
  3
AcMechDwgViewMgmt
 90
        0
280
     0
281
     0
  0
CLASS
  1
VAACXREFPANELOBJECT
  2
VaAcXREFPanelObject
  3
VAAC_ADDIN
 90
        0
280
     0
281
     0
  0
CLASS
  1
VAACIMAGEINVENTORY
  2
VaAcImageInventory
  3
VAAC_ADDIN
 90
        0
280
     0
281
     0
  0
CLASS
  1
SORTENTSTABLE
  2
AcDbSortentsTable
  3
ObjectDBX Classes
 90
    32768
280
     0
281
     0
  0
CLASS
  1
ACRFATTGENMGR
  2
AcRfAttGeneralMgr
  3
AcAttribServices
 90
        0
280
     0
281
     0
  0
CLASS
  1
AMDTEDGESTANDARDISO13715
  2
AmdtEdgeStdISO13715
  3
"Amdt_StdImp|Product Description: AutoCAD Mechanical 2004 DX|Company: Autodesk"
 90
        0
280
     0
281
     0
  0
CLASS
  1
AMDTNOTETEMPLATEDB
  2
AmdtNoteTemplateDB
  3
AMDT_STDIMP_MODULE_NAME
 90
        0
280
     0
281
     0
  0
ENDSEC
  0
SECTION
  2
TABLES
  0
TABLE
  2
VPORT
  5
8
330
0
100
AcDbSymbolTable
 70
     3
  0
VPORT
  5
6FD3
330
8
100
AcDbSymbolTableRecord
100
AcDbViewportTableRecord
  2
*Active
 70
     0
 10
0.0
 20
0.0
 11
1.0
 21
1.0
 12
590.7366873708727
 22
360.4561788825188
 13
0.0
 23
0.0
 14
2.5
 24
2.5
 15
10.0
 25
10.0
 16
0.0
 26
0.0
 36
1.0
 17
0.0
 27
0.0
 37
0.0
 40
433.3581155194237
 41
1.81766917293233
 42
50.0
 43
0.0
 44
0.0
 50
0.0
 51
0.0
 71
     0
 72
   100
 73
     1
 74
     1
 75
     0
 76
     0
 77
     0
 78
     0
281
     0
 65
     1
110
0.0
120
0.0
130
0.0
111
1.0
121
0.0
131
0.0
112
0.0
122
1.0
132
0.0
 79
     0
146
0.0
  0
ENDTAB
  0
TABLE
  2
LTYPE
  5
5
330
0
100
AcDbSymbolTable
 70
    16
  0
LTYPE
  5
13
330
5
100
AcDbSymbolTableRecord
100
AcDbLinetypeTableRecord
  2
BYBLOCK
 70
     0
  3

 72
    65
 73
     0
 40
0.0
  0
LTYPE
  5
14
330
5
100
AcDbSymbolTableRecord
100
AcDbLinetypeTableRecord
  2
BYLAYER
 70
     0
  3

 72
    65
 73
     0
 40
0.0
  0
LTYPE
  5
15
330
5
100
AcDbSymbolTableRecord
100
AcDbLinetypeTableRecord
  2
CONTINUOUS
 70
     0
  3
Solid line
 72
    65
 73
     0
 40
0.0
  0
LTYPE
  5
23
330
5
100
AcDbSymbolTableRecord
100
AcDbLinetypeTableRecord
  2
HIDDEN
 70
     0
  3
_ _ _ _ _ _ _ _ _ _ _ _ _ _ _ _ _ _ _ _ _ _ _
 72
    65
 73
     2
 40
0.375
 49
0.25
 74
     0
 49
-0.125
 74
     0
  0
LTYPE
  5
24
330
5
100
AcDbSymbolTableRecord
100
AcDbLinetypeTableRecord
  2
CENTER
 70
     0
  3
____ _ ____ _ ____ _ ____ _ ____ _ ____ _ ____
 72
    65
 73
     4
 40
2.0
 49
1.25
 74
     0
 49
-0.25
 74
     0
 49
0.25
 74
     0
 49
-0.25
 74
     0
  0
LTYPE
  5
7CE
330
5
100
AcDbSymbolTableRecord
100
AcDbLinetypeTableRecord
  2
AMCONSTR
 70
     0
  3
_______________________
 72
    65
 73
     2
 40
9999.0
 49
9999.0
 74
     0
 49
0.0
 74
     0
  0
LTYPE
  5
7CF
330
5
100
AcDbSymbolTableRecord
100
AcDbLinetypeTableRecord
  2
AM_ISO08W050X2
 70
     0
  3
__ . __ . __ . __ . __ . __
 72
    65
 73
     4
 40
9.0
 49
6.0
 74
     0
 49
-0.75
 74
     0
 49
1.5
 74
     0
 49
-0.75
 74
     0
  0
LTYPE
  5
7D4
330
5
100
AcDbSymbolTableRecord
100
AcDbLinetypeTableRecord
  2
PHANTOM2
 70
     0
  3
Phantom (.5x) ___ _ _ ___ _ _ ___ _ _ ___ _ _
 72
    65
 73
     6
 40
1.25
 49
0.625
 74
     0
 49
-0.125
 74
     0
 49
0.125
 74
     0
 49
-0.125
 74
     0
 49
0.125
 74
     0
 49
-0.125
 74
     0
  0
LTYPE
  5
7E3
330
5
100
AcDbSymbolTableRecord
100
AcDbLinetypeTableRecord
  2
ACANSTGB
 70
     0
  3
__ . . __ . .
 72
    65
 73
     6
 40
0.35433070866
 49
0.15748031496
 74
     0
 49
-0.03937007874
 74
     0
 49
0.03937007874
 74
     0
 49
-0.03937007874
 74
     0
 49
0.03937007874
 74
     0
 49
-0.03937007874
 74
     0
  0
LTYPE
  5
7E4
330
5
100
AcDbSymbolTableRecord
100
AcDbLinetypeTableRecord
  2
ACANSTGL
 70
     0
  3
_ _ _ _ _
 72
    65
 73
     2
 40
0.11811023622
 49
0.07874015748
 74
     0
 49
-0.03937007874
 74
     0
  0
LTYPE
  5
C13
330
5
100
AcDbSymbolTableRecord
100
AcDbLinetypeTableRecord
  2
ACISOWELD
 70
     0
  3
_ _ _ _ _
 72
    65
 73
     2
 40
2.0
 49
2.0
 74
     0
 49
-1.0
 74
     0
  0
LTYPE
  5
C14
330
5
100
AcDbSymbolTableRecord
100
AcDbLinetypeTableRecord
  2
ACISOTGB
 70
     0
  3
__ . . __ . .
 72
    65
 73
     6
 40
9.0
 49
4.0
 74
     0
 49
-1.0
 74
     0
 49
1.0
 74
     0
 49
-1.0
 74
     0
 49
1.0
 74
     0
 49
-1.0
 74
     0
  0
LTYPE
  5
C15
330
5
100
AcDbSymbolTableRecord
100
AcDbLinetypeTableRecord
  2
ACISOTGL
 70
     0
  3
_ _ _ _ _
 72
    65
 73
     2
 40
3.0
 49
2.0
 74
     0
 49
-1.0
 74
     0
  0
LTYPE
  5
16FD
330
5
100
AcDbSymbolTableRecord
100
AcDbLinetypeTableRecord
  2
AM_ISO02W050
 70
     0
  3
__ __ __ __ __ __ __ __ __ __ __ __ __ __ __
 72
    65
 73
     2
 40
7.5
 49
6.0
 74
     0
 49
-1.5
 74
     0
  0
LTYPE
  5
16FE
330
5
100
AcDbSymbolTableRecord
100
AcDbLinetypeTableRecord
  2
AM_ISO08W050
 70
     0
  3
____ . ____ . ____ . ____ . ____ . ____ . ____
 72
    65
 73
     4
 40
18.0
 49
12.0
 74
     0
 49
-1.5
 74
     0
 49
3.0
 74
     0
 49
-1.5
 74
     0
  0
LTYPE
  5
16FF
330
5
100
AcDbSymbolTableRecord
100
AcDbLinetypeTableRecord
  2
AM_ISO09W050
 70
     0
  3
_____ . . _____ . . _____ . . ____ .. ____
 72
    65
 73
     6
 40
22.5
 49
12.0
 74
     0
 49
-1.5
 74
     0
 49
3.0
 74
     0
 49
-1.5
 74
     0
 49
3.0
 74
     0
 49
-1.5
 74
     0
  0
LTYPE
  5
1700
330
5
100
AcDbSymbolTableRecord
100
AcDbLinetypeTableRecord
  2
AM_ISO02W050x2
 70
     0
  3
 _ _ _ _ _ _ _ _ _ _ _ _
 72
    65
 73
     2
 40
3.75
 49
3.0
 74
     0
 49
-0.75
 74
     0
  0
LTYPE
  5
1701
330
5
100
AcDbSymbolTableRecord
100
AcDbLinetypeTableRecord
  2
Amzigzag
 70
     0
  3
/\/-/\/-/\/-/\/-/\/-/\/
 72
    65
 73
     2
 40
11.0001
 49
0.0001
 74
     4
 75
   135
340
7D2
 46
0.04
 50
0.0
 44
0.0
 45
0.0
 49
-11.0
 74
     0
  0
ENDTAB
  0
TABLE
  2
LAYER
  5
2
102
{ACAD_XDICTIONARY
360
688C
102
}
330
0
100
AcDbSymbolTable
 70
     7
  0
LAYER
  5
10
330
2
100
AcDbSymbolTableRecord
100
AcDbLayerTableRecord
  2
0
 70
     0
 62
     7
  6
CONTINUOUS
370
    -3
390
B32
  0
LAYER
  5
26
330
2
100
AcDbSymbolTableRecord
100
AcDbLayerTableRecord
  2
DEFPOINTS
 70
     0
 62
     7
  6
CONTINUOUS
290
     0
370
    -3
390
B32
  0
LAYER
  5
516
330
2
100
AcDbSymbolTableRecord
100
AcDbLayerTableRecord
  2
ASHADE
 70
     0
 62
     7
  6
CONTINUOUS
370
    -3
390
B32
  0
LAYER
  5
7F7
330
2
100
AcDbSymbolTableRecord
100
AcDbLayerTableRecord
  2
LOGO
 70
     0
 62
     7
  6
CONTINUOUS
370
    -3
390
B32
  0
LAYER
  5
11C1
330
2
100
AcDbSymbolTableRecord
100
AcDbLayerTableRecord
  2
AM_5
 70
     0
 62
     5
  6
CONTINUOUS
370
    25
390
B32
  0
LAYER
  5
2E05
330
2
100
AcDbSymbolTableRecord
100
AcDbLayerTableRecord
  2
CENTER
 70
     0
 62
     1
  6
CENTER
370
    -3
390
B32
  0
LAYER
  5
62F1
330
2
100
AcDbSymbolTableRecord
100
AcDbLayerTableRecord
  2
UMCL1
 70
     0
 62
     7
  6
CONTINUOUS
370
    -3
390
B32
  0
ENDTAB
  0
TABLE
  2
STYLE
  5
3
330
0
100
AcDbSymbolTable
 70
    10
  0
STYLE
  5
11
330
3
100
AcDbSymbolTableRecord
100
AcDbTextStyleTableRecord
  2
STANDARD
 70
     0
 40
0.0
 41
1.0
 50
0.0
 71
     0
 42
3.5
  3
ISOCP.SHX
  4

  0
STYLE
  5
22
330
3
100
AcDbSymbolTableRecord
100
AcDbTextStyleTableRecord
  2
DAYUS
 70
     0
 40
0.0
 41
1.0
 50
0.0
 71
     0
 42
3.0
  3
simplex
  4
dayus
  0
STYLE
  5
27B
330
3
100
AcDbSymbolTableRecord
100
AcDbTextStyleTableRecord
  2
CHINESET
 70
     0
 40
0.0
 41
1.0
 50
0.0
 71
     0
 42
4.0
  3
simplex.shx
  4
chineset.shx
  0
STYLE
  5
7D2
330
3
100
AcDbSymbolTableRecord
100
AcDbTextStyleTableRecord
  2

 70
     1
 40
0.0
 41
1.0
 50
0.0
 71
     0
 42
4.0
  3
ltypeshp.shx
  4

  0
STYLE
  5
7D7
330
3
100
AcDbSymbolTableRecord
100
AcDbTextStyleTableRecord
  2
ACANSTS
 70
     0
 40
1.0
 41
1.0
 50
0.0
 71
     0
 42
4.0
  3
romans.shx
  4
chineset.shx
  0
STYLE
  5
7E2
330
3
100
AcDbSymbolTableRecord
100
AcDbTextStyleTableRecord
  2
ACANSGDT
 70
     0
 40
0.0
 41
1.0
 50
0.0
 71
     0
 42
4.0
  3
amgdtans.shx
  4

  0
STYLE
  5
C19
330
3
100
AcDbSymbolTableRecord
100
AcDbTextStyleTableRecord
  2
ACISOTS
 70
     0
 40
1.0
 41
1.0
 50
0.0
 71
     0
 42
2.5
  3
isocp.shx
  4
chineset.shx
  0
STYLE
  5
C1A
330
3
100
AcDbSymbolTableRecord
100
AcDbTextStyleTableRecord
  2
ACISOGDT
 70
     0
 40
0.0
 41
1.0
 50
0.0
 71
     0
 42
2.5
  3
amgdt.shx
  4

  0
STYLE
  5
62F3
330
3
100
AcDbSymbolTableRecord
100
AcDbTextStyleTableRecord
  2
ROMANSS
 70
     0
 40
0.0
 41
1.0
 50
0.0
 71
     0
 42
3.0
  3
ROMANSS.SHX
  4
LMP
  0
ENDTAB
  0
TABLE
  2
VIEW
  5
6
330
0
100
AcDbSymbolTable
 70
     0
  0
ENDTAB
  0
TABLE
  2
UCS
  5
7
330
0
100
AcDbSymbolTable
 70
     0
  0
ENDTAB
  0
TABLE
  2
APPID
  5
9
330
0
100
AcDbSymbolTable
 70
    29
  0
APPID
  5
12
330
9
100
AcDbSymbolTableRecord
100
AcDbRegAppTableRecord
  2
ACAD
 70
     0
  0
APPID
  5
514
330
9
100
AcDbSymbolTableRecord
100
AcDbRegAppTableRecord
  2
AVE_RENDER
 70
     0
  0
APPID
  5
515
330
9
100
AcDbSymbolTableRecord
100
AcDbRegAppTableRecord
  2
AVE_ENTITY_MATERIAL
 70
     0
  0
APPID
  5
522
330
9
100
AcDbSymbolTableRecord
100
AcDbRegAppTableRecord
  2
AVE_FINISH
 70
     0
  0
APPID
  5
523
330
9
100
AcDbSymbolTableRecord
100
AcDbRegAppTableRecord
  2
AVE_MATERIAL
 70
     0
  0
APPID
  5
524
330
9
100
AcDbSymbolTableRecord
100
AcDbRegAppTableRecord
  2
AVE_GLOBAL
 70
     0
  0
APPID
  5
7AD
330
9
100
AcDbSymbolTableRecord
100
AcDbRegAppTableRecord
  2
MCAD_NO_VIS
 70
     0
  0
APPID
  5
7AE
330
9
100
AcDbSymbolTableRecord
100
AcDbRegAppTableRecord
  2
ACAD_TEMP_GRAPHIC
 70
     0
  0
APPID
  5
7BF
330
9
100
AcDbSymbolTableRecord
100
AcDbRegAppTableRecord
  2
ACATTRIBSERVICES
 70
     0
  0
APPID
  5
C22
330
9
100
AcDbSymbolTableRecord
100
AcDbRegAppTableRecord
  2
GENIUS_GENODEF_13
 70
     0
  0
APPID
  5
C23
330
9
100
AcDbSymbolTableRecord
100
AcDbRegAppTableRecord
  2
GENIUS_GENOREF_13
 70
     0
  0
APPID
  5
C24
330
9
100
AcDbSymbolTableRecord
100
AcDbRegAppTableRecord
  2
GENIUS_GENOBJ-N-CEN_13
 70
     0
  0
APPID
  5
16D2
330
9
100
AcDbSymbolTableRecord
100
AcDbRegAppTableRecord
  2
GENIUS_GENDTOL_13
 70
     0
  0
APPID
  5
353F
330
9
100
AcDbSymbolTableRecord
100
AcDbRegAppTableRecord
  2
GENIUS_GENDIMSH_14
 70
     0
  0
APPID
  5
4D84
330
9
100
AcDbSymbolTableRecord
100
AcDbRegAppTableRecord
  2
GEVID1082602174
 70
     0
  0
APPID
  5
4D85
330
9
100
AcDbSymbolTableRecord
100
AcDbRegAppTableRecord
  2
GEVDC
 70
     0
  0
APPID
  5
4D88
330
9
100
AcDbSymbolTableRecord
100
AcDbRegAppTableRecord
  2
GENIUS_GENBH_13
 70
     0
  0
APPID
  5
4D8E
330
9
100
AcDbSymbolTableRecord
100
AcDbRegAppTableRecord
  2
GENIUS_GENOLIS_13
 70
     0
  0
APPID
  5
4D8F
330
9
100
AcDbSymbolTableRecord
100
AcDbRegAppTableRecord
  2
GENIUS_GENOENT_13
 70
     0
  0
APPID
  5
4D90
330
9
100
AcDbSymbolTableRecord
100
AcDbRegAppTableRecord
  2
GENIUS_GENOBJ-NBEHI-BHF_13
 70
     0
  0
APPID
  5
4D92
330
9
100
AcDbSymbolTableRecord
100
AcDbRegAppTableRecord
  2
GENIUS_GENOBJ-NBEHI-BHB_13
 70
     0
  0
APPID
  5
5F39
330
9
100
AcDbSymbolTableRecord
100
AcDbRegAppTableRecord
  2
GEVID1082701535
 70
     0
  0
APPID
  5
5F3B
330
9
100
AcDbSymbolTableRecord
100
AcDbRegAppTableRecord
  2
GEVRADREF
 70
     0
  0
APPID
  5
62C2
330
9
100
AcDbSymbolTableRecord
100
AcDbRegAppTableRecord
  2
AD_DRAW
 70
     0
  0
APPID
  5
62E0
330
9
100
AcDbSymbolTableRecord
100
AcDbRegAppTableRecord
  2
DESIGNERASSEMBLIES
 70
     0
  0
APPID
  5
62E6
330
9
100
AcDbSymbolTableRecord
100
AcDbRegAppTableRecord
  2
ACADM_DIM_EDIT
 70
     0
  0
APPID
  5
62E7
330
9
100
AcDbSymbolTableRecord
100
AcDbRegAppTableRecord
  2
AMDT_DM_ADJ
 70
     0
  0
APPID
  5
67CA
330
9
100
AcDbSymbolTableRecord
100
AcDbRegAppTableRecord
  2
GENIUS_GENREC_14
 70
     0
  0
APPID
  5
67CB
330
9
100
AcDbSymbolTableRecord
100
AcDbRegAppTableRecord
  2
GENIUS_GENOBJ-N-REC_13
 70
     0
  0
ENDTAB
  0
TABLE
  2
DIMSTYLE
  5
A
330
0
100
AcDbSymbolTable
 70
    15
100
AcDbDimStyleTable
 71
     1
340
C1B
  0
DIMSTYLE
105
7E8
330
A
100
AcDbSymbolTableRecord
100
AcDbDimStyleTableRecord
  2
AM_ANSI
 70
     0
  4
mm
 41
0.1
 42
0.05
 43
0.5
 44
0.1
 47
0.1
 48
0.1
 78
     7
140
0.12
141
0.0
146
0.71
147
0.06
176
   256
177
   256
178
     2
274
     4
284
     7
340
11
  0
DIMSTYLE
105
7E9
330
A
100
AcDbSymbolTableRecord
100
AcDbDimStyleTableRecord
  2
AM_ANSI$3
 70
     0
  4
mm
 41
0.1
 42
0.05
 43
0.5
 44
0.1
 47
0.1
 48
0.1
 78
     7
140
0.12
141
0.0
146
0.71
147
0.06
176
   256
177
   256
178
     2
274
     4
284
     7
288
     1
340
11
  0
DIMSTYLE
105
7EA
330
A
100
AcDbSymbolTableRecord
100
AcDbDimStyleTableRecord
  2
AM_ANSI$4
 70
     0
  4
mm
 41
0.1
 42
0.05
 43
0.5
 44
0.1
 47
0.1
 48
0.1
 78
     7
140
0.12
141
0.0
146
0.71
147
0.06
176
   256
177
   256
178
     2
274
     4
284
     7
288
     1
340
11
  0
DIMSTYLE
105
7EB
330
A
100
AcDbSymbolTableRecord
100
AcDbDimStyleTableRecord
  2
AM_ANSI$7
 70
     0
  4
mm
 41
0.1
 42
0.05
 43
0.5
 44
0.1
 47
0.1
 48
0.1
 78
     7
140
0.24
141
0.0
146
0.71
147
0.06
176
   256
177
   256
178
     2
274
     4
284
     7
340
11
  0
DIMSTYLE
105
7EC
330
A
100
AcDbSymbolTableRecord
100
AcDbDimStyleTableRecord
  2
AM_ANSI$SF
 70
     0
  4
mm
 41
0.1
 42
0.05
 43
0.5
 44
0.1
 47
0.1
 48
0.1
 75
     1
 76
     1
 78
     7
140
0.12
141
0.0
146
0.71
147
0.06
176
   256
177
   256
178
     2
274
     4
284
     7
340
11
  0
DIMSTYLE
105
7F1
330
A
100
AcDbSymbolTableRecord
100
AcDbDimStyleTableRecord
  2
AM_ANSI$SH
 70
     0
  4
mm
 41
0.1
 42
0.05
 43
0.5
 44
0.1
 47
0.1
 48
0.1
 75
     1
 76
     1
 78
     7
140
0.12
141
0.0
146
0.71
147
0.06
173
     1
176
   256
177
   256
178
     2
274
     4
284
     7
340
11
341
7ED
343
7ED
  0
DIMSTYLE
105
C1B
330
A
100
AcDbSymbolTableRecord
100
AcDbDimStyleTableRecord
  2
AM_ISO
 70
     0
  4
"
 41
2.0
 42
1.0
 43
5.0
 44
1.5
 47
0.1
 48
0.1
 73
     0
 74
     0
 77
     1
 78
     8
 79
     2
140
2.0
141
3.0
143
0.0393701
146
0.71
147
0.6
172
     1
176
   256
177
   256
178
   256
271
     2
272
     2
283
     0
284
     8
340
11
371
    -1
372
    -1
  0
DIMSTYLE
105
C1C
330
A
100
AcDbSymbolTableRecord
100
AcDbDimStyleTableRecord
  2
AM_ISO$3
 70
     0
  4
"
 41
2.0
 42
1.0
 43
5.0
 44
1.5
 47
0.1
 48
0.1
 73
     0
 77
     1
 78
     8
 79
     2
140
2.0
141
3.0
143
0.0393701
146
0.71
147
0.6
176
   256
177
   256
178
   256
271
     2
272
     2
283
     0
284
     8
288
     1
289
     0
340
11
371
    -1
372
    -1
  0
DIMSTYLE
105
C1D
330
A
100
AcDbSymbolTableRecord
100
AcDbDimStyleTableRecord
  2
AM_ISO$4
 70
     0
  4
"
 41
2.0
 42
1.0
 43
5.0
 44
1.5
 47
0.1
 48
0.1
 73
     0
 77
     1
 78
     8
 79
     2
140
2.0
141
3.0
143
0.0393701
146
0.71
147
0.6
176
   256
177
   256
178
   256
271
     2
272
     2
283
     0
284
     8
288
     1
289
     0
340
11
371
    -1
372
    -1
  0
DIMSTYLE
105
C1E
330
A
100
AcDbSymbolTableRecord
100
AcDbDimStyleTableRecord
  2
AM_ISO$6
 70
     0
  4
"
 41
2.0
 42
1.0
 43
5.0
 44
1.5
 47
0.1
 48
0.1
 73
     0
 74
     0
 78
     8
 79
     2
140
2.0
141
3.0
143
0.0393701
146
0.71
147
0.6
172
     1
176
   256
177
   256
178
   256
271
     2
272
     2
283
     0
284
     8
340
11
371
    -1
372
    -1
  0
DIMSTYLE
105
C1F
330
A
100
AcDbSymbolTableRecord
100
AcDbDimStyleTableRecord
  2
AM_ISO$7
 70
     0
  4
"
 41
2.0
 42
1.0
 43
5.0
 44
1.5
 47
0.1
 48
0.1
 73
     0
 74
     0
 77
     1
 78
     8
 79
     2
140
5.0
141
3.0
143
0.0393701
146
0.71
147
0.6
172
     1
176
   256
177
   256
178
   256
271
     2
272
     2
283
     0
284
     8
340
11
371
    -1
372
    -1
  0
DIMSTYLE
105
C20
330
A
100
AcDbSymbolTableRecord
100
AcDbDimStyleTableRecord
  2
AM_ISO$SF
 70
     0
  4
"
 41
2.5
 42
1.0
 43
10.0
 44
1.0
 47
0.1
 48
0.1
 73
     0
 74
     0
 75
     1
 76
     1
 77
     1
 78
     8
 79
     2
140
3.5
141
0.0
143
0.0393701
146
0.71
147
1.5
172
     1
176
   256
177
   256
178
     2
271
     2
272
     3
274
     4
283
     0
284
     8
340
11
371
    -1
372
    -1
  0
DIMSTYLE
105
C21
330
A
100
AcDbSymbolTableRecord
100
AcDbDimStyleTableRecord
  2
AM_ISO$SH
 70
     0
  4
"
 41
2.5
 42
1.0
 43
10.0
 44
1.0
 47
0.1
 48
0.1
 73
     0
 74
     0
 75
     1
 76
     1
 77
     1
 78
     8
 79
     2
140
3.5
141
0.0
143
0.0393701
144
2.0
146
0.71
147
1.5
172
     1
173
     1
176
   256
177
   256
178
     2
271
     2
272
     3
274
     4
283
     0
284
     8
340
11
341
7ED
343
7ED
371
    -1
372
    -1
  0
DIMSTYLE
105
62F4
330
A
100
AcDbSymbolTableRecord
100
AcDbDimStyleTableRecord
  2
Standard
 70
     0
340
11
  0
ENDTAB
  0
TABLE
  2
BLOCK_RECORD
  5
1
330
0
100
AcDbSymbolTable
 70
     5
  0
BLOCK_RECORD
  5
1E
102
{ACAD_XDICTIONARY
360
708
102
}
330
1
100
AcDbSymbolTableRecord
100
AcDbBlockTableRecord
  2
*MODEL_SPACE
340
B33
  0
BLOCK_RECORD
  5
1A
102
{ACAD_XDICTIONARY
360
70A
102
}
330
1
100
AcDbSymbolTableRecord
100
AcDbBlockTableRecord
  2
*PAPER_SPACE
340
B34
  0
BLOCK_RECORD
  5
517
330
1
100
AcDbSymbolTableRecord
100
AcDbBlockTableRecord
  2
AVE_RENDER
340
0
102
{BLKREFS
331
51A
331
51B
331
51C
331
51D
331
51E
331
51F
331
520
331
521
102
}
  0
BLOCK_RECORD
  5
525
330
1
100
AcDbSymbolTableRecord
100
AcDbBlockTableRecord
  2
AVE_GLOBAL
340
0
102
{BLKREFS
331
528
102
}
  0
BLOCK_RECORD
  5
7ED
330
1
100
AcDbSymbolTableRecord
100
AcDbBlockTableRecord
  2
GENAXEH
340
0
  0
ENDTAB
  0
ENDSEC
  0
SECTION
  2
BLOCKS
  0
BLOCK
  5
29
330
1E
100
AcDbEntity
  8
0
100
AcDbBlockBegin
  2
*MODEL_SPACE
 70
     0
 10
0.0
 20
0.0
 30
0.0
  3
*MODEL_SPACE
  1

  0
ENDBLK
  5
2A
330
1E
100
AcDbEntity
  8
0
100
AcDbBlockEnd
  0
BLOCK
  5
27
330
1A
100
AcDbEntity
 67
     1
  8
0
100
AcDbBlockBegin
  2
*PAPER_SPACE
 70
     0
 10
0.0
 20
0.0
 30
0.0
  3
*PAPER_SPACE
  1

  0
ENDBLK
  5
28
330
1A
100
AcDbEntity
 67
     1
  8
0
100
AcDbBlockEnd
  0
BLOCK
  5
518
330
517
100
AcDbEntity
  8
0
100
AcDbBlockBegin
  2
AVE_RENDER
 70
     0
 10
0.0
 20
0.0
 30
0.0
  3
AVE_RENDER
  1
AVE_RENDER
  0
ENDBLK
  5
519
330
517
100
AcDbEntity
  8
0
100
AcDbBlockEnd
  0
BLOCK
  5
526
330
525
100
AcDbEntity
  8
0
100
AcDbBlockBegin
  2
AVE_GLOBAL
 70
     0
 10
0.0
 20
0.0
 30
0.0
  3
AVE_GLOBAL
  1
AVE_GLOBAL
  0
ENDBLK
  5
527
330
525
100
AcDbEntity
  8
0
100
AcDbBlockEnd
  0
BLOCK
  5
7EF
330
7ED
100
AcDbEntity
  8
0
100
AcDbBlockBegin
  2
GENAXEH
 70
     0
 10
0.0
 20
0.0
 30
0.0
  3
GENAXEH
  1

  0
LINE
  5
7EE
330
7ED
100
AcDbEntity
  8
0
100
AcDbLine
 10
-1.0
 20
0.0
 30
0.0
 11
1.0
 21
0.0
 31
0.0
  0
ENDBLK
  5
7F0
330
7ED
100
AcDbEntity
  8
0
100
AcDbBlockEnd
  0
ENDSEC
  0
SECTION
  2
ENTITIES
  0
INSERT
  5
51A
330
1E
100
AcDbEntity
  8
ASHADE
 62
     1
100
AcDbBlockReference
  2
AVE_RENDER
 10
0.0
 20
0.0
 30
0.0
1001
AVE_RENDER
1002
{
1070
     7
1000
Pref
1070
    30
1070
    20
1070
     1
1070
     0
1000

1070
    10
1070
     1
1070
    10
1040
1.0
1070
     1
1040
0.3
1040
0.7
1040
0.0
1040
10.0
1010
-1.0
1020
-1.0
1030
-1.0
1040
0.3
1070
    49
1070
     0
1070
     0
1010
1.0
1020
1.0
1030
1.0
1040
45.0
1070
     1
1070
     0
1000
WCS
1040
0.0
1070
     0
1040
10.0
1002
}
  0
INSERT
  5
51B
330
1E
100
AcDbEntity
  8
ASHADE
 62
     3
100
AcDbBlockReference
  2
AVE_RENDER
 10
0.0
 20
0.0
 30
0.0
1001
AVE_RENDER
1002
{
1070
     0
1000
Full Opt
1070
     0
1070
     1
1070
     1
1070
     1
1070
     0
1070
     0
1070
     0
1070
     1
1070
     1
1040
0.0001
1040
0.0001
1002
}
  0
INSERT
  5
51C
330
1E
100
AcDbEntity
  8
ASHADE
 62
     4
100
AcDbBlockReference
  2
AVE_RENDER
 10
0.0
 20
0.0
 30
0.0
1001
AVE_RENDER
1002
{
1070
     0
1000
Quick Opt
1070
     0
1070
     1
1070
     1
1070
     1
1070
     0
1070
     0
1070
     1
1002
}
  0
INSERT
  5
51D
330
1E
100
AcDbEntity
  8
ASHADE
 62
     5
100
AcDbBlockReference
  2
AVE_RENDER
 10
0.0
 20
0.0
 30
0.0
1001
AVE_RENDER
1002
{
1070
     1
1000
Scanl Opt
1070
     2
1070
     0
1070
     2
1040
2.0
1040
4.0
1070
     0
1070
     1
1070
     0
1040
0.03
1002
}
  0
INSERT
  5
51E
330
1E
100
AcDbEntity
  8
ASHADE
 62
     6
100
AcDbBlockReference
  2
AVE_RENDER
 10
0.0
 20
0.0
 30
0.0
1001
AVE_RENDER
1002
{
1070
     2
1000
Raytr Opt
1070
     2
1070
     0
1070
     2
1040
2.0
1040
4.0
1070
     0
1070
     1
1070
     1
1040
0.03
1070
     3
1040
0.03
1002
}
  0
INSERT
  5
51F
330
1E
100
AcDbEntity
  8
ASHADE
 62
     7
100
AcDbBlockReference
  2
AVE_RENDER
 10
0.0
 20
0.0
 30
0.0
1001
AVE_RENDER
1002
{
1070
     0
1000
RFile Opt
1070
     1
1070
   640
1070
   480
1070
 10000
1070
     1
1070
     8
1070
     8
1070
     0
1070
     0
1070
     0
1070
     0
1070
     0
1070
     0
1070
     0
1002
}
  0
INSERT
  5
520
330
1E
100
AcDbEntity
  8
ASHADE
 62
     8
100
AcDbBlockReference
  2
AVE_RENDER
 10
0.0
 20
0.0
 30
0.0
1001
AVE_RENDER
1002
{
1070
     0
1000
Fog Opt
1070
     0
1070
     0
1040
0.0
1040
1.0
1040
0.0
1040
1.0
1010
0.5
1020
0.5
1030
0.5
1002
}
  0
INSERT
  5
521
330
1E
100
AcDbEntity
  8
ASHADE
 62
     9
100
AcDbBlockReference
  2
AVE_RENDER
 10
0.0
 20
0.0
 30
0.0
1001
AVE_RENDER
1002
{
1070
     0
1000
BG Opt
1070
     0
1070
     1
1010
0.0
1020
0.0
1030
0.0
1010
1.0
1020
0.0
1030
0.0
1010
0.0
1020
1.0
1030
0.0
1010
0.0
1020
0.0
1030
1.0
1040
0.5
1040
0.33
1040
0.0
1000

1070
     1
1000

1070
     1
1070
     1
1040
1.0
1040
1.0
1040
0.0
1040
0.0
1070
     0
1002
}
  0
INSERT
  5
528
330
1E
100
AcDbEntity
  8
ASHADE
 62
     1
100
AcDbBlockReference
  2
AVE_GLOBAL
 10
0.0
 20
0.0
 30
0.0
1001
AVE_MATERIAL
1002
{
1000
*整體*
1000
2
1000
整體修飾.
1002
{
1002
}
1002
{
1070
    63
1002
{
1002
{
1010
-1.0
1020
-1.0
1030
-1.0
1002
}
1040
0.1000000014901161
1000

1040
0.0
1002
{
1002
}
1040
0.0
1002
{
1002
}
1040
0.0
1002
}
1002
{
1002
{
1010
-1.0
1020
-1.0
1030
-1.0
1002
}
1040
0.6999999880790711
1000

1040
0.0
1002
{
1002
}
1040
0.0
1002
{
1002
}
1040
0.0
1002
}
1002
{
1002
{
1010
-1.0
1020
-1.0
1030
-1.0
1002
}
1040
0.2000000029802322
1000

1040
0.0
1002
{
1002
}
1040
0.0
1002
{
1002
}
1040
0.0
1002
}
1002
{
1070
     0
1002
{
1070
     1
1002
{
1040
1.0
1040
1.0
1000

1040
0.0
1002
{
1002
}
1040
0.0
1002
{
1002
}
1040
0.0
1002
}
1002
}
1040
1.0
1040
0.0
1040
0.0
1002
}
1002
{
1040
1.0
1040
1.0
1000

1040
0.0
1002
{
1002
}
1040
0.0
1002
{
1002
}
1040
0.0
1002
}
1002
{
1040
0.5
1040
1.0
1000

1040
0.0
1002
{
1002
}
1040
0.0
1002
{
1002
}
1040
0.0
1002
}
1002
{
1070
     0
1040
0.0
1002
{
1002
}
1040
1.0
1002
{
1002
}
1040
0.0
1002
}
1002
{
1040
0.0
1002
{
1002
{
1010
0.0
1020
0.0
1030
0.0
1002
}
1040
1.0
1000

1040
0.0
1002
{
1002
}
1040
0.0
1002
{
1002
}
1040
0.0
1002
}
1002
}
1002
{
1002
{
1070
     1
1002
{
1040
0.0
1040
1.0
1000

1040
0.0
1002
{
1002
}
1040
0.0
1002
{
1002
}
1040
0.0
1002
}
1002
}
1040
0.0
1002
{
1002
}
1010
1.0
1020
0.0
1030
0.0
1010
0.0
1020
1.0
1030
0.0
1010
0.0
1020
0.0
1030
1.0
1070
     0
1002
}
1002
{
1002
{
1040
1.0
1040
1.0
1002
{
1070
     1
1002
{
1040
1.0
1040
1.0
1000

1040
0.0
1002
{
1002
}
1040
0.0
1002
{
1002
}
1040
0.0
1002
}
1002
}
1002
}
1070
     0
1040
0.0
1002
{
1002
}
1002
}
1002
{
1002
}
1002
}
1002
{
1071
        3
1070
     3
1070
     0
1002
{
1070
     2
1070
     0
1070
     0
1040
0.0
1002
}
1070
     0
1070
     2
1002
{
1002
}
1002
}
1002
{
1040
8030.0
1040
190.3000030517578
1040
0.3050000071525574
1040
228.0
1040
545.0
1040
14.0
1040
17.39999961853027
1040
0.4560000002384186
1002
}
1002
}
  0
TEXT
  5
2F4E
330
1E
100
AcDbEntity
  8
LOGO
 62
     7
100
AcDbText
 10
440.2837729897625
 20
205.6560181026559
 30
0.0
 40
14.07420814479638
  1
Order example:
 41
0.8
  7
CHINESET
100
AcDbText
  0
TEXT
  5
2F4F
330
1E
100
AcDbEntity
  8
LOGO
 62
     7
100
AcDbText
 10
442.8088023199039
 20
225.4695890685492
 30
0.0
 40
21.11131221719457
  1
訂購代號:
  7
CHINESET
100
AcDbText
  0
LINE
  5
2F50
330
1E
100
AcDbEntity
  8
LOGO
 62
     1
100
AcDbLine
 10
979.5440474247387
 20
251.8985513160483
 30
0.0
 11
201.9440474247373
 21
251.8985513160483
 31
0.0
  0
LINE
  5
2F51
330
1E
100
AcDbEntity
  8
LOGO
 62
     1
100
AcDbLine
 10
979.5440474247387
 20
146.3419902300753
 30
0.0
 11
201.9440474247373
 21
146.3419902300753
 31
0.0
  0
LINE
  5
2F62
330
1E
100
AcDbEntity
  8
0
 62
     4
100
AcDbLine
 10
979.5440474247373
 20
251.8985513160483
 30
0.0
 11
201.9440474247382
 21
251.8985513160483
 31
0.0
  0
LINE
  5
2F64
330
1E
100
AcDbEntity
  8
LOGO
 62
     1
100
AcDbLine
 10
434.1684818138779
 20
146.3419902300753
 30
0.0
 11
434.1684818138779
 21
251.8985513160483
 31
0.0
  0
LINE
  5
2F65
330
1E
100
AcDbEntity
  8
LOGO
 62
     1
100
AcDbLine
 10
201.9440474247373
 20
146.3419902300753
 30
0.0
 11
201.9440474247373
 21
251.8985513160483
 31
0.0
  0
TEXT
  5
2F66
330
1E
100
AcDbEntity
  8
LOGO
  6
Continuous
 62
     5
100
AcDbText
 10
230.5548430729573
 20
167.0784173566745
 30
0.0
 40
15.83348416289592
  1
金器工業股份有限公司
  7
CHINESET
100
AcDbText
  0
TEXT
  5
2F67
330
1E
100
AcDbEntity
  8
LOGO
  6
Continuous
 62
     5
100
AcDbText
 10
209.9328467714442
 20
151.241831072276
 30
0.0
 40
10.55565610859728
  1
MINDMAN INDUSTRIAL CO.,LTD
 41
0.85
  7
CHINESET
100
AcDbText
  0
LINE
  5
2F68
330
1E
100
AcDbEntity
  8
LOGO
 62
     1
100
AcDbLine
 10
434.1684818138779
 20
230.7872390988541
 30
0.0
 11
279.352192221118
 21
230.7872390988541
 31
0.0
  0
LINE
  5
2F69
330
1E
100
AcDbEntity
  8
LOGO
 62
     1
100
AcDbLine
 10
434.1684818138779
 20
209.6759268816589
 30
0.0
 11
279.352192221118
 21
209.6759268816589
 31
0.0
  0
LINE
  5
2F6A
330
1E
100
AcDbEntity
  8
LOGO
 62
     1
100
AcDbLine
 10
434.1684818138779
 20
188.5646146644647
 30
0.0
 11
201.9440474247373
 21
188.5646146644647
 31
0.0
  0
SOLID
  5
2F6B
330
1E
100
AcDbEntity
  8
LOGO
 62
     5
100
AcDbTrace
 10
212.8957100428035
 20
206.1118904656743
 30
0.0
 11
217.4596987637444
 21
206.1118904656725
 31
0.0
 12
236.5025482545697
 22
249.3910938539107
 32
0.0
 13
241.0665369755102
 23
249.3910938539072
 33
0.0
  0
SOLID
  5
2F6C
330
1E
100
AcDbEntity
  8
LOGO
 62
     5
100
AcDbTrace
 10
219.3482458206888
 20
206.1118904656743
 30
0.0
 11
223.9122345416287
 21
206.1118904656743
 31
0.0
 12
241.0665369755102
 22
245.9287575828497
 32
0.0
 13
236.5025482545697
 23
229.1941322727311
 33
0.0
  0
SOLID
  5
2F6D
330
1E
100
AcDbEntity
  8
LOGO
 62
     2
100
AcDbTrace
 10
217.4596987637444
 20
206.1118904656725
 30
0.0
 11
219.3482458206888
 21
206.1118904656743
 31
0.0
 12
241.0665369755102
 22
249.3910938539072
 32
0.0
 13
242.9550840324528
 23
249.3910938539072
 33
0.0
  0
SOLID
  5
2F6E
330
1E
100
AcDbEntity
  8
LOGO
 62
     5
100
AcDbTrace
 10
205.578516896003
 20
190.3739983244991
 30
0.0
 11
207.1523061101232
 21
190.3739983244991
 31
0.0
 12
211.5842190310398
 22
198.2429443950854
 32
0.0
 13
213.1580082451566
 23
198.2429443950854
 33
0.0
  0
SOLID
  5
2F6F
330
1E
100
AcDbEntity
  8
LOGO
 62
     5
100
AcDbTrace
 10
211.5842190310398
 20
198.2429443950854
 30
0.0
 11
213.1580082451566
 21
198.2429443950854
 31
0.0
 12
211.5842190310398
 22
190.3739983244991
 32
0.0
 13
213.1580082451566
 23
190.3739983244991
 33
0.0
  0
SOLID
  5
2F70
330
1E
100
AcDbEntity
  8
LOGO
 62
     5
100
AcDbTrace
 10
211.5842190310398
 20
190.3739983244991
 30
0.0
 11
213.1580082451566
 21
190.3739983244991
 31
0.0
 12
217.589921166079
 22
198.2429443950854
 32
0.0
 13
219.1637103801949
 23
198.2429443950854
 33
0.0
  0
SOLID
  5
2F71
330
1E
100
AcDbEntity
  8
LOGO
 62
     5
100
AcDbTrace
 10
217.589921166079
 20
198.2429443950854
 30
0.0
 11
219.1637103801949
 21
198.2429443950854
 31
0.0
 12
217.589921166079
 22
190.3739983244991
 32
0.0
 13
219.1637103801949
 23
190.3739983244991
 33
0.0
  0
POLYLINE
  5
2F72
330
1E
100
AcDbEntity
  8
LOGO
 62
     5
100
AcDb2dPolyline
 66
     1
 10
0.0
 20
0.0
 30
0.0
 40
1.576311312217194
 41
1.576311312217194
  0
VERTEX
  5
2F73
330
2F72
100
AcDbEntity
  8
LOGO
 62
     5
100
AcDbVertex
100
AcDb2dVertex
 10
270.3427995052495
 20
195.0953659668502
 30
0.0
 42
1.0
  0
VERTEX
  5
2F74
330
2F72
100
AcDbEntity
  8
LOGO
 62
     5
100
AcDbVertex
100
AcDb2dVertex
 10
265.6138655685972
 20
195.0953659668502
 30
0.0
 42
1.0
  0
SEQEND
  5
2F75
330
2F72
100
AcDbEntity
  8
LOGO
 62
     5
  0
POLYLINE
  5
2F76
330
1E
100
AcDbEntity
  8
LOGO
 62
     5
100
AcDb2dPolyline
 66
     1
 10
0.0
 20
0.0
 30
0.0
 70
     1
  0
VERTEX
  5
2F77
330
2F76
100
AcDbEntity
  8
LOGO
 62
     5
100
AcDbVertex
100
AcDb2dVertex
 10
256.6996147550256
 20
194.3084713597919
 30
0.0
 42
1.000000057330635
  0
VERTEX
  5
2F78
330
2F76
100
AcDbEntity
  8
LOGO
 62
     5
100
AcDbVertex
100
AcDb2dVertex
 10
261.4209823973795
 20
194.3084713597919
 30
0.0
 42
1.000000057330635
  0
SEQEND
  5
2F79
330
2F76
100
AcDbEntity
  8
LOGO
 62
     5
  0
CIRCLE
  5
2F7A
330
1E
100
AcDbEntity
  8
LOGO
 62
     5
100
AcDbCircle
 10
259.0602985762034
 20
194.3084713597919
 30
0.0
 40
2.360683821176471
  0
POLYLINE
  5
2F7B
330
1E
100
AcDbEntity
  8
LOGO
 62
     5
100
AcDb2dPolyline
 66
     1
 10
0.0
 20
0.0
 30
0.0
 70
     1
 40
1.576311312217194
 41
1.576311312217194
  0
VERTEX
  5
2F7C
330
2F7B
100
AcDbEntity
  8
LOGO
 62
     5
100
AcDbVertex
100
AcDb2dVertex
 10
255.9076759517682
 20
194.3084713597919
 30
0.0
 42
1.0
  0
VERTEX
  5
2F7D
330
2F7B
100
AcDbEntity
  8
LOGO
 62
     5
100
AcDbVertex
100
AcDb2dVertex
 10
262.212921200637
 20
194.3084713597919
 30
0.0
 42
1.0
  0
SEQEND
  5
2F7E
330
2F7B
100
AcDbEntity
  8
LOGO
 62
     5
  0
LINE
  5
2F7F
330
1E
100
AcDbEntity
  8
LOGO
 62
     5
100
AcDbLine
 10
271.125910965158
 20
190.3739983244991
 30
0.0
 11
271.125910965158
 21
195.0953659668502
 31
0.0
  0
SOLID
  5
2F80
330
1E
100
AcDbEntity
  8
LOGO
 62
     5
100
AcDbTrace
 10
261.4208250184615
 20
198.2429443950854
 30
0.0
 11
262.9946142325774
 21
198.2429443950854
 31
0.0
 12
261.4208250184615
 22
190.3739983244991
 32
0.0
 13
262.9946142325774
 23
190.3739983244991
 33
0.0
  0
SOLID
  5
2F81
330
1E
100
AcDbEntity
  8
LOGO
 62
     5
100
AcDbTrace
 10
264.8307541086863
 20
190.3739983244991
 30
0.0
 11
266.4045433228059
 21
190.3739983244991
 31
0.0
 12
264.8307541086863
 22
198.2429443950854
 32
0.0
 13
266.4045433228059
 23
198.2429443950854
 33
0.0
  0
SOLID
  5
2F82
330
1E
100
AcDbEntity
  8
LOGO
 62
     5
100
AcDbTrace
 10
269.5521217510411
 20
195.0953659668502
 30
0.0
 11
271.125910965158
 21
195.0953659668502
 31
0.0
 12
269.5521217510411
 22
190.3739983244991
 32
0.0
 13
271.125910965158
 23
190.3739983244991
 33
0.0
  0
LINE
  5
2F83
330
1E
100
AcDbEntity
  8
LOGO
 62
     1
100
AcDbLine
 10
279.352192221118
 20
188.5646146644647
 30
0.0
 11
279.352192221118
 21
251.8985513160483
 31
0.0
  0
SOLID
  5
2F84
330
1E
100
AcDbEntity
  8
LOGO
 62
     5
100
AcDbTrace
 10
264.6733751872745
 20
245.9287575828497
 30
0.0
 11
260.1093864663337
 21
229.1941322727311
 31
0.0
 12
264.6733751872745
 22
206.1118904656725
 32
0.0
 13
260.1093864663337
 23
206.1118904656725
 33
0.0
  0
SOLID
  5
2F85
330
1E
100
AcDbEntity
  8
LOGO
 62
     5
100
AcDbTrace
 10
266.5619222442172
 20
206.1118904656725
 30
0.0
 11
271.125910965158
 21
206.1118904656725
 31
0.0
 12
266.5619222442172
 22
249.3910938539072
 32
0.0
 13
271.125910965158
 23
249.3910938539107
 33
0.0
  0
SOLID
  5
2F86
330
1E
100
AcDbEntity
  8
LOGO
 62
     2
100
AcDbTrace
 10
264.6733751872745
 20
249.3910938539107
 30
0.0
 11
266.5619222442172
 21
249.3910938539072
 31
0.0
 12
264.6733751872745
 22
206.1118904656725
 32
0.0
 13
266.5619222442172
 23
206.1118904656725
 33
0.0
  0
POLYLINE
  5
2F87
330
1E
100
AcDbEntity
  8
LOGO
 62
     5
100
AcDb2dPolyline
 66
     1
 10
0.0
 20
0.0
 30
0.0
 40
1.576311312217194
 41
1.576311312217194
  0
VERTEX
  5
2F88
330
2F87
100
AcDbEntity
  8
LOGO
 62
     5
100
AcDbVertex
100
AcDb2dVertex
 10
247.785049183615
 20
195.0953659668502
 30
0.0
 42
1.0
  0
VERTEX
  5
2F89
330
2F87
100
AcDbEntity
  8
LOGO
 62
     5
100
AcDbVertex
100
AcDb2dVertex
 10
243.0561152469626
 20
195.0953659668502
 30
0.0
 42
1.0
  0
SEQEND
  5
2F8A
330
2F87
100
AcDbEntity
  8
LOGO
 62
     5
  0
POLYLINE
  5
2F8B
330
1E
100
AcDbEntity
  8
LOGO
 62
     5
100
AcDb2dPolyline
 66
     1
 10
0.0
 20
0.0
 30
0.0
 40
1.576311312217194
 41
1.576311312217194
  0
VERTEX
  5
2F8C
330
2F8B
100
AcDbEntity
  8
LOGO
 62
     5
100
AcDbVertex
100
AcDb2dVertex
 10
252.5064168259671
 20
195.0953659668502
 30
0.0
 42
1.0
  0
VERTEX
  5
2F8D
330
2F8B
100
AcDbEntity
  8
LOGO
 62
     5
100
AcDbVertex
100
AcDb2dVertex
 10
247.7774828893144
 20
195.0953659668502
 30
0.0
 42
1.0
  0
SEQEND
  5
2F8E
330
2F8B
100
AcDbEntity
  8
LOGO
 62
     5
  0
POLYLINE
  5
2F8F
330
1E
100
AcDbEntity
  8
LOGO
 62
     5
100
AcDb2dPolyline
 66
     1
 10
0.0
 20
0.0
 30
0.0
 40
1.576311312217194
 41
1.576311312217194
  0
VERTEX
  5
2F90
330
2F8F
100
AcDbEntity
  8
LOGO
 62
     5
100
AcDbVertex
100
AcDb2dVertex
 10
229.948666504333
 20
195.0953659668502
 30
0.0
 42
1.0
  0
VERTEX
  5
2F91
330
2F8F
100
AcDbEntity
  8
LOGO
 62
     5
100
AcDbVertex
100
AcDb2dVertex
 10
225.2197325676816
 20
195.0953659668502
 30
0.0
 42
1.0
  0
SEQEND
  5
2F92
330
2F8F
100
AcDbEntity
  8
LOGO
 62
     5
  0
SOLID
  5
2F93
330
1E
100
AcDbEntity
  8
LOGO
 62
     5
100
AcDbTrace
 10
224.4366211077736
 20
198.2429443950854
 30
0.0
 11
226.0104103218891
 21
198.2429443950854
 31
0.0
 12
224.4366211077736
 22
190.3739983244991
 32
0.0
 13
226.0104103218891
 23
190.3739983244991
 33
0.0
  0
SOLID
  5
2F94
330
1E
100
AcDbEntity
  8
LOGO
 62
     5
100
AcDbTrace
 10
229.1579887501252
 20
195.0953659668502
 30
0.0
 11
230.7317779642439
 21
195.0953659668502
 31
0.0
 12
229.1579887501252
 22
190.3739983244991
 32
0.0
 13
230.7317779642439
 23
190.3739983244991
 33
0.0
  0
POLYLINE
  5
2F95
330
1E
100
AcDbEntity
  8
LOGO
 62
     5
100
AcDb2dPolyline
 66
     1
 10
0.0
 20
0.0
 30
0.0
 70
     1
 40
1.576311312217194
 41
1.576311312217194
  0
VERTEX
  5
2F96
330
2F95
100
AcDbEntity
  8
LOGO
 62
     5
100
AcDbVertex
100
AcDb2dVertex
 10
233.3499256301334
 20
194.3084713597919
 30
0.0
 42
1.0
  0
VERTEX
  5
2F97
330
2F95
100
AcDbEntity
  8
LOGO
 62
     5
100
AcDbVertex
100
AcDb2dVertex
 10
239.6551708790021
 20
194.3084713597919
 30
0.0
 42
1.0
  0
SEQEND
  5
2F98
330
2F95
100
AcDbEntity
  8
LOGO
 62
     5
  0
SOLID
  5
2F99
330
1E
100
AcDbEntity
  8
LOGO
 62
     5
100
AcDbTrace
 10
238.863074696826
 20
200.6036282162632
 30
0.0
 11
240.4368639109419
 21
200.6036282162632
 31
0.0
 12
238.863074696826
 22
190.3739983244991
 32
0.0
 13
240.4368639109419
 23
190.3739983244991
 33
0.0
  0
SOLID
  5
2F9A
330
1E
100
AcDbEntity
  8
LOGO
 62
     5
100
AcDbTrace
 10
242.2730037870552
 20
198.2429443950854
 30
0.0
 11
243.846793001172
 21
198.2429443950854
 31
0.0
 12
242.2730037870552
 22
190.3739983244991
 32
0.0
 13
243.846793001172
 23
190.3739983244991
 33
0.0
  0
SOLID
  5
2F9B
330
1E
100
AcDbEntity
  8
LOGO
 62
     5
100
AcDbTrace
 10
246.9943714294072
 20
195.0953659668502
 30
0.0
 11
248.568160643524
 21
195.0953659668502
 31
0.0
 12
246.9943714294072
 22
190.3739983244991
 32
0.0
 13
248.568160643524
 23
190.3739983244991
 33
0.0
  0
SOLID
  5
2F9C
330
1E
100
AcDbEntity
  8
LOGO
 62
     5
100
AcDbTrace
 10
251.7157390717592
 20
195.0953659668502
 30
0.0
 11
253.289528285875
 21
195.0953659668502
 31
0.0
 12
251.7157390717592
 22
190.3739983244955
 32
0.0
 13
253.289528285875
 23
190.3739983244955
 33
0.0
  0
SOLID
  5
2F9D
330
1E
100
AcDbEntity
  8
LOGO
 62
     5
100
AcDbTrace
 10
221.0266920175432
 20
199.3445968449669
 30
0.0
 11
222.6004812316643
 21
199.3445968449669
 31
0.0
 12
221.0266920175432
 22
200.6036282162632
 32
0.0
 13
222.6004812316643
 23
200.6036282162632
 33
0.0
  0
SOLID
  5
2F9E
330
1E
100
AcDbEntity
  8
LOGO
 62
     5
100
AcDbTrace
 10
221.0266920175432
 20
198.2429443950854
 30
0.0
 11
222.6004812316643
 21
198.2429443950854
 31
0.0
 12
221.0266920175432
 22
190.3739983244955
 32
0.0
 13
222.6004812316643
 23
190.3739983244991
 33
0.0
  0
SOLID
  5
2F9F
330
1E
100
AcDbEntity
  8
LOGO
 62
     5
100
AcDbTrace
 10
236.5025482545697
 20
206.1118904656743
 30
0.0
 11
241.0665369755102
 21
206.1118904656743
 31
0.0
 12
236.5025482545697
 22
229.1941322727311
 32
0.0
 13
241.0665369755102
 23
245.9287575828497
 33
0.0
  0
SOLID
  5
2FA0
330
1E
100
AcDbEntity
  8
LOGO
 62
     5
100
AcDbTrace
 10
242.9550840324528
 20
249.3910938539072
 30
0.0
 11
247.5190727533936
 21
249.3910938539107
 31
0.0
 12
242.9550840324528
 22
209.5742267367319
 32
0.0
 13
247.5190727533936
 23
226.3088520468504
 33
0.0
  0
SOLID
  5
2FA1
330
1E
100
AcDbEntity
  8
LOGO
 62
     2
100
AcDbTrace
 10
241.0665369755102
 20
249.3910938539072
 30
0.0
 11
242.9550840324528
 21
249.3910938539072
 31
0.0
 12
241.0665369755102
 22
206.1118904656743
 32
0.0
 13
242.9550840324528
 23
206.1118904656743
 33
0.0
  0
SOLID
  5
2FA2
330
1E
100
AcDbEntity
  8
LOGO
 62
     5
100
AcDbTrace
 10
242.9550840324528
 20
209.5742267367319
 30
0.0
 11
247.5190727533936
 21
226.3088520468504
 31
0.0
 12
264.6733751872745
 22
249.3910938539107
 32
0.0
 13
260.1093864663337
 23
249.3910938539107
 33
0.0
  0
SOLID
  5
2FA3
330
1E
100
AcDbEntity
  8
LOGO
 62
     5
100
AcDbTrace
 10
242.9550840324528
 20
206.1118904656743
 30
0.0
 11
247.5190727533936
 21
206.1118904656743
 31
0.0
 12
264.6733751872745
 22
245.9287575828497
 32
0.0
 13
260.1093864663337
 23
229.1941322727311
 33
0.0
  0
SOLID
  5
2FA4
330
1E
100
AcDbEntity
  8
LOGO
 62
     2
100
AcDbTrace
 10
241.0665369755102
 20
206.1118904656743
 30
0.0
 11
242.9550840324528
 21
206.1118904656743
 31
0.0
 12
264.6733751872745
 22
249.3910938539107
 32
0.0
 13
266.5619222442172
 23
249.3910938539072
 33
0.0
  0
TEXT
  5
2FA5
330
1E
100
AcDbEntity
  8
LOGO
 62
     6
100
AcDbText
 10
379.6326657404656
 20
193.8424427187631
 30
0.0
 40
10.55565610859728
  1
m/m
  7
CHINESET
 72
     1
 11
398.2307265032322
 21
199.1202707730618
 31
0.0
100
AcDbText
 73
     2
  0
TEXT
  5
2FA6
330
1E
100
AcDbEntity
  8
LOGO
 62
     6
100
AcDbText
 10
379.6326657404656
 20
236.0650671531526
 30
0.0
 40
10.55565610859728
  1
1 : 1
  7
CHINESET
 72
     1
 11
398.2307265032322
 21
241.3428952074513
 31
0.0
100
AcDbText
 73
     2
  0
LINE
  5
2FA7
330
1E
100
AcDbEntity
  8
LOGO
 62
     1
100
AcDbLine
 10
363.797441089896
 20
188.5646146644647
 30
0.0
 11
363.797441089896
 21
251.8985513160483
 31
0.0
  0
CIRCLE
  5
2FA8
330
1E
100
AcDbEntity
  8
LOGO
  6
Continuous
 62
     6
100
AcDbCircle
 10
383.3425586555595
 20
220.2541616159169
 30
0.0
 40
6.128862388789257
  0
CIRCLE
  5
2FA9
330
1E
100
AcDbEntity
  8
LOGO
  6
Continuous
 62
     6
100
AcDbCircle
 10
383.3425586555595
 20
220.2541616159169
 30
0.0
 40
3.590970802340395
  0
LINE
  5
2FAA
330
1E
100
AcDbEntity
  8
LOGO
 62
     6
100
AcDbLine
 10
421.8570410698303
 20
214.1252992271273
 30
0.0
 11
421.8570410698303
 21
226.3830240047065
 31
0.0
  0
LINE
  5
2FAB
330
1E
100
AcDbEntity
  8
LOGO
 62
     6
100
AcDbLine
 10
402.6434092944625
 20
216.6631908135768
 30
0.0
 11
402.6434092944625
 21
223.8451324182579
 31
0.0
  0
LINE
  5
2FAC
330
1E
100
AcDbEntity
  8
LOGO
  6
Continuous
 62
     6
100
AcDbLine
 10
402.6434092944625
 20
223.8451324182579
 30
0.0
 11
421.8570410698303
 21
226.3830240047065
 31
0.0
  0
LINE
  5
2FAD
330
1E
100
AcDbEntity
  8
LOGO
  6
Continuous
 62
     6
100
AcDbLine
 10
402.6434092944625
 20
216.6631908135768
 30
0.0
 11
421.8570410698303
 21
214.1252992271273
 31
0.0
  0
LINE
  5
2FE5
330
1E
100
AcDbEntity
  8
LOGO
 62
     6
100
AcDbLine
 10
780.3944240407173
 20
193.8424427187636
 30
0.0
 11
780.3944240407173
 21
155.1383703205729
 31
0.0
  0
LINE
  5
2FE6
330
1E
100
AcDbEntity
  8
LOGO
 62
     6
100
AcDbLine
 10
688.717129182253
 20
193.8424427187636
 30
0.0
 11
688.717129182253
 21
155.1383703205729
 31
0.0
  0
LINE
  5
2FE7
330
1E
100
AcDbEntity
  8
LOGO
 62
     6
100
AcDbLine
 10
656.7649915460066
 20
193.8424427187636
 30
0.0
 11
656.7649915460066
 21
155.1383703205729
 31
0.0
  0
LINE
  5
2FE8
330
1E
100
AcDbEntity
  8
LOGO
 62
     6
100
AcDbLine
 10
586.3939508220251
 20
193.8424427187636
 30
0.0
 11
586.3939508220251
 21
155.1383703205729
 31
0.0
  0
LINE
  5
2FE9
330
1E
100
AcDbEntity
  8
LOGO
 62
     6
100
AcDbLine
 10
656.7649915460066
 20
155.1383703205729
 30
0.0
 11
586.3939508220251
 21
155.1383703205729
 31
0.0
  0
LINE
  5
2FEA
330
1E
100
AcDbEntity
  8
LOGO
 62
     6
100
AcDbLine
 10
780.3944240407173
 20
155.1383703205729
 30
0.0
 11
688.717129182253
 21
155.1383703205729
 31
0.0
  0
LINE
  5
2FEB
330
1E
100
AcDbEntity
  8
LOGO
  6
Continuous
 62
     7
100
AcDbLine
 10
669.2578383540844
 20
225.3972416381814
 30
0.0
 11
683.240816090424
 21
225.3972416381814
 31
0.0
  0
LINE
  5
2FEC
330
1E
100
AcDbEntity
  8
LOGO
 62
     6
100
AcDbLine
 10
663.8020956184046
 20
241.3428952074513
 30
0.0
 11
579.3568467496267
 21
241.3428952074513
 31
0.0
  0
LINE
  5
2FED
330
1E
100
AcDbEntity
  8
LOGO
 62
     6
100
AcDbLine
 10
663.8020956184046
 20
209.6759268816589
 30
0.0
 11
579.3568467496267
 21
209.6759268816589
 31
0.0
  0
LINE
  5
2FEE
330
1E
100
AcDbEntity
  8
LOGO
 62
     6
100
AcDbLine
 10
579.3568467496267
 20
241.3428952074513
 30
0.0
 11
579.3568467496267
 21
209.6759268816589
 31
0.0
  0
LINE
  5
2FEF
330
1E
100
AcDbEntity
  8
LOGO
 62
     6
100
AcDbLine
 10
663.8020956184046
 20
241.3428952074513
 30
0.0
 11
663.8020956184046
 21
209.6759268816589
 31
0.0
  0
LINE
  5
2FF0
330
1E
100
AcDbEntity
  8
LOGO
 62
     6
100
AcDbLine
 10
621.5794711840154
 20
209.6759268816589
 30
0.0
 11
621.5794711840154
 21
193.8424427187636
 31
0.0
  0
TEXT
  5
2FF1
330
1E
100
AcDbEntity
  8
LOGO
  6
Continuous
 62
     7
100
AcDbText
 10
587.6505765492384
 20
216.7130309540573
 30
0.0
 40
17.59276018099547
  1
MHBS
  7
CHINESET
 72
     1
 11
621.5794711840154
 21
225.5094110445551
 31
0.0
100
AcDbText
 73
     2
  0
LINE
  5
2FF2
330
1E
100
AcDbEntity
  8
LOGO
 62
     6
100
AcDbLine
 10
656.7649915460066
 20
193.8424427187636
 30
0.0
 11
586.3939508220251
 21
193.8424427187636
 31
0.0
  0
LINE
  5
2FF3
330
1E
100
AcDbEntity
  8
LOGO
 62
     6
100
AcDbLine
 10
780.3944240407173
 20
241.3428952074513
 30
0.0
 11
688.717129182253
 21
241.3428952074513
 31
0.0
  0
LINE
  5
2FF4
330
1E
100
AcDbEntity
  8
LOGO
 62
     6
100
AcDbLine
 10
780.3944240407173
 20
193.8424427187636
 30
0.0
 11
688.717129182253
 21
193.8424427187636
 31
0.0
  0
LINE
  5
2FF5
330
1E
100
AcDbEntity
  8
LOGO
 62
     6
100
AcDbLine
 10
780.3944240407173
 20
209.6759268816589
 30
0.0
 11
688.717129182253
 21
209.6759268816589
 31
0.0
  0
TEXT
  5
2FF6
330
1E
100
AcDbEntity
  8
LOGO
  6
Continuous
 62
     7
100
AcDbText
 10
711.9365135216342
 20
216.5135279450367
 30
0.0
 40
17.59276018099547
  1
078
  7
CHINESET
 72
     1
 11
734.5557766114855
 21
225.3099080355344
 31
0.0
100
AcDbText
 73
     2
  0
LINE
  5
2FF7
330
1E
100
AcDbEntity
  8
LOGO
 62
     6
100
AcDbLine
 10
734.5557766114855
 20
209.6759268816589
 30
0.0
 11
734.5557766114855
 21
193.8424427187636
 31
0.0
  0
LINE
  5
2FF8
330
1E
100
AcDbEntity
  8
LOGO
 62
     6
100
AcDbLine
 10
688.717129182253
 20
241.3428952074513
 30
0.0
 11
688.717129182253
 21
209.6759268816589
 31
0.0
  0
LINE
  5
2FFD
330
1E
100
AcDbEntity
  8
LOGO
 62
     6
100
AcDbLine
 10
780.3944240407173
 20
241.3428952074513
 30
0.0
 11
780.3944240407173
 21
209.6759268816589
 31
0.0
  0
LINE
  5
2FFE
330
1E
100
AcDbEntity
  8
LOGO
 62
     1
100
AcDbLine
 10
979.5440474247387
 20
146.3419902300753
 30
0.0
 11
979.5440474247387
 21
251.8985513160483
 31
0.0
  0
TEXT
  5
3075
330
1E
100
AcDbEntity
  8
LOGO
 62
     6
100
AcDbText
 10
288.0558961642339
 20
236.0702618658045
 30
691.8003119298816
 40
10.55565610859728
  1
比例 Scale:
 41
0.9
  7
CHINESET
 72
     4
 11
321.5748166555073
 21
241.3428952074513
 31
691.8003119298816
100
AcDbText
  0
TEXT
  5
3076
330
1E
100
AcDbEntity
  8
LOGO
 62
     6
100
AcDbText
 10
291.7456634557659
 20
215.1022371392567
 30
691.8003119298816
 40
10.55565610859728
  1
投影 View:
 41
0.9
  7
CHINESET
 72
     4
 11
321.5748166555073
 21
220.231582990256
 31
691.8003119298816
100
AcDbText
  0
TEXT
  5
3077
330
1E
100
AcDbEntity
  8
LOGO
 62
     6
100
AcDbText
 10
292.7776673342404
 20
193.8424427187631
 30
691.8003119298816
 40
10.55565610859728
  1
單位 Unit:
 41
0.9
  7
CHINESET
 72
     4
 11
321.5748166555073
 21
199.1202707730618
 31
691.8003119298816
100
AcDbText
  0
TEXT
  5
3078
330
1E
100
AcDbEntity
  8
LOGO
  6
Continuous
 62
     6
100
AcDbText
 10
604.8244614878292
 20
159.5365603658219
 30
691.8003119298816
 40
8.796380090497736
  1
Model
  7
CHINESET
 72
     4
 11
621.5794711840154
 21
163.9347504110708
 31
691.8003119298816
100
AcDbText
  0
TEXT
  5
3079
330
1E
100
AcDbEntity
  8
LOGO
  6
Continuous
 62
     6
100
AcDbText
 10
718.8479550213109
 20
159.5365603658219
 30
691.8003119298816
 40
8.796380090497736
  1
Ratio
  7
CHINESET
 72
     4
 11
734.5557766114855
 21
163.9347504110708
 31
691.8003119298816
100
AcDbText
  0
TEXT
  5
307B
330
1E
100
AcDbEntity
  8
LOGO
 62
     6
100
AcDbText
 10
607.5052630392191
 20
174.8505732635309
 30
691.8003119298816
 40
14.07420814479638
  1
型式
  7
CHINESET
 72
     4
 11
621.5794711840154
 21
181.5275105920662
 31
691.8003119298816
100
AcDbText
  0
TEXT
  5
307C
330
1E
100
AcDbEntity
  8
LOGO
 62
     6
100
AcDbText
 10
713.8842833988157
 20
174.6439391380455
 30
691.8003119298816
 40
14.07420814479638
  1
增壓比
  7
CHINESET
 72
     4
 11
734.5557766114855
 21
181.5275105920662
 31
691.8003119298816
100
AcDbText
  0
LWPOLYLINE
  5
67C9
330
1E
100
AcDbEntity
  8
0
 62
     4
100
AcDbPolyline
 90
        4
 70
     1
 43
0.0
 10
201.9440474247382
 20
574.5819034357504
 10
979.5440474247385
 20
574.5819034357504
 10
979.5440474247385
 20
251.8985513160483
 10
201.9440474247382
 20
251.8985513160484
1001
GENIUS_GENREC_14
1002
{
1000
PYDIR
1011
201.9440474247382
1021
251.8985513160483
1031
0.0
1002
}
1002
{
1000
PXDIR
1011
979.5440474247385
1021
574.5819034357504
1031
0.0
1002
}
1002
{
1000
PORI
1011
201.9440474247382
1021
574.5819034357504
1031
0.0
1002
}
1002
{
1000
PINS
1011
201.9440474247382
1021
574.5819034357504
1031
0.0
1002
}
1002
{
1000
PINS2
1011
979.5440474247385
1021
251.8985513160484
1031
0.0
1002
}
1002
{
1000
C
1070
     1
1002
}
1001
GENIUS_GENODEF_13
1002
{
1000
HIER
1070
     0
1002
}
1002
{
1000
MANEDIT
1070
     0
1002
}
1002
{
1000
NOSEL
1070
     0
1002
}
1002
{
1000
BEHIND
1070
     0
1002
}
1002
{
1000
OTHER
1070
     0
1002
}
1002
{
1000
REACTOR
1002
}
1001
GENIUS_GENOBJ-N-REC_13
1002
{
1000
OWNER
1000
GEN
1002
}
  0
LINE
  5
6C78
330
1E
100
AcDbEntity
  8
AM_5
100
AcDbLine
 10
347.2849692404389
 20
307.5937708063333
 30
0.0
 11
340.2407565197379
 21
307.5937708063332
 31
0.0
  0
LINE
  5
6C79
330
1E
100
AcDbEntity
  8
AM_5
100
AcDbLine
 10
347.2849692404389
 20
312.5937708063334
 30
0.0
 11
340.2166538470731
 21
312.5937708063334
 31
0.0
  0
LINE
  5
6C7A
330
1E
100
AcDbEntity
  8
AM_5
100
AcDbLine
 10
341.4307568391239
 20
304.5937708063333
 30
0.0
 11
341.4307568391239
 21
301.5937708063333
 31
0.0
  0
SOLID
  5
6C7B
330
1E
100
AcDbEntity
  8
AM_5
100
AcDbTrace
 10
341.9307568391239
 20
315.5937708063334
 30
0.0
 11
340.9307568391239
 21
315.5937708063334
 31
0.0
 12
341.4307568391239
 22
312.5937708063334
 32
0.0
 13
341.4307568391239
 23
312.5937708063334
 33
0.0
  0
SOLID
  5
6C7C
330
1E
100
AcDbEntity
  8
AM_5
100
AcDbTrace
 10
341.9307568391239
 20
304.5937708063333
 30
0.0
 11
340.9307568391239
 21
304.5937708063333
 31
0.0
 12
341.4307568391239
 22
307.5937708063333
 32
0.0
 13
341.4307568391239
 23
307.5937708063333
 33
0.0
  0
LINE
  5
6C7D
330
1E
100
AcDbEntity
  8
AM_5
100
AcDbLine
 10
341.4307568391239
 20
307.5937708063333
 30
0.0
 11
341.4307568391239
 21
313.5937708063333
 31
0.0
  0
TEXT
  5
6C7E
330
1E
100
AcDbEntity
  8
AM_5
100
AcDbText
 10
339.9307568391239
 20
316.5927821291082
 30
0.0
 40
3.0
  1
5
 50
90.0
  7
ROMANSS
 72
     1
 11
338.4307568391239
 21
317.5927821291082
 31
0.0
100
AcDbText
 73
     2
  0
LINE
  5
6C7F
330
1E
100
AcDbEntity
  8
AM_5
100
AcDbLine
 10
341.4307568391239
 20
316.5937708063333
 30
0.0
 11
341.4307568391239
 21
319.5937708063333
 31
0.0
  0
LINE
  5
6C80
330
1E
100
AcDbEntity
  8
AM_5
100
AcDbLine
 10
358.2849692404388
 20
304.5937708063335
 30
0.0
 11
358.2849692404388
 21
298.5937708063333
 31
0.0
  0
LINE
  5
6C81
330
1E
100
AcDbEntity
  8
AM_5
100
AcDbLine
 10
859.6067026892095
 20
303.5937708063331
 30
0.0
 11
859.6067026892095
 21
298.593770806333
 31
0.0
  0
SOLID
  5
6C82
330
1E
100
AcDbEntity
  8
AM_5
100
AcDbTrace
 10
862.6067026892096
 20
300.0937708063331
 30
0.0
 11
862.6067026892096
 21
299.0937708063331
 31
0.0
 12
859.6067026892095
 22
299.5937708063331
 32
0.0
 13
859.6067026892095
 23
299.5937708063331
 33
0.0
  0
TEXT
  5
6C83
330
1E
100
AcDbEntity
  8
AM_5
100
AcDbText
 10
882.1781312606379
 20
301.0937708063331
 30
0.0
 40
3.0
  1
50
  7
ROMANSS
 72
     1
 11
884.6067026892093
 21
302.593770806333
 31
0.0
100
AcDbText
 73
     2
  0
LINE
  5
6C84
330
1E
100
AcDbEntity
  8
AM_5
100
AcDbLine
 10
847.1067026892095
 20
306.593770806333
 30
0.0
 11
847.1067026892095
 21
290.593770806333
 31
0.0
  0
SOLID
  5
6C85
330
1E
100
AcDbEntity
  8
AM_5
100
AcDbTrace
 10
850.1067026892094
 20
292.093770806333
 30
0.0
 11
850.1067026892094
 21
291.0937708063331
 31
0.0
 12
847.1067026892095
 22
291.5937708063331
 32
0.0
 13
847.1067026892095
 23
291.5937708063331
 33
0.0
  0
TEXT
  5
6C86
330
1E
100
AcDbEntity
  8
AM_5
100
AcDbText
 10
882.1781312606381
 20
293.0937708063331
 30
0.0
 40
3.0
  1
75
  7
ROMANSS
 72
     1
 11
884.6067026892095
 21
294.593770806333
 31
0.0
100
AcDbText
 73
     2
  0
LINE
  5
6C87
330
1E
100
AcDbEntity
  8
AM_5
100
AcDbLine
 10
923.1067026892095
 20
307.5937708063331
 30
0.0
 11
940.0883314996766
 21
307.5937708063329
 31
0.0
  0
LINE
  5
6C88
330
1E
100
AcDbEntity
  8
AM_5
100
AcDbLine
 10
926.636511952458
 20
357.5937708063333
 30
0.0
 11
931.1067026892088
 21
357.5937708063333
 31
0.0
  0
LINE
  5
6C89
330
1E
100
AcDbEntity
  8
AM_5
100
AcDbLine
 10
930.1067026892088
 20
307.5937708063331
 30
0.0
 11
930.1067026892088
 21
357.5937708063333
 31
0.0
  0
SOLID
  5
6C8A
330
1E
100
AcDbEntity
  8
AM_5
100
AcDbTrace
 10
929.6067026892087
 20
310.5937708063331
 30
0.0
 11
930.6067026892087
 21
310.5937708063331
 31
0.0
 12
930.1067026892088
 22
307.5937708063331
 32
0.0
 13
930.1067026892088
 23
307.5937708063331
 33
0.0
  0
SOLID
  5
6C8B
330
1E
100
AcDbEntity
  8
AM_5
100
AcDbTrace
 10
929.6067026892087
 20
354.5937708063333
 30
0.0
 11
930.6067026892087
 21
354.5937708063333
 31
0.0
 12
930.1067026892088
 22
357.5937708063333
 32
0.0
 13
930.1067026892088
 23
357.5937708063333
 33
0.0
  0
TEXT
  5
6C8C
330
1E
100
AcDbEntity
  8
AM_5
100
AcDbText
 10
928.6067026892089
 20
329.9018162566414
 30
0.0
 40
3.0
  1
50
 50
90.0
  7
ROMANSS
 72
     1
 11
927.1067026892088
 21
332.3303876852128
 31
0.0
100
AcDbText
 73
     2
  0
LINE
  5
6C8D
330
1E
100
AcDbEntity
  8
AM_5
100
AcDbLine
 10
895.7931832499216
 20
430.5937708063332
 30
0.0
 11
939.1067026892093
 21
430.5937708063334
 31
0.0
  0
SOLID
  5
6C8E
330
1E
100
AcDbEntity
  8
AM_5
100
AcDbTrace
 10
937.6067026892087
 20
310.5937708063331
 30
0.0
 11
938.6067026892087
 21
310.5937708063331
 31
0.0
 12
938.1067026892088
 22
307.5937708063331
 32
0.0
 13
938.1067026892088
 23
307.5937708063331
 33
0.0
  0
SOLID
  5
6C8F
330
1E
100
AcDbEntity
  8
AM_5
100
AcDbTrace
 10
937.6067026892092
 20
427.5937708063334
 30
0.0
 11
938.6067026892092
 21
427.5937708063334
 31
0.0
 12
938.1067026892093
 22
430.5937708063334
 32
0.0
 13
938.1067026892093
 23
430.5937708063334
 33
0.0
  0
TEXT
  5
6C90
330
1E
100
AcDbEntity
  8
AM_5
100
AcDbText
 10
936.6067026892086
 20
364.6423263238889
 30
0.0
 40
3.0
  1
123
 50
90.0
  7
ROMANSS
 72
     1
 11
935.1067026892087
 21
368.2137548953175
 31
0.0
100
AcDbText
 73
     2
  0
LINE
  5
6C91
330
1E
100
AcDbEntity
  8
AM_5
100
AcDbLine
 10
358.2849692404388
 20
299.5937708063333
 30
0.0
 11
358.2849692404388
 21
300.5937708063333
 31
0.0
  0
SOLID
  5
6C92
330
1E
100
AcDbEntity
  8
AM_5
100
AcDbTrace
 10
361.2849692404389
 20
300.0937708063333
 30
0.0
 11
361.2849692404389
 21
299.0937708063333
 31
0.0
 12
358.2849692404388
 22
299.5937708063333
 32
0.0
 13
358.2849692404388
 23
299.5937708063333
 33
0.0
  0
TEXT
  5
6C93
330
1E
100
AcDbEntity
  8
AM_5
100
AcDbText
 10
522.4962274692479
 20
301.0937708063333
 30
0.0
 40
3.0
  1
333
  7
ROMANSS
 72
     1
 11
526.3533703263909
 21
302.5937708063333
 31
0.0
100
AcDbText
 73
     2
  0
LINE
  5
6C94
330
1E
100
AcDbEntity
  8
AM_5
100
AcDbLine
 10
348.2849692404388
 20
306.5937708063333
 30
0.0
 11
348.2849692404388
 21
282.1847242118007
 31
0.0
  0
SOLID
  5
6C95
330
1E
100
AcDbEntity
  8
AM_5
100
AcDbTrace
 10
351.2849692404389
 20
292.0937708063333
 30
0.0
 11
351.2849692404389
 21
291.0937708063333
 31
0.0
 12
348.2849692404388
 22
291.5937708063333
 32
0.0
 13
348.2849692404388
 23
291.5937708063333
 33
0.0
  0
TEXT
  5
6C96
330
1E
100
AcDbEntity
  8
AM_5
100
AcDbText
 10
522.4962274692479
 20
293.0937708063333
 30
0.0
 40
3.0
  1
353
  7
ROMANSS
 72
     1
 11
526.3533703263909
 21
294.5937708063333
 31
0.0
100
AcDbText
 73
     2
  0
SOLID
  5
6C97
330
1E
100
AcDbEntity
  8
AM_5
100
AcDbTrace
 10
351.2849692404389
 20
284.0937708063333
 30
0.0
 11
351.2849692404389
 21
283.0937708063333
 31
0.0
 12
348.2849692404388
 22
283.5937708063333
 32
0.0
 13
348.2849692404388
 23
283.5937708063333
 33
0.0
  0
SOLID
  5
6C98
330
1E
100
AcDbEntity
  8
AM_5
100
AcDbTrace
 10
805.909047160163
 20
360.1652238801157
 30
0.0
 11
804.9872743838161
 21
360.5529543906325
 31
0.0
 12
804.2849692404386
 22
357.5937708063334
 32
0.0
 13
804.2849692404386
 23
357.5937708063334
 33
0.0
  0
LINE
  5
6C99
330
1E
100
AcDbEntity
  8
AM_5
100
AcDbLine
 10
805.4481607719894
 20
360.3590891353742
 30
0.0
 11
822.3141345730208
 21
400.4554836018388
 31
0.0
  0
SOLID
  5
6C9A
330
1E
100
AcDbEntity
  8
AM_5
100
AcDbTrace
 10
784.2791331496227
 20
377.4640136111163
 30
0.0
 11
783.402613109737
 21
376.9826482408634
 31
0.0
 12
785.2849692404388
 22
374.5937708063329
 32
0.0
 13
785.2849692404388
 23
374.5937708063329
 33
0.0
  0
LINE
  5
6C9B
330
1E
100
AcDbEntity
  8
AM_5
100
AcDbLine
 10
783.8408731296799
 20
377.22333092599
 30
0.0
 11
771.0822900218233
 21
400.455483601839
 31
0.0
  0
LINE
  5
6C9C
330
1E
100
AcDbEntity
  8
AM_5
100
AcDbLine
 10
771.0822900218233
 20
400.455483601839
 30
0.0
 11
755.5822900218234
 21
400.455483601839
 31
0.0
  0
TEXT
  5
6C9D
330
1E
100
AcDbEntity
  8
AM_5
100
AcDbText
 10
755.760874542519
 20
401.9554836018389
 30
0.0
 40
3.0
  1
PT1/4
  7
ROMANSS
 72
     2
 11
768.903731685376
 21
403.4554836018389
 31
0.0
100
AcDbText
 73
     2
  0
SOLID
  5
6C9E
330
1E
100
AcDbEntity
  8
AM_5
100
AcDbTrace
 10
398.8280132782234
 20
359.0321538136168
 30
0.0
 11
398.1088150063589
 21
358.3373489160038
 31
0.0
 12
400.5528288351302
 22
356.5271565492167
 32
0.0
 13
400.5528288351302
 23
356.5271565492167
 33
0.0
  0
LINE
  5
6C9F
330
1E
100
AcDbEntity
  8
AM_5
100
AcDbLine
 10
400.5528288351313
 20
356.5271565492159
 30
0.0
 11
363.0505011450273
 21
395.3461248067505
 31
0.0
  0
LINE
  5
6CA0
330
1E
100
AcDbEntity
  8
AM_5
100
AcDbLine
 10
363.0505011450273
 20
395.3461248067505
 30
0.0
 11
342.6971290290372
 21
395.3461248067505
 31
0.0
  0
TEXT
  5
6CA1
330
1E
100
AcDbEntity
  8
AM_5
100
AcDbText
 10
339.9292718861801
 20
396.8461248067505
 30
0.0
 40
3.0
  1
2-PT3/8
  7
ROMANSS
 72
     2
 11
360.0721290290372
 21
398.3461248067505
 31
0.0
100
AcDbText
 73
     2
  0
SOLID
  5
6CA2
330
1E
100
AcDbEntity
  8
AM_5
100
AcDbTrace
 10
693.3400549217127
 20
314.8357839290919
 30
0.0
 11
692.5018298180463
 21
315.3811083055722
 31
0.0
 12
691.2849692404387
 22
312.5937708063333
 32
0.0
 13
691.2849692404387
 23
312.5937708063333
 33
0.0
  0
LINE
  5
6CA3
330
1E
100
AcDbEntity
  8
AM_5
100
AcDbLine
 10
692.9209423698796
 20
315.1084461173322
 30
0.0
 11
703.3525407973335
 21
331.1429900518882
 31
0.0
  0
LINE
  5
6CA4
330
1E
100
AcDbEntity
  8
AM_5
100
AcDbLine
 10
703.3525407973335
 20
331.1429900518882
 30
0.0
 11
706.3525407973335
 21
331.1429900518882
 31
0.0
  0
LINE
  5
6CA5
330
1E
100
AcDbEntity
  8
AM_5
100
AcDbLine
 10
706.3525407973335
 20
331.1429900518882
 30
0.0
 11
719.8525407973335
 21
331.1429900518882
 31
0.0
  0
TEXT
  5
6CA6
330
1E
100
AcDbEntity
  8
AM_5
100
AcDbText
 10
707.3525407973335
 20
332.6429900518882
 30
0.0
 40
3.0
  1
4-%%c9
  7
ROMANSS
 11
707.3525407973335
 21
334.1429900518882
 31
0.0
100
AcDbText
 73
     2
  0
SOLID
  5
6CA7
330
1E
100
AcDbEntity
  8
AM_5
100
AcDbTrace
 10
355.2849692404389
 20
300.0937708063333
 30
0.0
 11
355.2849692404389
 21
299.0937708063333
 31
0.0
 12
358.2849692404388
 22
299.5937708063333
 32
0.0
 13
358.2849692404388
 23
299.5937708063333
 33
0.0
  0
SOLID
  5
6CA8
330
1E
100
AcDbEntity
  8
AM_5
100
AcDbTrace
 10
351.2849692404389
 20
300.0937708063334
 30
0.0
 11
351.2849692404389
 21
299.0937708063334
 31
0.0
 12
348.2849692404388
 22
299.5937708063334
 32
0.0
 13
348.2849692404388
 23
299.5937708063334
 33
0.0
  0
TEXT
  5
6CA9
330
1E
100
AcDbEntity
  8
AM_5
100
AcDbText
 10
350.2992738325874
 20
301.0937708063334
 30
0.0
 40
3.0
  1
10
  7
ROMANSS
 11
350.2992738325874
 21
302.5937708063334
 31
0.0
100
AcDbText
 73
     2
  0
LINE
  5
6CAA
330
1E
100
AcDbEntity
  8
UMCL1
100
AcDbLine
 10
859.2067026892094
 20
377.8691253038508
 30
0.0
 11
859.2067026892094
 21
337.3184163088159
 31
0.0
  0
LINE
  5
6CAB
330
1E
100
AcDbEntity
  8
UMCL1
100
AcDbLine
 10
910.0067026892094
 20
377.8691253038508
 30
0.0
 11
910.0067026892094
 21
337.3184163088158
 31
0.0
  0
LINE
  5
6CAC
330
1E
100
AcDbEntity
  8
UMCL1
100
AcDbLine
 10
864.3313481916921
 20
382.9937708063333
 30
0.0
 11
904.8820571867269
 21
382.9937708063333
 31
0.0
  0
LINE
  5
6CAD
330
1E
100
AcDbEntity
  8
UMCL1
100
AcDbLine
 10
864.3313481916921
 20
332.1937708063333
 30
0.0
 11
904.8820571867269
 21
332.1937708063333
 31
0.0
  0
ARC
  5
6CAE
330
1E
100
AcDbEntity
  8
UMCL1
100
AcDbCircle
 10
884.6067026892095
 20
357.5937708063333
 30
0.0
 40
32.5
100
AcDbArc
 50
308.5983478875502
 51
321.4016521124475
  0
ARC
  5
6CAF
330
1E
100
AcDbEntity
  8
UMCL1
100
AcDbCircle
 10
884.6067026892095
 20
357.5937708063333
 30
0.0
 40
32.5
100
AcDbArc
 50
38.59834788755251
 51
51.40165211244978
  0
ARC
  5
6CB0
330
1E
100
AcDbEntity
  8
UMCL1
100
AcDbCircle
 10
884.6067026892095
 20
357.5937708063333
 30
0.0
 40
32.5
100
AcDbArc
 50
128.5983478875502
 51
141.4016521124475
  0
ARC
  5
6CB1
330
1E
100
AcDbEntity
  8
UMCL1
100
AcDbCircle
 10
884.6067026892095
 20
357.5937708063333
 30
0.0
 40
32.5
100
AcDbArc
 50
218.5983478875525
 51
231.4016521124498
  0
LINE
  5
6CB2
330
1E
100
AcDbEntity
  8
CENTER
  6
CENTER
100
AcDbLine
 10
866.6067026892095
 20
384.0937708063333
 30
0.0
 11
866.6067026892095
 21
367.0937708063333
 31
0.0
  0
LINE
  5
6CB3
330
1E
100
AcDbEntity
  8
CENTER
  6
CENTER
100
AcDbLine
 10
902.6067026892095
 20
384.0937708063333
 30
0.0
 11
902.6067026892095
 21
367.0937708063333
 31
0.0
  0
LINE
  5
6CB4
330
1E
100
AcDbEntity
  8
CENTER
  6
CENTER
100
AcDbLine
 10
858.1067026892096
 20
375.5937708063333
 30
0.0
 11
875.1067026892096
 21
375.5937708063333
 31
0.0
  0
LINE
  5
6CB5
330
1E
100
AcDbEntity
  8
CENTER
  6
CENTER
100
AcDbLine
 10
858.1067026892096
 20
339.5937708063333
 30
0.0
 11
875.1067026892096
 21
339.5937708063333
 31
0.0
  0
CIRCLE
  5
6CB6
330
1E
100
AcDbEntity
  8
UMCL1
100
AcDbCircle
 10
902.6067026892095
 20
375.5937708063333
 30
0.0
 40
5.5
  0
CIRCLE
  5
6CB7
330
1E
100
AcDbEntity
  8
UMCL1
100
AcDbCircle
 10
884.6067026892095
 20
357.5937708063333
 30
0.0
 40
17.0
  0
LINE
  5
6CB8
330
1E
100
AcDbEntity
  8
CENTER
  6
CENTER
100
AcDbLine
 10
866.6067026892095
 20
348.0937708063333
 30
0.0
 11
866.6067026892095
 21
331.0937708063333
 31
0.0
  0
LINE
  5
6CB9
330
1E
100
AcDbEntity
  8
CENTER
  6
CENTER
100
AcDbLine
 10
894.1067026892095
 20
339.5937708063333
 30
0.0
 11
911.1067026892095
 21
339.5937708063333
 31
0.0
  0
LINE
  5
6CBA
330
1E
100
AcDbEntity
  8
CENTER
  6
CENTER
100
AcDbLine
 10
902.6067026892095
 20
348.0937708063333
 30
0.0
 11
902.6067026892095
 21
331.0937708063333
 31
0.0
  0
LINE
  5
6CBB
330
1E
100
AcDbEntity
  8
CENTER
  6
CENTER
100
AcDbLine
 10
894.1067026892095
 20
375.5937708063333
 30
0.0
 11
911.1067026892095
 21
375.5937708063333
 31
0.0
  0
LINE
  5
6CBC
330
1E
100
AcDbEntity
  8
UMCL1
100
AcDbLine
 10
804.2849692404386
 20
371.5937708063334
 30
0.0
 11
804.2849692404386
 21
343.5937708063334
 31
0.0
  0
LINE
  5
6CBD
330
1E
100
AcDbEntity
  8
CENTER
  6
CENTER
100
AcDbLine
 10
785.2849692404387
 20
376.5937708063334
 30
0.0
 11
785.2849692404387
 21
367.0937708063334
 31
0.0
  0
LINE
  5
6CBE
330
1E
100
AcDbEntity
  8
UMCL1
  6
HIDDEN
 62
     2
100
AcDbLine
 10
789.7088265949023
 20
367.607271676017
 30
0.0
 11
790.0666946326095
 21
374.5937708063334
 31
0.0
  0
LINE
  5
6CBF
330
1E
100
AcDbEntity
  8
UMCL1
  6
HIDDEN
 62
     2
100
AcDbLine
 10
780.8665037712243
 20
367.6655137964358
 30
0.0
 11
780.4709921927414
 21
374.5937708063334
 31
0.0
  0
LINE
  5
6CC0
330
1E
100
AcDbEntity
  8
UMCL1
  6
HIDDEN
 62
     2
100
AcDbLine
 10
790.2121805851708
 20
367.6599528310576
 30
0.0
 11
790.5673501466841
 21
374.5937708063334
 31
0.0
  0
LINE
  5
6CC1
330
1E
100
AcDbEntity
  8
UMCL1
  6
HIDDEN
 62
     2
100
AcDbLine
 10
780.3731994505207
 20
367.5339641407838
 30
0.0
 11
779.9701781315815
 21
374.5937708063334
 31
0.0
  0
LINE
  5
6CC2
330
1E
100
AcDbEntity
  8
CENTER
  6
CENTER
100
AcDbLine
 10
806.2849692404387
 20
357.5937708063334
 30
0.0
 11
374.6118297539845
 21
357.5937708063334
 31
0.0
  0
LINE
  5
6CC3
330
1E
100
AcDbEntity
  8
UMCL1
100
AcDbLine
 10
804.2849692404386
 20
371.5937708063334
 30
0.0
 11
801.2849692404387
 21
374.5937708063334
 31
0.0
  0
LINE
  5
6CC4
330
1E
100
AcDbEntity
  8
UMCL1
100
AcDbLine
 10
801.2849692404387
 20
340.5937708063334
 30
0.0
 11
804.2849692404386
 21
343.5937708063334
 31
0.0
  0
LINE
  5
6CC5
330
1E
100
AcDbEntity
  8
UMCL1
100
AcDbLine
 10
669.2849692404386
 20
382.9937708063333
 30
0.0
 11
659.2849692404386
 21
382.9937708063333
 31
0.0
  0
LINE
  5
6CC6
330
1E
100
AcDbEntity
  8
CENTER
  6
CENTER
100
AcDbLine
 10
671.2849692404386
 20
339.5937708063333
 30
0.0
 11
657.2849692404388
 21
339.5937708063333
 31
0.0
  0
LINE
  5
6CC7
330
1E
100
AcDbEntity
  8
CENTER
  6
CENTER
100
AcDbLine
 10
671.2849692404386
 20
375.5937708063333
 30
0.0
 11
657.2849692404385
 21
375.5937708063333
 31
0.0
  0
CIRCLE
  5
6CC8
330
1E
100
AcDbEntity
  8
UMCL1
100
AcDbCircle
 10
902.6067026892095
 20
375.5937708063333
 30
0.0
 40
5.0
  0
CIRCLE
  5
6CC9
330
1E
100
AcDbEntity
  8
UMCL1
100
AcDbCircle
 10
902.6067026892095
 20
375.5937708063333
 30
0.0
 40
4.5
  0
POLYLINE
  5
6CCA
330
1E
100
AcDbEntity
  8
UMCL1
  6
Continuous
100
AcDb2dPolyline
 66
     1
 10
0.0
 20
0.0
 30
0.0
 70
     1
  0
VERTEX
  5
6CCB
330
6CCA
100
AcDbEntity
  8
UMCL1
  6
Continuous
100
AcDbVertex
100
AcDb2dVertex
 10
905.1067026892095
 20
374.1503951333592
 30
0.0
  0
VERTEX
  5
6CCC
330
6CCA
100
AcDbEntity
  8
UMCL1
  6
Continuous
100
AcDbVertex
100
AcDb2dVertex
 10
905.1067026892095
 20
377.0371464793074
 30
0.0
  0
VERTEX
  5
6CCD
330
6CCA
100
AcDbEntity
  8
UMCL1
  6
Continuous
100
AcDbVertex
100
AcDb2dVertex
 10
902.6067026892095
 20
378.4805221522814
 30
0.0
  0
VERTEX
  5
6CCE
330
6CCA
100
AcDbEntity
  8
UMCL1
  6
Continuous
100
AcDbVertex
100
AcDb2dVertex
 10
900.1067026892094
 20
377.0371464793074
 30
0.0
  0
VERTEX
  5
6CCF
330
6CCA
100
AcDbEntity
  8
UMCL1
  6
Continuous
100
AcDbVertex
100
AcDb2dVertex
 10
900.1067026892094
 20
374.1503951333592
 30
0.0
  0
VERTEX
  5
6CD0
330
6CCA
100
AcDbEntity
  8
UMCL1
  6
Continuous
100
AcDbVertex
100
AcDb2dVertex
 10
902.6067026892095
 20
372.7070194603852
 30
0.0
  0
SEQEND
  5
6CD1
330
6CCA
100
AcDbEntity
  8
UMCL1
  6
Continuous
  0
CIRCLE
  5
6CD2
330
1E
100
AcDbEntity
  8
UMCL1
100
AcDbCircle
 10
866.6067026892095
 20
375.5937708063333
 30
0.0
 40
5.5
  0
CIRCLE
  5
6CD3
330
1E
100
AcDbEntity
  8
UMCL1
100
AcDbCircle
 10
866.6067026892095
 20
375.5937708063333
 30
0.0
 40
5.0
  0
CIRCLE
  5
6CD4
330
1E
100
AcDbEntity
  8
UMCL1
100
AcDbCircle
 10
866.6067026892095
 20
375.5937708063333
 30
0.0
 40
4.5
  0
POLYLINE
  5
6CD5
330
1E
100
AcDbEntity
  8
UMCL1
  6
Continuous
100
AcDb2dPolyline
 66
     1
 10
0.0
 20
0.0
 30
0.0
 70
     1
  0
VERTEX
  5
6CD6
330
6CD5
100
AcDbEntity
  8
UMCL1
  6
Continuous
100
AcDbVertex
100
AcDb2dVertex
 10
869.1067026892094
 20
374.1503951333592
 30
0.0
  0
VERTEX
  5
6CD7
330
6CD5
100
AcDbEntity
  8
UMCL1
  6
Continuous
100
AcDbVertex
100
AcDb2dVertex
 10
869.1067026892094
 20
377.0371464793074
 30
0.0
  0
VERTEX
  5
6CD8
330
6CD5
100
AcDbEntity
  8
UMCL1
  6
Continuous
100
AcDbVertex
100
AcDb2dVertex
 10
866.6067026892093
 20
378.4805221522814
 30
0.0
  0
VERTEX
  5
6CD9
330
6CD5
100
AcDbEntity
  8
UMCL1
  6
Continuous
100
AcDbVertex
100
AcDb2dVertex
 10
864.1067026892095
 20
377.0371464793074
 30
0.0
  0
VERTEX
  5
6CDA
330
6CD5
100
AcDbEntity
  8
UMCL1
  6
Continuous
100
AcDbVertex
100
AcDb2dVertex
 10
864.1067026892095
 20
374.1503951333592
 30
0.0
  0
VERTEX
  5
6CDB
330
6CD5
100
AcDbEntity
  8
UMCL1
  6
Continuous
100
AcDbVertex
100
AcDb2dVertex
 10
866.6067026892093
 20
372.7070194603852
 30
0.0
  0
SEQEND
  5
6CDC
330
6CD5
100
AcDbEntity
  8
UMCL1
  6
Continuous
  0
CIRCLE
  5
6CDD
330
1E
100
AcDbEntity
  8
UMCL1
100
AcDbCircle
 10
866.6067026892095
 20
339.5937708063333
 30
0.0
 40
5.5
  0
CIRCLE
  5
6CDE
330
1E
100
AcDbEntity
  8
UMCL1
100
AcDbCircle
 10
866.6067026892095
 20
339.5937708063333
 30
0.0
 40
5.0
  0
CIRCLE
  5
6CDF
330
1E
100
AcDbEntity
  8
UMCL1
100
AcDbCircle
 10
866.6067026892095
 20
339.5937708063333
 30
0.0
 40
4.5
  0
POLYLINE
  5
6CE0
330
1E
100
AcDbEntity
  8
UMCL1
  6
Continuous
100
AcDb2dPolyline
 66
     1
 10
0.0
 20
0.0
 30
0.0
 70
     1
  0
VERTEX
  5
6CE1
330
6CE0
100
AcDbEntity
  8
UMCL1
  6
Continuous
100
AcDbVertex
100
AcDb2dVertex
 10
869.1067026892094
 20
338.1503951333592
 30
0.0
  0
VERTEX
  5
6CE2
330
6CE0
100
AcDbEntity
  8
UMCL1
  6
Continuous
100
AcDbVertex
100
AcDb2dVertex
 10
869.1067026892094
 20
341.0371464793073
 30
0.0
  0
VERTEX
  5
6CE3
330
6CE0
100
AcDbEntity
  8
UMCL1
  6
Continuous
100
AcDbVertex
100
AcDb2dVertex
 10
866.6067026892093
 20
342.4805221522814
 30
0.0
  0
VERTEX
  5
6CE4
330
6CE0
100
AcDbEntity
  8
UMCL1
  6
Continuous
100
AcDbVertex
100
AcDb2dVertex
 10
864.1067026892095
 20
341.0371464793073
 30
0.0
  0
VERTEX
  5
6CE5
330
6CE0
100
AcDbEntity
  8
UMCL1
  6
Continuous
100
AcDbVertex
100
AcDb2dVertex
 10
864.1067026892095
 20
338.1503951333592
 30
0.0
  0
VERTEX
  5
6CE6
330
6CE0
100
AcDbEntity
  8
UMCL1
  6
Continuous
100
AcDbVertex
100
AcDb2dVertex
 10
866.6067026892093
 20
336.7070194603851
 30
0.0
  0
SEQEND
  5
6CE7
330
6CE0
100
AcDbEntity
  8
UMCL1
  6
Continuous
  0
CIRCLE
  5
6CE8
330
1E
100
AcDbEntity
  8
UMCL1
100
AcDbCircle
 10
902.6067026892095
 20
339.5937708063333
 30
0.0
 40
5.5
  0
CIRCLE
  5
6CE9
330
1E
100
AcDbEntity
  8
UMCL1
100
AcDbCircle
 10
902.6067026892095
 20
339.5937708063333
 30
0.0
 40
5.0
  0
CIRCLE
  5
6CEA
330
1E
100
AcDbEntity
  8
UMCL1
100
AcDbCircle
 10
902.6067026892095
 20
339.5937708063333
 30
0.0
 40
4.5
  0
POLYLINE
  5
6CEB
330
1E
100
AcDbEntity
  8
UMCL1
  6
Continuous
100
AcDb2dPolyline
 66
     1
 10
0.0
 20
0.0
 30
0.0
 70
     1
  0
VERTEX
  5
6CEC
330
6CEB
100
AcDbEntity
  8
UMCL1
  6
Continuous
100
AcDbVertex
100
AcDb2dVertex
 10
905.1067026892095
 20
338.1503951333592
 30
0.0
  0
VERTEX
  5
6CED
330
6CEB
100
AcDbEntity
  8
UMCL1
  6
Continuous
100
AcDbVertex
100
AcDb2dVertex
 10
905.1067026892095
 20
341.0371464793073
 30
0.0
  0
VERTEX
  5
6CEE
330
6CEB
100
AcDbEntity
  8
UMCL1
  6
Continuous
100
AcDbVertex
100
AcDb2dVertex
 10
902.6067026892095
 20
342.4805221522814
 30
0.0
  0
VERTEX
  5
6CEF
330
6CEB
100
AcDbEntity
  8
UMCL1
  6
Continuous
100
AcDbVertex
100
AcDb2dVertex
 10
900.1067026892094
 20
341.0371464793073
 30
0.0
  0
VERTEX
  5
6CF0
330
6CEB
100
AcDbEntity
  8
UMCL1
  6
Continuous
100
AcDbVertex
100
AcDb2dVertex
 10
900.1067026892094
 20
338.1503951333592
 30
0.0
  0
VERTEX
  5
6CF1
330
6CEB
100
AcDbEntity
  8
UMCL1
  6
Continuous
100
AcDbVertex
100
AcDb2dVertex
 10
902.6067026892095
 20
336.7070194603851
 30
0.0
  0
SEQEND
  5
6CF2
330
6CEB
100
AcDbEntity
  8
UMCL1
  6
Continuous
  0
CIRCLE
  5
6CF3
330
1E
100
AcDbEntity
  8
UMCL1
  6
Continuous
100
AcDbCircle
 10
884.6067026892095
 20
357.5937708063332
 30
0.0
 40
14.00000000000023
  0
LINE
  5
6CF4
330
1E
100
AcDbEntity
  8
CENTER
  6
CENTER
100
AcDbLine
 10
845.1067026892095
 20
357.5937708063333
 30
0.0
 11
925.5199948216827
 21
357.5937708063333
 31
0.0
  0
LINE
  5
6CF5
330
1E
100
AcDbEntity
  8
CENTER
  6
CENTER
100
AcDbLine
 10
884.6067026892095
 20
435.2578581760274
 30
0.0
 11
884.6067026892095
 21
305.1335936232882
 31
0.0
  0
LINE
  5
6CF6
330
1E
100
AcDbEntity
  8
UMCL1
100
AcDbLine
 10
922.1067026892095
 20
389.1334283821536
 30
0.0
 11
922.1067026892095
 21
307.5937708063329
 31
0.0
  0
LINE
  5
6CF7
330
1E
100
AcDbEntity
  8
UMCL1
100
AcDbLine
 10
847.1067026892095
 20
389.1334283821536
 30
0.0
 11
847.1067026892095
 21
307.5937708063331
 31
0.0
  0
LINE
  5
6CF8
330
1E
100
AcDbEntity
  8
UMCL1
100
AcDbLine
 10
853.0670451133891
 20
395.0937708063333
 30
0.0
 11
916.1463602650298
 21
395.0937708063333
 31
0.0
  0
LINE
  5
6CF9
330
1E
100
AcDbEntity
  8
CENTER
  6
CENTER
100
AcDbLine
 10
847.8567026892095
 20
385.8437708063333
 30
0.0
 11
864.8567026892095
 21
385.8437708063333
 31
0.0
  0
LINE
  5
6CFA
330
1E
100
AcDbEntity
  8
CENTER
  6
CENTER
100
AcDbLine
 10
912.8567026892095
 20
394.3437708063333
 30
0.0
 11
912.8567026892095
 21
377.3437708063333
 31
0.0
  0
LINE
  5
6CFB
330
1E
100
AcDbEntity
  8
CENTER
  6
CENTER
100
AcDbLine
 10
856.3567026892096
 20
394.3437708063333
 30
0.0
 11
856.3567026892096
 21
377.3437708063333
 31
0.0
  0
CIRCLE
  5
6CFC
330
1E
100
AcDbEntity
  8
UMCL1
100
AcDbCircle
 10
856.3567026892096
 20
385.8437708063333
 30
0.0
 40
6.5
  0
CIRCLE
  5
6CFD
330
1E
100
AcDbEntity
  8
UMCL1
100
AcDbCircle
 10
912.8567026892095
 20
385.8437708063333
 30
0.0
 40
6.5
  0
LINE
  5
6CFE
330
1E
100
AcDbEntity
  8
CENTER
  6
CENTER
100
AcDbLine
 10
904.3567026892095
 20
385.8437708063333
 30
0.0
 11
921.3567026892095
 21
385.8437708063333
 31
0.0
  0
ARC
  5
6CFF
330
1E
100
AcDbEntity
  8
UMCL1
100
AcDbCircle
 10
884.6067026892095
 20
357.5937708063333
 30
0.0
 40
49.0
100
AcDbArc
 50
130.0657662857531
 51
139.9342337142435
  0
ARC
  5
6D00
330
1E
100
AcDbEntity
  8
UMCL1
100
AcDbCircle
 10
884.6067026892095
 20
357.5937708063333
 30
0.0
 40
49.0
100
AcDbArc
 50
40.0657662857565
 51
49.93423371424685
  0
LINE
  5
6D01
330
1E
100
AcDbEntity
  8
UMCL1
100
AcDbLine
 10
659.2849692404388
 20
395.0937708063335
 30
0.0
 11
619.2849692404388
 21
395.0937708063335
 31
0.0
  0
LINE
  5
6D02
330
1E
100
AcDbEntity
  8
UMCL1
100
AcDbLine
 10
659.2849692404388
 20
320.0937708063335
 30
0.0
 11
619.2849692404386
 21
320.0937708063335
 31
0.0
  0
LINE
  5
6D03
330
1E
100
AcDbEntity
  8
UMCL1
100
AcDbLine
 10
619.2849692404388
 20
395.0937708063335
 30
0.0
 11
619.2849692404386
 21
320.0937708063335
 31
0.0
  0
LINE
  5
6D04
330
1E
100
AcDbEntity
  8
CENTER
  6
CENTER
100
AcDbLine
 10
639.2849692404388
 20
428.4467333835556
 30
0.0
 11
639.2849692404388
 21
389.7756062318677
 31
0.0
  0
LINE
  5
6D05
330
1E
100
AcDbEntity
  8
CENTER
  6
CENTER
100
AcDbLine
 10
679.0700597372656
 20
329.3437708063335
 30
0.0
 11
646.5796692757615
 21
329.3437708063335
 31
0.0
  0
LINE
  5
6D06
330
1E
100
AcDbEntity
  8
UMCL1
100
AcDbLine
 10
659.2849692404388
 20
395.0937708063335
 30
0.0
 11
659.2849692404388
 21
315.5937708063333
 31
0.0
  0
LINE
  5
6D07
330
1E
100
AcDbEntity
  8
UMCL1
100
AcDbLine
 10
422.2849692404388
 20
392.5937708063333
 30
0.0
 11
619.2849692404388
 21
392.5937708063332
 31
0.0
  0
LINE
  5
6D08
330
1E
100
AcDbEntity
  8
UMCL1
100
AcDbLine
 10
422.2849692404388
 20
322.5937708063333
 30
0.0
 11
619.2849692404389
 21
322.5937708063333
 31
0.0
  0
LINE
  5
6D09
330
1E
100
AcDbEntity
  8
UMCL1
100
AcDbLine
 10
393.2849692404388
 20
336.0003869949219
 30
0.0
 11
393.2849692404388
 21
379.1871546177449
 31
0.0
  0
LINE
  5
6D0A
330
1E
100
AcDbEntity
  8
UMCL1
100
AcDbLine
 10
390.2849692404388
 20
315.5937708063334
 30
0.0
 11
390.2849692404388
 21
394.5937708063334
 31
0.0
  0
LINE
  5
6D0B
330
1E
100
AcDbEntity
  8
UMCL1
100
AcDbLine
 10
422.2849692404388
 20
382.5937708063334
 30
0.0
 11
396.2380999614371
 21
382.186788473849
 31
0.0
  0
LINE
  5
6D0C
330
1E
100
AcDbEntity
  8
UMCL1
100
AcDbLine
 10
422.2849692404388
 20
395.0937708063334
 30
0.0
 11
390.2849692404388
 21
394.5937708063334
 31
0.0
  0
LINE
  5
6D0D
330
1E
100
AcDbEntity
  8
CENTER
  6
CENTER
100
AcDbLine
 10
388.2849692404389
 20
385.8437708063335
 30
0.0
 11
435.93867275655
 21
385.8437708063335
 31
0.0
  0
ARC
  5
6D0E
330
1E
100
AcDbEntity
  8
UMCL1
100
AcDbCircle
 10
396.2849692404388
 20
379.1871546177449
 30
0.0
 40
3.0
100
AcDbArc
 50
90.89517371021189
 51
180.0
  0
CIRCLE
  5
6D0F
330
1E
100
AcDbEntity
  8
UMCL1
100
AcDbCircle
 10
406.2849692404388
 20
350.5937708063334
 30
0.0
 40
11.5
  0
LINE
  5
6D10
330
1E
100
AcDbEntity
  8
CENTER
  6
CENTER
100
AcDbLine
 10
421.784969240439
 20
366.5937708063334
 30
0.0
 11
408.7849692404388
 21
366.5937708063334
 31
0.0
  0
ARC
  5
6D11
330
1E
100
AcDbEntity
  8
UMCL1
 62
     2
100
AcDbCircle
 10
406.2849692404388
 20
350.5937708063334
 30
0.0
 40
8.25
100
AcDbArc
 50
77.92480383695485
 51
18.66239316544088
  0
CIRCLE
  5
6D12
330
1E
100
AcDbEntity
  8
UMCL1
100
AcDbCircle
 10
406.2849692404388
 20
350.5937708063334
 30
0.0
 40
7.5
  0
LINE
  5
6D13
330
1E
100
AcDbEntity
  8
CENTER
  6
CENTER
100
AcDbLine
 10
418.7849692404388
 20
350.5937708063334
 30
0.0
 11
393.7849692404388
 21
350.5937708063334
 31
0.0
  0
LINE
  5
6D14
330
1E
100
AcDbEntity
  8
CENTER
  6
CENTER
100
AcDbLine
 10
415.2849692404388
 20
373.0937708063334
 30
0.0
 11
415.2849692404388
 21
360.0937708063334
 31
0.0
  0
LINE
  5
6D15
330
1E
100
AcDbEntity
  8
CENTER
  6
CENTER
100
AcDbLine
 10
406.2849692404388
 20
363.0937708063334
 30
0.0
 11
406.2849692404388
 21
338.0937708063334
 31
0.0
  0
LINE
  5
6D16
330
1E
100
AcDbEntity
  8
UMCL1
100
AcDbLine
 10
422.2849692404387
 20
332.5937708063334
 30
0.0
 11
396.2380999614372
 21
333.0007531388178
 31
0.0
  0
LINE
  5
6D17
330
1E
100
AcDbEntity
  8
UMCL1
100
AcDbLine
 10
422.2849692404387
 20
320.0937708063334
 30
0.0
 11
390.2849692404387
 21
320.5937708063334
 31
0.0
  0
ARC
  5
6D18
330
1E
100
AcDbEntity
  8
UMCL1
100
AcDbCircle
 10
396.2849692404388
 20
336.0003869949219
 30
0.0
 40
3.0
100
AcDbArc
 50
180.0
 51
269.1048262897897
  0
LINE
  5
6D19
330
1E
100
AcDbEntity
  8
UMCL1
100
AcDbLine
 10
390.2849692404388
 20
380.0937708063334
 30
0.0
 11
386.284969240439
 21
380.0937708063334
 31
0.0
  0
ARC
  5
6D1A
330
1E
100
AcDbEntity
  8
UMCL1
100
AcDbCircle
 10
386.2849692404389
 20
379.0937708063334
 30
0.0
 40
1.0
100
AcDbArc
 50
90.0
 51
180.0
  0
CIRCLE
  5
6D1B
330
1E
100
AcDbEntity
  8
UMCL1
100
AcDbCircle
 10
406.2849692404388
 20
350.5937708063334
 30
0.0
 40
8.499999999999957
  0
CIRCLE
  5
6D1C
330
1E
100
AcDbEntity
  8
UMCL1
100
AcDbCircle
 10
406.2849692404388
 20
350.5937708063334
 30
0.0
 40
5.5
  0
LINE
  5
6D1D
330
1E
100
AcDbEntity
  8
UMCL1
100
AcDbLine
 10
804.2849692404386
 20
517.6960855730651
 30
0.0
 11
804.2849692404386
 21
489.6960855730651
 31
0.0
  0
LINE
  5
6D1E
330
1E
100
AcDbEntity
  8
CENTER
  6
CENTER
100
AcDbLine
 10
785.2849692404388
 20
511.3557631356594
 30
0.0
 11
785.2849692404384
 21
495.7173709668142
 31
0.0
  0
LINE
  5
6D1F
330
1E
100
AcDbEntity
  8
CENTER
  6
CENTER
100
AcDbLine
 10
806.2849692404387
 20
503.6960855730651
 30
0.0
 11
343.8345302744262
 21
503.6960855730653
 31
0.0
  0
LINE
  5
6D20
330
1E
100
AcDbEntity
  8
UMCL1
100
AcDbLine
 10
671.2849692404386
 20
503.696085573065
 30
0.0
 11
657.2849692404385
 21
503.696085573065
 31
0.0
  0
LINE
  5
6D21
330
1E
100
AcDbEntity
  8
UMCL1
100
AcDbLine
 10
669.2849692404386
 20
478.296085573065
 30
0.0
 11
659.2849692404386
 21
478.296085573065
 31
0.0
  0
LINE
  5
6D22
330
1E
100
AcDbEntity
  8
UMCL1
100
AcDbLine
 10
669.2849692404386
 20
529.096085573065
 30
0.0
 11
659.2849692404386
 21
529.096085573065
 31
0.0
  0
LINE
  5
6D23
330
1E
100
AcDbEntity
  8
CENTER
  6
CENTER
100
AcDbLine
 10
671.2849692404386
 20
485.696085573065
 30
0.0
 11
657.2849692404388
 21
485.696085573065
 31
0.0
  0
LINE
  5
6D24
330
1E
100
AcDbEntity
  8
CENTER
  6
CENTER
100
AcDbLine
 10
671.2849692404386
 20
521.696085573065
 30
0.0
 11
657.2849692404385
 21
521.696085573065
 31
0.0
  0
LINE
  5
6D25
330
1E
100
AcDbEntity
  8
UMCL1
100
AcDbLine
 10
698.2849692404389
 20
541.1960855730653
 30
0.0
 11
619.2849692404388
 21
541.1960855730653
 31
0.0
  0
LINE
  5
6D26
330
1E
100
AcDbEntity
  8
UMCL1
100
AcDbLine
 10
698.2849692404389
 20
466.1960855730653
 30
0.0
 11
619.2849692404386
 21
466.1960855730653
 31
0.0
  0
LINE
  5
6D27
330
1E
100
AcDbEntity
  8
CENTER
  6
CENTER
100
AcDbLine
 10
639.2849692404388
 20
531.142230087859
 30
0.0
 11
639.2849692404388
 21
475.4460855730654
 31
0.0
  0
LINE
  5
6D28
330
1E
100
AcDbEntity
  8
CENTER
  6
CENTER
100
AcDbLine
 10
678.8079621891396
 20
475.4460855730652
 30
0.0
 11
652.1151655974094
 21
475.4460855730652
 31
0.0
  0
LINE
  5
6D29
330
1E
100
AcDbEntity
  8
UMCL1
100
AcDbLine
 10
669.2849692404393
 20
529.096085573065
 30
0.0
 11
669.2849692404386
 21
478.296085573065
 31
0.0
  0
LINE
  5
6D2A
330
1E
100
AcDbEntity
  8
UMCL1
100
AcDbLine
 10
422.2849692404386
 20
522.4960855730651
 30
0.0
 11
619.2849692404386
 21
522.4960855730651
 31
0.0
  0
LINE
  5
6D2B
330
1E
100
AcDbEntity
  8
UMCL1
100
AcDbLine
 10
422.2849692404388
 20
538.696085573065
 30
0.0
 11
619.2849692404388
 21
538.696085573065
 31
0.0
  0
LINE
  5
6D2C
330
1E
100
AcDbEntity
  8
UMCL1
100
AcDbLine
 10
422.2849692404386
 20
484.8960855730653
 30
0.0
 11
619.2849692404386
 21
484.896085573065
 31
0.0
  0
LINE
  5
6D2D
330
1E
100
AcDbEntity
  8
UMCL1
100
AcDbLine
 10
422.2849692404388
 20
468.696085573065
 30
0.0
 11
619.2849692404389
 21
468.6960855730651
 31
0.0
  0
LINE
  5
6D2E
330
1E
100
AcDbEntity
  8
UMCL1
100
AcDbLine
 10
422.2849692404388
 20
466.1960855730651
 30
0.0
 11
422.2849692404388
 21
541.1960855730651
 31
0.0
  0
LINE
  5
6D2F
330
1E
100
AcDbEntity
  8
UMCL1
100
AcDbLine
 10
390.2849692404387
 20
466.1960855730653
 30
0.0
 11
390.2849692404387
 21
541.1960855730651
 31
0.0
  0
LINE
  5
6D30
330
1E
100
AcDbEntity
  8
UMCL1
100
AcDbLine
 10
422.2849692404388
 20
541.1960855730651
 30
0.0
 11
390.2849692404388
 21
540.6960855730651
 31
0.0
  0
LINE
  5
6D31
330
1E
100
AcDbEntity
  8
CENTER
  6
CENTER
100
AcDbLine
 10
371.4167653832046
 20
531.9460855730653
 30
0.0
 11
402.9804037512661
 21
531.9460855730653
 31
0.0
  0
LINE
  5
6D32
330
1E
100
AcDbEntity
  8
CENTER
  6
CENTER
100
AcDbLine
 10
415.2849692404386
 20
484.8068191578923
 30
0.0
 11
415.2849692404388
 21
463.3807724455818
 31
0.0
  0
LINE
  5
6D33
330
1E
100
AcDbEntity
  8
CENTER
  6
CENTER
100
AcDbLine
 10
406.2849692404388
 20
484.7719394812377
 30
0.0
 11
406.2849692404388
 21
463.4106339461243
 31
0.0
  0
LINE
  5
6D34
330
1E
100
AcDbEntity
  8
UMCL1
100
AcDbLine
 10
422.2849692404387
 20
466.1960855730651
 30
0.0
 11
390.2849692404387
 21
466.6960855730651
 31
0.0
  0
LINE
  5
6D35
330
1E
100
AcDbEntity
  8
CENTER
  6
CENTER
100
AcDbLine
 10
371.4167653832046
 20
475.4460855730652
 30
0.0
 11
402.980403751266
 21
475.4460855730652
 31
0.0
  0
LINE
  5
6D36
330
1E
100
AcDbEntity
  8
UMCL1
100
AcDbLine
 10
390.2849692404388
 20
481.1960855730652
 30
0.0
 11
386.2849692404389
 21
481.1960855730653
 31
0.0
  0
LINE
  5
6D37
330
1E
100
AcDbEntity
  8
UMCL1
100
AcDbLine
 10
390.2849692404388
 20
526.1960855730651
 30
0.0
 11
386.2849692404387
 21
526.1960855730651
 31
0.0
  0
ARC
  5
6D38
330
1E
100
AcDbEntity
  8
UMCL1
100
AcDbCircle
 10
386.2849692404389
 20
482.1960855730651
 30
0.0
 40
1.0
100
AcDbArc
 50
180.0
 51
270.0
  0
ARC
  5
6D39
330
1E
100
AcDbEntity
  8
UMCL1
100
AcDbCircle
 10
386.2849692404387
 20
525.1960855730652
 30
0.0
 40
1.0
100
AcDbArc
 50
90.0
 51
180.0
  0
CIRCLE
  5
6D3A
330
1E
100
AcDbEntity
  8
UMCL1
  6
Continuous
100
AcDbCircle
 10
785.2849692404387
 20
503.6960855730651
 30
0.0
 40
4.813977047697449
  0
LINE
  5
6D3B
330
1E
100
AcDbEntity
  8
UMCL1
100
AcDbLine
 10
804.2849692404386
 20
517.6960855730651
 30
0.0
 11
801.2849692404389
 21
520.6960855730651
 31
0.0
  0
LINE
  5
6D3C
330
1E
100
AcDbEntity
  8
UMCL1
100
AcDbLine
 10
801.2849692404387
 20
486.6960855730651
 30
0.0
 11
804.2849692404386
 21
489.6960855730651
 31
0.0
  0
LINE
  5
6D3D
330
1E
100
AcDbEntity
  8
UMCL1
100
AcDbLine
 10
801.2849692404389
 20
486.6960855730651
 30
0.0
 11
801.2849692404385
 21
520.6960855730651
 31
0.0
  0
ARC
  5
6D3E
330
1E
100
AcDbEntity
  8
UMCL1
  6
Continuous
 62
     2
100
AcDbCircle
 10
785.2849692404387
 20
503.6960855730651
 30
0.0
 40
5.314791108857207
100
AcDbArc
 50
77.6094087641974
 51
10.94694713193136
  0
LINE
  5
6D3F
330
1E
100
AcDbEntity
  8
UMCL1
100
AcDbLine
 10
801.2849692404389
 20
520.6960855730651
 30
0.0
 11
669.2849692404393
 21
520.6960855730651
 31
0.0
  0
LINE
  5
6D40
330
1E
100
AcDbEntity
  8
UMCL1
100
AcDbLine
 10
801.2849692404387
 20
486.6960855730651
 30
0.0
 11
669.2849692404386
 21
486.6960855730652
 31
0.0
  0
LINE
  5
6D41
330
1E
100
AcDbEntity
  8
CENTER
  6
CENTER
100
AcDbLine
 10
650.5775235624663
 20
522.1960855730651
 30
0.0
 11
628.6914939195519
 21
522.1960855730652
 31
0.0
  0
LINE
  5
6D42
330
1E
100
AcDbEntity
  8
CENTER
  6
CENTER
100
AcDbLine
 10
650.5775235624663
 20
485.1960855730651
 30
0.0
 11
628.6914939195519
 21
485.1960855730651
 31
0.0
  0
CIRCLE
  5
6D43
330
1E
100
AcDbEntity
  8
UMCL1
  6
Continuous
100
AcDbCircle
 10
639.2849692404388
 20
522.1960855730653
 30
0.0
 40
4.0
  0
CIRCLE
  5
6D44
330
1E
100
AcDbEntity
  8
UMCL1
  6
Continuous
100
AcDbCircle
 10
639.2849692404388
 20
522.1960855730653
 30
0.0
 40
4.75
  0
CIRCLE
  5
6D45
330
1E
100
AcDbEntity
  8
UMCL1
  6
Continuous
100
AcDbCircle
 10
639.2849692404388
 20
522.1960855730653
 30
0.0
 40
3.5
  0
POLYLINE
  5
6D46
330
1E
100
AcDbEntity
  8
UMCL1
  6
Continuous
100
AcDb2dPolyline
 66
     1
 10
0.0
 20
0.0
 30
0.0
 70
     1
  0
VERTEX
  5
6D47
330
6D46
100
AcDbEntity
  8
UMCL1
  6
Continuous
100
AcDbVertex
100
AcDb2dVertex
 10
641.2849692404388
 20
521.041385034686
 30
0.0
  0
VERTEX
  5
6D48
330
6D46
100
AcDbEntity
  8
UMCL1
  6
Continuous
100
AcDbVertex
100
AcDb2dVertex
 10
641.2849692404388
 20
523.3507861114445
 30
0.0
  0
VERTEX
  5
6D49
330
6D46
100
AcDbEntity
  8
UMCL1
  6
Continuous
100
AcDbVertex
100
AcDb2dVertex
 10
639.2849692404388
 20
524.5054866498239
 30
0.0
  0
VERTEX
  5
6D4A
330
6D46
100
AcDbEntity
  8
UMCL1
  6
Continuous
100
AcDbVertex
100
AcDb2dVertex
 10
637.2849692404388
 20
523.3507861114445
 30
0.0
  0
VERTEX
  5
6D4B
330
6D46
100
AcDbEntity
  8
UMCL1
  6
Continuous
100
AcDbVertex
100
AcDb2dVertex
 10
637.2849692404388
 20
521.041385034686
 30
0.0
  0
VERTEX
  5
6D4C
330
6D46
100
AcDbEntity
  8
UMCL1
  6
Continuous
100
AcDbVertex
100
AcDb2dVertex
 10
639.2849692404388
 20
519.8866844963069
 30
0.0
  0
SEQEND
  5
6D4D
330
6D46
100
AcDbEntity
  8
UMCL1
  6
Continuous
  0
CIRCLE
  5
6D4E
330
1E
100
AcDbEntity
  8
UMCL1
  6
Continuous
100
AcDbCircle
 10
639.2849692404388
 20
485.1960855730651
 30
0.0
 40
4.0
  0
CIRCLE
  5
6D4F
330
1E
100
AcDbEntity
  8
UMCL1
  6
Continuous
100
AcDbCircle
 10
639.2849692404388
 20
485.1960855730651
 30
0.0
 40
4.75
  0
CIRCLE
  5
6D50
330
1E
100
AcDbEntity
  8
UMCL1
  6
Continuous
100
AcDbCircle
 10
639.2849692404388
 20
485.1960855730651
 30
0.0
 40
3.5
  0
POLYLINE
  5
6D51
330
1E
100
AcDbEntity
  8
UMCL1
  6
Continuous
100
AcDb2dPolyline
 66
     1
 10
0.0
 20
0.0
 30
0.0
 70
     1
  0
VERTEX
  5
6D52
330
6D51
100
AcDbEntity
  8
UMCL1
  6
Continuous
100
AcDbVertex
100
AcDb2dVertex
 10
641.2849692404388
 20
484.0413850346859
 30
0.0
  0
VERTEX
  5
6D53
330
6D51
100
AcDbEntity
  8
UMCL1
  6
Continuous
100
AcDbVertex
100
AcDb2dVertex
 10
641.2849692404388
 20
486.3507861114444
 30
0.0
  0
VERTEX
  5
6D54
330
6D51
100
AcDbEntity
  8
UMCL1
  6
Continuous
100
AcDbVertex
100
AcDb2dVertex
 10
639.2849692404388
 20
487.5054866498236
 30
0.0
  0
VERTEX
  5
6D55
330
6D51
100
AcDbEntity
  8
UMCL1
  6
Continuous
100
AcDbVertex
100
AcDb2dVertex
 10
637.2849692404388
 20
486.3507861114444
 30
0.0
  0
VERTEX
  5
6D56
330
6D51
100
AcDbEntity
  8
UMCL1
  6
Continuous
100
AcDbVertex
100
AcDb2dVertex
 10
637.2849692404388
 20
484.0413850346859
 30
0.0
  0
VERTEX
  5
6D57
330
6D51
100
AcDbEntity
  8
UMCL1
  6
Continuous
100
AcDbVertex
100
AcDb2dVertex
 10
639.2849692404388
 20
482.8866844963066
 30
0.0
  0
SEQEND
  5
6D58
330
6D51
100
AcDbEntity
  8
UMCL1
  6
Continuous
  0
LINE
  5
6D59
330
1E
100
AcDbEntity
  8
UMCL1
100
AcDbLine
 10
654.2849692404386
 20
478.2960855730652
 30
0.0
 11
624.2849692404387
 21
478.2960855730652
 31
0.0
  0
LINE
  5
6D5A
330
1E
100
AcDbEntity
  8
UMCL1
100
AcDbLine
 10
624.2849692404388
 20
529.0960855730653
 30
0.0
 11
624.2849692404387
 21
478.2960855730652
 31
0.0
  0
LINE
  5
6D5B
330
1E
100
AcDbEntity
  8
UMCL1
100
AcDbLine
 10
654.2849692404387
 20
529.0960855730653
 30
0.0
 11
654.2849692404386
 21
478.296085573065
 31
0.0
  0
LINE
  5
6D5C
330
1E
100
AcDbEntity
  8
UMCL1
100
AcDbLine
 10
654.2849692404387
 20
529.0960855730652
 30
0.0
 11
624.2849692404387
 21
529.0960855730653
 31
0.0
  0
LINE
  5
6D5D
330
1E
100
AcDbEntity
  8
UMCL1
100
AcDbLine
 10
619.2849692404386
 20
541.1960855730653
 30
0.0
 11
619.2849692404386
 21
516.1960855730651
 31
0.0
  0
LINE
  5
6D5E
330
1E
100
AcDbEntity
  8
UMCL1
100
AcDbLine
 10
619.2849692404386
 20
491.196085573065
 30
0.0
 11
619.2849692404386
 21
466.1960855730653
 31
0.0
  0
LINE
  5
6D5F
330
1E
100
AcDbEntity
  8
CENTER
  6
CENTER
100
AcDbLine
 10
868.3031317419105
 20
410.0937708063332
 30
0.0
 11
901.1730317411494
 21
410.0937708063332
 31
0.0
  0
LINE
  5
6D60
330
1E
100
AcDbEntity
  8
UMCL1
100
AcDbLine
 10
874.206702689209
 20
425.0937708063333
 30
0.0
 11
895.0067026892094
 21
425.0937708063331
 31
0.0
  0
CIRCLE
  5
6D61
330
1E
100
AcDbEntity
  8
UMCL1
  6
Continuous
100
AcDbCircle
 10
884.6067026892095
 20
410.0937708063332
 30
0.0
 40
13.0
  0
POLYLINE
  5
6D62
330
1E
100
AcDbEntity
  8
UMCL1
  6
Continuous
100
AcDb2dPolyline
 66
     1
 10
0.0
 20
0.0
 30
0.0
 70
     1
  0
VERTEX
  5
6D63
330
6D62
100
AcDbEntity
  8
UMCL1
  6
Continuous
100
AcDbVertex
100
AcDb2dVertex
 10
895.6067026892094
 20
403.7429178452474
 30
0.0
  0
VERTEX
  5
6D64
330
6D62
100
AcDbEntity
  8
UMCL1
  6
Continuous
100
AcDbVertex
100
AcDb2dVertex
 10
895.6067026892094
 20
416.4446237674192
 30
0.0
  0
VERTEX
  5
6D65
330
6D62
100
AcDbEntity
  8
UMCL1
  6
Continuous
100
AcDbVertex
100
AcDb2dVertex
 10
884.6067026892095
 20
422.795476728505
 30
0.0
  0
VERTEX
  5
6D66
330
6D62
100
AcDbEntity
  8
UMCL1
  6
Continuous
100
AcDbVertex
100
AcDb2dVertex
 10
873.6067026892094
 20
416.4446237674192
 30
0.0
  0
VERTEX
  5
6D67
330
6D62
100
AcDbEntity
  8
UMCL1
  6
Continuous
100
AcDbVertex
100
AcDb2dVertex
 10
873.6067026892094
 20
403.7429178452474
 30
0.0
  0
VERTEX
  5
6D68
330
6D62
100
AcDbEntity
  8
UMCL1
  6
Continuous
100
AcDbVertex
100
AcDb2dVertex
 10
884.6067026892095
 20
397.3920648841615
 30
0.0
  0
SEQEND
  5
6D69
330
6D62
100
AcDbEntity
  8
UMCL1
  6
Continuous
  0
LINE
  5
6D6A
330
1E
100
AcDbEntity
  8
UMCL1
100
AcDbLine
 10
874.206702689209
 20
425.0937708063333
 30
0.0
 11
859.2067026892094
 21
410.0937708063335
 31
0.0
  0
LINE
  5
6D6B
330
1E
100
AcDbEntity
  8
UMCL1
100
AcDbLine
 10
895.0067026892094
 20
425.0937708063331
 30
0.0
 11
910.0067026892094
 21
410.093770806333
 31
0.0
  0
LINE
  5
6D6C
330
1E
100
AcDbEntity
  8
UMCL1
100
AcDbLine
 10
910.0067026892093
 20
410.093770806333
 30
0.0
 11
910.0067026892094
 21
395.0937708063334
 31
0.0
  0
LINE
  5
6D6D
330
1E
100
AcDbEntity
  8
UMCL1
100
AcDbLine
 10
859.2067026892094
 20
410.0937708063336
 30
0.0
 11
859.2067026892097
 21
395.0937708063334
 31
0.0
  0
LINE
  5
6D6E
330
1E
100
AcDbEntity
  8
UMCL1
100
AcDbLine
 10
654.2849692404387
 20
514.0960855730652
 30
0.0
 11
624.2849692404387
 21
514.0960855730653
 31
0.0
  0
LINE
  5
6D6F
330
1E
100
AcDbEntity
  8
UMCL1
100
AcDbLine
 10
654.2849692404386
 20
493.2960855730653
 30
0.0
 11
624.2849692404387
 21
493.2960855730653
 31
0.0
  0
LINE
  5
6D70
330
1E
100
AcDbEntity
  8
UMCL1
100
AcDbLine
 10
657.7849692404385
 20
516.6960855730651
 30
0.0
 11
657.7849692404387
 21
490.6960855730652
 31
0.0
  0
LINE
  5
6D71
330
1E
100
AcDbEntity
  8
UMCL1
100
AcDbLine
 10
659.2849692404386
 20
541.1960855730653
 30
0.0
 11
659.2849692404386
 21
514.6960855730651
 31
0.0
  0
LINE
  5
6D72
330
1E
100
AcDbEntity
  8
UMCL1
100
AcDbLine
 10
659.2849692404386
 20
492.6960855730652
 30
0.0
 11
659.2849692404386
 21
466.1960855730653
 31
0.0
  0
LINE
  5
6D73
330
1E
100
AcDbEntity
  8
UMCL1
100
AcDbLine
 10
657.7849692404387
 20
516.6960855730651
 30
0.0
 11
654.2849692404386
 21
516.6960855730651
 31
0.0
  0
LINE
  5
6D74
330
1E
100
AcDbEntity
  8
UMCL1
100
AcDbLine
 10
657.7849692404387
 20
490.6960855730652
 30
0.0
 11
654.2849692404387
 21
490.6960855730652
 31
0.0
  0
ARC
  5
6D75
330
1E
100
AcDbEntity
  8
UMCL1
  6
Continuous
100
AcDbCircle
 10
639.7278263832954
 20
498.196085573065
 30
0.0
 40
21.95714285714327
100
AcDbArc
 50
345.4936107745468
 51
14.5063892254532
  0
ARC
  5
6D76
330
1E
100
AcDbEntity
  8
UMCL1
  6
Continuous
100
AcDbCircle
 10
639.7278263832951
 20
509.1960855730653
 30
0.0
 40
21.95714285714349
100
AcDbArc
 50
345.4936107745468
 51
14.5063892254532
  0
ARC
  5
6D77
330
1E
100
AcDbEntity
  8
UMCL1
  6
Continuous
100
AcDbCircle
 10
640.7778263832948
 20
503.6960855730651
 30
0.0
 40
23.00714285714378
100
AcDbArc
 50
331.4378085280612
 51
28.56219147193878
  0
LINE
  5
6D78
330
1E
100
AcDbEntity
  8
UMCL1
100
AcDbLine
 10
660.9849692404387
 20
514.6960855730651
 30
0.0
 11
657.7849692404387
 21
514.6960855730651
 31
0.0
  0
LINE
  5
6D79
330
1E
100
AcDbEntity
  8
UMCL1
100
AcDbLine
 10
660.9849692404387
 20
492.6960855730652
 30
0.0
 11
657.7849692404387
 21
492.6960855730652
 31
0.0
  0
LINE
  5
6D7A
330
1E
100
AcDbEntity
  8
UMCL1
  6
Continuous
100
AcDbLine
 10
657.7849692404387
 20
503.696085573065
 30
0.0
 11
660.9849692404387
 21
503.6960855730646
 31
0.0
  0
LINE
  5
6D7B
330
1E
100
AcDbEntity
  8
CENTER
  6
CENTER
100
AcDbLine
 10
407.2849692404388
 20
531.142230087859
 30
0.0
 11
407.2849692404388
 21
475.4460855730654
 31
0.0
  0
LINE
  5
6D7C
330
1E
100
AcDbEntity
  8
CENTER
  6
CENTER
100
AcDbLine
 10
395.9924149184112
 20
522.1960855730652
 30
0.0
 11
417.8784445613257
 21
522.1960855730653
 31
0.0
  0
LINE
  5
6D7D
330
1E
100
AcDbEntity
  8
CENTER
  6
CENTER
100
AcDbLine
 10
395.9924149184112
 20
485.1960855730652
 30
0.0
 11
417.8784445613257
 21
485.1960855730651
 31
0.0
  0
CIRCLE
  5
6D7E
330
1E
100
AcDbEntity
  8
UMCL1
  6
Continuous
100
AcDbCircle
 10
407.2849692404388
 20
522.1960855730653
 30
0.0
 40
4.0
  0
CIRCLE
  5
6D7F
330
1E
100
AcDbEntity
  8
UMCL1
  6
Continuous
100
AcDbCircle
 10
407.2849692404388
 20
522.1960855730653
 30
0.0
 40
4.75
  0
CIRCLE
  5
6D80
330
1E
100
AcDbEntity
  8
UMCL1
  6
Continuous
100
AcDbCircle
 10
407.2849692404388
 20
522.1960855730653
 30
0.0
 40
3.5
  0
POLYLINE
  5
6D81
330
1E
100
AcDbEntity
  8
UMCL1
  6
Continuous
100
AcDb2dPolyline
 66
     1
 10
0.0
 20
0.0
 30
0.0
 70
     1
  0
VERTEX
  5
6D82
330
6D81
100
AcDbEntity
  8
UMCL1
  6
Continuous
100
AcDbVertex
100
AcDb2dVertex
 10
405.2849692404388
 20
521.0413850346862
 30
0.0
  0
VERTEX
  5
6D83
330
6D81
100
AcDbEntity
  8
UMCL1
  6
Continuous
100
AcDbVertex
100
AcDb2dVertex
 10
405.2849692404388
 20
523.3507861114446
 30
0.0
  0
VERTEX
  5
6D84
330
6D81
100
AcDbEntity
  8
UMCL1
  6
Continuous
100
AcDbVertex
100
AcDb2dVertex
 10
407.2849692404388
 20
524.5054866498239
 30
0.0
  0
VERTEX
  5
6D85
330
6D81
100
AcDbEntity
  8
UMCL1
  6
Continuous
100
AcDbVertex
100
AcDb2dVertex
 10
409.2849692404388
 20
523.3507861114446
 30
0.0
  0
VERTEX
  5
6D86
330
6D81
100
AcDbEntity
  8
UMCL1
  6
Continuous
100
AcDbVertex
100
AcDb2dVertex
 10
409.2849692404388
 20
521.0413850346862
 30
0.0
  0
VERTEX
  5
6D87
330
6D81
100
AcDbEntity
  8
UMCL1
  6
Continuous
100
AcDbVertex
100
AcDb2dVertex
 10
407.2849692404388
 20
519.8866844963069
 30
0.0
  0
SEQEND
  5
6D88
330
6D81
100
AcDbEntity
  8
UMCL1
  6
Continuous
  0
CIRCLE
  5
6D89
330
1E
100
AcDbEntity
  8
UMCL1
  6
Continuous
100
AcDbCircle
 10
407.2849692404388
 20
485.1960855730652
 30
0.0
 40
4.0
  0
CIRCLE
  5
6D8A
330
1E
100
AcDbEntity
  8
UMCL1
  6
Continuous
100
AcDbCircle
 10
407.2849692404388
 20
485.1960855730652
 30
0.0
 40
4.75
  0
CIRCLE
  5
6D8B
330
1E
100
AcDbEntity
  8
UMCL1
  6
Continuous
100
AcDbCircle
 10
407.2849692404388
 20
485.1960855730652
 30
0.0
 40
3.5
  0
POLYLINE
  5
6D8C
330
1E
100
AcDbEntity
  8
UMCL1
  6
Continuous
100
AcDb2dPolyline
 66
     1
 10
0.0
 20
0.0
 30
0.0
 70
     1
  0
VERTEX
  5
6D8D
330
6D8C
100
AcDbEntity
  8
UMCL1
  6
Continuous
100
AcDbVertex
100
AcDb2dVertex
 10
405.2849692404388
 20
484.0413850346859
 30
0.0
  0
VERTEX
  5
6D8E
330
6D8C
100
AcDbEntity
  8
UMCL1
  6
Continuous
100
AcDbVertex
100
AcDb2dVertex
 10
405.2849692404388
 20
486.3507861114444
 30
0.0
  0
VERTEX
  5
6D8F
330
6D8C
100
AcDbEntity
  8
UMCL1
  6
Continuous
100
AcDbVertex
100
AcDb2dVertex
 10
407.2849692404388
 20
487.5054866498238
 30
0.0
  0
VERTEX
  5
6D90
330
6D8C
100
AcDbEntity
  8
UMCL1
  6
Continuous
100
AcDbVertex
100
AcDb2dVertex
 10
409.2849692404388
 20
486.3507861114444
 30
0.0
  0
VERTEX
  5
6D91
330
6D8C
100
AcDbEntity
  8
UMCL1
  6
Continuous
100
AcDbVertex
100
AcDb2dVertex
 10
409.2849692404388
 20
484.0413850346859
 30
0.0
  0
VERTEX
  5
6D92
330
6D8C
100
AcDbEntity
  8
UMCL1
  6
Continuous
100
AcDbVertex
100
AcDb2dVertex
 10
407.2849692404388
 20
482.8866844963068
 30
0.0
  0
SEQEND
  5
6D93
330
6D8C
100
AcDbEntity
  8
UMCL1
  6
Continuous
  0
LINE
  5
6D94
330
1E
100
AcDbEntity
  8
UMCL1
100
AcDbLine
 10
392.2849692404391
 20
478.2960855730654
 30
0.0
 11
422.2849692404388
 21
478.2960855730654
 31
0.0
  0
LINE
  5
6D95
330
1E
100
AcDbEntity
  8
UMCL1
100
AcDbLine
 10
422.2849692404388
 20
529.0960855730654
 30
0.0
 11
422.2849692404388
 21
478.2960855730652
 31
0.0
  0
LINE
  5
6D96
330
1E
100
AcDbEntity
  8
UMCL1
100
AcDbLine
 10
392.2849692404388
 20
529.0960855730653
 30
0.0
 11
392.2849692404391
 21
478.2960855730651
 31
0.0
  0
LINE
  5
6D97
330
1E
100
AcDbEntity
  8
UMCL1
100
AcDbLine
 10
392.2849692404388
 20
529.0960855730653
 30
0.0
 11
422.2849692404388
 21
529.0960855730653
 31
0.0
  0
LINE
  5
6D98
330
1E
100
AcDbEntity
  8
UMCL1
100
AcDbLine
 10
624.2849692404387
 20
516.1960855730651
 30
0.0
 11
422.2849692404387
 21
516.1960855730653
 31
0.0
  0
LINE
  5
6D99
330
1E
100
AcDbEntity
  8
UMCL1
100
AcDbLine
 10
624.2849692404387
 20
491.196085573065
 30
0.0
 11
422.2849692404388
 21
491.1960855730651
 31
0.0
  0
LINE
  5
6D9A
330
1E
100
AcDbEntity
  8
UMCL1
100
AcDbLine
 10
392.284969240439
 20
493.2960855730653
 30
0.0
 11
422.2849692404388
 21
493.2960855730653
 31
0.0
  0
LINE
  5
6D9B
330
1E
100
AcDbEntity
  8
UMCL1
100
AcDbLine
 10
392.2849692404388
 20
514.0960855730653
 30
0.0
 11
422.2849692404388
 21
514.0960855730653
 31
0.0
  0
LINE
  5
6D9C
330
1E
100
AcDbEntity
  8
CENTER
  6
CENTER
100
AcDbLine
 10
392.2849692404391
 20
410.0937708063336
 30
0.0
 11
666.1348248537906
 21
410.0937708063332
 31
0.0
  0
LINE
  5
6D9D
330
1E
100
AcDbEntity
  8
UMCL1
100
AcDbLine
 10
624.2849692404388
 20
425.0937708063333
 30
0.0
 11
654.2849692404387
 21
425.0937708063331
 31
0.0
  0
LINE
  5
6D9E
330
1E
100
AcDbEntity
  8
UMCL1
100
AcDbLine
 10
654.2849692404387
 20
425.0937708063331
 30
0.0
 11
654.2849692404386
 21
395.0937708063335
 31
0.0
  0
LINE
  5
6D9F
330
1E
100
AcDbEntity
  8
UMCL1
100
AcDbLine
 10
624.2849692404388
 20
425.0937708063333
 30
0.0
 11
624.2849692404387
 21
395.0937708063335
 31
0.0
  0
LINE
  5
6DA0
330
1E
100
AcDbEntity
  8
UMCL1
100
AcDbLine
 10
657.7849692404385
 20
423.093770806333
 30
0.0
 11
657.7849692404388
 21
397.0937708063335
 31
0.0
  0
LINE
  5
6DA1
330
1E
100
AcDbEntity
  8
UMCL1
100
AcDbLine
 10
422.2849692404388
 20
422.5937708063346
 30
0.0
 11
624.2849692404387
 21
422.5937708063331
 31
0.0
  0
LINE
  5
6DA2
330
1E
100
AcDbEntity
  8
UMCL1
100
AcDbLine
 10
624.2849692404387
 20
397.5937708063335
 30
0.0
 11
422.2849692404388
 21
397.5937708063335
 31
0.0
  0
ARC
  5
6DA3
330
1E
100
AcDbEntity
  8
UMCL1
  6
Continuous
100
AcDbCircle
 10
632.5254454308982
 20
410.0937708063332
 30
0.0
 40
29.15952380954047
100
AcDbArc
 50
347.4203346657243
 51
12.57966533428207
  0
ARC
  5
6DA4
330
1E
100
AcDbEntity
  8
UMCL1
  6
Continuous
100
AcDbCircle
 10
654.1325882880539
 20
419.6200502479621
 30
0.0
 40
7.55238095238472
100
AcDbArc
 50
335.1367655126717
 51
24.86323448732825
  0
LINE
  5
6DA5
330
1E
100
AcDbEntity
  8
UMCL1
100
AcDbLine
 10
654.2849692404388
 20
423.093770806333
 30
0.0
 11
657.7849692404385
 21
423.093770806333
 31
0.0
  0
LINE
  5
6DA6
330
1E
100
AcDbEntity
  8
UMCL1
100
AcDbLine
 10
657.7849692404388
 20
397.0937708063335
 30
0.0
 11
654.2849692404387
 21
397.0937708063335
 31
0.0
  0
ARC
  5
6DA7
330
1E
100
AcDbEntity
  8
UMCL1
  6
Continuous
100
AcDbCircle
 10
654.1325882880549
 20
400.5674913647043
 30
0.0
 40
7.552380952383744
100
AcDbArc
 50
335.1367655126711
 51
24.86323448732893
  0
ARC
  5
6DA8
330
1E
100
AcDbEntity
  8
UMCL1
  6
Continuous
100
AcDbCircle
 10
633.5754454309092
 20
410.0937708063332
 30
0.0
 40
30.20952380952929
100
AcDbArc
 50
335.1367655126638
 51
24.86323448733621
  0
LINE
  5
6DA9
330
1E
100
AcDbEntity
  8
UMCL1
  6
Continuous
100
AcDbLine
 10
660.9849692404391
 20
397.3920648841616
 30
0.0
 11
657.7849692404389
 21
397.3920648841616
 31
0.0
  0
LINE
  5
6DAA
330
1E
100
AcDbEntity
  8
UMCL1
  6
Continuous
100
AcDbLine
 10
660.9849692404391
 20
422.7954767285049
 30
0.0
 11
657.7849692404387
 21
422.7954767285049
 31
0.0
  0
LINE
  5
6DAB
330
1E
100
AcDbEntity
  8
UMCL1
  6
Continuous
100
AcDbLine
 10
660.9849692404391
 20
416.4446237674192
 30
0.0
 11
657.7849692404387
 21
416.4446237674191
 31
0.0
  0
LINE
  5
6DAC
330
1E
100
AcDbEntity
  8
UMCL1
  6
Continuous
100
AcDbLine
 10
660.9849692404391
 20
403.7429178452474
 30
0.0
 11
657.7849692404388
 21
403.7429178452474
 31
0.0
  0
LINE
  5
6DAD
330
1E
100
AcDbEntity
  8
CENTER
  6
CENTER
100
AcDbLine
 10
407.2849692404385
 20
434.8684324610135
 30
0.0
 11
407.2849692404385
 21
390.3297008987339
 31
0.0
  0
LINE
  5
6DAE
330
1E
100
AcDbEntity
  8
UMCL1
100
AcDbLine
 10
422.2849692404386
 20
425.0937708063333
 30
0.0
 11
392.2849692404387
 21
425.0937708063331
 31
0.0
  0
LINE
  5
6DAF
330
1E
100
AcDbEntity
  8
UMCL1
100
AcDbLine
 10
392.2849692404391
 20
425.0937708063331
 30
0.0
 11
392.2849692404391
 21
394.7201643106753
 31
0.0
  0
LINE
  5
6DB0
330
1E
100
AcDbEntity
  8
CENTER
  6
CENTER
100
AcDbLine
 10
237.2828921497541
 20
357.5937708063333
 30
0.0
 11
316.2828921497542
 21
357.5937708063333
 31
0.0
  0
LINE
  5
6DB1
330
1E
100
AcDbEntity
  8
CENTER
  6
CENTER
100
AcDbLine
 10
276.7828921497542
 20
435.0681019724937
 30
0.0
 11
276.7828921497542
 21
305.4774820705051
 31
0.0
  0
LINE
  5
6DB2
330
1E
100
AcDbEntity
  8
CENTER
  6
CENTER
100
AcDbLine
 10
239.2861821931429
 20
385.8437708063333
 30
0.0
 11
257.0328921497542
 21
385.8437708063333
 31
0.0
  0
LINE
  5
6DB3
330
1E
100
AcDbEntity
  8
CENTER
  6
CENTER
100
AcDbLine
 10
305.0328921497542
 20
395.0904807629447
 30
0.0
 11
305.0328921497542
 21
376.6243781277053
 31
0.0
  0
LINE
  5
6DB4
330
1E
100
AcDbEntity
  8
CENTER
  6
CENTER
100
AcDbLine
 10
248.5328921497542
 20
395.0904807629447
 30
0.0
 11
248.5328921497542
 21
377.3437708063333
 31
0.0
  0
LINE
  5
6DB5
330
1E
100
AcDbEntity
  8
CENTER
  6
CENTER
100
AcDbLine
 10
240.0328921497542
 20
329.3437708063333
 30
0.0
 11
257.0328921497542
 21
329.3437708063333
 31
0.0
  0
CIRCLE
  5
6DB6
330
1E
100
AcDbEntity
  8
UMCL1
100
AcDbCircle
 10
248.5328921497542
 20
385.8437708063333
 30
0.0
 40
6.5
  0
CIRCLE
  5
6DB7
330
1E
100
AcDbEntity
  8
UMCL1
100
AcDbCircle
 10
305.0328921497542
 20
385.8437708063333
 30
0.0
 40
6.5
  0
LINE
  5
6DB8
330
1E
100
AcDbEntity
  8
CENTER
  6
CENTER
100
AcDbLine
 10
296.5328921497542
 20
329.3437708063333
 30
0.0
 11
313.5328921497542
 21
329.3437708063333
 31
0.0
  0
LINE
  5
6DB9
330
1E
100
AcDbEntity
  8
CENTER
  6
CENTER
100
AcDbLine
 10
248.5328921497542
 20
337.8437708063333
 30
0.0
 11
248.5328921497542
 21
320.8437708063333
 31
0.0
  0
LINE
  5
6DBA
330
1E
100
AcDbEntity
  8
CENTER
  6
CENTER
100
AcDbLine
 10
295.6527630029515
 20
385.8437708063333
 30
0.0
 11
314.2796021063655
 21
385.8437708063333
 31
0.0
  0
LINE
  5
6DBB
330
1E
100
AcDbEntity
  8
CENTER
  6
CENTER
100
AcDbLine
 10
305.0328921497542
 20
337.8437708063333
 30
0.0
 11
305.0328921497542
 21
320.8437708063333
 31
0.0
  0
LINE
  5
6DBC
330
1E
100
AcDbEntity
  8
UMCL1
100
AcDbLine
 10
266.3828921497537
 20
425.0937708063333
 30
0.0
 11
287.182892149754
 21
425.0937708063331
 31
0.0
  0
LINE
  5
6DBD
330
1E
100
AcDbEntity
  8
UMCL1
100
AcDbLine
 10
266.3828921497537
 20
425.0937708063333
 30
0.0
 11
251.382892149754
 21
410.0937708063335
 31
0.0
  0
LINE
  5
6DBE
330
1E
100
AcDbEntity
  8
UMCL1
100
AcDbLine
 10
287.182892149754
 20
425.0937708063331
 30
0.0
 11
302.182892149754
 21
410.093770806333
 31
0.0
  0
LINE
  5
6DBF
330
1E
100
AcDbEntity
  8
UMCL1
100
AcDbLine
 10
302.1828921497539
 20
410.093770806333
 30
0.0
 11
302.1828921497542
 21
395.0937708063334
 31
0.0
  0
LINE
  5
6DC0
330
1E
100
AcDbEntity
  8
UMCL1
100
AcDbLine
 10
251.382892149754
 20
410.0937708063336
 30
0.0
 11
251.3828921497543
 21
395.0937708063334
 31
0.0
  0
LINE
  5
6DC1
330
1E
100
AcDbEntity
  8
UMCL1
100
AcDbLine
 10
422.2849692404388
 20
320.0937708063334
 30
0.0
 11
422.2849692404388
 21
425.0937708063333
 31
0.0
  0
ARC
  5
6DC2
330
1E
100
AcDbEntity
  8
UMCL1
100
AcDbCircle
 10
276.7828921497542
 20
357.5937708063332
 30
0.0
 40
23.5
100
AcDbArc
 50
221.8103148957772
 51
318.1896851042228
  0
LINE
  5
6DC3
330
1E
100
AcDbEntity
  8
UMCL1
100
AcDbLine
 10
314.2828921497542
 20
307.5937708063332
 30
0.0
 11
239.2828921497542
 21
307.5937708063332
 31
0.0
  0
LINE
  5
6DC4
330
1E
100
AcDbEntity
  8
UMCL1
100
AcDbLine
 10
314.2828921497542
 20
312.5937708063332
 30
0.0
 11
239.2828921497542
 21
312.5937708063331
 31
0.0
  0
ARC
  5
6DC5
330
1E
100
AcDbEntity
  8
UMCL1
100
AcDbCircle
 10
295.7894699585024
 20
340.5937708063332
 30
0.0
 40
2.0
100
AcDbArc
 50
90.0
 51
138.1896851042228
  0
LINE
  5
6DC6
330
1E
100
AcDbEntity
  8
UMCL1
100
AcDbLine
 10
311.2828921497542
 20
342.5937708063332
 30
0.0
 11
295.7894699585024
 21
342.5937708063332
 31
0.0
  0
LINE
  5
6DC7
330
1E
100
AcDbEntity
  8
CENTER
  6
CENTER
100
AcDbLine
 10
301.7828921497542
 20
305.5937708063332
 30
0.0
 11
301.7828921497542
 21
314.5937708063332
 31
0.0
  0
LINE
  5
6DC8
330
1E
100
AcDbEntity
  8
UMCL1
  6
HIDDEN
 62
     2
100
AcDbLine
 10
306.2828921497541
 20
307.5937708063332
 30
0.0
 11
306.2828921497541
 21
312.5937708063332
 31
0.0
  0
LINE
  5
6DC9
330
1E
100
AcDbEntity
  8
UMCL1
  6
HIDDEN
 62
     2
100
AcDbLine
 10
297.2828921497542
 20
307.5937708063332
 30
0.0
 11
297.2828921497542
 21
312.5937708063332
 31
0.0
  0
ARC
  5
6DCA
330
1E
100
AcDbEntity
  8
UMCL1
100
AcDbCircle
 10
311.2828921497542
 20
339.5937708063332
 30
0.0
 40
3.0
100
AcDbArc
 50
0.0
 51
90.0
  0
ARC
  5
6DCB
330
1E
100
AcDbEntity
  8
UMCL1
100
AcDbCircle
 10
242.282892149754
 20
339.5937708063332
 30
0.0
 40
3.0
100
AcDbArc
 50
90.0
 51
180.0
  0
ARC
  5
6DCC
330
1E
100
AcDbEntity
  8
UMCL1
100
AcDbCircle
 10
257.7763143410059
 20
340.5937708063332
 30
0.0
 40
2.0
100
AcDbArc
 50
41.8103148957772
 51
90.0
  0
LINE
  5
6DCD
330
1E
100
AcDbEntity
  8
UMCL1
100
AcDbLine
 10
257.7763143410059
 20
342.5937708063332
 30
0.0
 11
242.282892149754
 21
342.5937708063332
 31
0.0
  0
LINE
  5
6DCE
330
1E
100
AcDbEntity
  8
CENTER
  6
CENTER
100
AcDbLine
 10
251.7828921497542
 20
305.5937708063332
 30
0.0
 11
251.7828921497542
 21
314.5937708063332
 31
0.0
  0
LINE
  5
6DCF
330
1E
100
AcDbEntity
  8
UMCL1
  6
HIDDEN
 62
     2
100
AcDbLine
 10
256.2828921497541
 20
307.5937708063332
 30
0.0
 11
256.2828921497541
 21
312.5937708063332
 31
0.0
  0
LINE
  5
6DD0
330
1E
100
AcDbEntity
  8
UMCL1
  6
HIDDEN
 62
     2
100
AcDbLine
 10
247.2828921497542
 20
307.5937708063332
 30
0.0
 11
247.2828921497542
 21
312.5937708063331
 31
0.0
  0
CIRCLE
  5
6DD1
330
1E
100
AcDbEntity
  8
UMCL1
  6
Continuous
100
AcDbCircle
 10
248.5328921497542
 20
329.3437708063332
 30
0.0
 40
6.5
  0
CIRCLE
  5
6DD2
330
1E
100
AcDbEntity
  8
UMCL1
  6
Continuous
100
AcDbCircle
 10
248.5328921497542
 20
329.3437708063332
 30
0.0
 40
5.922632794457276
  0
POLYLINE
  5
6DD3
330
1E
100
AcDbEntity
  8
UMCL1
  6
Continuous
100
AcDb2dPolyline
 66
     1
 10
0.0
 20
0.0
 30
0.0
 70
     1
  0
VERTEX
  5
6DD4
330
6DD3
100
AcDbEntity
  8
UMCL1
  6
Continuous
100
AcDbVertex
100
AcDb2dVertex
 10
250.2649429573223
 20
332.3437708063332
 30
0.0
  0
VERTEX
  5
6DD5
330
6DD3
100
AcDbEntity
  8
UMCL1
  6
Continuous
100
AcDbVertex
100
AcDb2dVertex
 10
251.9969937648923
 20
329.3437708063332
 30
0.0
  0
VERTEX
  5
6DD6
330
6DD3
100
AcDbEntity
  8
UMCL1
  6
Continuous
100
AcDbVertex
100
AcDb2dVertex
 10
250.2649429573223
 20
326.3437708063332
 30
0.0
  0
VERTEX
  5
6DD7
330
6DD3
100
AcDbEntity
  8
UMCL1
  6
Continuous
100
AcDbVertex
100
AcDb2dVertex
 10
246.800841342186
 20
326.3437708063332
 30
0.0
  0
VERTEX
  5
6DD8
330
6DD3
100
AcDbEntity
  8
UMCL1
  6
Continuous
100
AcDbVertex
100
AcDb2dVertex
 10
245.068790534616
 20
329.3437708063332
 30
0.0
  0
VERTEX
  5
6DD9
330
6DD3
100
AcDbEntity
  8
UMCL1
  6
Continuous
100
AcDbVertex
100
AcDb2dVertex
 10
246.800841342186
 20
332.3437708063332
 30
0.0
  0
SEQEND
  5
6DDA
330
6DD3
100
AcDbEntity
  8
UMCL1
  6
Continuous
  0
CIRCLE
  5
6DDB
330
1E
100
AcDbEntity
  8
UMCL1
  6
Continuous
100
AcDbCircle
 10
305.0328921497542
 20
329.3437708063332
 30
0.0
 40
6.5
  0
CIRCLE
  5
6DDC
330
1E
100
AcDbEntity
  8
UMCL1
  6
Continuous
100
AcDbCircle
 10
305.0328921497542
 20
329.3437708063332
 30
0.0
 40
5.922632794457276
  0
POLYLINE
  5
6DDD
330
1E
100
AcDbEntity
  8
UMCL1
  6
Continuous
100
AcDb2dPolyline
 66
     1
 10
0.0
 20
0.0
 30
0.0
 70
     1
  0
VERTEX
  5
6DDE
330
6DDD
100
AcDbEntity
  8
UMCL1
  6
Continuous
100
AcDbVertex
100
AcDb2dVertex
 10
306.7649429573223
 20
332.3437708063332
 30
0.0
  0
VERTEX
  5
6DDF
330
6DDD
100
AcDbEntity
  8
UMCL1
  6
Continuous
100
AcDbVertex
100
AcDb2dVertex
 10
308.4969937648923
 20
329.3437708063332
 30
0.0
  0
VERTEX
  5
6DE0
330
6DDD
100
AcDbEntity
  8
UMCL1
  6
Continuous
100
AcDbVertex
100
AcDb2dVertex
 10
306.7649429573223
 20
326.3437708063332
 30
0.0
  0
VERTEX
  5
6DE1
330
6DDD
100
AcDbEntity
  8
UMCL1
  6
Continuous
100
AcDbVertex
100
AcDb2dVertex
 10
303.300841342186
 20
326.3437708063332
 30
0.0
  0
VERTEX
  5
6DE2
330
6DDD
100
AcDbEntity
  8
UMCL1
  6
Continuous
100
AcDbVertex
100
AcDb2dVertex
 10
301.568790534616
 20
329.3437708063332
 30
0.0
  0
VERTEX
  5
6DE3
330
6DDD
100
AcDbEntity
  8
UMCL1
  6
Continuous
100
AcDbVertex
100
AcDb2dVertex
 10
303.300841342186
 20
332.3437708063332
 30
0.0
  0
SEQEND
  5
6DE4
330
6DDD
100
AcDbEntity
  8
UMCL1
  6
Continuous
  0
LINE
  5
6DE5
330
1E
100
AcDbEntity
  8
CENTER
  6
CENTER
100
AcDbLine
 10
847.8567026892095
 20
329.3437708063332
 30
0.0
 11
864.8567026892095
 21
329.3437708063332
 31
0.0
  0
LINE
  5
6DE6
330
1E
100
AcDbEntity
  8
CENTER
  6
CENTER
100
AcDbLine
 10
904.3567026892095
 20
329.3437708063332
 30
0.0
 11
921.3567026892095
 21
329.3437708063332
 31
0.0
  0
LINE
  5
6DE7
330
1E
100
AcDbEntity
  8
CENTER
  6
CENTER
100
AcDbLine
 10
856.3567026892096
 20
337.8437708063332
 30
0.0
 11
856.3567026892096
 21
320.8437708063332
 31
0.0
  0
LINE
  5
6DE8
330
1E
100
AcDbEntity
  8
CENTER
  6
CENTER
100
AcDbLine
 10
912.8567026892095
 20
337.8437708063332
 30
0.0
 11
912.8567026892095
 21
320.8437708063332
 31
0.0
  0
LINE
  5
6DE9
330
1E
100
AcDbEntity
  8
UMCL1
100
AcDbLine
 10
922.1067026892095
 20
307.5937708063331
 30
0.0
 11
847.1067026892095
 21
307.5937708063331
 31
0.0
  0
LINE
  5
6DEA
330
1E
100
AcDbEntity
  8
UMCL1
100
AcDbLine
 10
922.1067026892095
 20
312.5937708063331
 30
0.0
 11
847.1067026892095
 21
312.5937708063329
 31
0.0
  0
LINE
  5
6DEB
330
1E
100
AcDbEntity
  8
CENTER
  6
CENTER
100
AcDbLine
 10
909.6067026892095
 20
304.8524108650647
 30
0.0
 11
909.6067026892095
 21
314.5937708063331
 31
0.0
  0
LINE
  5
6DEC
330
1E
100
AcDbEntity
  8
UMCL1
  6
HIDDEN
 62
     2
100
AcDbLine
 10
914.1067026892095
 20
307.5937708063331
 30
0.0
 11
914.1067026892095
 21
312.5937708063331
 31
0.0
  0
LINE
  5
6DED
330
1E
100
AcDbEntity
  8
UMCL1
  6
HIDDEN
 62
     2
100
AcDbLine
 10
905.1067026892095
 20
307.5937708063331
 30
0.0
 11
905.1067026892095
 21
312.5937708063331
 31
0.0
  0
ARC
  5
6DEE
330
1E
100
AcDbEntity
  8
UMCL1
100
AcDbCircle
 10
919.1067026892095
 20
339.5937708063331
 30
0.0
 40
3.0
100
AcDbArc
 50
0.0
 51
90.0
  0
ARC
  5
6DEF
330
1E
100
AcDbEntity
  8
UMCL1
100
AcDbCircle
 10
850.1067026892094
 20
339.5937708063331
 30
0.0
 40
3.0
100
AcDbArc
 50
90.0
 51
180.0
  0
LINE
  5
6DF0
330
1E
100
AcDbEntity
  8
CENTER
  6
CENTER
100
AcDbLine
 10
859.6067026892095
 20
304.8240459423311
 30
0.0
 11
859.6067026892095
 21
314.5937708063331
 31
0.0
  0
LINE
  5
6DF1
330
1E
100
AcDbEntity
  8
UMCL1
  6
HIDDEN
 62
     2
100
AcDbLine
 10
864.1067026892095
 20
307.5937708063331
 30
0.0
 11
864.1067026892095
 21
312.5937708063331
 31
0.0
  0
LINE
  5
6DF2
330
1E
100
AcDbEntity
  8
UMCL1
  6
HIDDEN
 62
     2
100
AcDbLine
 10
855.1067026892095
 20
307.5937708063331
 30
0.0
 11
855.1067026892095
 21
312.5937708063329
 31
0.0
  0
CIRCLE
  5
6DF3
330
1E
100
AcDbEntity
  8
UMCL1
  6
Continuous
100
AcDbCircle
 10
856.3567026892096
 20
329.3437708063331
 30
0.0
 40
6.5
  0
CIRCLE
  5
6DF4
330
1E
100
AcDbEntity
  8
UMCL1
  6
Continuous
100
AcDbCircle
 10
856.3567026892096
 20
329.3437708063331
 30
0.0
 40
5.922632794457276
  0
POLYLINE
  5
6DF5
330
1E
100
AcDbEntity
  8
UMCL1
  6
Continuous
100
AcDb2dPolyline
 66
     1
 10
0.0
 20
0.0
 30
0.0
 70
     1
  0
VERTEX
  5
6DF6
330
6DF5
100
AcDbEntity
  8
UMCL1
  6
Continuous
100
AcDbVertex
100
AcDb2dVertex
 10
858.0887534967777
 20
332.3437708063331
 30
0.0
  0
VERTEX
  5
6DF7
330
6DF5
100
AcDbEntity
  8
UMCL1
  6
Continuous
100
AcDbVertex
100
AcDb2dVertex
 10
859.8208043043477
 20
329.3437708063331
 30
0.0
  0
VERTEX
  5
6DF8
330
6DF5
100
AcDbEntity
  8
UMCL1
  6
Continuous
100
AcDbVertex
100
AcDb2dVertex
 10
858.0887534967777
 20
326.3437708063331
 30
0.0
  0
VERTEX
  5
6DF9
330
6DF5
100
AcDbEntity
  8
UMCL1
  6
Continuous
100
AcDbVertex
100
AcDb2dVertex
 10
854.6246518816413
 20
326.3437708063331
 30
0.0
  0
VERTEX
  5
6DFA
330
6DF5
100
AcDbEntity
  8
UMCL1
  6
Continuous
100
AcDbVertex
100
AcDb2dVertex
 10
852.8926010740715
 20
329.3437708063331
 30
0.0
  0
VERTEX
  5
6DFB
330
6DF5
100
AcDbEntity
  8
UMCL1
  6
Continuous
100
AcDbVertex
100
AcDb2dVertex
 10
854.6246518816413
 20
332.3437708063331
 30
0.0
  0
SEQEND
  5
6DFC
330
6DF5
100
AcDbEntity
  8
UMCL1
  6
Continuous
  0
CIRCLE
  5
6DFD
330
1E
100
AcDbEntity
  8
UMCL1
  6
Continuous
100
AcDbCircle
 10
912.8567026892095
 20
329.3437708063331
 30
0.0
 40
6.5
  0
CIRCLE
  5
6DFE
330
1E
100
AcDbEntity
  8
UMCL1
  6
Continuous
100
AcDbCircle
 10
912.8567026892095
 20
329.3437708063331
 30
0.0
 40
5.922632794457276
  0
POLYLINE
  5
6DFF
330
1E
100
AcDbEntity
  8
UMCL1
  6
Continuous
100
AcDb2dPolyline
 66
     1
 10
0.0
 20
0.0
 30
0.0
 70
     1
  0
VERTEX
  5
6E00
330
6DFF
100
AcDbEntity
  8
UMCL1
  6
Continuous
100
AcDbVertex
100
AcDb2dVertex
 10
914.5887534967776
 20
332.3437708063331
 30
0.0
  0
VERTEX
  5
6E01
330
6DFF
100
AcDbEntity
  8
UMCL1
  6
Continuous
100
AcDbVertex
100
AcDb2dVertex
 10
916.3208043043477
 20
329.3437708063331
 30
0.0
  0
VERTEX
  5
6E02
330
6DFF
100
AcDbEntity
  8
UMCL1
  6
Continuous
100
AcDbVertex
100
AcDb2dVertex
 10
914.5887534967776
 20
326.3437708063331
 30
0.0
  0
VERTEX
  5
6E03
330
6DFF
100
AcDbEntity
  8
UMCL1
  6
Continuous
100
AcDbVertex
100
AcDb2dVertex
 10
911.1246518816413
 20
326.3437708063331
 30
0.0
  0
VERTEX
  5
6E04
330
6DFF
100
AcDbEntity
  8
UMCL1
  6
Continuous
100
AcDbVertex
100
AcDb2dVertex
 10
909.3926010740714
 20
329.3437708063331
 30
0.0
  0
VERTEX
  5
6E05
330
6DFF
100
AcDbEntity
  8
UMCL1
  6
Continuous
100
AcDbVertex
100
AcDb2dVertex
 10
911.1246518816413
 20
332.3437708063331
 30
0.0
  0
SEQEND
  5
6E06
330
6DFF
100
AcDbEntity
  8
UMCL1
  6
Continuous
  0
LINE
  5
6E07
330
1E
100
AcDbEntity
  8
UMCL1
100
AcDbLine
 10
864.2067026892092
 20
331.1937708063333
 30
0.0
 11
904.8820571867269
 21
331.1937708063333
 31
0.0
  0
LINE
  5
6E08
330
1E
100
AcDbEntity
  8
UMCL1
100
AcDbLine
 10
858.2067026892094
 20
337.1937708063333
 30
0.0
 11
864.2067026892092
 21
331.1937708063333
 31
0.0
  0
LINE
  5
6E09
330
1E
100
AcDbEntity
  8
UMCL1
100
AcDbLine
 10
858.2067026892094
 20
342.593770806333
 30
0.0
 11
850.1067026892094
 21
342.593770806333
 31
0.0
  0
LINE
  5
6E0A
330
1E
100
AcDbEntity
  8
UMCL1
100
AcDbLine
 10
858.2067026892094
 20
342.593770806333
 30
0.0
 11
858.2067026892094
 21
337.1937708063333
 31
0.0
  0
LINE
  5
6E0B
330
1E
100
AcDbEntity
  8
UMCL1
100
AcDbLine
 10
911.0067026892098
 20
337.1937708063333
 30
0.0
 11
905.0067026892097
 21
331.1937708063333
 31
0.0
  0
LINE
  5
6E0C
330
1E
100
AcDbEntity
  8
UMCL1
100
AcDbLine
 10
911.0067026892098
 20
342.593770806333
 30
0.0
 11
911.0067026892098
 21
337.1937708063333
 31
0.0
  0
LINE
  5
6E0D
330
1E
100
AcDbEntity
  8
UMCL1
100
AcDbLine
 10
919.1067026892095
 20
342.593770806333
 30
0.0
 11
911.0067026892098
 21
342.593770806333
 31
0.0
  0
POLYLINE
  5
6E0E
330
1E
100
AcDbEntity
  8
UMCL1
  6
Continuous
100
AcDb2dPolyline
 66
     1
 10
0.0
 20
0.0
 30
0.0
 70
     1
  0
VERTEX
  5
6E0F
330
6E0E
100
AcDbEntity
  8
UMCL1
  6
Continuous
100
AcDbVertex
100
AcDb2dVertex
 10
860.3567026892095
 20
383.5343697295748
 30
0.0
  0
VERTEX
  5
6E10
330
6E0E
100
AcDbEntity
  8
UMCL1
  6
Continuous
100
AcDbVertex
100
AcDb2dVertex
 10
860.3567026892095
 20
388.1531718830918
 30
0.0
  0
VERTEX
  5
6E11
330
6E0E
100
AcDbEntity
  8
UMCL1
  6
Continuous
100
AcDbVertex
100
AcDb2dVertex
 10
856.3567026892096
 20
390.4625729598503
 30
0.0
  0
VERTEX
  5
6E12
330
6E0E
100
AcDbEntity
  8
UMCL1
  6
Continuous
100
AcDbVertex
100
AcDb2dVertex
 10
852.3567026892095
 20
388.1531718830918
 30
0.0
  0
VERTEX
  5
6E13
330
6E0E
100
AcDbEntity
  8
UMCL1
  6
Continuous
100
AcDbVertex
100
AcDb2dVertex
 10
852.3567026892095
 20
383.5343697295748
 30
0.0
  0
VERTEX
  5
6E14
330
6E0E
100
AcDbEntity
  8
UMCL1
  6
Continuous
100
AcDbVertex
100
AcDb2dVertex
 10
856.3567026892096
 20
381.2249686528163
 30
0.0
  0
SEQEND
  5
6E15
330
6E0E
100
AcDbEntity
  8
UMCL1
  6
Continuous
  0
CIRCLE
  5
6E16
330
1E
100
AcDbEntity
  8
UMCL1
  6
Continuous
100
AcDbCircle
 10
856.3567026892096
 20
385.8437708063333
 30
0.0
 40
3.399999999999999
  0
ARC
  5
6E17
330
1E
100
AcDbEntity
  8
UMCL1
  6
Continuous
 62
     2
100
AcDbCircle
 10
856.3567026892096
 20
385.8437708063333
 30
0.0
 40
4.0
100
AcDbArc
 50
79.7168922869492
 51
8.413254743410176
  0
CIRCLE
  5
6E18
330
1E
100
AcDbEntity
  8
UMCL1
100
AcDbCircle
 10
856.3567026892096
 20
385.8437708063333
 30
0.0
 40
5.25
  0
POLYLINE
  5
6E19
330
1E
100
AcDbEntity
  8
UMCL1
  6
Continuous
100
AcDb2dPolyline
 66
     1
 10
0.0
 20
0.0
 30
0.0
 70
     1
  0
VERTEX
  5
6E1A
330
6E19
100
AcDbEntity
  8
UMCL1
  6
Continuous
100
AcDbVertex
100
AcDb2dVertex
 10
916.8567026892095
 20
383.5343697295748
 30
0.0
  0
VERTEX
  5
6E1B
330
6E19
100
AcDbEntity
  8
UMCL1
  6
Continuous
100
AcDbVertex
100
AcDb2dVertex
 10
916.8567026892095
 20
388.1531718830918
 30
0.0
  0
VERTEX
  5
6E1C
330
6E19
100
AcDbEntity
  8
UMCL1
  6
Continuous
100
AcDbVertex
100
AcDb2dVertex
 10
912.8567026892095
 20
390.4625729598503
 30
0.0
  0
VERTEX
  5
6E1D
330
6E19
100
AcDbEntity
  8
UMCL1
  6
Continuous
100
AcDbVertex
100
AcDb2dVertex
 10
908.8567026892095
 20
388.1531718830918
 30
0.0
  0
VERTEX
  5
6E1E
330
6E19
100
AcDbEntity
  8
UMCL1
  6
Continuous
100
AcDbVertex
100
AcDb2dVertex
 10
908.8567026892095
 20
383.5343697295748
 30
0.0
  0
VERTEX
  5
6E1F
330
6E19
100
AcDbEntity
  8
UMCL1
  6
Continuous
100
AcDbVertex
100
AcDb2dVertex
 10
912.8567026892095
 20
381.2249686528163
 30
0.0
  0
SEQEND
  5
6E20
330
6E19
100
AcDbEntity
  8
UMCL1
  6
Continuous
  0
CIRCLE
  5
6E21
330
1E
100
AcDbEntity
  8
UMCL1
  6
Continuous
100
AcDbCircle
 10
912.8567026892095
 20
385.8437708063333
 30
0.0
 40
3.399999999999999
  0
ARC
  5
6E22
330
1E
100
AcDbEntity
  8
UMCL1
  6
Continuous
 62
     2
100
AcDbCircle
 10
912.8567026892095
 20
385.8437708063333
 30
0.0
 40
4.0
100
AcDbArc
 50
79.7168922869492
 51
8.413254743410176
  0
CIRCLE
  5
6E23
330
1E
100
AcDbEntity
  8
UMCL1
100
AcDbCircle
 10
912.8567026892095
 20
385.8437708063333
 30
0.0
 40
5.25
  0
POLYLINE
  5
6E24
330
1E
100
AcDbEntity
  8
UMCL1
  6
Continuous
100
AcDb2dPolyline
 66
     1
 10
0.0
 20
0.0
 30
0.0
 70
     1
  0
VERTEX
  5
6E25
330
6E24
100
AcDbEntity
  8
UMCL1
  6
Continuous
100
AcDbVertex
100
AcDb2dVertex
 10
252.5328921497542
 20
383.5343697295748
 30
0.0
  0
VERTEX
  5
6E26
330
6E24
100
AcDbEntity
  8
UMCL1
  6
Continuous
100
AcDbVertex
100
AcDb2dVertex
 10
252.5328921497542
 20
388.1531718830918
 30
0.0
  0
VERTEX
  5
6E27
330
6E24
100
AcDbEntity
  8
UMCL1
  6
Continuous
100
AcDbVertex
100
AcDb2dVertex
 10
248.5328921497542
 20
390.4625729598503
 30
0.0
  0
VERTEX
  5
6E28
330
6E24
100
AcDbEntity
  8
UMCL1
  6
Continuous
100
AcDbVertex
100
AcDb2dVertex
 10
244.5328921497542
 20
388.1531718830918
 30
0.0
  0
VERTEX
  5
6E29
330
6E24
100
AcDbEntity
  8
UMCL1
  6
Continuous
100
AcDbVertex
100
AcDb2dVertex
 10
244.5328921497542
 20
383.5343697295748
 30
0.0
  0
VERTEX
  5
6E2A
330
6E24
100
AcDbEntity
  8
UMCL1
  6
Continuous
100
AcDbVertex
100
AcDb2dVertex
 10
248.5328921497542
 20
381.2249686528163
 30
0.0
  0
SEQEND
  5
6E2B
330
6E24
100
AcDbEntity
  8
UMCL1
  6
Continuous
  0
CIRCLE
  5
6E2C
330
1E
100
AcDbEntity
  8
UMCL1
  6
Continuous
100
AcDbCircle
 10
248.5328921497542
 20
385.8437708063333
 30
0.0
 40
3.399999999999999
  0
ARC
  5
6E2D
330
1E
100
AcDbEntity
  8
UMCL1
  6
Continuous
 62
     2
100
AcDbCircle
 10
248.5328921497542
 20
385.8437708063333
 30
0.0
 40
4.0
100
AcDbArc
 50
79.7168922869492
 51
8.413254743410176
  0
CIRCLE
  5
6E2E
330
1E
100
AcDbEntity
  8
UMCL1
100
AcDbCircle
 10
248.5328921497542
 20
385.8437708063333
 30
0.0
 40
5.25
  0
POLYLINE
  5
6E2F
330
1E
100
AcDbEntity
  8
UMCL1
  6
Continuous
100
AcDb2dPolyline
 66
     1
 10
0.0
 20
0.0
 30
0.0
 70
     1
  0
VERTEX
  5
6E30
330
6E2F
100
AcDbEntity
  8
UMCL1
  6
Continuous
100
AcDbVertex
100
AcDb2dVertex
 10
309.0328921497542
 20
383.5343697295748
 30
0.0
  0
VERTEX
  5
6E31
330
6E2F
100
AcDbEntity
  8
UMCL1
  6
Continuous
100
AcDbVertex
100
AcDb2dVertex
 10
309.0328921497542
 20
388.1531718830918
 30
0.0
  0
VERTEX
  5
6E32
330
6E2F
100
AcDbEntity
  8
UMCL1
  6
Continuous
100
AcDbVertex
100
AcDb2dVertex
 10
305.0328921497542
 20
390.4625729598503
 30
0.0
  0
VERTEX
  5
6E33
330
6E2F
100
AcDbEntity
  8
UMCL1
  6
Continuous
100
AcDbVertex
100
AcDb2dVertex
 10
301.0328921497542
 20
388.1531718830918
 30
0.0
  0
VERTEX
  5
6E34
330
6E2F
100
AcDbEntity
  8
UMCL1
  6
Continuous
100
AcDbVertex
100
AcDb2dVertex
 10
301.0328921497542
 20
383.5343697295748
 30
0.0
  0
VERTEX
  5
6E35
330
6E2F
100
AcDbEntity
  8
UMCL1
  6
Continuous
100
AcDbVertex
100
AcDb2dVertex
 10
305.0328921497542
 20
381.2249686528163
 30
0.0
  0
SEQEND
  5
6E36
330
6E2F
100
AcDbEntity
  8
UMCL1
  6
Continuous
  0
CIRCLE
  5
6E37
330
1E
100
AcDbEntity
  8
UMCL1
  6
Continuous
100
AcDbCircle
 10
305.0328921497542
 20
385.8437708063333
 30
0.0
 40
3.399999999999999
  0
ARC
  5
6E38
330
1E
100
AcDbEntity
  8
UMCL1
  6
Continuous
 62
     2
100
AcDbCircle
 10
305.0328921497542
 20
385.8437708063333
 30
0.0
 40
4.0
100
AcDbArc
 50
79.7168922869492
 51
8.413254743410176
  0
CIRCLE
  5
6E39
330
1E
100
AcDbEntity
  8
UMCL1
100
AcDbCircle
 10
305.0328921497542
 20
385.8437708063333
 30
0.0
 40
5.25
  0
ARC
  5
6E3A
330
1E
100
AcDbEntity
  8
UMCL1
100
AcDbCircle
 10
248.7828921497542
 20
385.5937708063334
 30
0.0
 40
9.5
100
AcDbArc
 50
90.0
 51
180.0
  0
ARC
  5
6E3B
330
1E
100
AcDbEntity
  8
UMCL1
100
AcDbCircle
 10
304.7828921497542
 20
385.5937708063334
 30
0.0
 40
9.5
100
AcDbArc
 50
0.0
 51
90.0
  0
LINE
  5
6E3C
330
1E
100
AcDbEntity
  8
UMCL1
100
AcDbLine
 10
239.2828921497542
 20
385.5937708063334
 30
0.0
 11
239.2828921497542
 21
307.5937708063332
 31
0.0
  0
LINE
  5
6E3D
330
1E
100
AcDbEntity
  8
UMCL1
100
AcDbLine
 10
248.7828921497542
 20
395.0937708063334
 30
0.0
 11
304.7828921497542
 21
395.0937708063333
 31
0.0
  0
LINE
  5
6E3E
330
1E
100
AcDbEntity
  8
UMCL1
100
AcDbLine
 10
314.2828921497542
 20
385.5937708063334
 30
0.0
 11
314.2828921497542
 21
307.5937708063332
 31
0.0
  0
CIRCLE
  5
6E3F
330
1E
100
AcDbEntity
  8
UMCL1
  6
Continuous
100
AcDbCircle
 10
407.2849692404388
 20
503.6960855730653
 30
0.0
 40
9.75
  0
LINE
  5
6E40
330
1E
100
AcDbEntity
  8
UMCL1
100
AcDbLine
 10
417.0349692404388
 20
430.5937708063334
 30
0.0
 11
397.5349692404391
 21
430.5937708063332
 31
0.0
  0
LINE
  5
6E41
330
1E
100
AcDbEntity
  8
UMCL1
100
AcDbLine
 10
417.0349692404388
 20
425.0937708063333
 30
0.0
 11
417.0349692404388
 21
430.5937708063334
 31
0.0
  0
LINE
  5
6E42
330
1E
100
AcDbEntity
  8
UMCL1
100
AcDbLine
 10
397.5349692404391
 20
430.5937708063332
 30
0.0
 11
397.5349692404391
 21
425.0937708063332
 31
0.0
  0
LINE
  5
6E43
330
1E
100
AcDbEntity
  8
UMCL1
100
AcDbLine
 10
286.5328921497543
 20
430.5937708063335
 30
0.0
 11
267.0328921497545
 21
430.5937708063332
 31
0.0
  0
LINE
  5
6E44
330
1E
100
AcDbEntity
  8
UMCL1
100
AcDbLine
 10
286.5328921497543
 20
425.0937708063335
 30
0.0
 11
286.5328921497543
 21
430.5937708063335
 31
0.0
  0
LINE
  5
6E45
330
1E
100
AcDbEntity
  8
UMCL1
100
AcDbLine
 10
267.0328921497545
 20
430.5937708063332
 30
0.0
 11
267.0328921497545
 21
425.0937708063332
 31
0.0
  0
LINE
  5
6E46
330
1E
100
AcDbEntity
  8
UMCL1
100
AcDbLine
 10
348.2849692404388
 20
312.5937708063334
 30
0.0
 11
348.2849692404388
 21
307.5937708063334
 31
0.0
  0
LINE
  5
6E47
330
1E
100
AcDbEntity
  8
UMCL1
100
AcDbLine
 10
385.2849692404388
 20
342.5937708063334
 30
0.0
 11
390.2849692404388
 21
342.5937708063334
 31
0.0
  0
ARC
  5
6E48
330
1E
100
AcDbEntity
  8
UMCL1
100
AcDbCircle
 10
383.2849692404388
 20
314.5937708063334
 30
0.0
 40
2.0
100
AcDbArc
 50
270.0
 51
0.0
  0
ARC
  5
6E49
330
1E
100
AcDbEntity
  8
UMCL1
100
AcDbCircle
 10
382.2849692404389
 20
315.5937708063334
 30
0.0
 40
8.0
100
AcDbArc
 50
270.0
 51
0.0
  0
LINE
  5
6E4A
330
1E
100
AcDbEntity
  8
UMCL1
100
AcDbLine
 10
348.2849692404388
 20
307.5937708063334
 30
0.0
 11
382.2849692404389
 21
307.5937708063334
 31
0.0
  0
LINE
  5
6E4B
330
1E
100
AcDbEntity
  8
UMCL1
100
AcDbLine
 10
348.2849692404388
 20
312.5937708063334
 30
0.0
 11
383.2849692404388
 21
312.5937708063334
 31
0.0
  0
LINE
  5
6E4C
330
1E
100
AcDbEntity
  8
CENTER
  6
CENTER
100
AcDbLine
 10
358.2849692404388
 20
305.5937708063334
 30
0.0
 11
358.2849692404388
 21
314.5937708063334
 31
0.0
  0
LINE
  5
6E4D
330
1E
100
AcDbEntity
  8
UMCL1
  6
HIDDEN
 62
     2
100
AcDbLine
 10
362.7849692404388
 20
307.5937708063334
 30
0.0
 11
362.7849692404388
 21
312.5937708063334
 31
0.0
  0
LINE
  5
6E4E
330
1E
100
AcDbEntity
  8
UMCL1
  6
HIDDEN
 62
     2
100
AcDbLine
 10
353.7849692404388
 20
307.5937708063334
 30
0.0
 11
353.7849692404388
 21
312.5937708063334
 31
0.0
  0
LINE
  5
6E4F
330
1E
100
AcDbEntity
  8
UMCL1
  6
Continuous
100
AcDbLine
 10
375.2849692404388
 20
335.2664036007914
 30
0.0
 11
375.7849692404388
 21
335.8437708063334
 31
0.0
  0
LINE
  5
6E50
330
1E
100
AcDbEntity
  8
UMCL1
  6
Continuous
100
AcDbLine
 10
383.2849692404388
 20
337.0437708063323
 30
0.0
 11
385.2849692404388
 21
337.0437708063323
 31
0.0
  0
LINE
  5
6E51
330
1E
100
AcDbEntity
  8
UMCL1
  6
Continuous
100
AcDbLine
 10
375.7849692404388
 20
335.8437708063334
 30
0.0
 11
383.2849692404388
 21
335.8437708063334
 31
0.0
  0
LINE
  5
6E52
330
1E
100
AcDbEntity
  8
UMCL1
  6
Continuous
100
AcDbLine
 10
375.2849692404388
 20
323.4211380118754
 30
0.0
 11
375.7849692404388
 21
322.8437708063334
 31
0.0
  0
LINE
  5
6E53
330
1E
100
AcDbEntity
  8
UMCL1
  6
Continuous
100
AcDbLine
 10
385.2849692404388
 20
330.0104374729995
 30
0.0
 11
383.2849692404388
 21
328.6771041396673
 31
0.0
  0
LINE
  5
6E54
330
1E
100
AcDbEntity
  8
UMCL1
  6
Continuous
100
AcDbLine
 10
385.2849692404388
 20
321.6437708063327
 30
0.0
 11
383.2849692404388
 21
321.6437708063327
 31
0.0
  0
LINE
  5
6E55
330
1E
100
AcDbEntity
  8
UMCL1
  6
Continuous
100
AcDbLine
 10
375.7849692404388
 20
322.8437708063334
 30
0.0
 11
383.2849692404388
 21
322.8437708063334
 31
0.0
  0
LINE
  5
6E56
330
1E
100
AcDbEntity
  8
UMCL1
  6
Continuous
100
AcDbLine
 10
375.7849692404388
 20
322.8437708063334
 30
0.0
 11
375.7849692404388
 21
335.8437708063334
 31
0.0
  0
LINE
  5
6E57
330
1E
100
AcDbEntity
  8
UMCL1
  6
Continuous
100
AcDbLine
 10
375.2849692404388
 20
335.2664036007914
 30
0.0
 11
375.2849692404388
 21
323.4211380118754
 31
0.0
  0
LINE
  5
6E58
330
1E
100
AcDbEntity
  8
UMCL1
  6
Continuous
100
AcDbLine
 10
383.2849692404388
 20
321.6437708063327
 30
0.0
 11
383.2849692404388
 21
337.0437708063323
 31
0.0
  0
LINE
  5
6E59
330
1E
100
AcDbEntity
  8
CENTER
  6
CENTER
100
AcDbLine
 10
372.2849692404389
 20
329.3437708063334
 30
0.0
 11
436.407794162497
 21
329.3437708063334
 31
0.0
  0
LINE
  5
6E5A
330
1E
100
AcDbEntity
  8
UMCL1
100
AcDbLine
 10
385.2849692404388
 20
379.0937708063334
 30
0.0
 11
385.2849692404388
 21
314.5937708063334
 31
0.0
  0
LINE
  5
6E5B
330
1E
100
AcDbEntity
  8
UMCL1
100
AcDbLine
 10
701.2849692404388
 20
312.5937708063333
 30
0.0
 11
666.2849692404388
 21
312.5937708063333
 31
0.0
  0
LINE
  5
6E5C
330
1E
100
AcDbEntity
  8
UMCL1
100
AcDbLine
 10
701.2849692404388
 20
307.5937708063333
 30
0.0
 11
667.2849692404388
 21
307.5937708063333
 31
0.0
  0
LINE
  5
6E5D
330
1E
100
AcDbEntity
  8
UMCL1
100
AcDbLine
 10
664.2849692404388
 20
342.5937708063333
 30
0.0
 11
664.2849692404388
 21
314.5937708063333
 31
0.0
  0
ARC
  5
6E5E
330
1E
100
AcDbEntity
  8
UMCL1
100
AcDbCircle
 10
667.2849692404388
 20
315.5937708063333
 30
0.0
 40
8.0
100
AcDbArc
 50
180.0
 51
270.0
  0
ARC
  5
6E5F
330
1E
100
AcDbEntity
  8
UMCL1
100
AcDbCircle
 10
666.2849692404388
 20
314.5937708063333
 30
0.0
 40
2.0
100
AcDbArc
 50
180.0
 51
270.0
  0
LINE
  5
6E60
330
1E
100
AcDbEntity
  8
CENTER
  6
CENTER
100
AcDbLine
 10
691.2849692404388
 20
305.5937708063334
 30
0.0
 11
691.2849692404388
 21
315.5937708063333
 31
0.0
  0
LINE
  5
6E61
330
1E
100
AcDbEntity
  8
UMCL1
  6
Continuous
100
AcDbLine
 10
674.2849692404388
 20
335.2664036007912
 30
0.0
 11
673.7849692404388
 21
335.8437708063333
 31
0.0
  0
LINE
  5
6E62
330
1E
100
AcDbEntity
  8
UMCL1
  6
Continuous
100
AcDbLine
 10
666.2849692404388
 20
337.0437708063323
 30
0.0
 11
664.2849692404388
 21
337.0437708063323
 31
0.0
  0
LINE
  5
6E63
330
1E
100
AcDbEntity
  8
UMCL1
  6
Continuous
100
AcDbLine
 10
673.7849692404388
 20
335.8437708063333
 30
0.0
 11
666.2849692404388
 21
335.8437708063333
 31
0.0
  0
LINE
  5
6E64
330
1E
100
AcDbEntity
  8
UMCL1
  6
Continuous
100
AcDbLine
 10
674.2849692404388
 20
323.4211380118753
 30
0.0
 11
673.7849692404388
 21
322.8437708063333
 31
0.0
  0
LINE
  5
6E65
330
1E
100
AcDbEntity
  8
UMCL1
  6
Continuous
100
AcDbLine
 10
664.2849692404388
 20
330.0104374729995
 30
0.0
 11
666.2849692404388
 21
328.6771041396673
 31
0.0
  0
LINE
  5
6E66
330
1E
100
AcDbEntity
  8
UMCL1
  6
Continuous
100
AcDbLine
 10
664.2849692404388
 20
321.6437708063327
 30
0.0
 11
666.2849692404388
 21
321.6437708063327
 31
0.0
  0
LINE
  5
6E67
330
1E
100
AcDbEntity
  8
UMCL1
  6
Continuous
100
AcDbLine
 10
673.7849692404388
 20
322.8437708063333
 30
0.0
 11
666.2849692404388
 21
322.8437708063333
 31
0.0
  0
LINE
  5
6E68
330
1E
100
AcDbEntity
  8
UMCL1
  6
Continuous
100
AcDbLine
 10
673.7849692404388
 20
322.8437708063333
 30
0.0
 11
673.7849692404388
 21
335.8437708063333
 31
0.0
  0
LINE
  5
6E69
330
1E
100
AcDbEntity
  8
UMCL1
  6
Continuous
100
AcDbLine
 10
674.2849692404388
 20
335.2664036007912
 30
0.0
 11
674.2849692404388
 21
323.4211380118753
 31
0.0
  0
LINE
  5
6E6A
330
1E
100
AcDbEntity
  8
UMCL1
  6
Continuous
100
AcDbLine
 10
666.2849692404388
 20
321.6437708063327
 30
0.0
 11
666.2849692404388
 21
337.0437708063323
 31
0.0
  0
LINE
  5
6E6B
330
1E
100
AcDbEntity
  8
UMCL1
100
AcDbLine
 10
664.2849692404388
 20
342.5937708063333
 30
0.0
 11
659.2849692404388
 21
342.5937708063333
 31
0.0
  0
LINE
  5
6E6C
330
1E
100
AcDbEntity
  8
UMCL1
100
AcDbLine
 10
701.2849692404388
 20
312.5937708063333
 30
0.0
 11
701.2849692404388
 21
307.5937708063333
 31
0.0
  0
LINE
  5
6E6D
330
1E
100
AcDbEntity
  8
UMCL1
  6
HIDDEN
 62
     2
100
AcDbLine
 10
695.7849692404388
 20
307.5937708063334
 30
0.0
 11
695.7849692404388
 21
312.5937708063333
 31
0.0
  0
LINE
  5
6E6E
330
1E
100
AcDbEntity
  8
UMCL1
  6
HIDDEN
 62
     2
100
AcDbLine
 10
686.7849692404388
 20
307.5937708063334
 30
0.0
 11
686.7849692404388
 21
312.5937708063333
 31
0.0
  0
LINE
  5
6E6F
330
1E
100
AcDbEntity
  8
UMCL1
100
AcDbLine
 10
669.2849692404386
 20
382.9937708063333
 30
0.0
 11
669.2849692404386
 21
335.8437708063333
 31
0.0
  0
LINE
  5
6E70
330
1E
100
AcDbEntity
  8
UMCL1
  6
Continuous
100
AcDbLine
 10
383.2849692404387
 20
524.2460855730645
 30
0.0
 11
383.2849692404387
 21
539.6460855730642
 31
0.0
  0
LINE
  5
6E71
330
1E
100
AcDbEntity
  8
UMCL1
  6
Continuous
100
AcDbLine
 10
375.2849692404387
 20
537.8687183675232
 30
0.0
 11
375.2849692404387
 21
526.0234527786073
 31
0.0
  0
LINE
  5
6E72
330
1E
100
AcDbEntity
  8
UMCL1
  6
Continuous
100
AcDbLine
 10
375.7849692404387
 20
525.4460855730652
 30
0.0
 11
375.7849692404387
 21
538.4460855730652
 31
0.0
  0
LINE
  5
6E73
330
1E
100
AcDbEntity
  8
UMCL1
  6
Continuous
100
AcDbLine
 10
375.7849692404387
 20
525.4460855730652
 30
0.0
 11
383.2849692404387
 21
525.4460855730652
 31
0.0
  0
LINE
  5
6E74
330
1E
100
AcDbEntity
  8
UMCL1
  6
Continuous
100
AcDbLine
 10
385.2849692404388
 20
524.2460855730645
 30
0.0
 11
383.2849692404387
 21
524.2460855730645
 31
0.0
  0
LINE
  5
6E75
330
1E
100
AcDbEntity
  8
UMCL1
  6
Continuous
100
AcDbLine
 10
385.2849692404388
 20
532.6127522397313
 30
0.0
 11
383.2849692404387
 21
531.2794189063992
 31
0.0
  0
LINE
  5
6E76
330
1E
100
AcDbEntity
  8
UMCL1
  6
Continuous
100
AcDbLine
 10
375.2849692404387
 20
526.0234527786073
 30
0.0
 11
375.7849692404387
 21
525.4460855730652
 31
0.0
  0
LINE
  5
6E77
330
1E
100
AcDbEntity
  8
UMCL1
  6
Continuous
100
AcDbLine
 10
375.7849692404387
 20
538.4460855730652
 30
0.0
 11
383.2849692404387
 21
538.4460855730652
 31
0.0
  0
LINE
  5
6E78
330
1E
100
AcDbEntity
  8
UMCL1
  6
Continuous
100
AcDbLine
 10
383.2849692404387
 20
539.6460855730642
 30
0.0
 11
385.2849692404388
 21
539.6460855730642
 31
0.0
  0
LINE
  5
6E79
330
1E
100
AcDbEntity
  8
UMCL1
  6
Continuous
100
AcDbLine
 10
375.2849692404387
 20
537.8687183675232
 30
0.0
 11
375.7849692404387
 21
538.4460855730652
 31
0.0
  0
LINE
  5
6E7A
330
1E
100
AcDbEntity
  8
UMCL1
  6
Continuous
100
AcDbLine
 10
383.2849692404387
 20
467.7460855730645
 30
0.0
 11
383.2849692404387
 21
483.1460855730641
 31
0.0
  0
LINE
  5
6E7B
330
1E
100
AcDbEntity
  8
UMCL1
  6
Continuous
100
AcDbLine
 10
375.2849692404387
 20
481.3687183675232
 30
0.0
 11
375.2849692404387
 21
469.5234527786072
 31
0.0
  0
LINE
  5
6E7C
330
1E
100
AcDbEntity
  8
UMCL1
  6
Continuous
100
AcDbLine
 10
375.7849692404387
 20
468.9460855730652
 30
0.0
 11
375.7849692404387
 21
481.9460855730652
 31
0.0
  0
LINE
  5
6E7D
330
1E
100
AcDbEntity
  8
UMCL1
  6
Continuous
100
AcDbLine
 10
375.7849692404387
 20
468.9460855730652
 30
0.0
 11
383.2849692404387
 21
468.9460855730652
 31
0.0
  0
LINE
  5
6E7E
330
1E
100
AcDbEntity
  8
UMCL1
  6
Continuous
100
AcDbLine
 10
385.2849692404388
 20
467.7460855730645
 30
0.0
 11
383.2849692404387
 21
467.7460855730645
 31
0.0
  0
LINE
  5
6E7F
330
1E
100
AcDbEntity
  8
UMCL1
  6
Continuous
100
AcDbLine
 10
385.2849692404388
 20
476.1127522397313
 30
0.0
 11
383.2849692404387
 21
474.7794189063991
 31
0.0
  0
LINE
  5
6E80
330
1E
100
AcDbEntity
  8
UMCL1
  6
Continuous
100
AcDbLine
 10
375.2849692404387
 20
469.5234527786072
 30
0.0
 11
375.7849692404387
 21
468.9460855730652
 31
0.0
  0
LINE
  5
6E81
330
1E
100
AcDbEntity
  8
UMCL1
  6
Continuous
100
AcDbLine
 10
375.7849692404387
 20
481.9460855730652
 30
0.0
 11
383.2849692404387
 21
481.9460855730652
 31
0.0
  0
LINE
  5
6E82
330
1E
100
AcDbEntity
  8
UMCL1
  6
Continuous
100
AcDbLine
 10
383.2849692404387
 20
483.1460855730641
 30
0.0
 11
385.2849692404388
 21
483.1460855730641
 31
0.0
  0
LINE
  5
6E83
330
1E
100
AcDbEntity
  8
UMCL1
  6
Continuous
100
AcDbLine
 10
375.2849692404387
 20
481.3687183675232
 30
0.0
 11
375.7849692404387
 21
481.9460855730652
 31
0.0
  0
ARC
  5
6E84
330
1E
100
AcDbEntity
  8
UMCL1
100
AcDbCircle
 10
351.2849692404389
 20
538.1960855730652
 30
0.0
 40
3.0
100
AcDbArc
 50
90.0
 51
180.0
  0
LINE
  5
6E85
330
1E
100
AcDbEntity
  8
UMCL1
100
AcDbLine
 10
390.2849692404387
 20
541.1960855730653
 30
0.0
 11
351.2849692404389
 21
541.1960855730653
 31
0.0
  0
CIRCLE
  5
6E86
330
1E
100
AcDbEntity
  8
UMCL1
100
AcDbCircle
 10
358.2849692404388
 20
528.6960855730653
 30
0.0
 40
4.5
  0
ARC
  5
6E87
330
1E
100
AcDbEntity
  8
UMCL1
100
AcDbCircle
 10
351.2849692404389
 20
469.1960855730652
 30
0.0
 40
3.0
100
AcDbArc
 50
180.0
 51
270.0
  0
LINE
  5
6E88
330
1E
100
AcDbEntity
  8
UMCL1
100
AcDbLine
 10
390.2849692404387
 20
466.1960855730653
 30
0.0
 11
351.2849692404389
 21
466.1960855730653
 31
0.0
  0
LINE
  5
6E89
330
1E
100
AcDbEntity
  8
UMCL1
100
AcDbLine
 10
348.2849692404388
 20
469.1960855730652
 30
0.0
 11
348.2849692404388
 21
538.1960855730652
 31
0.0
  0
LINE
  5
6E8A
330
1E
100
AcDbEntity
  8
UMCL1
100
AcDbLine
 10
385.2849692404388
 20
466.1960855730653
 30
0.0
 11
385.2849692404388
 21
541.1960855730653
 31
0.0
  0
LINE
  5
6E8B
330
1E
100
AcDbEntity
  8
CENTER
  6
CENTER
100
AcDbLine
 10
350.7849692404388
 20
528.6960855730653
 30
0.0
 11
365.7849692404389
 21
528.6960855730653
 31
0.0
  0
LINE
  5
6E8C
330
1E
100
AcDbEntity
  8
CENTER
  6
CENTER
100
AcDbLine
 10
358.2849692404388
 20
521.1960855730652
 30
0.0
 11
358.2849692404388
 21
536.1960855730652
 31
0.0
  0
LINE
  5
6E8D
330
1E
100
AcDbEntity
  8
CENTER
  6
CENTER
100
AcDbLine
 10
350.7849692404388
 20
478.6960855730653
 30
0.0
 11
365.7849692404389
 21
478.6960855730653
 31
0.0
  0
CIRCLE
  5
6E8E
330
1E
100
AcDbEntity
  8
UMCL1
100
AcDbCircle
 10
358.2849692404388
 20
478.6960855730653
 30
0.0
 40
4.5
  0
LINE
  5
6E8F
330
1E
100
AcDbEntity
  8
CENTER
  6
CENTER
100
AcDbLine
 10
358.2849692404388
 20
471.1960855730652
 30
0.0
 11
358.2849692404388
 21
486.1960855730652
 31
0.0
  0
ARC
  5
6E90
330
1E
100
AcDbEntity
  8
UMCL1
100
AcDbCircle
 10
698.2849692404389
 20
469.196085573065
 30
0.0
 40
3.0
100
AcDbArc
 50
270.0
 51
0.0
  0
CIRCLE
  5
6E91
330
1E
100
AcDbEntity
  8
UMCL1
100
AcDbCircle
 10
691.2849692404389
 20
478.696085573065
 30
0.0
 40
4.5
  0
CIRCLE
  5
6E92
330
1E
100
AcDbEntity
  8
UMCL1
100
AcDbCircle
 10
691.2849692404389
 20
528.696085573065
 30
0.0
 40
4.5
  0
ARC
  5
6E93
330
1E
100
AcDbEntity
  8
UMCL1
100
AcDbCircle
 10
698.2849692404389
 20
538.196085573065
 30
0.0
 40
3.0
100
AcDbArc
 50
0.0
 51
90.0
  0
LINE
  5
6E94
330
1E
100
AcDbEntity
  8
UMCL1
  6
Continuous
100
AcDbLine
 10
674.2849692404389
 20
481.368718367523
 30
0.0
 11
673.7849692404389
 21
481.946085573065
 31
0.0
  0
LINE
  5
6E95
330
1E
100
AcDbEntity
  8
UMCL1
  6
Continuous
100
AcDbLine
 10
674.2849692404389
 20
469.523452778607
 30
0.0
 11
673.7849692404389
 21
468.946085573065
 31
0.0
  0
LINE
  5
6E96
330
1E
100
AcDbEntity
  8
UMCL1
  6
Continuous
100
AcDbLine
 10
664.2849692404389
 20
476.1127522397311
 30
0.0
 11
666.2849692404389
 21
474.779418906399
 31
0.0
  0
LINE
  5
6E97
330
1E
100
AcDbEntity
  8
UMCL1
  6
Continuous
100
AcDbLine
 10
664.2849692404389
 20
467.7460855730642
 30
0.0
 11
666.2849692404389
 21
467.7460855730642
 31
0.0
  0
LINE
  5
6E98
330
1E
100
AcDbEntity
  8
UMCL1
  6
Continuous
100
AcDbLine
 10
673.7849692404389
 20
468.946085573065
 30
0.0
 11
666.2849692404389
 21
468.946085573065
 31
0.0
  0
LINE
  5
6E99
330
1E
100
AcDbEntity
  8
UMCL1
  6
Continuous
100
AcDbLine
 10
673.7849692404389
 20
468.946085573065
 30
0.0
 11
673.7849692404389
 21
481.946085573065
 31
0.0
  0
LINE
  5
6E9A
330
1E
100
AcDbEntity
  8
UMCL1
  6
Continuous
100
AcDbLine
 10
674.2849692404389
 20
481.368718367523
 30
0.0
 11
674.2849692404389
 21
469.523452778607
 31
0.0
  0
LINE
  5
6E9B
330
1E
100
AcDbEntity
  8
UMCL1
  6
Continuous
100
AcDbLine
 10
674.2849692404389
 20
537.8687183675229
 30
0.0
 11
673.7849692404389
 21
538.446085573065
 31
0.0
  0
LINE
  5
6E9C
330
1E
100
AcDbEntity
  8
UMCL1
  6
Continuous
100
AcDbLine
 10
666.2849692404389
 20
539.6460855730639
 30
0.0
 11
664.2849692404389
 21
539.6460855730639
 31
0.0
  0
LINE
  5
6E9D
330
1E
100
AcDbEntity
  8
UMCL1
  6
Continuous
100
AcDbLine
 10
673.7849692404389
 20
538.446085573065
 30
0.0
 11
666.2849692404389
 21
538.446085573065
 31
0.0
  0
LINE
  5
6E9E
330
1E
100
AcDbEntity
  8
UMCL1
  6
Continuous
100
AcDbLine
 10
674.2849692404389
 20
526.023452778607
 30
0.0
 11
673.7849692404389
 21
525.446085573065
 31
0.0
  0
LINE
  5
6E9F
330
1E
100
AcDbEntity
  8
UMCL1
  6
Continuous
100
AcDbLine
 10
664.2849692404389
 20
532.612752239731
 30
0.0
 11
666.2849692404389
 21
531.2794189063989
 31
0.0
  0
LINE
  5
6EA0
330
1E
100
AcDbEntity
  8
UMCL1
  6
Continuous
100
AcDbLine
 10
673.7849692404389
 20
525.446085573065
 30
0.0
 11
673.7849692404389
 21
538.446085573065
 31
0.0
  0
LINE
  5
6EA1
330
1E
100
AcDbEntity
  8
UMCL1
  6
Continuous
100
AcDbLine
 10
674.2849692404389
 20
537.8687183675229
 30
0.0
 11
674.2849692404389
 21
526.023452778607
 31
0.0
  0
LINE
  5
6EA2
330
1E
100
AcDbEntity
  8
CENTER
  6
CENTER
100
AcDbLine
 10
698.7849692404389
 20
528.696085573065
 30
0.0
 11
683.784969240439
 21
528.696085573065
 31
0.0
  0
LINE
  5
6EA3
330
1E
100
AcDbEntity
  8
CENTER
  6
CENTER
100
AcDbLine
 10
691.2849692404389
 20
521.196085573065
 30
0.0
 11
691.2849692404389
 21
536.196085573065
 31
0.0
  0
LINE
  5
6EA4
330
1E
100
AcDbEntity
  8
CENTER
  6
CENTER
100
AcDbLine
 10
698.7849692404389
 20
478.696085573065
 30
0.0
 11
683.784969240439
 21
478.696085573065
 31
0.0
  0
LINE
  5
6EA5
330
1E
100
AcDbEntity
  8
CENTER
  6
CENTER
100
AcDbLine
 10
691.2849692404389
 20
471.196085573065
 30
0.0
 11
691.2849692404389
 21
486.196085573065
 31
0.0
  0
LINE
  5
6EA6
330
1E
100
AcDbEntity
  8
UMCL1
  6
Continuous
100
AcDbLine
 10
673.7849692404389
 20
481.946085573065
 30
0.0
 11
669.2849692404386
 21
481.9460855730649
 31
0.0
  0
LINE
  5
6EA7
330
1E
100
AcDbEntity
  8
UMCL1
  6
Continuous
100
AcDbLine
 10
666.2849692404389
 20
467.7460855730642
 30
0.0
 11
666.2849692404389
 21
478.296085573065
 31
0.0
  0
LINE
  5
6EA8
330
1E
100
AcDbEntity
  8
UMCL1
  6
Continuous
100
AcDbLine
 10
673.7849692404389
 20
525.446085573065
 30
0.0
 11
669.2849692404392
 21
525.446085573065
 31
0.0
  0
LINE
  5
6EA9
330
1E
100
AcDbEntity
  8
UMCL1
  6
Continuous
100
AcDbLine
 10
666.2849692404389
 20
529.096085573065
 30
0.0
 11
666.2849692404389
 21
539.6460855730639
 31
0.0
  0
LINE
  5
6EAA
330
1E
100
AcDbEntity
  8
UMCL1
100
AcDbLine
 10
664.2849692404389
 20
466.196085573065
 30
0.0
 11
664.2849692404389
 21
478.296085573065
 31
0.0
  0
LINE
  5
6EAB
330
1E
100
AcDbEntity
  8
UMCL1
100
AcDbLine
 10
664.2849692404389
 20
529.096085573065
 30
0.0
 11
664.2849692404389
 21
541.196085573065
 31
0.0
  0
LINE
  5
6EAC
330
1E
100
AcDbEntity
  8
UMCL1
100
AcDbLine
 10
701.2849692404389
 20
469.196085573065
 30
0.0
 11
701.284969240439
 21
486.6960855730651
 31
0.0
  0
LINE
  5
6EAD
330
1E
100
AcDbEntity
  8
UMCL1
100
AcDbLine
 10
701.284969240439
 20
520.6960855730651
 30
0.0
 11
701.2849692404389
 21
538.196085573065
 31
0.0
  0
LINE
  5
6EAE
330
1E
100
AcDbEntity
  8
AM_5
100
AcDbLine
 10
909.6067026892091
 20
303.5937708063331
 30
0.0
 11
909.6067026892091
 21
298.593770806333
 31
0.0
  0
SOLID
  5
6EAF
330
1E
100
AcDbEntity
  8
AM_5
100
AcDbTrace
 10
906.606702689209
 20
300.0937708063331
 30
0.0
 11
906.606702689209
 21
299.0937708063331
 31
0.0
 12
909.6067026892091
 22
299.5937708063331
 32
0.0
 13
909.6067026892091
 23
299.5937708063331
 33
0.0
  0
LINE
  5
6EB0
330
1E
100
AcDbEntity
  8
AM_5
100
AcDbLine
 10
922.1067026892091
 20
306.593770806333
 30
0.0
 11
922.1067026892091
 21
290.593770806333
 31
0.0
  0
SOLID
  5
6EB1
330
1E
100
AcDbEntity
  8
AM_5
100
AcDbTrace
 10
919.1067026892092
 20
292.093770806333
 30
0.0
 11
919.1067026892092
 21
291.0937708063331
 31
0.0
 12
922.1067026892091
 22
291.5937708063331
 32
0.0
 13
922.1067026892091
 23
291.5937708063331
 33
0.0
  0
LINE
  5
6EB2
330
1E
100
AcDbEntity
  8
AM_5
100
AcDbLine
 10
859.6067026892095
 20
299.5937708063331
 30
0.0
 11
909.606702689209
 21
299.5937708063331
 31
0.0
  0
LINE
  5
6EB3
330
1E
100
AcDbEntity
  8
AM_5
100
AcDbLine
 10
847.1067026892095
 20
291.5937708063331
 30
0.0
 11
922.1067026892091
 21
291.5937708063329
 31
0.0
  0
LINE
  5
6EB4
330
1E
100
AcDbEntity
  8
UMCL1
100
AcDbLine
 10
894.3567026892095
 20
430.5937708063332
 30
0.0
 11
874.8567026892098
 21
430.5937708063331
 31
0.0
  0
LINE
  5
6EB5
330
1E
100
AcDbEntity
  8
UMCL1
100
AcDbLine
 10
894.3567026892095
 20
425.0937708063332
 30
0.0
 11
894.3567026892095
 21
430.5937708063332
 31
0.0
  0
LINE
  5
6EB6
330
1E
100
AcDbEntity
  8
UMCL1
100
AcDbLine
 10
874.8567026892098
 20
430.5937708063331
 30
0.0
 11
874.8567026892098
 21
425.0937708063331
 31
0.0
  0
LINE
  5
6EB7
330
1E
100
AcDbEntity
  8
AM_5
100
AcDbLine
 10
938.1067026892088
 20
307.5937708063329
 30
0.0
 11
938.1067026892088
 21
430.5937708063332
 31
0.0
  0
LINE
  5
6EB8
330
1E
100
AcDbEntity
  8
CENTER
  6
CENTER
100
AcDbLine
 10
678.8079621891396
 20
531.9460855730649
 30
0.0
 11
652.1151655974094
 21
531.9460855730649
 31
0.0
  0
LINE
  5
6EB9
330
1E
100
AcDbEntity
  8
UMCL1
100
AcDbLine
 10
801.2849692404387
 20
374.5937708063334
 30
0.0
 11
669.2849692404388
 21
374.5937708063334
 31
0.0
  0
LINE
  5
6EBA
330
1E
100
AcDbEntity
  8
UMCL1
100
AcDbLine
 10
801.2849692404387
 20
340.5937708063334
 30
0.0
 11
669.2849692404386
 21
340.5937708063334
 31
0.0
  0
LINE
  5
6EBB
330
1E
100
AcDbEntity
  8
UMCL1
100
AcDbLine
 10
422.2849692404383
 20
376.3937708063332
 30
0.0
 11
619.2849692404385
 21
376.3937708063332
 31
0.0
  0
LINE
  5
6EBC
330
1E
100
AcDbEntity
  8
UMCL1
100
AcDbLine
 10
422.2849692404383
 20
338.7937708063333
 30
0.0
 11
619.2849692404385
 21
338.7937708063331
 31
0.0
  0
CIRCLE
  5
6EBD
330
1E
100
AcDbEntity
  8
UMCL1
100
AcDbCircle
 10
415.2849692404388
 20
366.5937708063334
 30
0.0
 40
5.299999999999999
  0
CIRCLE
  5
6EBE
330
1E
100
AcDbEntity
  8
UMCL1
100
AcDbCircle
 10
415.2849692404388
 20
366.5937708063334
 30
0.0
 40
5.0
  0
CIRCLE
  5
6EBF
330
1E
100
AcDbEntity
  8
UMCL1
100
AcDbCircle
 10
415.2849692404388
 20
366.5937708063334
 30
0.0
 40
2.5
  0
POLYLINE
  5
6EC0
330
1E
100
AcDbEntity
  8
UMCL1
  6
Continuous
100
AcDb2dPolyline
 66
     1
 10
0.0
 20
0.0
 30
0.0
 70
     1
  0
VERTEX
  5
6EC1
330
6EC0
100
AcDbEntity
  8
UMCL1
  6
Continuous
100
AcDbVertex
100
AcDb2dVertex
 10
417.2849692404388
 20
365.4390702679541
 30
0.0
  0
VERTEX
  5
6EC2
330
6EC0
100
AcDbEntity
  8
UMCL1
  6
Continuous
100
AcDbVertex
100
AcDb2dVertex
 10
417.2849692404388
 20
367.7484713447126
 30
0.0
  0
VERTEX
  5
6EC3
330
6EC0
100
AcDbEntity
  8
UMCL1
  6
Continuous
100
AcDbVertex
100
AcDb2dVertex
 10
415.2849692404388
 20
368.9031718830919
 30
0.0
  0
VERTEX
  5
6EC4
330
6EC0
100
AcDbEntity
  8
UMCL1
  6
Continuous
100
AcDbVertex
100
AcDb2dVertex
 10
413.2849692404388
 20
367.7484713447126
 30
0.0
  0
VERTEX
  5
6EC5
330
6EC0
100
AcDbEntity
  8
UMCL1
  6
Continuous
100
AcDbVertex
100
AcDb2dVertex
 10
413.2849692404388
 20
365.4390702679541
 30
0.0
  0
VERTEX
  5
6EC6
330
6EC0
100
AcDbEntity
  8
UMCL1
  6
Continuous
100
AcDbVertex
100
AcDb2dVertex
 10
415.2849692404388
 20
364.2843697295749
 30
0.0
  0
SEQEND
  5
6EC7
330
6EC0
100
AcDbEntity
  8
UMCL1
  6
Continuous
  0
LINE
  5
6EC8
330
1E
100
AcDbEntity
  8
UMCL1
  6
Continuous
 62
     7
100
AcDbLine
 10
414.4349692404388
 20
370.5024150725719
 30
0.0
 11
414.4349692404388
 21
371.5209911180305
 31
0.0
  0
LINE
  5
6EC9
330
1E
100
AcDbEntity
  8
UMCL1
  6
Continuous
 62
     7
100
AcDbLine
 10
416.1349692404387
 20
370.5024150725719
 30
0.0
 11
416.1349692404387
 21
371.5209911180305
 31
0.0
  0
LINE
  5
6ECA
330
1E
100
AcDbEntity
  8
UMCL1
  6
Continuous
 62
     7
100
AcDbLine
 10
416.1349692404387
 20
361.6665504946364
 30
0.0
 11
416.1349692404387
 21
362.6851265400948
 31
0.0
  0
LINE
  5
6ECB
330
1E
100
AcDbEntity
  8
UMCL1
  6
Continuous
 62
     7
100
AcDbLine
 10
414.4349692404388
 20
361.6665504946364
 30
0.0
 11
414.4349692404388
 21
362.6851265400948
 31
0.0
  0
LINE
  5
6ECC
330
1E
100
AcDbEntity
  8
UMCL1
  6
Continuous
 62
     7
100
AcDbLine
 10
411.4749840115197
 20
367.8119713462359
 30
0.0
 11
410.5928712804663
 21
368.3212593689651
 31
0.0
  0
LINE
  5
6ECD
330
1E
100
AcDbEntity
  8
UMCL1
  6
Continuous
 62
     7
100
AcDbLine
 10
412.3249840115197
 20
369.2842145326695
 30
0.0
 11
411.4428712804664
 21
369.7935025553986
 31
0.0
  0
LINE
  5
6ECE
330
1E
100
AcDbEntity
  8
UMCL1
  6
Continuous
 62
     7
100
AcDbLine
 10
419.9770672004111
 20
364.8662822437016
 30
0.0
 11
419.0949544693578
 21
365.3755702664308
 31
0.0
  0
LINE
  5
6ECF
330
1E
100
AcDbEntity
  8
UMCL1
  6
Continuous
 62
     7
100
AcDbLine
 10
419.1270672004111
 20
363.3940390572681
 30
0.0
 11
418.2449544693578
 21
363.9033270799973
 31
0.0
  0
LINE
  5
6ED0
330
1E
100
AcDbEntity
  8
UMCL1
  6
Continuous
 62
     7
100
AcDbLine
 10
411.4749840115197
 20
365.3755702664308
 30
0.0
 11
410.5928712804663
 21
364.8662822437016
 31
0.0
  0
LINE
  5
6ED1
330
1E
100
AcDbEntity
  8
UMCL1
  6
Continuous
 62
     7
100
AcDbLine
 10
412.3249840115197
 20
363.9033270799973
 30
0.0
 11
411.4428712804664
 21
363.3940390572681
 31
0.0
  0
LINE
  5
6ED2
330
1E
100
AcDbEntity
  8
UMCL1
  6
Continuous
 62
     7
100
AcDbLine
 10
419.9770672004111
 20
368.3212593689651
 30
0.0
 11
419.0949544693578
 21
367.8119713462359
 31
0.0
  0
LINE
  5
6ED3
330
1E
100
AcDbEntity
  8
UMCL1
  6
Continuous
 62
     7
100
AcDbLine
 10
419.1270672004111
 20
369.7935025553986
 30
0.0
 11
418.2449544693578
 21
369.2842145326695
 31
0.0
  0
ARC
  5
6ED4
330
1E
100
AcDbEntity
  8
UMCL1
100
AcDbCircle
 10
415.2849692404388
 20
366.5937708063334
 30
0.0
 40
4.0
100
AcDbArc
 50
102.2688989959549
 51
137.7311010040431
  0
ARC
  5
6ED5
330
1E
100
AcDbEntity
  8
UMCL1
100
AcDbCircle
 10
415.2849692404388
 20
366.5937708063334
 30
0.0
 40
4.0
100
AcDbArc
 50
162.2688989959544
 51
197.7311010040455
  0
ARC
  5
6ED6
330
1E
100
AcDbEntity
  8
UMCL1
100
AcDbCircle
 10
415.2849692404388
 20
366.5937708063334
 30
0.0
 40
4.0
100
AcDbArc
 50
222.2688989959569
 51
257.7311010040451
  0
ARC
  5
6ED7
330
1E
100
AcDbEntity
  8
UMCL1
100
AcDbCircle
 10
415.2849692404388
 20
366.5937708063334
 30
0.0
 40
4.0
100
AcDbArc
 50
282.2688989959549
 51
317.7311010040431
  0
ARC
  5
6ED8
330
1E
100
AcDbEntity
  8
UMCL1
100
AcDbCircle
 10
415.2849692404388
 20
366.5937708063334
 30
0.0
 40
4.0
100
AcDbArc
 50
342.2688989959544
 51
17.73110100404555
  0
ARC
  5
6ED9
330
1E
100
AcDbEntity
  8
UMCL1
100
AcDbCircle
 10
415.2849692404388
 20
366.5937708063334
 30
0.0
 40
4.0
100
AcDbArc
 50
42.2688989959569
 51
77.73110100404513
  0
LINE
  5
6EDA
330
1E
100
AcDbEntity
  8
CENTER
  6
CENTER
100
AcDbLine
 10
639.2849692404388
 20
376.8463193679614
 30
0.0
 11
639.2849692404388
 21
338.1751922162735
 31
0.0
  0
LINE
  5
6EDB
330
1E
100
AcDbEntity
  8
UMCL1
100
AcDbLine
 10
624.2849692404387
 20
410.0937708063334
 30
0.0
 11
654.2849692404386
 21
410.0937708063331
 31
0.0
  0
LINE
  5
6EDC
330
1E
100
AcDbEntity
  8
UMCL1
100
AcDbLine
 10
422.2849692404387
 20
410.0937708063334
 30
0.0
 11
392.2849692404388
 21
410.0937708063331
 31
0.0
  0
LINE
  5
6EDD
330
1E
100
AcDbEntity
  8
UMCL1
100
AcDbLine
 10
801.2849692404387
 20
374.5937708063334
 30
0.0
 11
801.2849692404387
 21
340.5937708063334
 31
0.0
  0
LINE
  5
6EDE
330
1E
100
AcDbEntity
  8
AM_5
100
AcDbLine
 10
701.2849692404388
 20
306.5937708063332
 30
0.0
 11
701.2849692404388
 21
290.4660368181183
 31
0.0
  0
LINE
  5
6EDF
330
1E
100
AcDbEntity
  8
AM_5
100
AcDbLine
 10
691.2849692404388
 20
304.5937708063334
 30
0.0
 11
691.2849692404388
 21
298.5937708063332
 31
0.0
  0
LINE
  5
6EE0
330
1E
100
AcDbEntity
  8
AM_5
100
AcDbLine
 10
691.2849692404388
 20
299.5937708063332
 30
0.0
 11
691.2849692404388
 21
300.5937708063332
 31
0.0
  0
SOLID
  5
6EE1
330
1E
100
AcDbEntity
  8
AM_5
100
AcDbTrace
 10
688.2849692404388
 20
300.0937708063332
 30
0.0
 11
688.2849692404388
 21
299.0937708063332
 31
0.0
 12
691.2849692404388
 22
299.5937708063332
 32
0.0
 13
691.2849692404388
 23
299.5937708063332
 33
0.0
  0
SOLID
  5
6EE2
330
1E
100
AcDbEntity
  8
AM_5
100
AcDbTrace
 10
698.2849692404388
 20
292.0937708063332
 30
0.0
 11
698.2849692404388
 21
291.0937708063332
 31
0.0
 12
701.2849692404388
 22
291.5937708063331
 32
0.0
 13
701.2849692404388
 23
291.5937708063331
 33
0.0
  0
SOLID
  5
6EE3
330
1E
100
AcDbEntity
  8
AM_5
100
AcDbTrace
 10
694.2849692404388
 20
300.0937708063332
 30
0.0
 11
694.2849692404388
 21
299.0937708063332
 31
0.0
 12
691.2849692404388
 22
299.5937708063332
 32
0.0
 13
691.2849692404388
 23
299.5937708063332
 33
0.0
  0
SOLID
  5
6EE4
330
1E
100
AcDbEntity
  8
AM_5
100
AcDbTrace
 10
698.2849692404388
 20
300.0937708063334
 30
0.0
 11
698.2849692404388
 21
299.0937708063334
 31
0.0
 12
701.2849692404388
 22
299.5937708063334
 32
0.0
 13
701.2849692404388
 23
299.5937708063334
 33
0.0
  0
TEXT
  5
6EE5
330
1E
100
AcDbEntity
  8
AM_5
100
AcDbText
 10
693.8145281522179
 20
301.0937708063334
 30
0.0
 40
3.0
  1
10
  7
ROMANSS
 11
693.8145281522179
 21
302.5937708063334
 31
0.0
100
AcDbText
 73
     2
  0
LINE
  5
6EE6
330
1E
100
AcDbEntity
  8
AM_5
100
AcDbLine
 10
348.2849692404388
 20
299.5937708063333
 30
0.0
 11
701.2849692404388
 21
299.5937708063333
 31
0.0
  0
LINE
  5
6EE7
330
1E
100
AcDbEntity
  8
AM_5
100
AcDbLine
 10
348.2849692404388
 20
291.5937708063333
 30
0.0
 11
701.2849692404388
 21
291.5937708063333
 31
0.0
  0
LINE
  5
6EE8
330
1E
100
AcDbEntity
  8
AM_5
100
AcDbLine
 10
804.2849692404383
 20
341.0880345732378
 30
0.0
 11
804.2849692404383
 21
282.1280226398943
 31
0.0
  0
SOLID
  5
6EE9
330
1E
100
AcDbEntity
  8
AM_5
100
AcDbTrace
 10
801.2849692404389
 20
284.0937708063333
 30
0.0
 11
801.2849692404389
 21
283.0937708063333
 31
0.0
 12
804.2849692404386
 22
283.5937708063333
 32
0.0
 13
804.2849692404386
 23
283.5937708063333
 33
0.0
  0
LINE
  5
6EEA
330
1E
100
AcDbEntity
  8
AM_5
100
AcDbLine
 10
348.2849692404388
 20
283.5937708063333
 30
0.0
 11
804.2849692404383
 21
283.5937708063333
 31
0.0
  0
TEXT
  5
6EEB
330
1E
100
AcDbEntity
  8
AM_5
100
AcDbText
 10
569.0676560406763
 20
285.0937708063333
 30
0.0
 40
3.0
  1
456
  7
ROMANSS
 72
     1
 11
572.8533703263906
 21
286.5937708063333
 31
0.0
100
AcDbText
 73
     2
  0
LINE
  5
6EEC
330
1E
100
AcDbEntity
  8
AM_5
100
AcDbLine
 10
838.4509063618232
 20
400.455483601839
 30
0.0
 11
822.3141345730208
 21
400.4554836018388
 31
0.0
  0
TEXT
  5
6EED
330
1E
100
AcDbEntity
  8
AM_5
100
AcDbText
 10
825.1024685754602
 20
401.9554836018389
 30
0.0
 40
3.0
  1
PT1/4
  7
ROMANSS
 72
     2
 11
838.2453257183174
 21
403.4554836018389
 31
0.0
100
AcDbText
 73
     2
  0
POLYLINE
  5
6EEE
330
1E
100
AcDbEntity
  8
UMCL1
  6
Continuous
100
AcDb2dPolyline
 66
     1
 10
0.0
 20
0.0
 30
0.0
 70
     1
  0
VERTEX
  5
6EEF
330
6EEE
100
AcDbEntity
  8
UMCL1
  6
Continuous
100
AcDbVertex
100
AcDb2dVertex
 10
639.2849692404388
 20
423.2410659036245
 30
0.0
 42
0.0984914033571732
  0
VERTEX
  5
6EF0
330
6EEE
100
AcDbEntity
  8
UMCL1
  6
Continuous
100
AcDbVertex
100
AcDb2dVertex
 10
637.1802103624308
 20
422.8224033324365
 30
0.0
 42
0.0984914033571683
  0
VERTEX
  5
6EF1
330
6EEE
100
AcDbEntity
  8
UMCL1
  6
Continuous
100
AcDbVertex
100
AcDb2dVertex
 10
635.3958819439128
 20
421.6301532001505
 30
0.0
 42
0.0984914033571757
  0
VERTEX
  5
6EF2
330
6EEE
100
AcDbEntity
  8
UMCL1
  6
Continuous
100
AcDbVertex
100
AcDb2dVertex
 10
634.2036318116267
 20
419.8458247816324
 30
0.0
 42
0.0984914033571758
  0
VERTEX
  5
6EF3
330
6EEE
100
AcDbEntity
  8
UMCL1
  6
Continuous
100
AcDbVertex
100
AcDb2dVertex
 10
633.7849692404388
 20
417.7410659036245
 30
0.0
 42
0.0984914033571496
  0
VERTEX
  5
6EF4
330
6EEE
100
AcDbEntity
  8
UMCL1
  6
Continuous
100
AcDbVertex
100
AcDb2dVertex
 10
634.2036318116266
 20
415.6363070256166
 30
0.0
 42
0.0984914033571535
  0
VERTEX
  5
6EF5
330
6EEE
100
AcDbEntity
  8
UMCL1
  6
Continuous
100
AcDbVertex
100
AcDb2dVertex
 10
635.3958819439128
 20
413.8519786070985
 30
0.0
 42
0.0984914033571683
  0
VERTEX
  5
6EF6
330
6EEE
100
AcDbEntity
  8
UMCL1
  6
Continuous
100
AcDbVertex
100
AcDb2dVertex
 10
637.1802103624308
 20
412.6597284748124
 30
0.0
 42
0.0984914033571732
  0
VERTEX
  5
6EF7
330
6EEE
100
AcDbEntity
  8
UMCL1
  6
Continuous
100
AcDbVertex
100
AcDb2dVertex
 10
639.2849692404388
 20
412.2410659036245
 30
0.0
 42
0.0984914033571732
  0
VERTEX
  5
6EF8
330
6EEE
100
AcDbEntity
  8
UMCL1
  6
Continuous
100
AcDbVertex
100
AcDb2dVertex
 10
641.3897281184468
 20
412.6597284748124
 30
0.0
 42
0.0984914033571683
  0
VERTEX
  5
6EF9
330
6EEE
100
AcDbEntity
  8
UMCL1
  6
Continuous
100
AcDbVertex
100
AcDb2dVertex
 10
643.1740565369648
 20
413.8519786070985
 30
0.0
 42
0.0984914033571683
  0
VERTEX
  5
6EFA
330
6EEE
100
AcDbEntity
  8
UMCL1
  6
Continuous
100
AcDbVertex
100
AcDb2dVertex
 10
644.3663066692509
 20
415.6363070256166
 30
0.0
 42
0.0984914033571732
  0
VERTEX
  5
6EFB
330
6EEE
100
AcDbEntity
  8
UMCL1
  6
Continuous
100
AcDbVertex
100
AcDb2dVertex
 10
644.7849692404388
 20
417.7410659036245
 30
0.0
 42
0.0984914033571785
  0
VERTEX
  5
6EFC
330
6EEE
100
AcDbEntity
  8
UMCL1
  6
Continuous
100
AcDbVertex
100
AcDb2dVertex
 10
644.3663066692509
 20
419.8458247816322
 30
0.0
 42
0.0984914033571825
  0
VERTEX
  5
6EFD
330
6EEE
100
AcDbEntity
  8
UMCL1
  6
Continuous
100
AcDbVertex
100
AcDb2dVertex
 10
643.1740565369648
 20
421.6301532001505
 30
0.0
 42
0.0984914033571579
  0
VERTEX
  5
6EFE
330
6EEE
100
AcDbEntity
  8
UMCL1
  6
Continuous
100
AcDbVertex
100
AcDb2dVertex
 10
641.3897281184468
 20
422.8224033324365
 30
0.0
 42
0.0984914033571601
  0
SEQEND
  5
6EFF
330
6EEE
100
AcDbEntity
  8
UMCL1
  6
Continuous
  0
POLYLINE
  5
6F00
330
1E
100
AcDbEntity
  8
UMCL1
  6
Continuous
100
AcDb2dPolyline
 66
     1
 10
0.0
 20
0.0
 30
0.0
 70
     1
  0
VERTEX
  5
6F01
330
6F00
100
AcDbEntity
  8
UMCL1
  6
Continuous
100
AcDbVertex
100
AcDb2dVertex
 10
407.2849692404385
 20
423.2410659036248
 30
0.0
 42
0.0984914033571732
  0
VERTEX
  5
6F02
330
6F00
100
AcDbEntity
  8
UMCL1
  6
Continuous
100
AcDbVertex
100
AcDb2dVertex
 10
405.1802103624306
 20
422.8224033324369
 30
0.0
 42
0.0984914033571683
  0
VERTEX
  5
6F03
330
6F00
100
AcDbEntity
  8
UMCL1
  6
Continuous
100
AcDbVertex
100
AcDb2dVertex
 10
403.3958819439126
 20
421.6301532001508
 30
0.0
 42
0.0984914033571757
  0
VERTEX
  5
6F04
330
6F00
100
AcDbEntity
  8
UMCL1
  6
Continuous
100
AcDbVertex
100
AcDb2dVertex
 10
402.2036318116265
 20
419.8458247816327
 30
0.0
 42
0.0984914033571758
  0
VERTEX
  5
6F05
330
6F00
100
AcDbEntity
  8
UMCL1
  6
Continuous
100
AcDbVertex
100
AcDb2dVertex
 10
401.7849692404386
 20
417.7410659036248
 30
0.0
 42
0.0984914033571496
  0
VERTEX
  5
6F06
330
6F00
100
AcDbEntity
  8
UMCL1
  6
Continuous
100
AcDbVertex
100
AcDb2dVertex
 10
402.2036318116264
 20
415.6363070256169
 30
0.0
 42
0.0984914033571535
  0
VERTEX
  5
6F07
330
6F00
100
AcDbEntity
  8
UMCL1
  6
Continuous
100
AcDbVertex
100
AcDb2dVertex
 10
403.3958819439126
 20
413.8519786070989
 30
0.0
 42
0.0984914033571683
  0
VERTEX
  5
6F08
330
6F00
100
AcDbEntity
  8
UMCL1
  6
Continuous
100
AcDbVertex
100
AcDb2dVertex
 10
405.1802103624306
 20
412.6597284748128
 30
0.0
 42
0.0984914033571732
  0
VERTEX
  5
6F09
330
6F00
100
AcDbEntity
  8
UMCL1
  6
Continuous
100
AcDbVertex
100
AcDb2dVertex
 10
407.2849692404385
 20
412.2410659036249
 30
0.0
 42
0.0984914033571732
  0
VERTEX
  5
6F0A
330
6F00
100
AcDbEntity
  8
UMCL1
  6
Continuous
100
AcDbVertex
100
AcDb2dVertex
 10
409.3897281184466
 20
412.6597284748128
 30
0.0
 42
0.0984914033571683
  0
VERTEX
  5
6F0B
330
6F00
100
AcDbEntity
  8
UMCL1
  6
Continuous
100
AcDbVertex
100
AcDb2dVertex
 10
411.1740565369646
 20
413.8519786070989
 30
0.0
 42
0.0984914033571683
  0
VERTEX
  5
6F0C
330
6F00
100
AcDbEntity
  8
UMCL1
  6
Continuous
100
AcDbVertex
100
AcDb2dVertex
 10
412.3663066692506
 20
415.6363070256169
 30
0.0
 42
0.0984914033571732
  0
VERTEX
  5
6F0D
330
6F00
100
AcDbEntity
  8
UMCL1
  6
Continuous
100
AcDbVertex
100
AcDb2dVertex
 10
412.7849692404386
 20
417.7410659036248
 30
0.0
 42
0.0984914033571785
  0
VERTEX
  5
6F0E
330
6F00
100
AcDbEntity
  8
UMCL1
  6
Continuous
100
AcDbVertex
100
AcDb2dVertex
 10
412.3663066692506
 20
419.8458247816326
 30
0.0
 42
0.0984914033571825
  0
VERTEX
  5
6F0F
330
6F00
100
AcDbEntity
  8
UMCL1
  6
Continuous
100
AcDbVertex
100
AcDb2dVertex
 10
411.1740565369646
 20
421.6301532001508
 30
0.0
 42
0.0984914033571579
  0
VERTEX
  5
6F10
330
6F00
100
AcDbEntity
  8
UMCL1
  6
Continuous
100
AcDbVertex
100
AcDb2dVertex
 10
409.3897281184466
 20
422.8224033324369
 30
0.0
 42
0.0984914033571601
  0
SEQEND
  5
6F11
330
6F00
100
AcDbEntity
  8
UMCL1
  6
Continuous
  0
ARC
  5
6F12
330
1E
100
AcDbEntity
  8
UMCL1
 62
     2
100
AcDbCircle
 10
639.2849692404388
 20
357.5937708063334
 30
0.0
 40
8.25
100
AcDbArc
 50
77.92480383695485
 51
18.66239316544088
  0
CIRCLE
  5
6F13
330
1E
100
AcDbEntity
  8
UMCL1
100
AcDbCircle
 10
639.2849692404388
 20
357.5937708063334
 30
0.0
 40
7.5
  0
CIRCLE
  5
6F14
330
1E
100
AcDbEntity
  8
UMCL1
100
AcDbCircle
 10
639.2849692404388
 20
357.5937708063334
 30
0.0
 40
5.5
  0
LINE
  5
6F15
330
1E
100
AcDbEntity
  8
UMCL1
  6
HIDDEN
 62
     2
100
AcDbLine
 10
797.2984701101221
 20
353.1699134518698
 30
0.0
 11
804.2849692404384
 21
352.8120454141626
 31
0.0
  0
LINE
  5
6F16
330
1E
100
AcDbEntity
  8
UMCL1
  6
HIDDEN
 62
     2
100
AcDbLine
 10
797.356712230541
 20
362.0122362755478
 30
0.0
 11
804.2849692404384
 21
362.4077478540308
 31
0.0
  0
LINE
  5
6F17
330
1E
100
AcDbEntity
  8
UMCL1
  6
HIDDEN
 62
     2
100
AcDbLine
 10
797.3511512651627
 20
352.6665594616013
 30
0.0
 11
804.2849692404384
 21
352.311389900088
 31
0.0
  0
LINE
  5
6F18
330
1E
100
AcDbEntity
  8
UMCL1
  6
HIDDEN
 62
     2
100
AcDbLine
 10
797.225162574889
 20
362.5055405962513
 30
0.0
 11
804.2849692404384
 21
362.9085619151906
 31
0.0
  0
LINE
  5
6F19
330
1E
100
AcDbEntity
  8
UMCL1
  6
HIDDEN
 62
     2
100
AcDbLine
 10
880.1882372199949
 20
367.6655137964364
 30
0.0
 11
879.8317932898637
 21
373.9094148398379
 31
0.0
  0
LINE
  5
6F1A
330
1E
100
AcDbEntity
  8
UMCL1
  6
HIDDEN
 62
     2
100
AcDbLine
 10
879.6949328992914
 20
367.5339641407844
 30
0.0
 11
879.3396653667761
 21
373.7572579871396
 31
0.0
  0
LINE
  5
6F1B
330
1E
100
AcDbEntity
  8
UMCL1
  6
HIDDEN
 62
     2
100
AcDbLine
 10
889.5339140339414
 20
367.6599528310581
 30
0.0
 11
889.8466853673932
 21
373.7660489863651
 31
0.0
  0
LINE
  5
6F1C
330
1E
100
AcDbEntity
  8
UMCL1
  6
HIDDEN
 62
     2
100
AcDbLine
 10
889.0305600436729
 20
367.6072716760175
 30
0.0
 11
889.3537892214418
 21
373.9175316920941
 31
0.0
  0
CIRCLE
  5
6F1D
330
1E
100
AcDbEntity
  8
UMCL1
  6
Continuous
100
AcDbCircle
 10
884.6067026892095
 20
357.5937708063332
 30
0.0
 40
5.498740770349174
  0
ARC
  5
6F1E
330
1E
100
AcDbEntity
  8
UMCL1
  6
Continuous
 62
     2
100
AcDbCircle
 10
884.6067026892095
 20
357.5937708063332
 30
0.0
 40
5.999520640273319
100
AcDbArc
 50
78.8529524055054
 51
7.140851044741222
  0
LINE
  5
6F1F
330
1E
100
AcDbEntity
  8
UMCL1
  6
HIDDEN
 62
     2
100
AcDbLine
 10
797.2984701101221
 20
499.2722282186015
 30
0.0
 11
804.2849692404384
 21
498.9143601808944
 31
0.0
  0
LINE
  5
6F20
330
1E
100
AcDbEntity
  8
UMCL1
  6
HIDDEN
 62
     2
100
AcDbLine
 10
797.356712230541
 20
508.1145510422795
 30
0.0
 11
804.2849692404384
 21
508.5100626207625
 31
0.0
  0
LINE
  5
6F21
330
1E
100
AcDbEntity
  8
UMCL1
  6
HIDDEN
 62
     2
100
AcDbLine
 10
797.3511512651627
 20
498.7688742283331
 30
0.0
 11
804.2849692404384
 21
498.4137046668197
 31
0.0
  0
LINE
  5
6F22
330
1E
100
AcDbEntity
  8
UMCL1
  6
HIDDEN
 62
     2
100
AcDbLine
 10
797.225162574889
 20
508.607855362983
 30
0.0
 11
804.2849692404384
 21
509.0108766819223
 31
0.0
  0
ENDSEC
  0
SECTION
  2
OBJECTS
  0
DICTIONARY
  5
C
330
0
100
AcDbDictionary
281
     1
  3
ACAD_COLOR
350
628F
  3
ACAD_GROUP
350
D
  3
ACAD_IMAGE_DICT
350
3CB
  3
ACAD_LAYOUT
350
19
  3
ACAD_MATERIAL
350
628E
  3
ACAD_MLINESTYLE
350
16
  3
ACAD_PLOTSETTINGS
350
18
  3
ACAD_PLOTSTYLENAME
350
B31
  3
ACAD_TABLESTYLE
350
6290
  3
ACDBHEADERROUNDTRIPXREC
350
6FD5
  3
AcDbVariableDictionary
350
BD2
  3
ACMDICTIONARY
350
7C2
  3
AMG
350
7A8
  3
AMGSNAPSETTINGS
350
895
  3
DWGPROPS
350
6FD4
1001
ACAD
1000
TREAT_AS_HARD
1070
     0
  0
DICTIONARY
  5
688C
330
2
100
AcDbDictionary
280
     1
281
     1
  3
ACAD_LAYERFILTERS
360
6890
  3
ACLYDICTIONARY
360
688F
  0
DICTIONARY
  5
708
330
1E
100
AcDbDictionary
280
     1
281
     1
  3
ACAD_LAYOUTSELFREF
360
4E3B
1001
ACAD
1000
TREAT_AS_HARD
1070
     1
  0
DICTIONARY
  5
70A
330
1A
100
AcDbDictionary
280
     1
281
     1
  3
ACAD_LAYOUTSELFREF
360
4E3A
1001
ACAD
1000
TREAT_AS_HARD
1070
     1
  0
DICTIONARY
  5
628F
102
{ACAD_REACTORS
330
C
102
}
330
C
100
AcDbDictionary
281
     1
  0
DICTIONARY
  5
D
102
{ACAD_REACTORS
330
C
102
}
330
C
100
AcDbDictionary
281
     1
1001
ACAD
1000
TREAT_AS_HARD
1070
     0
  0
DICTIONARY
  5
3CB
102
{ACAD_REACTORS
330
C
102
}
330
C
100
AcDbDictionary
281
     1
  3
PLOT
350
3CC
1001
ACAD
1000
TREAT_AS_HARD
1070
     0
  0
DICTIONARY
  5
19
102
{ACAD_REACTORS
330
C
102
}
330
C
100
AcDbDictionary
281
     1
  3
Layout1
350
B34
  3
Model
350
B33
1001
ACAD
1000
TREAT_AS_HARD
1070
     0
  0
DICTIONARY
  5
628E
102
{ACAD_REACTORS
330
C
102
}
330
C
100
AcDbDictionary
281
     1
  0
DICTIONARY
  5
16
102
{ACAD_REACTORS
330
C
102
}
330
C
100
AcDbDictionary
281
     1
  3
STANDARD
350
17
1001
ACAD
1000
TREAT_AS_HARD
1070
     0
  0
DICTIONARY
  5
18
102
{ACAD_REACTORS
330
C
102
}
330
C
100
AcDbDictionary
281
     1
1001
ACAD
1000
TREAT_AS_HARD
1070
     0
  0
ACDBDICTIONARYWDFLT
  5
B31
102
{ACAD_REACTORS
330
C
102
}
330
C
100
AcDbDictionary
281
     1
  3
Normal
350
B32
100
AcDbDictionaryWithDefault
340
B32
  0
DICTIONARY
  5
6290
102
{ACAD_REACTORS
330
C
102
}
330
C
100
AcDbDictionary
281
     1
  3
Standard
350
6291
  0
DICTIONARY
  5
6FD5
102
{ACAD_REACTORS
330
C
102
}
330
C
100
AcDbDictionary
281
     1
  0
DICTIONARY
  5
BD2
102
{ACAD_REACTORS
330
C
102
}
330
C
100
AcDbDictionary
281
     1
  3
CTABLESTYLE
350
680B
  3
DIMASSOC
350
BD4
  3
INDEXCTL
350
BD3
  3
PROJECTNAME
350
680C
  0
DICTIONARY
  5
7C2
102
{ACAD_REACTORS
330
C
102
}
330
C
100
AcDbDictionary
281
     1
  3
ACMSTDDICTIONARY
350
7C8
  3
AMDTSECTSYM_ARROWCOLOR
350
629C
1001
ACAD
1000
TREAT_AS_HARD
1070
     0
  0
DICTIONARY
  5
7A8
102
{ACAD_REACTORS
330
C
102
}
330
C
100
AcDbDictionary
281
     1
1001
ACAD
1000
TREAT_AS_HARD
1070
     0
  0
DICTIONARY
  5
895
102
{ACAD_REACTORS
330
C
102
}
330
C
100
AcDbDictionary
281
     1
1001
ACAD
1000
TREAT_AS_HARD
1070
     0
  0
XRECORD
  5
6FD4
102
{ACAD_REACTORS
330
C
102
}
330
C
100
AcDbXrecord
280
     1
  1
DWGPROPS COOKIE
  2

  3

  4

  6

  7

  8

  9

300
AmdtFileType=84
301
=
302
=
303
=
304
=
305
=
306
=
307
=
308
=
309
=
 40
0.4502940740740741
 41
2450294.602131481
 42
2453388.429090035
  1

 90
        1
  0
DICTIONARY
  5
6890
102
{ACAD_REACTORS
330
688C
102
}
330
688C
100
AcDbDictionary
281
     1
  0
DICTIONARY
  5
688F
102
{ACAD_REACTORS
330
688C
102
}
330
688C
100
AcDbDictionary
281
     1
1001
ACAD
1000
<All
  0
XRECORD
  5
4E3B
102
{ACAD_REACTORS
330
708
102
}
330
708
100
AcDbXrecord
280
     1
340
1E
  0
XRECORD
  5
4E3A
102
{ACAD_REACTORS
330
70A
102
}
330
70A
100
AcDbXrecord
280
     1
340
1A
  0
IMAGEDEF
  5
3CC
102
{ACAD_REACTORS
330
3CB
102
}
330
3CB
100
AcDbRasterImageDef
 90
        0
  1
D:\CHI\plot.bmp
 10
694.0
 20
470.0
 11
0.264550269889837
 21
0.264550269889837
280
     1
281
     2
  0
LAYOUT
  5
B34
102
{ACAD_XDICTIONARY
360
6FD8
102
}
102
{ACAD_REACTORS
330
19
102
}
330
19
100
AcDbPlotSettings
  1

  2
自動 PC-WM51 上的 Epson LQ-1070C+
  4

  6

 40
0.0
 41
0.0
 42
0.0
 43
0.0
 44
0.0
 45
0.0
 46
0.0
 47
0.0
 48
0.0
 49
0.0
140
0.0
141
0.0
142
1.0
143
1.0
 70
   688
 72
     0
 73
     0
 74
     5
  7

 75
    16
147
1.0
148
0.0
149
0.0
100
AcDbLayout
  1
Layout1
 70
     0
 71
     1
 10
0.0
 20
0.0
 11
12.0
 21
9.0
 12
101.9887994410416
 22
50.0
 32
155.412184630939
 14
1.000000000000000E+20
 24
1.000000000000000E+20
 34
1.000000000000000E+20
 15
-1.000000000000000E+20
 25
-1.000000000000000E+20
 35
-1.000000000000000E+20
146
0.0
 13
0.0
 23
0.0
 33
0.0
 16
1.0
 26
0.0
 36
0.0
 17
0.0
 27
1.0
 37
0.0
 76
     0
330
1A
  0
LAYOUT
  5
B33
102
{ACAD_XDICTIONARY
360
6FD6
102
}
102
{ACAD_REACTORS
330
19
102
}
330
19
100
AcDbPlotSettings
  1

  2
DWF eView (optimized for viewing).pc3
  4
ISO_A4_(297.00_x_210.00_MM)
  6

 40
5.793749809265136
 41
17.79375076293945
 42
5.79376220703125
 43
17.79374694824219
 44
297.0
 45
210.0
 46
29.85
 47
0.0
 48
0.0
 49
0.0
140
0.0
141
0.0
142
1.0
143
0.6382186722569885
 70
 11956
 72
     1
 73
     0
 74
     1
  7

 75
     0
147
1.566861082994661
148
-200.235718928552
149
46.05760240554945
100
AcDbLayout
  1
Model
 70
     1
 71
     0
 10
0.0
 20
0.0
 11
12.0
 21
9.0
 12
0.0
 22
0.0
 32
0.0
 14
0.0
 24
0.0
 34
0.0
 15
0.0
 25
0.0
 35
0.0
146
0.0
 13
0.0
 23
0.0
 33
0.0
 16
1.0
 26
0.0
 36
0.0
 17
0.0
 27
1.0
 37
0.0
 76
     0
330
1E
  0
MLINESTYLE
  5
17
102
{ACAD_REACTORS
330
16
102
}
330
16
100
AcDbMlineStyle
  2
STANDARD
 70
     0
  3

 62
   256
 51
90.0
 52
90.0
 71
     2
 49
0.5
 62
   256
  6
BYLAYER
 49
-0.5
 62
   256
  6
BYLAYER
  0
ACDBPLACEHOLDER
  5
B32
102
{ACAD_REACTORS
330
B31
102
}
330
B31
  0
TABLESTYLE
  5
6291
102
{ACAD_REACTORS
330
6290
102
}
330
6290
100
AcDbTableStyle
  3
Standard
 70
     0
 71
     0
 40
1.5
 41
1.5
280
     0
281
     0
  7
STANDARD
140
4.5
170
     2
 62
     0
 63
     7
283
     0
274
    -2
284
     1
 64
     0
275
    -2
285
     1
 65
     0
276
    -2
286
     1
 66
     0
277
    -2
287
     1
 67
     0
278
    -2
288
     1
 68
     0
279
    -2
289
     1
 69
     0
  7
STANDARD
140
6.0
170
     5
 62
     0
 63
     7
283
     0
274
    -2
284
     1
 64
     0
275
    -2
285
     1
 65
     0
276
    -2
286
     1
 66
     0
277
    -2
287
     1
 67
     0
278
    -2
288
     1
 68
     0
279
    -2
289
     1
 69
     0
  7
STANDARD
140
4.5
170
     5
 62
     0
 63
     7
283
     0
274
    -2
284
     1
 64
     0
275
    -2
285
     1
 65
     0
276
    -2
286
     1
 66
     0
277
    -2
287
     1
 67
     0
278
    -2
288
     1
 68
     0
279
    -2
289
     1
 69
     0
  0
DICTIONARYVAR
  5
680B
102
{ACAD_REACTORS
330
BD2
102
}
330
BD2
100
DictionaryVariables
280
     0
  1
STANDARD
  0
DICTIONARYVAR
  5
BD4
102
{ACAD_REACTORS
330
BD2
102
}
330
BD2
100
DictionaryVariables
280
     0
  1
1
  0
DICTIONARYVAR
  5
BD3
102
{ACAD_REACTORS
330
BD2
102
}
330
BD2
100
DictionaryVariables
280
     0
  1
0
  0
DICTIONARYVAR
  5
680C
102
{ACAD_REACTORS
330
BD2
102
}
330
BD2
100
DictionaryVariables
280
     0
  1

  0
DICTIONARY
  5
7C8
102
{ACAD_REACTORS
330
7C2
102
}
330
7C2
100
AcDbDictionary
281
     1
1001
ACAD
1000
TREAT_AS_HARD
1070
     0
  0
XRECORD
  5
629C
102
{ACAD_REACTORS
330
7C2
102
}
330
7C2
100
AcDbXrecord
280
     1
 90
-1023410169
  0
DICTIONARY
  5
6FD8
330
B34
100
AcDbDictionary
280
     1
281
     1
  3
ACAD_XREC_ROUNDTRIP
360
6FD9
  0
DICTIONARY
  5
6FD6
330
B33
100
AcDbDictionary
280
     1
281
     1
  3
ACAD_XREC_ROUNDTRIP
360
6FD7
  0
XRECORD
  5
6FD9
102
{ACAD_REACTORS
330
6FD8
102
}
330
6FD8
100
AcDbXrecord
280
     1
102
SHADEPLOT
 70
     0
102
SHADEPLOTRESLEVEL
 70
     2
102
SHADEPLOTCUSTOMDPI
 70
   300
  0
XRECORD
  5
6FD7
102
{ACAD_REACTORS
330
6FD6
102
}
330
6FD6
100
AcDbXrecord
280
     1
102
SHADEPLOT
 70
     0
102
SHADEPLOTRESLEVEL
 70
     2
102
SHADEPLOTCUSTOMDPI
 70
   300
  0
ENDSEC
  0
EOF
