  0
SECTION
  2
HEADER
  9
$ACADVER
  1
AC1015
  9
$ACADMAINTVER
 70
    20
  9
$DWGCODEPAGE
  3
ANSI_950
  9
$INSBASE
 10
0.0
 20
0.0
 30
0.0
  9
$EXTMIN
 10
-180.1219453096892
 20
99.20542992713786
 30
-0.0311618054458904
  9
$EXTMAX
 10
931.8865903912142
 20
768.6485374435374
 30
989.3424606722017
  9
$LIMMIN
 10
0.0
 20
0.0
  9
$LIMMAX
 10
396.0
 20
273.0
  9
$ORTHOMODE
 70
     1
  9
$REGENMODE
 70
     1
  9
$FILLMODE
 70
     1
  9
$QTEXTMODE
 70
     0
  9
$MIRRTEXT
 70
     1
  9
$LTSCALE
 40
3.0
  9
$ATTMODE
 70
     1
  9
$TEXTSIZE
 40
3.0
  9
$TRACEWID
 40
0.05
  9
$TEXTSTYLE
  7
DAYUS
  9
$CLAYER
  8
0
  9
$CELTYPE
  6
BYLAYER
  9
$CECOLOR
 62
   256
  9
$CELTSCALE
 40
1.0
  9
$DISPSILH
 70
     0
  9
$DIMSCALE
 40
1.0
  9
$DIMASZ
 40
2.0
  9
$DIMEXO
 40
1.0
  9
$DIMDLI
 40
5.0
  9
$DIMRND
 40
0.0
  9
$DIMDLE
 40
0.0
  9
$DIMEXE
 40
1.5
  9
$DIMTP
 40
0.1
  9
$DIMTM
 40
0.1
  9
$DIMTXT
 40
2.0
  9
$DIMCEN
 40
3.0
  9
$DIMTSZ
 40
0.0
  9
$DIMTOL
 70
     0
  9
$DIMLIM
 70
     0
  9
$DIMTIH
 70
     0
  9
$DIMTOH
 70
     0
  9
$DIMSE1
 70
     0
  9
$DIMSE2
 70
     0
  9
$DIMTAD
 70
     1
  9
$DIMZIN
 70
     8
  9
$DIMBLK
  1

  9
$DIMASO
 70
     1
  9
$DIMSHO
 70
     0
  9
$DIMPOST
  1

  9
$DIMAPOST
  1
"
  9
$DIMALT
 70
     0
  9
$DIMALTD
 70
     2
  9
$DIMALTF
 40
0.0393701
  9
$DIMLFAC
 40
1.0
  9
$DIMTOFL
 70
     1
  9
$DIMTVP
 40
0.0
  9
$DIMTIX
 70
     0
  9
$DIMSOXD
 70
     0
  9
$DIMSAH
 70
     0
  9
$DIMBLK1
  1

  9
$DIMBLK2
  1

  9
$DIMSTYLE
  2
AM_ISO
  9
$DIMCLRD
 70
   256
  9
$DIMCLRE
 70
   256
  9
$DIMCLRT
 70
   256
  9
$DIMTFAC
 40
0.71
  9
$DIMGAP
 40
0.6
  9
$DIMJUST
 70
     0
  9
$DIMSD1
 70
     0
  9
$DIMSD2
 70
     0
  9
$DIMTOLJ
 70
     0
  9
$DIMTZIN
 70
     8
  9
$DIMALTZ
 70
     0
  9
$DIMALTTZ
 70
     0
  9
$DIMUPT
 70
     0
  9
$DIMDEC
 70
     2
  9
$DIMTDEC
 70
     8
  9
$DIMALTU
 70
     2
  9
$DIMALTTD
 70
     2
  9
$DIMTXSTY
  7
STANDARD
  9
$DIMAUNIT
 70
     0
  9
$DIMADEC
 70
     0
  9
$DIMALTRND
 40
0.0
  9
$DIMAZIN
 70
     2
  9
$DIMDSEP
 70
    46
  9
$DIMATFIT
 70
     3
  9
$DIMFRAC
 70
     0
  9
$DIMLDRBLK
  1

  9
$DIMLUNIT
 70
     2
  9
$DIMLWD
 70
    -1
  9
$DIMLWE
 70
    -1
  9
$DIMTMOVE
 70
     0
  9
$LUNITS
 70
     2
  9
$LUPREC
 70
     2
  9
$SKETCHINC
 40
0.1
  9
$FILLETRAD
 40
2.5
  9
$AUNITS
 70
     0
  9
$AUPREC
 70
     0
  9
$MENU
  1
C:\CACAD\ACAD
  9
$ELEVATION
 40
0.0
  9
$PELEVATION
 40
0.0
  9
$THICKNESS
 40
0.0
  9
$LIMCHECK
 70
     0
  9
$CHAMFERA
 40
3.0
  9
$CHAMFERB
 40
3.0
  9
$CHAMFERC
 40
0.0
  9
$CHAMFERD
 40
0.0
  9
$SKPOLY
 70
     0
  9
$TDCREATE
 40
2450294.602131481
  9
$TDUCREATE
 40
2450294.268798149
  9
$TDUPDATE
 40
2453388.428482778
  9
$TDUUPDATE
 40
2453388.095149445
  9
$TDINDWG
 40
0.4491396065
  9
$TDUSRTIMER
 40
0.4491363542
  9
$USRTIMER
 70
     1
  9
$ANGBASE
 50
0.0
  9
$ANGDIR
 70
     0
  9
$PDMODE
 70
    65
  9
$PDSIZE
 40
8.3
  9
$PLINEWID
 40
0.0
  9
$SPLFRAME
 70
     0
  9
$SPLINETYPE
 70
     6
  9
$SPLINESEGS
 70
     8
  9
$HANDSEED
  5
7329
  9
$SURFTAB1
 70
     6
  9
$SURFTAB2
 70
     6
  9
$SURFTYPE
 70
     6
  9
$SURFU
 70
     6
  9
$SURFV
 70
     6
  9
$UCSBASE
  2

  9
$UCSNAME
  2

  9
$UCSORG
 10
0.0
 20
0.0
 30
0.0
  9
$UCSXDIR
 10
1.0
 20
0.0
 30
0.0
  9
$UCSYDIR
 10
0.0
 20
1.0
 30
0.0
  9
$UCSORTHOREF
  2

  9
$UCSORTHOVIEW
 70
     0
  9
$UCSORGTOP
 10
0.0
 20
0.0
 30
0.0
  9
$UCSORGBOTTOM
 10
0.0
 20
0.0
 30
0.0
  9
$UCSORGLEFT
 10
0.0
 20
0.0
 30
0.0
  9
$UCSORGRIGHT
 10
0.0
 20
0.0
 30
0.0
  9
$UCSORGFRONT
 10
0.0
 20
0.0
 30
0.0
  9
$UCSORGBACK
 10
0.0
 20
0.0
 30
0.0
  9
$PUCSBASE
  2

  9
$PUCSNAME
  2

  9
$PUCSORG
 10
0.0
 20
0.0
 30
0.0
  9
$PUCSXDIR
 10
1.0
 20
0.0
 30
0.0
  9
$PUCSYDIR
 10
0.0
 20
1.0
 30
0.0
  9
$PUCSORTHOREF
  2

  9
$PUCSORTHOVIEW
 70
     0
  9
$PUCSORGTOP
 10
0.0
 20
0.0
 30
0.0
  9
$PUCSORGBOTTOM
 10
0.0
 20
0.0
 30
0.0
  9
$PUCSORGLEFT
 10
0.0
 20
0.0
 30
0.0
  9
$PUCSORGRIGHT
 10
0.0
 20
0.0
 30
0.0
  9
$PUCSORGFRONT
 10
0.0
 20
0.0
 30
0.0
  9
$PUCSORGBACK
 10
0.0
 20
0.0
 30
0.0
  9
$USERI1
 70
     0
  9
$USERI2
 70
     0
  9
$USERI3
 70
     0
  9
$USERI4
 70
     0
  9
$USERI5
 70
     0
  9
$USERR1
 40
0.0
  9
$USERR2
 40
0.0
  9
$USERR3
 40
0.0
  9
$USERR4
 40
0.0
  9
$USERR5
 40
0.0
  9
$WORLDVIEW
 70
     1
  9
$SHADEDGE
 70
     3
  9
$SHADEDIF
 70
    70
  9
$TILEMODE
 70
     1
  9
$MAXACTVP
 70
    16
  9
$PINSBASE
 10
101.9887994410416
 20
50.0
 30
155.412184630939
  9
$PLIMCHECK
 70
     0
  9
$PEXTMIN
 10
1.000000000000000E+20
 20
1.000000000000000E+20
 30
1.000000000000000E+20
  9
$PEXTMAX
 10
-1.000000000000000E+20
 20
-1.000000000000000E+20
 30
-1.000000000000000E+20
  9
$PLIMMIN
 10
0.0
 20
0.0
  9
$PLIMMAX
 10
12.0
 20
9.0
  9
$UNITMODE
 70
     0
  9
$VISRETAIN
 70
     0
  9
$PLINEGEN
 70
     0
  9
$PSLTSCALE
 70
     0
  9
$TREEDEPTH
 70
  3020
  9
$CMLSTYLE
  2
STANDARD
  9
$CMLJUST
 70
     0
  9
$CMLSCALE
 40
1.0
  9
$PROXYGRAPHICS
 70
     1
  9
$MEASUREMENT
 70
     1
  9
$CELWEIGHT
370
    -1
  9
$ENDCAPS
280
     0
  9
$JOINSTYLE
280
     0
  9
$LWDISPLAY
290
     0
  9
$INSUNITS
 70
     4
  9
$HYPERLINKBASE
  1

  9
$STYLESHEET
  1
彩色出圖.ctb
  9
$XEDIT
290
     1
  9
$CEPSNTYPE
380
     0
  9
$PSTYLEMODE
290
     1
  9
$FINGERPRINTGUID
  2
{727C4F51-B094-446D-A919-594C4FA4BCB3}
  9
$VERSIONGUID
  2
{6E18966C-B96F-4105-BA30-5DE30B4BF0DD}
  9
$EXTNAMES
290
     1
  9
$PSVPSCALE
 40
0.0
  9
$OLESTARTUP
290
     0
  0
ENDSEC
  0
SECTION
  2
CLASSES
  0
CLASS
  1
ACDBDICTIONARYWDFLT
  2
AcDbDictionaryWithDefault
  3
ObjectDBX Classes
 90
        0
280
     0
281
     0
  0
CLASS
  1
ACDBPLACEHOLDER
  2
AcDbPlaceHolder
  3
ObjectDBX Classes
 90
        0
280
     0
281
     0
  0
CLASS
  1
LAYOUT
  2
AcDbLayout
  3
ObjectDBX Classes
 90
        0
280
     0
281
     0
  0
CLASS
  1
IMAGEDEF
  2
AcDbRasterImageDef
  3
ISM
 90
        0
280
     0
281
     0
  0
CLASS
  1
ACME_DOCUMENT
  2
AcMeDbDoc
  3
AcMeServices
 90
        0
280
     0
281
     0
  0
CLASS
  1
AMGSETTINGSOBJ
  2
AmgSettingsObj
  3
"AcadM|Product Description: AutoCAD Mechanical 2000|Company: Autodesk"
 90
        0
280
     0
281
     0
  0
CLASS
  1
ACMESCOPE
  2
AcMeScope
  3
AcMeServices
 90
        0
280
     0
281
     0
  0
CLASS
  1
ACMECOMMANDHISTORY
  2
AcMeCommandHistory
  3
AcMeServices
 90
        0
280
     0
281
     0
  0
CLASS
  1
ACIMSYSVARMAN
  2
AcImSysVarManager
  3
AcMeServices
 90
        0
280
     0
281
     0
  0
CLASS
  1
ACIMREALSYSVAR
  2
AcImRealSysVar
  3
AcMeServices
 90
        0
280
     0
281
     0
  0
CLASS
  1
ACIMINTSYSVAR
  2
AcImIntSysVar
  3
AcMeServices
 90
        0
280
     0
281
     0
  0
CLASS
  1
ACMEDRAWINGMAN
  2
AcMeDrawingMan
  3
AcMeServices
 90
        0
280
     0
281
     0
  0
CLASS
  1
ACMEVIEW
  2
AcMeView
  3
AcMeServices
 90
        0
280
     0
281
     0
  0
CLASS
  1
ACDBENTITYCACHE
  2
AcMeEntityCache
  3
AcMeServices
 90
        0
280
     0
281
     0
  0
CLASS
  1
GSMANAGER
  2
AcMeGSManager
  3
AcMeServices
 90
        0
280
     0
281
     0
  0
CLASS
  1
AMDTINTERNALREACTOR
  2
AmdtInternalReactor
  3
AcMeServices
 90
        0
280
     0
281
     0
  0
CLASS
  1
ACMESTATEMGR
  2
AcMeStateMgr
  3
AcMeServices
 90
        0
280
     0
281
     0
  0
CLASS
  1
ACGREFMASTER
  2
AcGrefMaster
  3
AcAttribServices
 90
        0
280
     0
281
     0
  0
CLASS
  1
ACME_DATABASE
  2
AcMeDbDatabase
  3
AcMeServices
 90
        0
280
     0
281
     0
  0
CLASS
  1
ACRFINSADJUSTERMGR
  2
AcRfInsAdjusterMgr
  3
AcMeServices
 90
        0
280
     0
281
     0
  0
CLASS
  1
ACGREFACADMASTER
  2
AcGrefacadMaster
  3
AcGrefServices
 90
        0
280
     0
281
     0
  0
CLASS
  1
AMIMASTER
  2
AmiMaster
  3
AmiServices
 90
        0
280
     0
281
     0
  0
CLASS
  1
ACMDATADICTIONARY
  2
AcmDataDictionary
  3
"AcmSymBB|Product Description: AutoCAD Mechanical 2004 DX|Company: Autodesk"
 90
        0
280
     0
281
     0
  0
CLASS
  1
ACMDATAENTRYBLOCK
  2
AcmDataEntryBlock
  3
"AcmSymBB|Product Description: AutoCAD Mechanical 2004 DX|Company: Autodesk"
 90
    32768
280
     0
281
     0
  0
CLASS
  1
ACIMSTRSYSVAR
  2
AcImStrSysVar
  3
AcMeServices
 90
        0
280
     0
281
     0
  0
CLASS
  1
ACMSTANDARDANSI
  2
AcmStandardANSI
  3
"Amdt_StdImp|Product Description: AutoCAD Mechanical 2004 DX|Company: Autodesk"
 90
    32768
280
     0
281
     0
  0
CLASS
  1
AMGOBJPROPCFG
  2
AmgObjPropCfg
  3
"AmgLay|Product Description: AutoCAD Mechanical 2000|Company: Autodesk"
 90
        1
280
     0
281
     0
  0
CLASS
  1
ACMSURFSTANDARDANSI
  2
AcmSurfTextStdANSI
  3
"Amdt_StdImp|Product Description: AutoCAD Mechanical 2004 DX|Company: Autodesk"
 90
    32768
280
     0
281
     0
  0
CLASS
  1
ACMFCFSTANDARDANSI
  2
AcmFCFStdANSI
  3
"Amdt_StdImp|Product Description: AutoCAD Mechanical 2004 DX|Company: Autodesk"
 90
    32768
280
     0
281
     0
  0
CLASS
  1
ACMWELDSTANDARDANSI
  2
AcmWeldingStdANSI
  3
"Amdt_StdImp|Product Description: AutoCAD Mechanical 2004 DX|Company: Autodesk"
 90
    32768
280
     0
281
     0
  0
CLASS
  1
ACMIDSTANDARDANSI
  2
AcmIdStdANSI
  3
"Amdt_StdImp|Product Description: AutoCAD Mechanical 2004 DX|Company: Autodesk"
 90
    32768
280
     0
281
     0
  0
CLASS
  1
ACMDATUMSTANDARDANSI
  2
AcmDatumStdANSI
  3
"Amdt_StdImp|Product Description: AutoCAD Mechanical 2004 DX|Company: Autodesk"
 90
    32768
280
     0
281
     0
  0
CLASS
  1
ACMBOMSTANDARDANSI
  2
AcmBOMStdANSI
  3
"Amdt_StdImp|Product Description: AutoCAD Mechanical 2004 DX|Company: Autodesk"
 90
    32768
280
     0
281
     0
  0
CLASS
  1
ACMDETAILSTANDARDANSI
  2
AmdtDetailSymStdANSI
  3
"Amdt_StdImp|Product Description: AutoCAD Mechanical 2004 DX|Company: Autodesk"
 90
    32768
280
     0
281
     0
  0
CLASS
  1
ACMSECTIONSTANDARDANSI
  2
AmdtSectionSymStdANSI
  3
"Amdt_StdImp|Product Description: AutoCAD Mechanical 2004 DX|Company: Autodesk"
 90
    32768
280
     0
281
     0
  0
CLASS
  1
ACMCENTERLINESTANDARDANSI
  2
AmdtCenterLineStdANSI
  3
"Amdt_StdImp|Product Description: AutoCAD Mechanical 2004 DX|Company: Autodesk"
 90
    32768
280
     0
281
     0
  0
CLASS
  1
ACMNOTESTANDARDANSI
  2
AmdtNoteStdANSI
  3
"Amdt_StdImp|Product Description: AutoCAD Mechanical 2004 DX|Company: Autodesk"
 90
    32768
280
     0
281
     0
  0
CLASS
  1
ACAMGLAYSTD
  2
AcAmgLayStd
  3
"AcAmgLayStd|Product Description: AutoCAD Mechanical 2000|Company: Autodesk"
 90
        0
280
     0
281
     0
  0
CLASS
  1
ACAMGDIMSTD
  2
AcAmgDimStd
  3
"AcAmgDimStd|Product Description: AutoCAD Mechanical 2000|Company: Autodesk"
 90
        0
280
     0
281
     0
  0
CLASS
  1
ACAMGHOLECHARTSTDANSI
  2
AcAmgHoleChartStdANSI
  3
ACMSYMBB_MODULE_NAME
 90
    32768
280
     0
281
     0
  0
CLASS
  1
ACAMGTITLESTD
  2
AcAmgTitleStd
  3
"TITLEAPP"
 90
        0
280
     0
281
     0
  0
CLASS
  1
ACAMGFILTERDAT
  2
AcAmgFilterDat
  3
"AcadM|Product Description: AutoCAD Mechanical 2000|Company: Autodesk"
 90
    32768
280
     0
281
     0
  0
CLASS
  1
AMDTFORMULAUPDATEDISPATCHER
  2
AmdtFormulaUpdateDispatcher
  3
AcMeServices
 90
    32768
280
     0
281
     0
  0
CLASS
  1
LAYER_INDEX
  2
AcDbLayerIndex
  3
ObjectDBX Classes
 90
    32768
280
     0
281
     0
  0
CLASS
  1
IDBUFFER
  2
AcDbIdBuffer
  3
ObjectDBX Classes
 90
    32768
280
     0
281
     0
  0
CLASS
  1
DICTIONARYVAR
  2
AcDbDictionaryVar
  3
ObjectDBX Classes
 90
        0
280
     0
281
     0
  0
CLASS
  1
ACMSTANDARDISO
  2
AcmStandardISO
  3
"Amdt_StdImp|Product Description: AutoCAD Mechanical 2004 DX|Company: Autodesk"
 90
        0
280
     0
281
     0
  0
CLASS
  1
AMDTEDGESTANDARDISO
  2
AmdtEdgeStdISO
  3
"Amdt_StdImp|Product Description: AutoCAD Mechanical 2004 DX|Company: Autodesk"
 90
    32768
280
     0
281
     0
  0
CLASS
  1
ACMSURFSTANDARDISO
  2
AcmSurfTextStdISO
  3
"Amdt_StdImp|Product Description: AutoCAD Mechanical 2004 DX|Company: Autodesk"
 90
        0
280
     0
281
     0
  0
CLASS
  1
ACMFCFSTANDARDISO
  2
AcmFCFStdISO
  3
"Amdt_StdImp|Product Description: AutoCAD Mechanical 2004 DX|Company: Autodesk"
 90
        0
280
     0
281
     0
  0
CLASS
  1
ACMWELDSTANDARDISO
  2
AcmWeldingStdISO
  3
"Amdt_StdImp|Product Description: AutoCAD Mechanical 2004 DX|Company: Autodesk"
 90
        0
280
     0
281
     0
  0
CLASS
  1
ACMIDSTANDARDISO
  2
AcmIdStdISO
  3
"Amdt_StdImp|Product Description: AutoCAD Mechanical 2004 DX|Company: Autodesk"
 90
        0
280
     0
281
     0
  0
CLASS
  1
ACMDATUMSTANDARDISO
  2
AcmDatumStdISO
  3
"Amdt_StdImp|Product Description: AutoCAD Mechanical 2004 DX|Company: Autodesk"
 90
        0
280
     0
281
     0
  0
CLASS
  1
ACMBOMSTANDARDISO
  2
AcmBOMStdISO
  3
"Amdt_StdImp|Product Description: AutoCAD Mechanical 2004 DX|Company: Autodesk"
 90
        0
280
     0
281
     0
  0
CLASS
  1
ACMDETAILSTANDARDISO
  2
AmdtDetailSymStdISO
  3
"Amdt_StdImp|Product Description: AutoCAD Mechanical 2004 DX|Company: Autodesk"
 90
        0
280
     0
281
     0
  0
CLASS
  1
ACMSECTIONSTANDARDISO
  2
AmdtSectionSymStdISO
  3
"Amdt_StdImp|Product Description: AutoCAD Mechanical 2004 DX|Company: Autodesk"
 90
        0
280
     0
281
     0
  0
CLASS
  1
ACMCENTERLINESTANDARDISO
  2
AmdtCenterLineStdISO
  3
"Amdt_StdImp|Product Description: AutoCAD Mechanical 2004 DX|Company: Autodesk"
 90
        0
280
     0
281
     0
  0
CLASS
  1
ACMNOTESTANDARDISO
  2
AmdtNoteStdISO
  3
"Amdt_StdImp|Product Description: AutoCAD Mechanical 2004 DX|Company: Autodesk"
 90
        0
280
     0
281
     0
  0
CLASS
  1
ACAMGHOLECHARTSTDISO
  2
AcAmgHoleChartStdISO
  3
ACMSYMBB_MODULE_NAME
 90
        0
280
     0
281
     0
  0
CLASS
  1
AMDTNOTE
  2
AmdtNote
  3
"AcmSymBB|Product Description: AutoCAD Mechanical 2004 DX|Company: Autodesk"
 90
    33791
280
     0
281
     1
  0
CLASS
  1
STDPART2D
  2
AmgStdPart
  3
"AmgStdPart|Product Description: AutoCAD Mechanical 2000|Company: Autodesk"
 90
    33791
280
     0
281
     1
  0
CLASS
  1
TABLESTYLE
  2
AcDbTableStyle
  3
ObjectDBX Classes
 90
     2047
280
     0
281
     0
  0
CLASS
  1
AM_DRAWING_MGR
  2
AcDmDwgMgr
  3
AcMechDwgViewMgmt
 90
        0
280
     0
281
     0
  0
CLASS
  1
AM_DWG_DOCUMENT
  2
AcDmDwgDocument
  3
AcMechDwgViewMgmt
 90
        0
280
     0
281
     0
  0
CLASS
  1
AM_DWG_SHEET
  2
AcDmSheet
  3
AcMechDwgViewMgmt
 90
        0
280
     0
281
     0
  0
CLASS
  1
AM_VIEWDIMPARMAP
  2
AcDmViewDimParMap
  3
AcMechDwgViewMgmt
 90
        0
280
     0
281
     0
  0
CLASS
  1
AM_DWGMGR_NAME
  2
AcDmDwgMgrName
  3
AcMechDwgViewMgmt
 90
        0
280
     0
281
     0
  0
CLASS
  1
AMDTMENUSTATEMGR
  2
AmdtMenuStateMgr
  3
McadcomServices
 90
        0
280
     0
281
     0
  0
CLASS
  1
AMDTMCOMMENUSTATE
  2
AmdtMcomMenuState
  3
McadcomServices
 90
        0
280
     0
281
     0
  0
CLASS
  1
MAPIAMMOUDLE
  2
MApiAmModule
  3
MApiAmServices
 90
        0
280
     0
281
     0
  0
CLASS
  1
AMDTADMENUSTATE
  2
AmdtAdMenuState
  3
DesignerServices
 90
        0
280
     0
281
     0
  0
CLASS
  1
ADAPPL
  2
AcAdAppl
  3
DesignerServices
 90
        0
280
     0
281
     0
  0
CLASS
  1
DEPMGR
  2
AcAdDepMgr
  3
DesignerServices
 90
        0
280
     0
281
     0
  0
CLASS
  1
PARAMMGR
  2
AcAdParamMgr
  3
DesignerServices
 90
        0
280
     0
281
     0
  0
CLASS
  1
PARAMSCOPE
  2
AcAdParamScope
  3
DesignerServices
 90
        0
280
     0
281
     0
  0
CLASS
  1
NAMEDAPPL
  2
AcAdNamedAppl
  3
DesignerServices
 90
        0
280
     0
281
     0
  0
CLASS
  1
AMDTDMMENUSTATE
  2
AmdtDmMenuState
  3
AcMechDwgViewMgmt
 90
        0
280
     0
281
     0
  0
CLASS
  1
AMDTAMMENUSTATE
  2
AmdtAmMenuState
  3
DesignerAssemblies
 90
        0
280
     0
281
     0
  0
CLASS
  1
ACAMPROJECT
  2
AcAmProject
  3
DesignerAssemblies
 90
        0
280
     0
281
     0
  0
CLASS
  1
ACAMGRCOMPDEF
  2
AcAmGrCompDef
  3
DesignerAssemblies
 90
        0
280
     0
281
     0
  0
CLASS
  1
ACCMCONTEXT
  2
AcCmContext
  3
DesignerAssemblies
 90
        0
280
     0
281
     0
  0
CLASS
  1
ACAMCOMPDEF
  2
AcAmCompDef
  3
DesignerAssemblies
 90
        0
280
     0
281
     0
  0
CLASS
  1
ACAMCOMPDEFMGR
  2
AcAmCompDefMgr
  3
DesignerAssemblies
 90
        0
280
     0
281
     0
  0
CLASS
  1
AMCONTEXTMGR
  2
AcAmContextMgr
  3
DesignerAssemblies
 90
        0
280
     0
281
     0
  0
CLASS
  1
ACAMCONTEXTMODELER
  2
AcAmContextModeler
  3
DesignerAssemblies
 90
        0
280
     0
281
     0
  0
CLASS
  1
ACMTHREADLINESTANDARDISO
  2
AmdtThreadLineStdISO
  3
"Amdt_StdImp|Product Description: AutoCAD Mechanical 2004 DX|Company: Autodesk"
 90
        0
280
     0
281
     0
  0
CLASS
  1
ACMTHREADLINESTANDARDANSI
  2
AmdtThreadLineStdANSI
  3
"Amdt_StdImp|Product Description: AutoCAD Mechanical 2004 DX|Company: Autodesk"
 90
    32768
280
     0
281
     0
  0
CLASS
  1
CATALOGSTATE
  2
AcAmCatalogState
  3
DesignerAssemblies
 90
        0
280
     0
281
     0
  0
CLASS
  1
ACAMGRCOMPDEFSET
  2
AcAmGrCompDefSet
  3
DesignerAssemblies
 90
        0
280
     0
281
     0
  0
CLASS
  1
AMDTBROWSERDBTAB
  2
AmdtBrowserDbTab
  3
McadcomServices
 90
        0
280
     0
281
     0
  0
CLASS
  1
CBROWSERAPPOBJECT
  2
CBrowserAppObject
  3
McadcomServices
 90
        0
280
     0
281
     0
  0
CLASS
  1
DM_PLACEHOLDER
  2
AcDmSelsetPlaceholder
  3
AcMechDwgViewMgmt
 90
        0
280
     0
281
     0
  0
CLASS
  1
VAACXREFPANELOBJECT
  2
VaAcXREFPanelObject
  3
VAAC_ADDIN
 90
        0
280
     0
281
     0
  0
CLASS
  1
VAACIMAGEINVENTORY
  2
VaAcImageInventory
  3
VAAC_ADDIN
 90
        0
280
     0
281
     0
  0
CLASS
  1
SORTENTSTABLE
  2
AcDbSortentsTable
  3
ObjectDBX Classes
 90
    32768
280
     0
281
     0
  0
CLASS
  1
ACRFATTGENMGR
  2
AcRfAttGeneralMgr
  3
AcAttribServices
 90
        0
280
     0
281
     0
  0
CLASS
  1
AMDTEDGESTANDARDISO13715
  2
AmdtEdgeStdISO13715
  3
"Amdt_StdImp|Product Description: AutoCAD Mechanical 2004 DX|Company: Autodesk"
 90
        0
280
     0
281
     0
  0
CLASS
  1
AMDTNOTETEMPLATEDB
  2
AmdtNoteTemplateDB
  3
AMDT_STDIMP_MODULE_NAME
 90
        0
280
     0
281
     0
  0
ENDSEC
  0
SECTION
  2
TABLES
  0
TABLE
  2
VPORT
  5
8
330
0
100
AcDbSymbolTable
 70
     3
  0
VPORT
  5
7322
330
8
100
AcDbSymbolTableRecord
100
AcDbViewportTableRecord
  2
*Active
 70
     0
 10
0.0
 20
0.0
 11
1.0
 21
1.0
 12
375.8823199514288
 22
433.9430627406552
 13
0.0
 23
0.0
 14
2.5
 24
2.5
 15
10.0
 25
10.0
 16
0.0
 26
0.0
 36
1.0
 17
0.0
 27
0.0
 37
0.0
 40
677.0176960179322
 41
1.81766917293233
 42
50.0
 43
0.0
 44
0.0
 50
0.0
 51
0.0
 71
     0
 72
   100
 73
     1
 74
     1
 75
     0
 76
     0
 77
     0
 78
     0
281
     0
 65
     1
110
0.0
120
0.0
130
0.0
111
1.0
121
0.0
131
0.0
112
0.0
122
1.0
132
0.0
 79
     0
146
0.0
  0
ENDTAB
  0
TABLE
  2
LTYPE
  5
5
330
0
100
AcDbSymbolTable
 70
    16
  0
LTYPE
  5
13
330
5
100
AcDbSymbolTableRecord
100
AcDbLinetypeTableRecord
  2
BYBLOCK
 70
     0
  3

 72
    65
 73
     0
 40
0.0
  0
LTYPE
  5
14
330
5
100
AcDbSymbolTableRecord
100
AcDbLinetypeTableRecord
  2
BYLAYER
 70
     0
  3

 72
    65
 73
     0
 40
0.0
  0
LTYPE
  5
15
330
5
100
AcDbSymbolTableRecord
100
AcDbLinetypeTableRecord
  2
CONTINUOUS
 70
     0
  3
Solid line
 72
    65
 73
     0
 40
0.0
  0
LTYPE
  5
23
330
5
100
AcDbSymbolTableRecord
100
AcDbLinetypeTableRecord
  2
HIDDEN
 70
     0
  3
_ _ _ _ _ _ _ _ _ _ _ _ _ _ _ _ _ _ _ _ _ _ _
 72
    65
 73
     2
 40
0.375
 49
0.25
 74
     0
 49
-0.125
 74
     0
  0
LTYPE
  5
24
330
5
100
AcDbSymbolTableRecord
100
AcDbLinetypeTableRecord
  2
CENTER
 70
     0
  3
____ _ ____ _ ____ _ ____ _ ____ _ ____ _ ____
 72
    65
 73
     4
 40
2.0
 49
1.25
 74
     0
 49
-0.25
 74
     0
 49
0.25
 74
     0
 49
-0.25
 74
     0
  0
LTYPE
  5
7CE
330
5
100
AcDbSymbolTableRecord
100
AcDbLinetypeTableRecord
  2
AMCONSTR
 70
     0
  3
_______________________
 72
    65
 73
     2
 40
9999.0
 49
9999.0
 74
     0
 49
0.0
 74
     0
  0
LTYPE
  5
7CF
330
5
100
AcDbSymbolTableRecord
100
AcDbLinetypeTableRecord
  2
AM_ISO08W050X2
 70
     0
  3
__ . __ . __ . __ . __ . __
 72
    65
 73
     4
 40
9.0
 49
6.0
 74
     0
 49
-0.75
 74
     0
 49
1.5
 74
     0
 49
-0.75
 74
     0
  0
LTYPE
  5
7D4
330
5
100
AcDbSymbolTableRecord
100
AcDbLinetypeTableRecord
  2
PHANTOM2
 70
     0
  3
Phantom (.5x) ___ _ _ ___ _ _ ___ _ _ ___ _ _
 72
    65
 73
     6
 40
1.25
 49
0.625
 74
     0
 49
-0.125
 74
     0
 49
0.125
 74
     0
 49
-0.125
 74
     0
 49
0.125
 74
     0
 49
-0.125
 74
     0
  0
LTYPE
  5
7E3
330
5
100
AcDbSymbolTableRecord
100
AcDbLinetypeTableRecord
  2
ACANSTGB
 70
     0
  3
__ . . __ . .
 72
    65
 73
     6
 40
0.35433070866
 49
0.15748031496
 74
     0
 49
-0.03937007874
 74
     0
 49
0.03937007874
 74
     0
 49
-0.03937007874
 74
     0
 49
0.03937007874
 74
     0
 49
-0.03937007874
 74
     0
  0
LTYPE
  5
7E4
330
5
100
AcDbSymbolTableRecord
100
AcDbLinetypeTableRecord
  2
ACANSTGL
 70
     0
  3
_ _ _ _ _
 72
    65
 73
     2
 40
0.11811023622
 49
0.07874015748
 74
     0
 49
-0.03937007874
 74
     0
  0
LTYPE
  5
C13
330
5
100
AcDbSymbolTableRecord
100
AcDbLinetypeTableRecord
  2
ACISOWELD
 70
     0
  3
_ _ _ _ _
 72
    65
 73
     2
 40
2.0
 49
2.0
 74
     0
 49
-1.0
 74
     0
  0
LTYPE
  5
C14
330
5
100
AcDbSymbolTableRecord
100
AcDbLinetypeTableRecord
  2
ACISOTGB
 70
     0
  3
__ . . __ . .
 72
    65
 73
     6
 40
9.0
 49
4.0
 74
     0
 49
-1.0
 74
     0
 49
1.0
 74
     0
 49
-1.0
 74
     0
 49
1.0
 74
     0
 49
-1.0
 74
     0
  0
LTYPE
  5
C15
330
5
100
AcDbSymbolTableRecord
100
AcDbLinetypeTableRecord
  2
ACISOTGL
 70
     0
  3
_ _ _ _ _
 72
    65
 73
     2
 40
3.0
 49
2.0
 74
     0
 49
-1.0
 74
     0
  0
LTYPE
  5
16FD
330
5
100
AcDbSymbolTableRecord
100
AcDbLinetypeTableRecord
  2
AM_ISO02W050
 70
     0
  3
__ __ __ __ __ __ __ __ __ __ __ __ __ __ __
 72
    65
 73
     2
 40
7.5
 49
6.0
 74
     0
 49
-1.5
 74
     0
  0
LTYPE
  5
16FE
330
5
100
AcDbSymbolTableRecord
100
AcDbLinetypeTableRecord
  2
AM_ISO08W050
 70
     0
  3
____ . ____ . ____ . ____ . ____ . ____ . ____
 72
    65
 73
     4
 40
18.0
 49
12.0
 74
     0
 49
-1.5
 74
     0
 49
3.0
 74
     0
 49
-1.5
 74
     0
  0
LTYPE
  5
16FF
330
5
100
AcDbSymbolTableRecord
100
AcDbLinetypeTableRecord
  2
AM_ISO09W050
 70
     0
  3
_____ . . _____ . . _____ . . ____ .. ____
 72
    65
 73
     6
 40
22.5
 49
12.0
 74
     0
 49
-1.5
 74
     0
 49
3.0
 74
     0
 49
-1.5
 74
     0
 49
3.0
 74
     0
 49
-1.5
 74
     0
  0
LTYPE
  5
1700
330
5
100
AcDbSymbolTableRecord
100
AcDbLinetypeTableRecord
  2
AM_ISO02W050x2
 70
     0
  3
 _ _ _ _ _ _ _ _ _ _ _ _
 72
    65
 73
     2
 40
3.75
 49
3.0
 74
     0
 49
-0.75
 74
     0
  0
LTYPE
  5
1701
330
5
100
AcDbSymbolTableRecord
100
AcDbLinetypeTableRecord
  2
Amzigzag
 70
     0
  3
/\/-/\/-/\/-/\/-/\/-/\/
 72
    65
 73
     2
 40
11.0001
 49
0.0001
 74
     4
 75
   135
340
7D2
 46
0.04
 50
0.0
 44
0.0
 45
0.0
 49
-11.0
 74
     0
  0
ENDTAB
  0
TABLE
  2
LAYER
  5
2
102
{ACAD_XDICTIONARY
360
6C50
102
}
330
0
100
AcDbSymbolTable
 70
     7
  0
LAYER
  5
10
330
2
100
AcDbSymbolTableRecord
100
AcDbLayerTableRecord
  2
0
 70
     0
 62
     7
  6
CONTINUOUS
370
    -3
390
B32
  0
LAYER
  5
26
330
2
100
AcDbSymbolTableRecord
100
AcDbLayerTableRecord
  2
DEFPOINTS
 70
     0
 62
     7
  6
CONTINUOUS
290
     0
370
    -3
390
B32
  0
LAYER
  5
516
330
2
100
AcDbSymbolTableRecord
100
AcDbLayerTableRecord
  2
ASHADE
 70
     0
 62
     7
  6
CONTINUOUS
370
    -3
390
B32
  0
LAYER
  5
7F7
330
2
100
AcDbSymbolTableRecord
100
AcDbLayerTableRecord
  2
LOGO
 70
     0
 62
     7
  6
CONTINUOUS
370
    -3
390
B32
  0
LAYER
  5
2E05
330
2
100
AcDbSymbolTableRecord
100
AcDbLayerTableRecord
  2
CENTER
 70
     0
 62
     1
  6
CENTER
370
    -3
390
B32
  0
LAYER
  5
62F0
330
2
100
AcDbSymbolTableRecord
100
AcDbLayerTableRecord
  2
UMCL2
 70
     0
 62
     5
  6
CONTINUOUS
370
    -3
390
B32
  0
LAYER
  5
62F1
330
2
100
AcDbSymbolTableRecord
100
AcDbLayerTableRecord
  2
UMCL1
 70
     0
 62
     7
  6
CONTINUOUS
370
    -3
390
B32
  0
ENDTAB
  0
TABLE
  2
STYLE
  5
3
330
0
100
AcDbSymbolTable
 70
    10
  0
STYLE
  5
11
330
3
100
AcDbSymbolTableRecord
100
AcDbTextStyleTableRecord
  2
STANDARD
 70
     0
 40
0.0
 41
1.0
 50
0.0
 71
     0
 42
3.5
  3
ISOCP.SHX
  4

  0
STYLE
  5
22
330
3
100
AcDbSymbolTableRecord
100
AcDbTextStyleTableRecord
  2
DAYUS
 70
     0
 40
0.0
 41
1.0
 50
0.0
 71
     0
 42
3.0
  3
simplex
  4
dayus
  0
STYLE
  5
27B
330
3
100
AcDbSymbolTableRecord
100
AcDbTextStyleTableRecord
  2
CHINESET
 70
     0
 40
0.0
 41
1.0
 50
0.0
 71
     0
 42
4.0
  3
simplex.shx
  4
chineset.shx
  0
STYLE
  5
7D2
330
3
100
AcDbSymbolTableRecord
100
AcDbTextStyleTableRecord
  2

 70
     1
 40
0.0
 41
1.0
 50
0.0
 71
     0
 42
4.0
  3
ltypeshp.shx
  4

  0
STYLE
  5
7D7
330
3
100
AcDbSymbolTableRecord
100
AcDbTextStyleTableRecord
  2
ACANSTS
 70
     0
 40
1.0
 41
1.0
 50
0.0
 71
     0
 42
4.0
  3
romans.shx
  4
chineset.shx
  0
STYLE
  5
7E2
330
3
100
AcDbSymbolTableRecord
100
AcDbTextStyleTableRecord
  2
ACANSGDT
 70
     0
 40
0.0
 41
1.0
 50
0.0
 71
     0
 42
4.0
  3
amgdtans.shx
  4

  0
STYLE
  5
C19
330
3
100
AcDbSymbolTableRecord
100
AcDbTextStyleTableRecord
  2
ACISOTS
 70
     0
 40
1.0
 41
1.0
 50
0.0
 71
     0
 42
2.5
  3
isocp.shx
  4
chineset.shx
  0
STYLE
  5
C1A
330
3
100
AcDbSymbolTableRecord
100
AcDbTextStyleTableRecord
  2
ACISOGDT
 70
     0
 40
0.0
 41
1.0
 50
0.0
 71
     0
 42
2.5
  3
amgdt.shx
  4

  0
STYLE
  5
62F3
330
3
100
AcDbSymbolTableRecord
100
AcDbTextStyleTableRecord
  2
ROMANSS
 70
     0
 40
0.0
 41
1.0
 50
0.0
 71
     0
 42
3.0
  3
ROMANSS.SHX
  4
LMP
  0
ENDTAB
  0
TABLE
  2
VIEW
  5
6
330
0
100
AcDbSymbolTable
 70
     0
  0
ENDTAB
  0
TABLE
  2
UCS
  5
7
330
0
100
AcDbSymbolTable
 70
     0
  0
ENDTAB
  0
TABLE
  2
APPID
  5
9
330
0
100
AcDbSymbolTable
 70
    29
  0
APPID
  5
12
330
9
100
AcDbSymbolTableRecord
100
AcDbRegAppTableRecord
  2
ACAD
 70
     0
  0
APPID
  5
514
330
9
100
AcDbSymbolTableRecord
100
AcDbRegAppTableRecord
  2
AVE_RENDER
 70
     0
  0
APPID
  5
515
330
9
100
AcDbSymbolTableRecord
100
AcDbRegAppTableRecord
  2
AVE_ENTITY_MATERIAL
 70
     0
  0
APPID
  5
522
330
9
100
AcDbSymbolTableRecord
100
AcDbRegAppTableRecord
  2
AVE_FINISH
 70
     0
  0
APPID
  5
523
330
9
100
AcDbSymbolTableRecord
100
AcDbRegAppTableRecord
  2
AVE_MATERIAL
 70
     0
  0
APPID
  5
524
330
9
100
AcDbSymbolTableRecord
100
AcDbRegAppTableRecord
  2
AVE_GLOBAL
 70
     0
  0
APPID
  5
7AD
330
9
100
AcDbSymbolTableRecord
100
AcDbRegAppTableRecord
  2
MCAD_NO_VIS
 70
     0
  0
APPID
  5
7AE
330
9
100
AcDbSymbolTableRecord
100
AcDbRegAppTableRecord
  2
ACAD_TEMP_GRAPHIC
 70
     0
  0
APPID
  5
7BF
330
9
100
AcDbSymbolTableRecord
100
AcDbRegAppTableRecord
  2
ACATTRIBSERVICES
 70
     0
  0
APPID
  5
C22
330
9
100
AcDbSymbolTableRecord
100
AcDbRegAppTableRecord
  2
GENIUS_GENODEF_13
 70
     0
  0
APPID
  5
C23
330
9
100
AcDbSymbolTableRecord
100
AcDbRegAppTableRecord
  2
GENIUS_GENOREF_13
 70
     0
  0
APPID
  5
C24
330
9
100
AcDbSymbolTableRecord
100
AcDbRegAppTableRecord
  2
GENIUS_GENOBJ-N-CEN_13
 70
     0
  0
APPID
  5
16D2
330
9
100
AcDbSymbolTableRecord
100
AcDbRegAppTableRecord
  2
GENIUS_GENDTOL_13
 70
     0
  0
APPID
  5
353F
330
9
100
AcDbSymbolTableRecord
100
AcDbRegAppTableRecord
  2
GENIUS_GENDIMSH_14
 70
     0
  0
APPID
  5
4D84
330
9
100
AcDbSymbolTableRecord
100
AcDbRegAppTableRecord
  2
GEVID1082602174
 70
     0
  0
APPID
  5
4D85
330
9
100
AcDbSymbolTableRecord
100
AcDbRegAppTableRecord
  2
GEVDC
 70
     0
  0
APPID
  5
4D88
330
9
100
AcDbSymbolTableRecord
100
AcDbRegAppTableRecord
  2
GENIUS_GENBH_13
 70
     0
  0
APPID
  5
4D8E
330
9
100
AcDbSymbolTableRecord
100
AcDbRegAppTableRecord
  2
GENIUS_GENOLIS_13
 70
     0
  0
APPID
  5
4D8F
330
9
100
AcDbSymbolTableRecord
100
AcDbRegAppTableRecord
  2
GENIUS_GENOENT_13
 70
     0
  0
APPID
  5
4D90
330
9
100
AcDbSymbolTableRecord
100
AcDbRegAppTableRecord
  2
GENIUS_GENOBJ-NBEHI-BHF_13
 70
     0
  0
APPID
  5
4D92
330
9
100
AcDbSymbolTableRecord
100
AcDbRegAppTableRecord
  2
GENIUS_GENOBJ-NBEHI-BHB_13
 70
     0
  0
APPID
  5
5F39
330
9
100
AcDbSymbolTableRecord
100
AcDbRegAppTableRecord
  2
GEVID1082701535
 70
     0
  0
APPID
  5
5F3B
330
9
100
AcDbSymbolTableRecord
100
AcDbRegAppTableRecord
  2
GEVRADREF
 70
     0
  0
APPID
  5
62C2
330
9
100
AcDbSymbolTableRecord
100
AcDbRegAppTableRecord
  2
AD_DRAW
 70
     0
  0
APPID
  5
62E0
330
9
100
AcDbSymbolTableRecord
100
AcDbRegAppTableRecord
  2
DESIGNERASSEMBLIES
 70
     0
  0
APPID
  5
62E6
330
9
100
AcDbSymbolTableRecord
100
AcDbRegAppTableRecord
  2
ACADM_DIM_EDIT
 70
     0
  0
APPID
  5
62E7
330
9
100
AcDbSymbolTableRecord
100
AcDbRegAppTableRecord
  2
AMDT_DM_ADJ
 70
     0
  0
APPID
  5
67CA
330
9
100
AcDbSymbolTableRecord
100
AcDbRegAppTableRecord
  2
GENIUS_GENREC_14
 70
     0
  0
APPID
  5
67CB
330
9
100
AcDbSymbolTableRecord
100
AcDbRegAppTableRecord
  2
GENIUS_GENOBJ-N-REC_13
 70
     0
  0
ENDTAB
  0
TABLE
  2
DIMSTYLE
  5
A
330
0
100
AcDbSymbolTable
 70
    15
100
AcDbDimStyleTable
 71
     1
340
C1B
  0
DIMSTYLE
105
7E8
330
A
100
AcDbSymbolTableRecord
100
AcDbDimStyleTableRecord
  2
AM_ANSI
 70
     0
  4
mm
 41
0.1
 42
0.05
 43
0.5
 44
0.1
 47
0.1
 48
0.1
 78
     7
140
0.12
141
0.0
146
0.71
147
0.06
176
   256
177
   256
178
     2
274
     4
284
     7
340
11
  0
DIMSTYLE
105
7E9
330
A
100
AcDbSymbolTableRecord
100
AcDbDimStyleTableRecord
  2
AM_ANSI$3
 70
     0
  4
mm
 41
0.1
 42
0.05
 43
0.5
 44
0.1
 47
0.1
 48
0.1
 78
     7
140
0.12
141
0.0
146
0.71
147
0.06
176
   256
177
   256
178
     2
274
     4
284
     7
288
     1
340
11
  0
DIMSTYLE
105
7EA
330
A
100
AcDbSymbolTableRecord
100
AcDbDimStyleTableRecord
  2
AM_ANSI$4
 70
     0
  4
mm
 41
0.1
 42
0.05
 43
0.5
 44
0.1
 47
0.1
 48
0.1
 78
     7
140
0.12
141
0.0
146
0.71
147
0.06
176
   256
177
   256
178
     2
274
     4
284
     7
288
     1
340
11
  0
DIMSTYLE
105
7EB
330
A
100
AcDbSymbolTableRecord
100
AcDbDimStyleTableRecord
  2
AM_ANSI$7
 70
     0
  4
mm
 41
0.1
 42
0.05
 43
0.5
 44
0.1
 47
0.1
 48
0.1
 78
     7
140
0.24
141
0.0
146
0.71
147
0.06
176
   256
177
   256
178
     2
274
     4
284
     7
340
11
  0
DIMSTYLE
105
7EC
330
A
100
AcDbSymbolTableRecord
100
AcDbDimStyleTableRecord
  2
AM_ANSI$SF
 70
     0
  4
mm
 41
0.1
 42
0.05
 43
0.5
 44
0.1
 47
0.1
 48
0.1
 75
     1
 76
     1
 78
     7
140
0.12
141
0.0
146
0.71
147
0.06
176
   256
177
   256
178
     2
274
     4
284
     7
340
11
  0
DIMSTYLE
105
7F1
330
A
100
AcDbSymbolTableRecord
100
AcDbDimStyleTableRecord
  2
AM_ANSI$SH
 70
     0
  4
mm
 41
0.1
 42
0.05
 43
0.5
 44
0.1
 47
0.1
 48
0.1
 75
     1
 76
     1
 78
     7
140
0.12
141
0.0
146
0.71
147
0.06
173
     1
176
   256
177
   256
178
     2
274
     4
284
     7
340
11
341
7ED
343
7ED
  0
DIMSTYLE
105
C1B
330
A
100
AcDbSymbolTableRecord
100
AcDbDimStyleTableRecord
  2
AM_ISO
 70
     0
  4
"
 41
2.0
 42
1.0
 43
5.0
 44
1.5
 47
0.1
 48
0.1
 73
     0
 74
     0
 77
     1
 78
     8
 79
     2
140
2.0
141
3.0
143
0.0393701
146
0.71
147
0.6
172
     1
176
   256
177
   256
178
   256
271
     2
272
     2
283
     0
284
     8
340
11
371
    -1
372
    -1
  0
DIMSTYLE
105
C1C
330
A
100
AcDbSymbolTableRecord
100
AcDbDimStyleTableRecord
  2
AM_ISO$3
 70
     0
  4
"
 41
2.0
 42
1.0
 43
5.0
 44
1.5
 47
0.1
 48
0.1
 73
     0
 77
     1
 78
     8
 79
     2
140
2.0
141
3.0
143
0.0393701
146
0.71
147
0.6
176
   256
177
   256
178
   256
271
     2
272
     2
283
     0
284
     8
288
     1
289
     0
340
11
371
    -1
372
    -1
  0
DIMSTYLE
105
C1D
330
A
100
AcDbSymbolTableRecord
100
AcDbDimStyleTableRecord
  2
AM_ISO$4
 70
     0
  4
"
 41
2.0
 42
1.0
 43
5.0
 44
1.5
 47
0.1
 48
0.1
 73
     0
 77
     1
 78
     8
 79
     2
140
2.0
141
3.0
143
0.0393701
146
0.71
147
0.6
176
   256
177
   256
178
   256
271
     2
272
     2
283
     0
284
     8
288
     1
289
     0
340
11
371
    -1
372
    -1
  0
DIMSTYLE
105
C1E
330
A
100
AcDbSymbolTableRecord
100
AcDbDimStyleTableRecord
  2
AM_ISO$6
 70
     0
  4
"
 41
2.0
 42
1.0
 43
5.0
 44
1.5
 47
0.1
 48
0.1
 73
     0
 74
     0
 78
     8
 79
     2
140
2.0
141
3.0
143
0.0393701
146
0.71
147
0.6
172
     1
176
   256
177
   256
178
   256
271
     2
272
     2
283
     0
284
     8
340
11
371
    -1
372
    -1
  0
DIMSTYLE
105
C1F
330
A
100
AcDbSymbolTableRecord
100
AcDbDimStyleTableRecord
  2
AM_ISO$7
 70
     0
  4
"
 41
2.0
 42
1.0
 43
5.0
 44
1.5
 47
0.1
 48
0.1
 73
     0
 74
     0
 77
     1
 78
     8
 79
     2
140
5.0
141
3.0
143
0.0393701
146
0.71
147
0.6
172
     1
176
   256
177
   256
178
   256
271
     2
272
     2
283
     0
284
     8
340
11
371
    -1
372
    -1
  0
DIMSTYLE
105
C20
330
A
100
AcDbSymbolTableRecord
100
AcDbDimStyleTableRecord
  2
AM_ISO$SF
 70
     0
  4
"
 41
2.5
 42
1.0
 43
10.0
 44
1.0
 47
0.1
 48
0.1
 73
     0
 74
     0
 75
     1
 76
     1
 77
     1
 78
     8
 79
     2
140
3.5
141
0.0
143
0.0393701
146
0.71
147
1.5
172
     1
176
   256
177
   256
178
     2
271
     2
272
     3
274
     4
283
     0
284
     8
340
11
371
    -1
372
    -1
  0
DIMSTYLE
105
C21
330
A
100
AcDbSymbolTableRecord
100
AcDbDimStyleTableRecord
  2
AM_ISO$SH
 70
     0
  4
"
 41
2.5
 42
1.0
 43
10.0
 44
1.0
 47
0.1
 48
0.1
 73
     0
 74
     0
 75
     1
 76
     1
 77
     1
 78
     8
 79
     2
140
3.5
141
0.0
143
0.0393701
144
2.0
146
0.71
147
1.5
172
     1
173
     1
176
   256
177
   256
178
     2
271
     2
272
     3
274
     4
283
     0
284
     8
340
11
341
7ED
343
7ED
371
    -1
372
    -1
  0
DIMSTYLE
105
62F4
330
A
100
AcDbSymbolTableRecord
100
AcDbDimStyleTableRecord
  2
Standard
 70
     0
340
11
  0
ENDTAB
  0
TABLE
  2
BLOCK_RECORD
  5
1
330
0
100
AcDbSymbolTable
 70
     5
  0
BLOCK_RECORD
  5
1E
102
{ACAD_XDICTIONARY
360
708
102
}
330
1
100
AcDbSymbolTableRecord
100
AcDbBlockTableRecord
  2
*MODEL_SPACE
340
B33
  0
BLOCK_RECORD
  5
1A
102
{ACAD_XDICTIONARY
360
70A
102
}
330
1
100
AcDbSymbolTableRecord
100
AcDbBlockTableRecord
  2
*PAPER_SPACE
340
B34
  0
BLOCK_RECORD
  5
517
330
1
100
AcDbSymbolTableRecord
100
AcDbBlockTableRecord
  2
AVE_RENDER
340
0
102
{BLKREFS
331
51A
331
51B
331
51C
331
51D
331
51E
331
51F
331
520
331
521
102
}
  0
BLOCK_RECORD
  5
525
330
1
100
AcDbSymbolTableRecord
100
AcDbBlockTableRecord
  2
AVE_GLOBAL
340
0
102
{BLKREFS
331
528
102
}
  0
BLOCK_RECORD
  5
7ED
330
1
100
AcDbSymbolTableRecord
100
AcDbBlockTableRecord
  2
GENAXEH
340
0
  0
ENDTAB
  0
ENDSEC
  0
SECTION
  2
BLOCKS
  0
BLOCK
  5
29
330
1E
100
AcDbEntity
  8
0
100
AcDbBlockBegin
  2
*MODEL_SPACE
 70
     0
 10
0.0
 20
0.0
 30
0.0
  3
*MODEL_SPACE
  1

  0
ENDBLK
  5
2A
330
1E
100
AcDbEntity
  8
0
100
AcDbBlockEnd
  0
BLOCK
  5
27
330
1A
100
AcDbEntity
 67
     1
  8
0
100
AcDbBlockBegin
  2
*PAPER_SPACE
 70
     0
 10
0.0
 20
0.0
 30
0.0
  3
*PAPER_SPACE
  1

  0
ENDBLK
  5
28
330
1A
100
AcDbEntity
 67
     1
  8
0
100
AcDbBlockEnd
  0
BLOCK
  5
518
330
517
100
AcDbEntity
  8
0
100
AcDbBlockBegin
  2
AVE_RENDER
 70
     0
 10
0.0
 20
0.0
 30
0.0
  3
AVE_RENDER
  1
AVE_RENDER
  0
ENDBLK
  5
519
330
517
100
AcDbEntity
  8
0
100
AcDbBlockEnd
  0
BLOCK
  5
526
330
525
100
AcDbEntity
  8
0
100
AcDbBlockBegin
  2
AVE_GLOBAL
 70
     0
 10
0.0
 20
0.0
 30
0.0
  3
AVE_GLOBAL
  1
AVE_GLOBAL
  0
ENDBLK
  5
527
330
525
100
AcDbEntity
  8
0
100
AcDbBlockEnd
  0
BLOCK
  5
7EF
330
7ED
100
AcDbEntity
  8
0
100
AcDbBlockBegin
  2
GENAXEH
 70
     0
 10
0.0
 20
0.0
 30
0.0
  3
GENAXEH
  1

  0
LINE
  5
7EE
330
7ED
100
AcDbEntity
  8
0
100
AcDbLine
 10
-1.0
 20
0.0
 30
0.0
 11
1.0
 21
0.0
 31
0.0
  0
ENDBLK
  5
7F0
330
7ED
100
AcDbEntity
  8
0
100
AcDbBlockEnd
  0
ENDSEC
  0
SECTION
  2
ENTITIES
  0
INSERT
  5
51A
330
1E
100
AcDbEntity
  8
ASHADE
 62
     1
100
AcDbBlockReference
  2
AVE_RENDER
 10
0.0
 20
0.0
 30
0.0
1001
AVE_RENDER
1002
{
1070
     7
1000
Pref
1070
    30
1070
    20
1070
     1
1070
     0
1000

1070
    10
1070
     1
1070
    10
1040
1.0
1070
     1
1040
0.3
1040
0.7
1040
0.0
1040
10.0
1010
-1.0
1020
-1.0
1030
-1.0
1040
0.3
1070
    49
1070
     0
1070
     0
1010
1.0
1020
1.0
1030
1.0
1040
45.0
1070
     1
1070
     0
1000
WCS
1040
0.0
1070
     0
1040
10.0
1002
}
  0
INSERT
  5
51B
330
1E
100
AcDbEntity
  8
ASHADE
 62
     3
100
AcDbBlockReference
  2
AVE_RENDER
 10
0.0
 20
0.0
 30
0.0
1001
AVE_RENDER
1002
{
1070
     0
1000
Full Opt
1070
     0
1070
     1
1070
     1
1070
     1
1070
     0
1070
     0
1070
     0
1070
     1
1070
     1
1040
0.0001
1040
0.0001
1002
}
  0
INSERT
  5
51C
330
1E
100
AcDbEntity
  8
ASHADE
 62
     4
100
AcDbBlockReference
  2
AVE_RENDER
 10
0.0
 20
0.0
 30
0.0
1001
AVE_RENDER
1002
{
1070
     0
1000
Quick Opt
1070
     0
1070
     1
1070
     1
1070
     1
1070
     0
1070
     0
1070
     1
1002
}
  0
INSERT
  5
51D
330
1E
100
AcDbEntity
  8
ASHADE
 62
     5
100
AcDbBlockReference
  2
AVE_RENDER
 10
0.0
 20
0.0
 30
0.0
1001
AVE_RENDER
1002
{
1070
     1
1000
Scanl Opt
1070
     2
1070
     0
1070
     2
1040
2.0
1040
4.0
1070
     0
1070
     1
1070
     0
1040
0.03
1002
}
  0
INSERT
  5
51E
330
1E
100
AcDbEntity
  8
ASHADE
 62
     6
100
AcDbBlockReference
  2
AVE_RENDER
 10
0.0
 20
0.0
 30
0.0
1001
AVE_RENDER
1002
{
1070
     2
1000
Raytr Opt
1070
     2
1070
     0
1070
     2
1040
2.0
1040
4.0
1070
     0
1070
     1
1070
     1
1040
0.03
1070
     3
1040
0.03
1002
}
  0
INSERT
  5
51F
330
1E
100
AcDbEntity
  8
ASHADE
 62
     7
100
AcDbBlockReference
  2
AVE_RENDER
 10
0.0
 20
0.0
 30
0.0
1001
AVE_RENDER
1002
{
1070
     0
1000
RFile Opt
1070
     1
1070
   640
1070
   480
1070
 10000
1070
     1
1070
     8
1070
     8
1070
     0
1070
     0
1070
     0
1070
     0
1070
     0
1070
     0
1070
     0
1002
}
  0
INSERT
  5
520
330
1E
100
AcDbEntity
  8
ASHADE
 62
     8
100
AcDbBlockReference
  2
AVE_RENDER
 10
0.0
 20
0.0
 30
0.0
1001
AVE_RENDER
1002
{
1070
     0
1000
Fog Opt
1070
     0
1070
     0
1040
0.0
1040
1.0
1040
0.0
1040
1.0
1010
0.5
1020
0.5
1030
0.5
1002
}
  0
INSERT
  5
521
330
1E
100
AcDbEntity
  8
ASHADE
 62
     9
100
AcDbBlockReference
  2
AVE_RENDER
 10
0.0
 20
0.0
 30
0.0
1001
AVE_RENDER
1002
{
1070
     0
1000
BG Opt
1070
     0
1070
     1
1010
0.0
1020
0.0
1030
0.0
1010
1.0
1020
0.0
1030
0.0
1010
0.0
1020
1.0
1030
0.0
1010
0.0
1020
0.0
1030
1.0
1040
0.5
1040
0.33
1040
0.0
1000

1070
     1
1000

1070
     1
1070
     1
1040
1.0
1040
1.0
1040
0.0
1040
0.0
1070
     0
1002
}
  0
INSERT
  5
528
330
1E
100
AcDbEntity
  8
ASHADE
 62
     1
100
AcDbBlockReference
  2
AVE_GLOBAL
 10
0.0
 20
0.0
 30
0.0
1001
AVE_MATERIAL
1002
{
1000
*整體*
1000
2
1000
整體修飾.
1002
{
1002
}
1002
{
1070
    63
1002
{
1002
{
1010
-1.0
1020
-1.0
1030
-1.0
1002
}
1040
0.1000000014901161
1000

1040
0.0
1002
{
1002
}
1040
0.0
1002
{
1002
}
1040
0.0
1002
}
1002
{
1002
{
1010
-1.0
1020
-1.0
1030
-1.0
1002
}
1040
0.6999999880790711
1000

1040
0.0
1002
{
1002
}
1040
0.0
1002
{
1002
}
1040
0.0
1002
}
1002
{
1002
{
1010
-1.0
1020
-1.0
1030
-1.0
1002
}
1040
0.2000000029802322
1000

1040
0.0
1002
{
1002
}
1040
0.0
1002
{
1002
}
1040
0.0
1002
}
1002
{
1070
     0
1002
{
1070
     1
1002
{
1040
1.0
1040
1.0
1000

1040
0.0
1002
{
1002
}
1040
0.0
1002
{
1002
}
1040
0.0
1002
}
1002
}
1040
1.0
1040
0.0
1040
0.0
1002
}
1002
{
1040
1.0
1040
1.0
1000

1040
0.0
1002
{
1002
}
1040
0.0
1002
{
1002
}
1040
0.0
1002
}
1002
{
1040
0.5
1040
1.0
1000

1040
0.0
1002
{
1002
}
1040
0.0
1002
{
1002
}
1040
0.0
1002
}
1002
{
1070
     0
1040
0.0
1002
{
1002
}
1040
1.0
1002
{
1002
}
1040
0.0
1002
}
1002
{
1040
0.0
1002
{
1002
{
1010
0.0
1020
0.0
1030
0.0
1002
}
1040
1.0
1000

1040
0.0
1002
{
1002
}
1040
0.0
1002
{
1002
}
1040
0.0
1002
}
1002
}
1002
{
1002
{
1070
     1
1002
{
1040
0.0
1040
1.0
1000

1040
0.0
1002
{
1002
}
1040
0.0
1002
{
1002
}
1040
0.0
1002
}
1002
}
1040
0.0
1002
{
1002
}
1010
1.0
1020
0.0
1030
0.0
1010
0.0
1020
1.0
1030
0.0
1010
0.0
1020
0.0
1030
1.0
1070
     0
1002
}
1002
{
1002
{
1040
1.0
1040
1.0
1002
{
1070
     1
1002
{
1040
1.0
1040
1.0
1000

1040
0.0
1002
{
1002
}
1040
0.0
1002
{
1002
}
1040
0.0
1002
}
1002
}
1002
}
1070
     0
1040
0.0
1002
{
1002
}
1002
}
1002
{
1002
}
1002
}
1002
{
1071
        3
1070
     3
1070
     0
1002
{
1070
     2
1070
     0
1070
     0
1040
0.0
1002
}
1070
     0
1070
     2
1002
{
1002
}
1002
}
1002
{
1040
8030.0
1040
190.3000030517578
1040
0.3050000071525574
1040
228.0
1040
545.0
1040
14.0
1040
17.39999961853027
1040
0.4560000002384186
1002
}
1002
}
  0
TEXT
  5
2F4E
330
1E
100
AcDbEntity
  8
LOGO
 62
     7
100
AcDbText
 10
160.7237045369927
 20
184.0502369858993
 30
0.0
 40
20.12611764705882
  1
Order example:
 41
0.8
  7
CHINESET
100
AcDbText
  0
TEXT
  5
2F4F
330
1E
100
AcDbEntity
  8
LOGO
 62
     7
100
AcDbText
 10
164.3344964790949
 20
212.3836434671267
 30
0.0
 40
30.18917647058824
  1
訂購代號:
  7
CHINESET
100
AcDbText
  0
LINE
  5
2F50
330
1E
100
AcDbEntity
  8
LOGO
 62
     1
100
AcDbLine
 10
931.8658969790085
 20
250.1770594810504
 30
0.0
 11
-180.1021030209936
 21
250.1770594810504
 31
0.0
  0
LINE
  5
2F51
330
1E
100
AcDbEntity
  8
LOGO
 62
     1
100
AcDbLine
 10
931.8658969790085
 20
99.23117712810899
 30
0.0
 11
-180.1021030209936
 21
99.23117712810899
 31
0.0
  0
LINE
  5
2F62
330
1E
100
AcDbEntity
  8
0
 62
     4
100
AcDbLine
 10
931.8658969790071
 20
250.1770594810504
 30
0.0
 11
-180.1021030209922
 21
250.1770594810504
 31
0.0
  0
LINE
  5
2F64
330
1E
100
AcDbEntity
  8
LOGO
 62
     1
100
AcDbLine
 10
151.9788381554776
 20
99.23117712810899
 30
0.0
 11
151.9788381554776
 21
250.1770594810504
 31
0.0
  0
LINE
  5
2F65
330
1E
100
AcDbEntity
  8
LOGO
 62
     1
100
AcDbLine
 10
-180.1021030209936
 20
99.23117712810899
 30
0.0
 11
-180.1021030209936
 21
250.1770594810504
 31
0.0
  0
TEXT
  5
2F66
330
1E
100
AcDbEntity
  8
LOGO
  6
Continuous
 62
     5
100
AcDbText
 10
-139.1886652440387
 20
128.8842679191459
 30
0.0
 40
22.64188235294118
  1
金器工業股份有限公司
  7
CHINESET
100
AcDbText
  0
TEXT
  5
2F67
330
1E
100
AcDbEntity
  8
LOGO
  6
Continuous
 62
     5
100
AcDbText
 10
-168.6781199552026
 20
106.237949532456
 30
0.0
 40
15.09458823529412
  1
MINDMAN INDUSTRIAL CO.,LTD
 41
0.85
  7
CHINESET
100
AcDbText
  0
LINE
  5
2F68
330
1E
100
AcDbEntity
  8
LOGO
 62
     1
100
AcDbLine
 10
151.9788381554776
 20
219.9878830104627
 30
0.0
 11
-69.408455962169
 21
219.9878830104627
 31
0.0
  0
LINE
  5
2F69
330
1E
100
AcDbEntity
  8
LOGO
 62
     1
100
AcDbLine
 10
151.9788381554776
 20
189.7987065398736
 30
0.0
 11
-69.408455962169
 21
189.7987065398736
 31
0.0
  0
LINE
  5
2F6A
330
1E
100
AcDbEntity
  8
LOGO
 62
     1
100
AcDbLine
 10
151.9788381554776
 20
159.6095300692858
 30
0.0
 11
-180.1021030209936
 21
159.6095300692858
 31
0.0
  0
SOLID
  5
2F6B
330
1E
100
AcDbEntity
  8
LOGO
 62
     5
100
AcDbTrace
 10
-164.4412254771587
 20
184.7021344650156
 30
0.0
 11
-157.9147216062133
 21
184.702134465013
 31
0.0
 12
-130.6834468343331
 22
246.5913953101936
 32
0.0
 13
-124.1569429633882
 23
246.5913953101885
 33
0.0
  0
SOLID
  5
2F6C
330
1E
100
AcDbEntity
  8
LOGO
 62
     5
100
AcDbTrace
 10
-155.2140993147827
 20
184.7021344650156
 30
0.0
 11
-148.6875954438387
 21
184.7021344650156
 31
0.0
 12
-124.1569429633882
 22
241.6402544425765
 32
0.0
 13
-130.6834468343331
 23
217.7097402491067
 33
0.0
  0
SOLID
  5
2F6D
330
1E
100
AcDbEntity
  8
LOGO
 62
     2
100
AcDbTrace
 10
-157.9147216062133
 20
184.702134465013
 30
0.0
 11
-155.2140993147827
 21
184.7021344650156
 31
0.0
 12
-124.1569429633882
 22
246.5913953101885
 32
0.0
 13
-121.4563206719601
 23
246.5913953101885
 33
0.0
  0
SOLID
  5
2F6E
330
1E
100
AcDbEntity
  8
LOGO
 62
     5
100
AcDbTrace
 10
-174.9048116770834
 20
162.1969487031351
 30
0.0
 11
-172.6542931008916
 21
162.1969487031351
 31
0.0
 12
-166.316657623981
 22
173.4495415840736
 32
0.0
 13
-164.0661390477937
 23
173.4495415840736
 33
0.0
  0
SOLID
  5
2F6F
330
1E
100
AcDbEntity
  8
LOGO
 62
     5
100
AcDbTrace
 10
-166.316657623981
 20
173.4495415840736
 30
0.0
 11
-164.0661390477937
 21
173.4495415840736
 31
0.0
 12
-166.316657623981
 22
162.1969487031351
 32
0.0
 13
-164.0661390477937
 23
162.1969487031351
 33
0.0
  0
SOLID
  5
2F70
330
1E
100
AcDbEntity
  8
LOGO
 62
     5
100
AcDbTrace
 10
-166.316657623981
 20
162.1969487031351
 30
0.0
 11
-164.0661390477937
 21
162.1969487031351
 31
0.0
 12
-157.7285035708746
 22
173.4495415840736
 32
0.0
 13
-155.477984994689
 23
173.4495415840736
 33
0.0
  0
SOLID
  5
2F71
330
1E
100
AcDbEntity
  8
LOGO
 62
     5
100
AcDbTrace
 10
-157.7285035708746
 20
173.4495415840736
 30
0.0
 11
-155.477984994689
 21
173.4495415840736
 31
0.0
 12
-157.7285035708746
 22
162.1969487031351
 32
0.0
 13
-155.477984994689
 23
162.1969487031351
 33
0.0
  0
POLYLINE
  5
2F72
330
1E
100
AcDbEntity
  8
LOGO
 62
     5
100
AcDb2dPolyline
 66
     1
 10
0.0
 20
0.0
 30
0.0
 40
2.254125176470588
 41
2.254125176470588
  0
VERTEX
  5
2F73
330
2F72
100
AcDbEntity
  8
LOGO
 62
     5
100
AcDbVertex
100
AcDb2dVertex
 10
-82.29188754586084
 20
168.9485044316972
 30
0.0
 42
1.0
  0
VERTEX
  5
2F74
330
2F72
100
AcDbEntity
  8
LOGO
 62
     5
100
AcDbVertex
100
AcDb2dVertex
 10
-89.05426307527386
 20
168.9485044316972
 30
0.0
 42
1.0
  0
SEQEND
  5
2F75
330
2F72
100
AcDbEntity
  8
LOGO
 62
     5
  0
POLYLINE
  5
2F76
330
1E
100
AcDbEntity
  8
LOGO
 62
     5
100
AcDb2dPolyline
 66
     1
 10
0.0
 20
0.0
 30
0.0
 70
     1
  0
VERTEX
  5
2F77
330
2F76
100
AcDbEntity
  8
LOGO
 62
     5
100
AcDbVertex
100
AcDb2dVertex
 10
-101.8016417386811
 20
167.8232451436037
 30
0.0
 42
1.000000057330635
  0
VERTEX
  5
2F78
330
2F76
100
AcDbEntity
  8
LOGO
 62
     5
100
AcDbVertex
100
AcDb2dVertex
 10
-95.05008601011514
 20
167.8232451436037
 30
0.0
 42
1.000000057330635
  0
SEQEND
  5
2F79
330
2F76
100
AcDbEntity
  8
LOGO
 62
     5
  0
CIRCLE
  5
2F7A
330
1E
100
AcDbEntity
  8
LOGO
 62
     5
100
AcDbCircle
 10
-98.42586387439702
 20
167.8232451436037
 30
0.0
 40
3.375777864282353
  0
POLYLINE
  5
2F7B
330
1E
100
AcDbEntity
  8
LOGO
 62
     5
100
AcDb2dPolyline
 66
     1
 10
0.0
 20
0.0
 30
0.0
 70
     1
 40
2.254125176470588
 41
2.254125176470588
  0
VERTEX
  5
2F7C
330
2F7B
100
AcDbEntity
  8
LOGO
 62
     5
100
AcDbVertex
100
AcDb2dVertex
 10
-102.9341142273392
 20
167.8232451436037
 30
0.0
 42
1.0
  0
VERTEX
  5
2F7D
330
2F7B
100
AcDbEntity
  8
LOGO
 62
     5
100
AcDbVertex
100
AcDb2dVertex
 10
-93.91761352145705
 20
167.8232451436037
 30
0.0
 42
1.0
  0
SEQEND
  5
2F7E
330
2F7B
100
AcDbEntity
  8
LOGO
 62
     5
  0
LINE
  5
2F7F
330
1E
100
AcDbEntity
  8
LOGO
 62
     5
100
AcDbLine
 10
-81.17203815819175
 20
162.1969487031351
 30
0.0
 11
-81.17203815819175
 21
168.9485044316972
 31
0.0
  0
SOLID
  5
2F80
330
1E
100
AcDbEntity
  8
LOGO
 62
     5
100
AcDbTrace
 10
-95.05031106196794
 20
173.4495415840736
 30
0.0
 11
-92.79979248578205
 21
173.4495415840736
 31
0.0
 12
-95.05031106196794
 22
162.1969487031351
 32
0.0
 13
-92.79979248578205
 23
162.1969487031351
 33
0.0
  0
SOLID
  5
2F81
330
1E
100
AcDbEntity
  8
LOGO
 62
     5
100
AcDbTrace
 10
-90.17411246294637
 20
162.1969487031351
 30
0.0
 11
-87.92359388675526
 21
162.1969487031351
 31
0.0
 12
-90.17411246294637
 22
173.4495415840736
 32
0.0
 13
-87.92359388675526
 23
173.4495415840736
 33
0.0
  0
SOLID
  5
2F82
330
1E
100
AcDbEntity
  8
LOGO
 62
     5
100
AcDbTrace
 10
-83.42255673437898
 20
168.9485044316972
 30
0.0
 11
-81.17203815819175
 21
168.9485044316972
 31
0.0
 12
-83.42255673437898
 22
162.1969487031351
 32
0.0
 13
-81.17203815819175
 23
162.1969487031351
 33
0.0
  0
LINE
  5
2F83
330
1E
100
AcDbEntity
  8
LOGO
 62
     1
100
AcDbLine
 10
-69.408455962169
 20
159.6095300692858
 30
0.0
 11
-69.408455962169
 21
250.1770594810504
 31
0.0
  0
SOLID
  5
2F84
330
1E
100
AcDbEntity
  8
LOGO
 62
     5
100
AcDbTrace
 10
-90.3991643205652
 20
241.6402544425765
 30
0.0
 11
-96.92566819151057
 21
217.7097402491067
 31
0.0
 12
-90.3991643205652
 22
184.702134465013
 32
0.0
 13
-96.92566819151057
 23
184.702134465013
 33
0.0
  0
SOLID
  5
2F85
330
1E
100
AcDbEntity
  8
LOGO
 62
     5
100
AcDbTrace
 10
-87.69854202913711
 20
184.702134465013
 30
0.0
 11
-81.17203815819175
 21
184.702134465013
 31
0.0
 12
-87.69854202913711
 22
246.5913953101885
 32
0.0
 13
-81.17203815819175
 23
246.5913953101936
 33
0.0
  0
SOLID
  5
2F86
330
1E
100
AcDbEntity
  8
LOGO
 62
     2
100
AcDbTrace
 10
-90.3991643205652
 20
246.5913953101936
 30
0.0
 11
-87.69854202913711
 21
246.5913953101885
 31
0.0
 12
-90.3991643205652
 22
184.702134465013
 32
0.0
 13
-87.69854202913711
 23
184.702134465013
 33
0.0
  0
POLYLINE
  5
2F87
330
1E
100
AcDbEntity
  8
LOGO
 62
     5
100
AcDb2dPolyline
 66
     1
 10
0.0
 20
0.0
 30
0.0
 40
2.254125176470588
 41
2.254125176470588
  0
VERTEX
  5
2F88
330
2F87
100
AcDbEntity
  8
LOGO
 62
     5
100
AcDbVertex
100
AcDb2dVertex
 10
-114.5494705057983
 20
168.9485044316972
 30
0.0
 42
1.0
  0
VERTEX
  5
2F89
330
2F87
100
AcDbEntity
  8
LOGO
 62
     5
100
AcDbVertex
100
AcDb2dVertex
 10
-121.3118460352111
 20
168.9485044316972
 30
0.0
 42
1.0
  0
SEQEND
  5
2F8A
330
2F87
100
AcDbEntity
  8
LOGO
 62
     5
  0
POLYLINE
  5
2F8B
330
1E
100
AcDbEntity
  8
LOGO
 62
     5
100
AcDb2dPolyline
 66
     1
 10
0.0
 20
0.0
 30
0.0
 40
2.254125176470588
 41
2.254125176470588
  0
VERTEX
  5
2F8C
330
2F8B
100
AcDbEntity
  8
LOGO
 62
     5
100
AcDbVertex
100
AcDb2dVertex
 10
-107.7979147772348
 20
168.9485044316972
 30
0.0
 42
1.0
  0
VERTEX
  5
2F8D
330
2F8B
100
AcDbEntity
  8
LOGO
 62
     5
100
AcDbVertex
100
AcDb2dVertex
 10
-114.5602903066483
 20
168.9485044316972
 30
0.0
 42
1.0
  0
SEQEND
  5
2F8E
330
2F8B
100
AcDbEntity
  8
LOGO
 62
     5
  0
POLYLINE
  5
2F8F
330
1E
100
AcDbEntity
  8
LOGO
 62
     5
100
AcDb2dPolyline
 66
     1
 10
0.0
 20
0.0
 30
0.0
 40
2.254125176470588
 41
2.254125176470588
  0
VERTEX
  5
2F90
330
2F8F
100
AcDbEntity
  8
LOGO
 62
     5
100
AcDbVertex
100
AcDb2dVertex
 10
-140.0554977371714
 20
168.9485044316972
 30
0.0
 42
1.0
  0
VERTEX
  5
2F91
330
2F8F
100
AcDbEntity
  8
LOGO
 62
     5
100
AcDbVertex
100
AcDb2dVertex
 10
-146.8178732665831
 20
168.9485044316972
 30
0.0
 42
1.0
  0
SEQEND
  5
2F92
330
2F8F
100
AcDbEntity
  8
LOGO
 62
     5
  0
SOLID
  5
2F93
330
1E
100
AcDbEntity
  8
LOGO
 62
     5
100
AcDbTrace
 10
-147.9377226542515
 20
173.4495415840736
 30
0.0
 11
-145.6872040780663
 21
173.4495415840736
 31
0.0
 12
-147.9377226542515
 22
162.1969487031351
 32
0.0
 13
-145.6872040780663
 23
162.1969487031351
 33
0.0
  0
SOLID
  5
2F94
330
1E
100
AcDbEntity
  8
LOGO
 62
     5
100
AcDbTrace
 10
-141.1861669256886
 20
168.9485044316972
 30
0.0
 11
-138.9356483494989
 21
168.9485044316972
 31
0.0
 12
-141.1861669256886
 22
162.1969487031351
 32
0.0
 13
-138.9356483494989
 23
162.1969487031351
 33
0.0
  0
POLYLINE
  5
2F95
330
1E
100
AcDbEntity
  8
LOGO
 62
     5
100
AcDb2dPolyline
 66
     1
 10
0.0
 20
0.0
 30
0.0
 70
     1
 40
2.254125176470588
 41
2.254125176470588
  0
VERTEX
  5
2F96
330
2F95
100
AcDbEntity
  8
LOGO
 62
     5
100
AcDbVertex
100
AcDb2dVertex
 10
-135.191697187277
 20
167.8232451436037
 30
0.0
 42
1.0
  0
VERTEX
  5
2F97
330
2F95
100
AcDbEntity
  8
LOGO
 62
     5
100
AcDbVertex
100
AcDb2dVertex
 10
-126.1751964813948
 20
167.8232451436037
 30
0.0
 42
1.0
  0
SEQEND
  5
2F98
330
2F95
100
AcDbEntity
  8
LOGO
 62
     5
  0
SOLID
  5
2F99
330
1E
100
AcDbEntity
  8
LOGO
 62
     5
100
AcDbTrace
 10
-127.3078940219066
 20
176.8253194483577
 30
0.0
 11
-125.0573754457209
 21
176.8253194483577
 31
0.0
 12
-127.3078940219066
 22
162.1969487031351
 32
0.0
 13
-125.0573754457209
 23
162.1969487031351
 33
0.0
  0
SOLID
  5
2F9A
330
1E
100
AcDbEntity
  8
LOGO
 62
     5
100
AcDbTrace
 10
-122.4316954228789
 20
173.4495415840736
 30
0.0
 11
-120.1811768466918
 21
173.4495415840736
 31
0.0
 12
-122.4316954228789
 22
162.1969487031351
 32
0.0
 13
-120.1811768466918
 23
162.1969487031351
 33
0.0
  0
SOLID
  5
2F9B
330
1E
100
AcDbEntity
  8
LOGO
 62
     5
100
AcDbTrace
 10
-115.6801396943156
 20
168.9485044316972
 30
0.0
 11
-113.4296211181285
 21
168.9485044316972
 31
0.0
 12
-115.6801396943156
 22
162.1969487031351
 32
0.0
 13
-113.4296211181285
 23
162.1969487031351
 33
0.0
  0
SOLID
  5
2F9C
330
1E
100
AcDbEntity
  8
LOGO
 62
     5
100
AcDbTrace
 10
-108.928583965752
 20
168.9485044316972
 30
0.0
 11
-106.6780653895664
 21
168.9485044316972
 31
0.0
 12
-108.928583965752
 22
162.1969487031299
 32
0.0
 13
-106.6780653895664
 23
162.1969487031299
 33
0.0
  0
SOLID
  5
2F9D
330
1E
100
AcDbEntity
  8
LOGO
 62
     5
100
AcDbTrace
 10
-152.813921253281
 20
175.024904587404
 30
0.0
 11
-150.5634026770878
 21
175.024904587404
 31
0.0
 12
-152.813921253281
 22
176.8253194483577
 32
0.0
 13
-150.5634026770878
 23
176.8253194483577
 33
0.0
  0
SOLID
  5
2F9E
330
1E
100
AcDbEntity
  8
LOGO
 62
     5
100
AcDbTrace
 10
-152.813921253281
 20
173.4495415840736
 30
0.0
 11
-150.5634026770878
 21
173.4495415840736
 31
0.0
 12
-152.813921253281
 22
162.1969487031299
 32
0.0
 13
-150.5634026770878
 23
162.1969487031351
 33
0.0
  0
SOLID
  5
2F9F
330
1E
100
AcDbEntity
  8
LOGO
 62
     5
100
AcDbTrace
 10
-130.6834468343331
 20
184.7021344650156
 30
0.0
 11
-124.1569429633882
 21
184.7021344650156
 31
0.0
 12
-130.6834468343331
 22
217.7097402491067
 32
0.0
 13
-124.1569429633882
 23
241.6402544425765
 33
0.0
  0
SOLID
  5
2FA0
330
1E
100
AcDbEntity
  8
LOGO
 62
     5
100
AcDbTrace
 10
-121.4563206719601
 20
246.5913953101885
 30
0.0
 11
-114.9298168010148
 21
246.5913953101936
 31
0.0
 12
-121.4563206719601
 22
189.6532753326279
 32
0.0
 13
-114.9298168010148
 23
213.5837895260975
 33
0.0
  0
SOLID
  5
2FA1
330
1E
100
AcDbEntity
  8
LOGO
 62
     2
100
AcDbTrace
 10
-124.1569429633882
 20
246.5913953101885
 30
0.0
 11
-121.4563206719601
 21
246.5913953101885
 31
0.0
 12
-124.1569429633882
 22
184.7021344650156
 32
0.0
 13
-121.4563206719601
 23
184.7021344650156
 33
0.0
  0
SOLID
  5
2FA2
330
1E
100
AcDbEntity
  8
LOGO
 62
     5
100
AcDbTrace
 10
-121.4563206719601
 20
189.6532753326279
 30
0.0
 11
-114.9298168010148
 21
213.5837895260975
 31
0.0
 12
-90.3991643205652
 22
246.5913953101936
 32
0.0
 13
-96.92566819151057
 23
246.5913953101936
 33
0.0
  0
SOLID
  5
2FA3
330
1E
100
AcDbEntity
  8
LOGO
 62
     5
100
AcDbTrace
 10
-121.4563206719601
 20
184.7021344650156
 30
0.0
 11
-114.9298168010148
 21
184.7021344650156
 31
0.0
 12
-90.3991643205652
 22
241.6402544425765
 32
0.0
 13
-96.92566819151057
 23
217.7097402491067
 33
0.0
  0
SOLID
  5
2FA4
330
1E
100
AcDbEntity
  8
LOGO
 62
     2
100
AcDbTrace
 10
-124.1569429633882
 20
184.7021344650156
 30
0.0
 11
-121.4563206719601
 21
184.7021344650156
 31
0.0
 12
-90.3991643205652
 22
246.5913953101936
 32
0.0
 13
-87.69854202913711
 23
246.5913953101885
 33
0.0
  0
TEXT
  5
2FA5
330
1E
100
AcDbEntity
  8
LOGO
 62
     6
100
AcDbText
 10
73.99262117049805
 20
167.1568241869326
 30
0.0
 40
15.09458823529412
  1
m/m
  7
CHINESET
 72
     1
 11
100.5878480612543
 21
174.7041183045797
 31
0.0
100
AcDbText
 73
     2
  0
TEXT
  5
2FA6
330
1E
100
AcDbEntity
  8
LOGO
 62
     6
100
AcDbText
 10
73.99262117049805
 20
227.5351771281096
 30
0.0
 40
15.09458823529412
  1
1 : 1
  7
CHINESET
 72
     1
 11
100.5878480612543
 21
235.0824712457566
 31
0.0
100
AcDbText
 73
     2
  0
LINE
  5
2FA7
330
1E
100
AcDbEntity
  8
LOGO
 62
     1
100
AcDbLine
 10
51.34824992018343
 20
159.6095300692858
 30
0.0
 11
51.34824992018343
 21
250.1770594810504
 31
0.0
  0
CIRCLE
  5
2FA8
330
1E
100
AcDbEntity
  8
LOGO
  6
Continuous
 62
     6
100
AcDbCircle
 10
79.29776803908225
 20
204.9255822098625
 30
0.0
 40
8.764273215968639
  0
CIRCLE
  5
2FA9
330
1E
100
AcDbEntity
  8
LOGO
  6
Continuous
 62
     6
100
AcDbCircle
 10
79.29776803908225
 20
204.9255822098625
 30
0.0
 40
5.135088247346765
  0
LINE
  5
2FAA
330
1E
100
AcDbEntity
  8
LOGO
 62
     6
100
AcDbLine
 10
134.3734778914895
 20
196.1613089938934
 30
0.0
 11
134.3734778914895
 21
213.6898554258315
 31
0.0
  0
LINE
  5
2FAB
330
1E
100
AcDbEntity
  8
LOGO
 62
     6
100
AcDbLine
 10
106.8979844527137
 20
199.7904939625161
 30
0.0
 11
106.8979844527137
 21
210.0606704572102
 31
0.0
  0
LINE
  5
2FAC
330
1E
100
AcDbEntity
  8
LOGO
  6
Continuous
 62
     6
100
AcDbLine
 10
106.8979844527137
 20
210.0606704572102
 30
0.0
 11
134.3734778914895
 21
213.6898554258315
 31
0.0
  0
LINE
  5
2FAD
330
1E
100
AcDbEntity
  8
LOGO
  6
Continuous
 62
     6
100
AcDbLine
 10
106.8979844527137
 20
199.7904939625161
 30
0.0
 11
134.3734778914895
 21
196.1613089938934
 31
0.0
  0
LINE
  5
2FE5
330
1E
100
AcDbEntity
  8
LOGO
 62
     6
100
AcDbLine
 10
647.081935539858
 20
167.1568241869333
 30
0.0
 11
647.081935539858
 21
111.8100006575206
 31
0.0
  0
LINE
  5
2FE6
330
1E
100
AcDbEntity
  8
LOGO
 62
     6
100
AcDbLine
 10
515.983403892254
 20
167.1568241869333
 30
0.0
 11
515.983403892254
 21
111.8100006575206
 31
0.0
  0
LINE
  5
2FE7
330
1E
100
AcDbEntity
  8
LOGO
 62
     6
100
AcDbLine
 10
470.2918470724216
 20
167.1568241869333
 30
0.0
 11
470.2918470724216
 21
111.8100006575206
 31
0.0
  0
LINE
  5
2FE8
330
1E
100
AcDbEntity
  8
LOGO
 62
     6
100
AcDbLine
 10
369.6612588371284
 20
167.1568241869333
 30
0.0
 11
369.6612588371284
 21
111.8100006575206
 31
0.0
  0
LINE
  5
2FE9
330
1E
100
AcDbEntity
  8
LOGO
 62
     6
100
AcDbLine
 10
470.2918470724216
 20
111.8100006575206
 30
0.0
 11
369.6612588371284
 21
111.8100006575206
 31
0.0
  0
LINE
  5
2FEA
330
1E
100
AcDbEntity
  8
LOGO
 62
     6
100
AcDbLine
 10
647.081935539858
 20
111.8100006575206
 30
0.0
 11
515.983403892254
 21
111.8100006575206
 31
0.0
  0
LINE
  5
2FEB
330
1E
100
AcDbEntity
  8
LOGO
  6
Continuous
 62
     7
100
AcDbLine
 10
488.156618007973
 20
212.2801866417008
 30
0.0
 11
508.1522761709386
 21
212.2801866417008
 31
0.0
  0
LINE
  5
2FEC
330
1E
100
AcDbEntity
  8
LOGO
 62
     6
100
AcDbLine
 10
480.3549058959511
 20
235.0824712457566
 30
0.0
 11
359.5982000135984
 21
235.0824712457566
 31
0.0
  0
LINE
  5
2FED
330
1E
100
AcDbEntity
  8
LOGO
 62
     6
100
AcDbLine
 10
480.3549058959511
 20
189.7987065398736
 30
0.0
 11
359.5982000135984
 21
189.7987065398736
 31
0.0
  0
LINE
  5
2FEE
330
1E
100
AcDbEntity
  8
LOGO
 62
     6
100
AcDbLine
 10
359.5982000135984
 20
235.0824712457566
 30
0.0
 11
359.5982000135984
 21
189.7987065398736
 31
0.0
  0
LINE
  5
2FEF
330
1E
100
AcDbEntity
  8
LOGO
 62
     6
100
AcDbLine
 10
480.3549058959511
 20
235.0824712457566
 30
0.0
 11
480.3549058959511
 21
189.7987065398736
 31
0.0
  0
LINE
  5
2FF0
330
1E
100
AcDbEntity
  8
LOGO
 62
     6
100
AcDbLine
 10
419.9765529547744
 20
189.7987065398736
 30
0.0
 11
419.9765529547744
 21
167.1568241869333
 31
0.0
  0
TEXT
  5
2FF1
330
1E
100
AcDbEntity
  8
LOGO
  6
Continuous
 62
     7
100
AcDbText
 10
371.4582336270433
 20
199.8617653634033
 30
0.0
 40
25.15764705882353
  1
MHBS
  7
CHINESET
 72
     1
 11
419.9765529547744
 21
212.440588892815
 31
0.0
100
AcDbText
 73
     2
  0
LINE
  5
2FF2
330
1E
100
AcDbEntity
  8
LOGO
 62
     6
100
AcDbLine
 10
470.2918470724216
 20
167.1568241869333
 30
0.0
 11
369.6612588371284
 21
167.1568241869333
 31
0.0
  0
LINE
  5
2FF3
330
1E
100
AcDbEntity
  8
LOGO
 62
     6
100
AcDbLine
 10
647.081935539858
 20
235.0824712457566
 30
0.0
 11
515.983403892254
 21
235.0824712457566
 31
0.0
  0
LINE
  5
2FF4
330
1E
100
AcDbEntity
  8
LOGO
 62
     6
100
AcDbLine
 10
647.081935539858
 20
167.1568241869333
 30
0.0
 11
515.983403892254
 21
167.1568241869333
 31
0.0
  0
LINE
  5
2FF5
330
1E
100
AcDbEntity
  8
LOGO
 62
     6
100
AcDbLine
 10
647.081935539858
 20
189.7987065398736
 30
0.0
 11
515.983403892254
 21
189.7987065398736
 31
0.0
  0
TEXT
  5
2FF6
330
1E
100
AcDbEntity
  8
LOGO
  6
Continuous
 62
     7
100
AcDbText
 10
553.9790562706783
 20
199.5764760605038
 30
0.0
 40
25.15764705882353
  1
110
  7
CHINESET
 72
     1
 11
581.5326697160564
 21
212.1552995899155
 31
0.0
100
AcDbText
 73
     2
  0
LINE
  5
2FF7
330
1E
100
AcDbEntity
  8
LOGO
 62
     6
100
AcDbLine
 10
581.5326697160564
 20
189.7987065398736
 30
0.0
 11
581.5326697160564
 21
167.1568241869333
 31
0.0
  0
LINE
  5
2FF8
330
1E
100
AcDbEntity
  8
LOGO
 62
     6
100
AcDbLine
 10
515.983403892254
 20
235.0824712457566
 30
0.0
 11
515.983403892254
 21
189.7987065398736
 31
0.0
  0
LINE
  5
2FFD
330
1E
100
AcDbEntity
  8
LOGO
 62
     6
100
AcDbLine
 10
647.081935539858
 20
235.0824712457566
 30
0.0
 11
647.081935539858
 21
189.7987065398736
 31
0.0
  0
LINE
  5
2FFE
330
1E
100
AcDbEntity
  8
LOGO
 62
     1
100
AcDbLine
 10
931.8658969790085
 20
99.23117712810899
 30
0.0
 11
931.8658969790085
 21
250.1770594810504
 31
0.0
  0
TEXT
  5
3075
330
1E
100
AcDbEntity
  8
LOGO
 62
     6
100
AcDbText
 10
-56.96215932351333
 20
227.5426055672018
 30
989.2744460597308
 40
15.09458823529412
  1
比例 Scale:
 41
0.9
  7
CHINESET
 72
     4
 11
-9.030103020992328
 21
235.0824712457566
 31
989.2744460597308
100
AcDbText
  0
TEXT
  5
3076
330
1E
100
AcDbEntity
  8
LOGO
 62
     6
100
AcDbText
 10
-51.68579209662259
 20
197.5583302082383
 30
989.2744460597308
 40
15.09458823529412
  1
投影 View:
 41
0.9
  7
CHINESET
 72
     4
 11
-9.030103020992328
 21
204.8932947751674
 31
989.2744460597308
100
AcDbText
  0
TEXT
  5
3077
330
1E
100
AcDbEntity
  8
LOGO
 62
     6
100
AcDbText
 10
-50.21002655040411
 20
167.1568241869326
 30
989.2744460597308
 40
15.09458823529412
  1
單位 Unit:
 41
0.9
  7
CHINESET
 72
     4
 11
-9.030103020992328
 21
174.7041183045797
 31
989.2744460597308
100
AcDbText
  0
TEXT
  5
3078
330
1E
100
AcDbEntity
  8
LOGO
  6
Continuous
 62
     6
100
AcDbText
 10
396.0168890892282
 20
118.0994124222267
 30
989.2744460597308
 40
12.57882352941176
  1
Model
  7
CHINESET
 72
     4
 11
419.9765529547744
 21
124.3888241869326
 31
989.2744460597308
100
AcDbText
  0
TEXT
  5
3079
330
1E
100
AcDbEntity
  8
LOGO
  6
Continuous
 62
     6
100
AcDbText
 10
559.0704848421069
 20
118.0994124222267
 30
989.2744460597308
 40
12.57882352941176
  1
Ratio
  7
CHINESET
 72
     4
 11
581.5326697160564
 21
124.3888241869326
 31
989.2744460597308
100
AcDbText
  0
TEXT
  5
307B
330
1E
100
AcDbEntity
  8
LOGO
 62
     6
100
AcDbText
 10
399.8504353077156
 20
139.9984508659506
 30
989.2744460597308
 40
20.12611764705882
  1
型式
  7
CHINESET
 72
     4
 11
419.9765529547744
 21
149.546471245756
 31
989.2744460597308
100
AcDbText
  0
TEXT
  5
307C
330
1E
100
AcDbEntity
  8
LOGO
 62
     6
100
AcDbText
 10
551.9724344219388
 20
139.7029640665063
 30
989.2744460597308
 40
20.12611764705882
  1
增壓比
  7
CHINESET
 72
     4
 11
581.5326697160564
 21
149.546471245756
 31
989.2744460597308
100
AcDbText
  0
LWPOLYLINE
  5
67C9
330
1E
100
AcDbEntity
  8
0
 62
     4
100
AcDbPolyline
 90
        4
 70
     1
 43
0.0
 10
-180.1021030209922
 20
768.6433998595584
 10
931.865896979008
 20
768.6433998595584
 10
931.865896979008
 20
250.1770594810504
 10
-180.1021030209922
 20
250.1770594810506
1001
GENIUS_GENREC_14
1002
{
1000
PYDIR
1011
-180.1021030209922
1021
250.1770594810504
1031
0.0
1002
}
1002
{
1000
PXDIR
1011
931.865896979008
1021
768.6433998595584
1031
0.0
1002
}
1002
{
1000
PORI
1011
-180.1021030209922
1021
768.6433998595584
1031
0.0
1002
}
1002
{
1000
PINS
1011
-180.1021030209922
1021
768.6433998595584
1031
0.0
1002
}
1002
{
1000
PINS2
1011
931.865896979008
1021
250.1770594810505
1031
0.0
1002
}
1002
{
1000
C
1070
     1
1002
}
1001
GENIUS_GENODEF_13
1002
{
1000
HIER
1070
     0
1002
}
1002
{
1000
MANEDIT
1070
     0
1002
}
1002
{
1000
NOSEL
1070
     0
1002
}
1002
{
1000
BEHIND
1070
     0
1002
}
1002
{
1000
OTHER
1070
     0
1002
}
1002
{
1000
REACTOR
1002
}
1001
GENIUS_GENOBJ-N-REC_13
1002
{
1000
OWNER
1000
GEN
1002
}
  0
LINE
  5
6FBE
330
1E
100
AcDbEntity
  8
CENTER
  6
CENTER
100
AcDbLine
 10
96.22388702282888
 20
652.8222934836541
 30
0.0
 11
656.839247668906
 21
652.8222934836541
 31
0.0
  0
LINE
  5
6FBF
330
1E
100
AcDbEntity
  8
UMCL1
  6
Continuous
100
AcDbLine
 10
104.8392476689061
 20
710.3222934836542
 30
0.0
 11
197.8392476689059
 21
710.3222934836542
 31
0.0
  0
LINE
  5
6FC0
330
1E
100
AcDbEntity
  8
UMCL1
  6
Continuous
100
AcDbLine
 10
104.8392476689059
 20
595.3222934836542
 30
0.0
 11
197.8392476689059
 21
595.3222934836542
 31
0.0
  0
LINE
  5
6FC1
330
1E
100
AcDbEntity
  8
UMCL1
  6
Continuous
100
AcDbLine
 10
157.8392476689059
 20
710.3222934836542
 30
0.0
 11
157.8392476689059
 21
595.3222934836542
 31
0.0
  0
LINE
  5
6FC2
330
1E
100
AcDbEntity
  8
UMCL1
  6
Continuous
100
AcDbLine
 10
197.8392476689059
 20
710.3222934836542
 30
0.0
 11
197.8392476689059
 21
595.3222934836542
 31
0.0
  0
LINE
  5
6FC3
330
1E
100
AcDbEntity
  8
UMCL1
  6
Continuous
100
AcDbLine
 10
427.8392476689059
 20
710.3222934836542
 30
0.0
 11
427.8392476689059
 21
595.3222934836542
 31
0.0
  0
LINE
  5
6FC4
330
1E
100
AcDbEntity
  8
UMCL1
  6
Continuous
100
AcDbLine
 10
467.8392476689061
 20
710.3222934836542
 30
0.0
 11
467.8392476689061
 21
595.3222934836542
 31
0.0
  0
LINE
  5
6FC5
330
1E
100
AcDbEntity
  8
UMCL1
  6
Continuous
100
AcDbLine
 10
482.839247668906
 20
690.8222934836542
 30
0.0
 11
482.839247668906
 21
614.8222934836542
 31
0.0
  0
LINE
  5
6FC6
330
1E
100
AcDbEntity
  8
UMCL1
  6
Continuous
100
AcDbLine
 10
652.8392476689061
 20
675.3222934836542
 30
0.0
 11
652.8392476689058
 21
630.322293483654
 31
0.0
  0
LINE
  5
6FC7
330
1E
100
AcDbEntity
  8
UMCL1
  6
Continuous
100
AcDbLine
 10
482.839247668906
 20
677.8222934836541
 30
0.0
 11
645.9705541202692
 21
677.8222934836541
 31
0.0
  0
LINE
  5
6FC8
330
1E
100
AcDbEntity
  8
UMCL1
  6
Continuous
100
AcDbLine
 10
482.839247668906
 20
627.8222934836541
 30
0.0
 11
645.9705541202696
 21
627.8222934836541
 31
0.0
  0
LINE
  5
6FC9
330
1E
100
AcDbEntity
  8
UMCL1
  6
Continuous
100
AcDbLine
 10
467.8392476689061
 20
690.822293483654
 30
0.0
 11
482.839247668906
 21
690.8222934836542
 31
0.0
  0
LINE
  5
6FCA
330
1E
100
AcDbEntity
  8
UMCL1
  6
Continuous
100
AcDbLine
 10
467.8392476689061
 20
614.8222934836542
 30
0.0
 11
482.839247668906
 21
614.8222934836542
 31
0.0
  0
LINE
  5
6FCB
330
1E
100
AcDbEntity
  8
UMCL1
  6
Continuous
100
AcDbLine
 10
427.8392476689059
 20
595.3222934836542
 30
0.0
 11
520.8392476689059
 21
595.3222934836542
 31
0.0
  0
LINE
  5
6FCC
330
1E
100
AcDbEntity
  8
UMCL1
  6
Continuous
100
AcDbLine
 10
427.8392476689059
 20
710.3222934836542
 30
0.0
 11
520.8392476689059
 21
710.3222934836542
 31
0.0
  0
LINE
  5
6FCD
330
1E
100
AcDbEntity
  8
UMCL1
  6
Continuous
100
AcDbLine
 10
197.8392476689059
 20
706.3222934836542
 30
0.0
 11
427.8392476689059
 21
706.3222934836542
 31
0.0
  0
LINE
  5
6FCE
330
1E
100
AcDbEntity
  8
UMCL1
  6
Continuous
100
AcDbLine
 10
197.8392476689059
 20
599.3222934836542
 30
0.0
 11
427.8392476689059
 21
599.322293483654
 31
0.0
  0
LINE
  5
6FCF
330
1E
100
AcDbEntity
  8
UMCL1
  6
Continuous
100
AcDbLine
 10
197.8392476689059
 20
684.8222934836542
 30
0.0
 11
427.8392476689059
 21
684.8222934836542
 31
0.0
  0
LINE
  5
6FD0
330
1E
100
AcDbEntity
  8
UMCL1
  6
Continuous
100
AcDbLine
 10
197.8392476689059
 20
620.8222934836542
 30
0.0
 11
427.8392476689059
 21
620.8222934836539
 31
0.0
  0
LINE
  5
6FD1
330
1E
100
AcDbEntity
  8
UMCL1
  6
Continuous
100
AcDbLine
 10
157.8392476689059
 20
690.8222934836542
 30
0.0
 11
197.8392476689059
 21
690.8222934836542
 31
0.0
  0
LINE
  5
6FD2
330
1E
100
AcDbEntity
  8
UMCL1
  6
Continuous
100
AcDbLine
 10
157.8392476689059
 20
614.8222934836542
 30
0.0
 11
197.8392476689059
 21
614.8222934836542
 31
0.0
  0
LINE
  5
6FD3
330
1E
100
AcDbEntity
  8
UMCL1
  6
Continuous
100
AcDbLine
 10
427.8392476689059
 20
614.8222934836542
 30
0.0
 11
467.8392476689061
 21
614.8222934836542
 31
0.0
  0
LINE
  5
6FD4
330
1E
100
AcDbEntity
  8
UMCL1
  6
Continuous
100
AcDbLine
 10
427.8392476689059
 20
690.8222934836542
 30
0.0
 11
467.8392476689061
 21
690.8222934836542
 31
0.0
  0
LINE
  5
6FD5
330
1E
100
AcDbEntity
  8
CENTER
  6
CENTER
100
AcDbLine
 10
177.8392476689059
 20
690.8222934836542
 30
0.0
 11
177.8392476689059
 21
614.8222934836542
 31
0.0
  0
LINE
  5
6FD6
330
1E
100
AcDbEntity
  8
UMCL1
  6
Continuous
100
AcDbLine
 10
197.8392476689059
 20
675.3222934836542
 30
0.0
 11
427.8392476689059
 21
675.3222934836542
 31
0.0
  0
LINE
  5
6FD7
330
1E
100
AcDbEntity
  8
UMCL1
  6
Continuous
100
AcDbLine
 10
197.8392476689059
 20
630.3222934836542
 30
0.0
 11
427.8392476689059
 21
630.322293483654
 31
0.0
  0
LINE
  5
6FD8
330
1E
100
AcDbEntity
  8
CENTER
  6
CENTER
100
AcDbLine
 10
168.3392476689059
 20
682.0722934836542
 30
0.0
 11
187.3392476689059
 21
682.0722934836542
 31
0.0
  0
LINE
  5
6FD9
330
1E
100
AcDbEntity
  8
CENTER
  6
CENTER
100
AcDbLine
 10
168.3392476689059
 20
623.5722934836542
 30
0.0
 11
187.3392476689059
 21
623.5722934836542
 31
0.0
  0
CIRCLE
  5
6FDA
330
1E
100
AcDbEntity
  8
UMCL1
  6
Continuous
100
AcDbCircle
 10
177.8392476689059
 20
682.0722934836542
 30
0.0
 40
5.5
  0
CIRCLE
  5
6FDB
330
1E
100
AcDbEntity
  8
UMCL1
  6
Continuous
100
AcDbCircle
 10
177.8392476689059
 20
623.5722934836542
 30
0.0
 40
5.5
  0
LINE
  5
6FDC
330
1E
100
AcDbEntity
  8
UMCL1
  6
Continuous
100
AcDbLine
 10
170.333694169441
 20
665.8222934836542
 30
0.0
 11
162.8281406699757
 21
652.8222934836541
 31
0.0
  0
LINE
  5
6FDD
330
1E
100
AcDbEntity
  8
UMCL1
  6
Continuous
100
AcDbLine
 10
162.8281406699757
 20
652.8222934836541
 30
0.0
 11
170.333694169441
 21
639.8222934836542
 31
0.0
  0
LINE
  5
6FDE
330
1E
100
AcDbEntity
  8
UMCL1
  6
Continuous
100
AcDbLine
 10
170.333694169441
 20
639.8222934836542
 30
0.0
 11
185.3448011683713
 21
639.8222934836542
 31
0.0
  0
LINE
  5
6FDF
330
1E
100
AcDbEntity
  8
UMCL1
  6
Continuous
100
AcDbLine
 10
185.3448011683713
 20
639.8222934836542
 30
0.0
 11
192.8503546678362
 21
652.8222934836541
 31
0.0
  0
LINE
  5
6FE0
330
1E
100
AcDbEntity
  8
UMCL1
  6
Continuous
100
AcDbLine
 10
192.8503546678362
 20
652.8222934836541
 30
0.0
 11
185.3448011683713
 21
665.8222934836542
 31
0.0
  0
LINE
  5
6FE1
330
1E
100
AcDbEntity
  8
UMCL1
  6
Continuous
100
AcDbLine
 10
185.3448011683713
 20
665.8222934836542
 30
0.0
 11
170.333694169441
 21
665.8222934836542
 31
0.0
  0
CIRCLE
  5
6FE2
330
1E
100
AcDbEntity
  8
UMCL1
  6
Continuous
100
AcDbCircle
 10
447.8392476689059
 20
682.0722934836542
 30
0.0
 40
5.5
  0
CIRCLE
  5
6FE3
330
1E
100
AcDbEntity
  8
UMCL1
  6
Continuous
100
AcDbCircle
 10
447.8392476689059
 20
623.5722934836542
 30
0.0
 40
5.5
  0
LINE
  5
6FE4
330
1E
100
AcDbEntity
  8
CENTER
  6
CENTER
100
AcDbLine
 10
438.3392476689059
 20
623.5722934836542
 30
0.0
 11
457.339247668906
 21
623.5722934836542
 31
0.0
  0
LINE
  5
6FE5
330
1E
100
AcDbEntity
  8
CENTER
  6
CENTER
100
AcDbLine
 10
438.3392476689059
 20
682.0722934836542
 30
0.0
 11
457.339247668906
 21
682.0722934836542
 31
0.0
  0
LINE
  5
6FE6
330
1E
100
AcDbEntity
  8
UMCL1
  6
Continuous
100
AcDbLine
 10
471.839247668906
 20
670.3222934836542
 30
0.0
 11
471.839247668906
 21
635.3222934836542
 31
0.0
  0
LINE
  5
6FE7
330
1E
100
AcDbEntity
  8
UMCL1
  6
Continuous
100
AcDbLine
 10
467.8392476689061
 20
670.3222934836539
 30
0.0
 11
471.839247668906
 21
670.3222934836542
 31
0.0
  0
LINE
  5
6FE8
330
1E
100
AcDbEntity
  8
UMCL1
  6
Continuous
100
AcDbLine
 10
467.8392476689061
 20
635.3222934836542
 30
0.0
 11
471.839247668906
 21
635.3222934836542
 31
0.0
  0
LINE
  5
6FE9
330
1E
100
AcDbEntity
  8
UMCL1
  6
Continuous
100
AcDbLine
 10
476.8392476689061
 20
667.8222934836542
 30
0.0
 11
471.8392476689062
 21
667.8222934836542
 31
0.0
  0
LINE
  5
6FEA
330
1E
100
AcDbEntity
  8
UMCL1
  6
Continuous
100
AcDbLine
 10
471.8392476689062
 20
637.8222934836542
 30
0.0
 11
476.8392476689061
 21
637.8222934836542
 31
0.0
  0
ARC
  5
6FEB
330
1E
100
AcDbEntity
  8
UMCL1
  6
Continuous
100
AcDbCircle
 10
450.7142476689059
 20
652.8222934836541
 30
0.0
 40
30.12500000000005
100
AcDbArc
 50
330.1371656437264
 51
29.8628343562736
  0
ARC
  5
6FEC
330
1E
100
AcDbEntity
  8
UMCL1
  6
Continuous
100
AcDbCircle
 10
461.776747668906
 20
645.3222934836542
 30
0.0
 40
15.06250000000005
100
AcDbArc
 50
330.1371656437264
 51
29.8628343562736
  0
ARC
  5
6FED
330
1E
100
AcDbEntity
  8
UMCL1
  6
Continuous
100
AcDbCircle
 10
461.7767476689058
 20
660.322293483654
 30
0.0
 40
15.0625000000003
100
AcDbArc
 50
330.1371656437264
 51
29.8628343562736
  0
LINE
  5
6FEE
330
1E
100
AcDbEntity
  8
CENTER
  6
CENTER
100
AcDbLine
 10
153.8392476689059
 20
386.5131836690011
 30
0.0
 11
656.839247668906
 21
386.5131836690011
 31
0.0
  0
LINE
  5
6FEF
330
1E
100
AcDbEntity
  8
UMCL1
  6
Continuous
100
AcDbLine
 10
197.8392476689059
 20
333.0131836690011
 30
0.0
 11
427.8392476689059
 21
333.0131836690011
 31
0.0
  0
LINE
  5
6FF0
330
1E
100
AcDbEntity
  8
UMCL1
  6
Continuous
100
AcDbLine
 10
197.8392476689059
 20
440.0131836690014
 30
0.0
 11
427.8392476689059
 21
440.0131836690014
 31
0.0
  0
LINE
  5
6FF1
330
1E
100
AcDbEntity
  8
UMCL1
  6
Continuous
100
AcDbLine
 10
197.8392476689059
 20
354.5131836690011
 30
0.0
 11
427.8392476689059
 21
354.5131836690011
 31
0.0
  0
LINE
  5
6FF2
330
1E
100
AcDbEntity
  8
UMCL1
  6
Continuous
100
AcDbLine
 10
197.8392476689059
 20
418.5131836690013
 30
0.0
 11
427.8392476689059
 21
418.5131836690013
 31
0.0
  0
LINE
  5
6FF3
330
1E
100
AcDbEntity
  8
UMCL1
  6
Continuous
100
AcDbLine
 10
157.8392476689059
 20
494.0131836690013
 30
0.0
 11
157.8392476689059
 21
329.0131836690012
 31
0.0
  0
LINE
  5
6FF4
330
1E
100
AcDbEntity
  8
UMCL1
  6
Continuous
100
AcDbLine
 10
197.8392476689059
 20
494.0131836690013
 30
0.0
 11
197.8392476689059
 21
329.0131836690012
 31
0.0
  0
LINE
  5
6FF5
330
1E
100
AcDbEntity
  8
UMCL1
  6
Continuous
100
AcDbLine
 10
157.8392476689059
 20
329.0131836690012
 30
0.0
 11
197.8392476689059
 21
329.0131836690012
 31
0.0
  0
LINE
  5
6FF6
330
1E
100
AcDbEntity
  8
UMCL1
  6
Continuous
100
AcDbLine
 10
157.8392476689059
 20
444.0131836690013
 30
0.0
 11
197.8392476689059
 21
444.0131836690013
 31
0.0
  0
LINE
  5
6FF7
330
1E
100
AcDbEntity
  8
UMCL1
  6
Continuous
100
AcDbLine
 10
482.839247668906
 20
411.5131836690014
 30
0.0
 11
645.9705541202695
 21
411.5131836690014
 31
0.0
  0
LINE
  5
6FF8
330
1E
100
AcDbEntity
  8
UMCL1
  6
Continuous
100
AcDbLine
 10
482.839247668906
 20
361.5131836690011
 30
0.0
 11
645.9705541202697
 21
361.5131836690011
 31
0.0
  0
LINE
  5
6FF9
330
1E
100
AcDbEntity
  8
UMCL1
  6
Continuous
100
AcDbLine
 10
482.839247668906
 20
424.5131836690013
 30
0.0
 11
482.839247668906
 21
350.0131836690012
 31
0.0
  0
LINE
  5
6FFA
330
1E
100
AcDbEntity
  8
UMCL1
  6
Continuous
100
AcDbLine
 10
467.8392476689062
 20
494.0131836690013
 30
0.0
 11
467.8392476689061
 21
329.0131836690012
 31
0.0
  0
LINE
  5
6FFB
330
1E
100
AcDbEntity
  8
UMCL1
  6
Continuous
100
AcDbLine
 10
427.8392476689061
 20
494.0131836690013
 30
0.0
 11
427.8392476689059
 21
329.0131836690012
 31
0.0
  0
LINE
  5
6FFC
330
1E
100
AcDbEntity
  8
CENTER
  6
CENTER
100
AcDbLine
 10
447.8392476689059
 20
400.2348962101177
 30
0.0
 11
447.8392476689061
 21
372.8243194066749
 31
0.0
  0
LINE
  5
6FFD
330
1E
100
AcDbEntity
  8
UMCL1
  6
Continuous
100
AcDbLine
 10
467.8392476689061
 20
486.5131836690011
 30
0.0
 11
474.8392476689061
 21
486.5131836690014
 31
0.0
  0
LINE
  5
6FFE
330
1E
100
AcDbEntity
  8
UMCL1
  6
Continuous
100
AcDbLine
 10
427.8392476689059
 20
329.0131836690012
 30
0.0
 11
467.8392476689061
 21
329.0131836690012
 31
0.0
  0
LINE
  5
6FFF
330
1E
100
AcDbEntity
  8
UMCL1
  6
Continuous
100
AcDbLine
 10
467.8392476689062
 20
451.5131836690013
 30
0.0
 11
474.8392476689061
 21
451.5131836690013
 31
0.0
  0
LINE
  5
7000
330
1E
100
AcDbEntity
  8
UMCL1
  6
Continuous
100
AcDbLine
 10
471.8392476689062
 20
486.5131836690014
 30
0.0
 11
471.8392476689062
 21
451.5131836690013
 31
0.0
  0
LINE
  5
7001
330
1E
100
AcDbEntity
  8
UMCL1
  6
Continuous
100
AcDbLine
 10
467.8392476689061
 20
424.5131836690011
 30
0.0
 11
482.839247668906
 21
424.5131836690013
 31
0.0
  0
LINE
  5
7002
330
1E
100
AcDbEntity
  8
UMCL1
  6
Continuous
100
AcDbLine
 10
427.8392476689059
 20
444.0131836690013
 30
0.0
 11
467.8392476689061
 21
444.0131836690013
 31
0.0
  0
LINE
  5
7003
330
1E
100
AcDbEntity
  8
UMCL1
  6
Continuous
100
AcDbLine
 10
652.839247668906
 20
409.0131836690013
 30
0.0
 11
652.8392476689059
 21
364.0131836690009
 31
0.0
  0
ARC
  5
7004
330
1E
100
AcDbEntity
  8
UMCL1
  6
Continuous
100
AcDbCircle
 10
452.3184143355729
 20
469.0131836690013
 30
0.0
 40
28.52083333333344
100
AcDbArc
 50
322.1507111679001
 51
37.84928883209996
  0
LINE
  5
7005
330
1E
100
AcDbEntity
  8
UMCL1
  6
Continuous
100
AcDbLine
 10
474.8392476689061
 20
477.6734377068457
 30
0.0
 11
471.839247668906
 21
477.6734377068457
 31
0.0
  0
LINE
  5
7006
330
1E
100
AcDbEntity
  8
UMCL1
  6
Continuous
100
AcDbLine
 10
474.8392476689063
 20
460.3529296311569
 30
0.0
 11
471.839247668906
 21
460.3529296311569
 31
0.0
  0
ARC
  5
7007
330
1E
100
AcDbEntity
  8
UMCL1
  6
Continuous
100
AcDbCircle
 10
470.9574419611215
 20
455.9330566500791
 30
0.0
 40
5.882490350340627
100
AcDbArc
 50
311.2916027264971
 51
48.70839727350287
  0
ARC
  5
7008
330
1E
100
AcDbEntity
  8
UMCL1
  6
Continuous
100
AcDbCircle
 10
457.0892476689055
 20
469.0131836690011
 30
0.0
 40
19.75000000000055
100
AcDbArc
 50
333.9921761143643
 51
26.00782388563566
  0
ARC
  5
7009
330
1E
100
AcDbEntity
  8
UMCL1
  6
Continuous
100
AcDbCircle
 10
470.9574419611215
 20
482.0933106879236
 30
0.0
 40
5.882490350340546
100
AcDbArc
 50
311.2916027264971
 51
48.70839727350166
  0
LINE
  5
700A
330
1E
100
AcDbEntity
  8
UMCL1
  6
Continuous
100
AcDbLine
 10
157.8392476689059
 20
494.0131836690013
 30
0.0
 11
197.8392476689059
 21
494.0131836690013
 31
0.0
  0
LINE
  5
700B
330
1E
100
AcDbEntity
  8
UMCL1
  6
Continuous
100
AcDbLine
 10
427.8392476689059
 20
494.0131836690013
 30
0.0
 11
467.8392476689061
 21
494.0131836690013
 31
0.0
  0
LINE
  5
700C
330
1E
100
AcDbEntity
  8
UMCL1
  6
Continuous
100
AcDbLine
 10
197.8392476689059
 20
491.5131836690013
 30
0.0
 11
427.8392476689064
 21
491.5131836690013
 31
0.0
  0
LINE
  5
700D
330
1E
100
AcDbEntity
  8
CENTER
  6
CENTER
100
AcDbLine
 10
153.8392476689059
 20
469.0131836690013
 30
0.0
 11
497.7666617511768
 21
469.0131836690013
 31
0.0
  0
LINE
  5
700E
330
1E
100
AcDbEntity
  8
UMCL1
  6
Continuous
100
AcDbLine
 10
197.8392476689059
 20
446.5131836690013
 30
0.0
 11
427.8392476689064
 21
446.5131836690013
 31
0.0
  0
LINE
  5
700F
330
1E
100
AcDbEntity
  8
CENTER
  6
CENTER
100
AcDbLine
 10
177.8392476689059
 20
507.0131836690014
 30
0.0
 11
177.8392476689059
 21
469.0131836690013
 31
0.0
  0
LINE
  5
7010
330
1E
100
AcDbEntity
  8
CENTER
  6
CENTER
100
AcDbLine
 10
447.8392476689059
 20
498.0131836690013
 30
0.0
 11
447.8392476689059
 21
469.0131836690013
 31
0.0
  0
LINE
  5
7011
330
1E
100
AcDbEntity
  8
UMCL1
  6
Continuous
100
AcDbLine
 10
166.5809174197084
 20
503.0131836690014
 30
0.0
 11
189.0975779181037
 21
503.0131836690014
 31
0.0
  0
LINE
  5
7012
330
1E
100
AcDbEntity
  8
UMCL1
  6
Continuous
100
AcDbLine
 10
192.8503546678362
 20
494.0131836690013
 30
0.0
 11
192.8503546678362
 21
501.0131836690013
 31
0.0
  0
LINE
  5
7013
330
1E
100
AcDbEntity
  8
UMCL1
  6
Continuous
100
AcDbLine
 10
185.3448011683713
 20
494.0131836690013
 30
0.0
 11
185.3448011683713
 21
501.0131836690011
 31
0.0
  0
LINE
  5
7014
330
1E
100
AcDbEntity
  8
UMCL1
  6
Continuous
100
AcDbLine
 10
162.8281406699757
 20
494.0131836690013
 30
0.0
 11
162.8281406699757
 21
501.0131836690013
 31
0.0
  0
LINE
  5
7015
330
1E
100
AcDbEntity
  8
UMCL1
  6
Continuous
100
AcDbLine
 10
170.333694169441
 20
494.0131836690013
 30
0.0
 11
170.333694169441
 21
501.0131836690011
 31
0.0
  0
ARC
  5
7016
330
1E
100
AcDbEntity
  8
UMCL1
  6
Continuous
100
AcDbCircle
 10
189.0975779181037
 20
498.4923503356679
 30
0.0
 40
4.520833333333317
100
AcDbArc
 50
33.89023816900766
 51
146.1097618309923
  0
ARC
  5
7017
330
1E
100
AcDbEntity
  8
UMCL1
  6
Continuous
100
AcDbCircle
 10
177.8392476689059
 20
487.9298503356681
 30
0.0
 40
15.0833333333332
100
AcDbArc
 50
60.15827583531772
 51
119.8417241646836
  0
ARC
  5
7018
330
1E
100
AcDbEntity
  8
UMCL1
  6
Continuous
100
AcDbCircle
 10
166.5809174197084
 20
498.4923503356679
 30
0.0
 40
4.520833333333317
100
AcDbArc
 50
33.89023816900766
 51
146.1097618309923
  0
LINE
  5
7019
330
1E
100
AcDbEntity
  8
CENTER
  6
CENTER
100
AcDbLine
 10
785.0756863433532
 20
507.0131836690015
 30
0.0
 11
785.0756863433532
 21
312.6942883496454
 31
0.0
  0
LINE
  5
701A
330
1E
100
AcDbEntity
  8
UMCL1
  6
Continuous
100
AcDbLine
 10
842.575686343353
 20
435.4417029599014
 30
0.0
 11
842.5756863433534
 21
315.5131836690011
 31
0.0
  0
LINE
  5
701B
330
1E
100
AcDbEntity
  8
UMCL1
  6
Continuous
100
AcDbLine
 10
727.5756863433533
 20
435.4417029599014
 30
0.0
 11
727.5756863433533
 21
315.5131836690011
 31
0.0
  0
LINE
  5
701C
330
1E
100
AcDbEntity
  8
UMCL1
  6
Continuous
100
AcDbLine
 10
736.1471670524529
 20
444.0131836690013
 30
0.0
 11
834.0042056342534
 21
444.0131836690013
 31
0.0
  0
LINE
  5
701D
330
1E
100
AcDbEntity
  8
UMCL1
  6
Continuous
100
AcDbLine
 10
767.075686343353
 20
494.0131836690013
 30
0.0
 11
803.0756863433532
 21
494.0131836690013
 31
0.0
  0
LINE
  5
701E
330
1E
100
AcDbEntity
  8
UMCL1
  6
Continuous
100
AcDbLine
 10
823.0756863433532
 20
474.0131836690014
 30
0.0
 11
823.0756863433532
 21
444.0131836690013
 31
0.0
  0
LINE
  5
701F
330
1E
100
AcDbEntity
  8
UMCL1
  6
Continuous
100
AcDbLine
 10
747.0756863433532
 20
474.0131836690014
 30
0.0
 11
747.0756863433532
 21
444.0131836690013
 31
0.0
  0
LINE
  5
7020
330
1E
100
AcDbEntity
  8
UMCL1
  6
Continuous
100
AcDbLine
 10
752.5795327248093
 20
424.5131836690011
 30
0.0
 11
817.5718399618965
 21
424.5131836690015
 31
0.0
  0
LINE
  5
7021
330
1E
100
AcDbEntity
  8
UMCL1
  6
Continuous
100
AcDbLine
 10
752.5795327248094
 20
348.5131836690011
 30
0.0
 11
817.571839961897
 21
348.5131836690011
 31
0.0
  0
LINE
  5
7022
330
1E
100
AcDbEntity
  8
UMCL1
  6
Continuous
100
AcDbLine
 10
747.0756863433532
 20
354.0170300504574
 30
0.0
 11
747.0756863433527
 21
419.0093372875444
 31
0.0
  0
LINE
  5
7023
330
1E
100
AcDbEntity
  8
UMCL1
  6
Continuous
100
AcDbLine
 10
823.0756863433532
 20
354.0170300504574
 30
0.0
 11
823.0756863433532
 21
419.0093372875451
 31
0.0
  0
CIRCLE
  5
7024
330
1E
100
AcDbEntity
  8
UMCL1
  6
Continuous
100
AcDbCircle
 10
785.0756863433532
 20
386.5131836690011
 30
0.0
 40
25.00000000000003
  0
LINE
  5
7025
330
1E
100
AcDbEntity
  8
CENTER
  6
CENTER
100
AcDbLine
 10
763.5756863433532
 20
469.0131836690013
 30
0.0
 11
806.5756863433531
 21
469.0131836690013
 31
0.0
  0
LINE
  5
7026
330
1E
100
AcDbEntity
  8
UMCL1
  6
Continuous
100
AcDbLine
 10
800.0756863433529
 20
460.3529296311569
 30
0.0
 11
800.0756863433529
 21
477.6734377068457
 31
0.0
  0
LINE
  5
7027
330
1E
100
AcDbEntity
  8
UMCL1
  6
Continuous
100
AcDbLine
 10
770.0756863433532
 20
477.6734377068457
 30
0.0
 11
770.0756863433532
 21
460.3529296311569
 31
0.0
  0
LINE
  5
7028
330
1E
100
AcDbEntity
  8
UMCL1
  6
Continuous
100
AcDbLine
 10
770.0756863433532
 20
460.3529296311569
 30
0.0
 11
785.0756863433532
 21
451.6926755933125
 31
0.0
  0
LINE
  5
7029
330
1E
100
AcDbEntity
  8
UMCL1
  6
Continuous
100
AcDbLine
 10
785.0756863433532
 20
486.33369174469
 30
0.0
 11
770.0756863433532
 21
477.6734377068457
 31
0.0
  0
LINE
  5
702A
330
1E
100
AcDbEntity
  8
UMCL1
  6
Continuous
100
AcDbLine
 10
785.0756863433532
 20
451.6926755933125
 30
0.0
 11
800.0756863433529
 21
460.3529296311569
 31
0.0
  0
LINE
  5
702B
330
1E
100
AcDbEntity
  8
UMCL1
  6
Continuous
100
AcDbLine
 10
800.0756863433529
 20
477.6734377068457
 30
0.0
 11
785.0756863433532
 21
486.33369174469
 31
0.0
  0
CIRCLE
  5
702C
330
1E
100
AcDbEntity
  8
UMCL1
  6
Continuous
100
AcDbCircle
 10
785.0756863433532
 20
469.0131836690013
 30
0.0
 40
17.5
  0
ARC
  5
702D
330
1E
100
AcDbEntity
  8
UMCL1
  6
Continuous
100
AcDbCircle
 10
785.0756863433532
 20
386.5131836690011
 30
0.0
 40
50.0
100
AcDbArc
 50
220.5358021113146
 51
229.4641978886829
  0
LINE
  5
702E
330
1E
100
AcDbEntity
  8
UMCL1
  6
Continuous
100
AcDbLine
 10
467.8392476689061
 20
435.4417029599014
 30
0.0
 11
427.8392476689061
 21
435.4417029599014
 31
0.0
  0
LINE
  5
702F
330
1E
100
AcDbEntity
  8
UMCL1
  6
Continuous
100
AcDbLine
 10
482.839247668906
 20
419.0093372875444
 30
0.0
 11
467.8392476689061
 21
419.0093372875444
 31
0.0
  0
LINE
  5
7030
330
1E
100
AcDbEntity
  8
UMCL1
  6
Continuous
100
AcDbLine
 10
482.839247668906
 20
354.0170300504574
 30
0.0
 11
473.8392476689061
 21
354.0170300504574
 31
0.0
  0
LINE
  5
7031
330
1E
100
AcDbEntity
  8
UMCL1
  6
Continuous
100
AcDbLine
 10
467.8392476689061
 20
337.584664378101
 30
0.0
 11
427.8392476689059
 21
337.584664378101
 31
0.0
  0
LINE
  5
7032
330
1E
100
AcDbEntity
  8
UMCL1
  6
Continuous
100
AcDbLine
 10
197.8392476689059
 20
435.4417029599014
 30
0.0
 11
157.8392476689059
 21
435.4417029599014
 31
0.0
  0
LINE
  5
7033
330
1E
100
AcDbEntity
  8
UMCL1
  6
Continuous
100
AcDbLine
 10
197.8392476689059
 20
337.584664378101
 30
0.0
 11
157.8392476689059
 21
337.584664378101
 31
0.0
  0
LINE
  5
7034
330
1E
100
AcDbEntity
  8
UMCL1
  6
Continuous
100
AcDbLine
 10
197.8392476689059
 20
701.7508127745543
 30
0.0
 11
157.8392476689059
 21
701.7508127745543
 31
0.0
  0
LINE
  5
7035
330
1E
100
AcDbEntity
  8
UMCL1
  6
Continuous
100
AcDbLine
 10
197.8392476689059
 20
603.8937741927538
 30
0.0
 11
157.8392476689059
 21
603.8937741927538
 31
0.0
  0
LINE
  5
7036
330
1E
100
AcDbEntity
  8
UMCL1
  6
Continuous
100
AcDbLine
 10
467.8392476689061
 20
603.8937741927538
 30
0.0
 11
427.8392476689059
 21
603.8937741927538
 31
0.0
  0
LINE
  5
7037
330
1E
100
AcDbEntity
  8
UMCL1
  6
Continuous
100
AcDbLine
 10
467.8392476689061
 20
701.7508127745543
 30
0.0
 11
427.8392476689061
 21
701.7508127745543
 31
0.0
  0
LINE
  5
7038
330
1E
100
AcDbEntity
  8
UMCL1
  6
Continuous
100
AcDbLine
 10
482.839247668906
 20
685.3184471021973
 30
0.0
 11
467.8392476689061
 21
685.3184471021973
 31
0.0
  0
LINE
  5
7039
330
1E
100
AcDbEntity
  8
UMCL1
  6
Continuous
100
AcDbLine
 10
482.839247668906
 20
620.3261398651102
 30
0.0
 11
467.8392476689061
 21
620.3261398651102
 31
0.0
  0
ARC
  5
703A
330
1E
100
AcDbEntity
  8
UMCL1
  6
Continuous
100
AcDbCircle
 10
785.0756863433532
 20
386.5131836690011
 30
0.0
 40
75.5
100
AcDbArc
 50
40.39548270962544
 51
49.60451729037332
  0
ARC
  5
703B
330
1E
100
AcDbEntity
  8
UMCL1
  6
Continuous
100
AcDbCircle
 10
785.0756863433532
 20
386.5131836690011
 30
0.0
 40
75.5
100
AcDbArc
 50
130.3954827096267
 51
139.6045172903745
  0
ARC
  5
703C
330
1E
100
AcDbEntity
  8
UMCL1
  6
Continuous
100
AcDbCircle
 10
785.0756863433532
 20
386.5131836690011
 30
0.0
 40
50.0
100
AcDbArc
 50
310.5358021113171
 51
319.4641978886854
  0
ARC
  5
703D
330
1E
100
AcDbEntity
  8
UMCL1
  6
Continuous
100
AcDbCircle
 10
785.0756863433532
 20
386.5131836690011
 30
0.0
 40
50.0
100
AcDbArc
 50
40.5358021113196
 51
49.46419788868412
  0
ARC
  5
703E
330
1E
100
AcDbEntity
  8
UMCL1
  6
Continuous
100
AcDbCircle
 10
785.0756863433532
 20
386.5131836690011
 30
0.0
 40
50.0
100
AcDbArc
 50
130.5358021113171
 51
139.4641978886864
  0
LINE
  5
703F
330
1E
100
AcDbEntity
  8
CENTER
  6
CENTER
100
AcDbLine
 10
723.5756863433531
 20
386.5131836690011
 30
0.0
 11
846.5756863433529
 21
386.5131836690011
 31
0.0
  0
LINE
  5
7040
330
1E
100
AcDbEntity
  8
UMCL1
  6
Continuous
100
AcDbLine
 10
772.075686343353
 20
503.0131836690014
 30
0.0
 11
798.075686343353
 21
503.0131836690015
 31
0.0
  0
LINE
  5
7041
330
1E
100
AcDbEntity
  8
UMCL1
  6
Continuous
100
AcDbLine
 10
798.075686343353
 20
494.0131836690013
 30
0.0
 11
798.075686343353
 21
503.0131836690015
 31
0.0
  0
LINE
  5
7042
330
1E
100
AcDbEntity
  8
UMCL1
  6
Continuous
100
AcDbLine
 10
772.075686343353
 20
503.0131836690014
 30
0.0
 11
772.0756863433532
 21
494.0131836690013
 31
0.0
  0
ARC
  5
7043
330
1E
100
AcDbEntity
  8
UMCL1
  6
Continuous
100
AcDbCircle
 10
791.5756863433532
 20
491.4506836690032
 30
0.0
 40
11.56249999999831
100
AcDbArc
 50
55.79454206188918
 51
124.2054579381121
  0
ARC
  5
7044
330
1E
100
AcDbEntity
  8
UMCL1
  6
Continuous
100
AcDbCircle
 10
778.5756863433532
 20
491.4506836690029
 30
0.0
 40
11.56249999999854
100
AcDbArc
 50
55.79454206188918
 51
124.2054579381108
  0
LINE
  5
7045
330
1E
100
AcDbEntity
  8
UMCL1
  6
Continuous
100
AcDbLine
 10
785.0756863433532
 20
501.0131836690011
 30
0.0
 11
785.0756863433532
 21
494.0131836690013
 31
0.0
  0
LINE
  5
7046
330
1E
100
AcDbEntity
  8
CENTER
  6
CENTER
100
AcDbLine
 10
829.5756863433533
 20
444.0131836690013
 30
0.0
 11
829.5756863433533
 21
418.0131836690013
 31
0.0
  0
LINE
  5
7047
330
1E
100
AcDbEntity
  8
CENTER
  6
CENTER
100
AcDbLine
 10
740.5756863433532
 20
444.0131836690011
 30
0.0
 11
740.5756863433532
 21
418.0131836690011
 31
0.0
  0
LINE
  5
7048
330
1E
100
AcDbEntity
  8
CENTER
  6
CENTER
100
AcDbLine
 10
727.5756863433533
 20
431.0131836690011
 30
0.0
 11
753.5756863433532
 21
431.0131836690013
 31
0.0
  0
CIRCLE
  5
7049
330
1E
100
AcDbEntity
  8
UMCL1
  6
Continuous
100
AcDbCircle
 10
740.5756863433532
 20
431.0131836690011
 30
0.0
 40
4.25
  0
ARC
  5
704A
330
1E
100
AcDbEntity
  8
UMCL1
  6
Continuous
 62
     2
100
AcDbCircle
 10
740.5756863433532
 20
431.0131836690011
 30
0.0
 40
5.0
100
AcDbArc
 50
66.06024884272492
 51
15.80874327065279
  0
ARC
  5
704B
330
1E
100
AcDbEntity
  8
UMCL1
  6
Continuous
 62
     2
100
AcDbCircle
 10
829.5756863433533
 20
431.0131836690013
 30
0.0
 40
5.0
100
AcDbArc
 50
66.0602488427193
 51
15.80874327065906
  0
CIRCLE
  5
704C
330
1E
100
AcDbEntity
  8
UMCL1
  6
Continuous
100
AcDbCircle
 10
829.5756863433533
 20
431.0131836690013
 30
0.0
 40
4.25
  0
LINE
  5
704D
330
1E
100
AcDbEntity
  8
CENTER
  6
CENTER
100
AcDbLine
 10
816.5756863433532
 20
431.0131836690013
 30
0.0
 11
842.575686343353
 21
431.0131836690013
 31
0.0
  0
LINE
  5
704E
330
1E
100
AcDbEntity
  8
CENTER
  6
CENTER
100
AcDbLine
 10
810.0756863433529
 20
422.0131836690013
 30
0.0
 11
810.0756863433533
 21
401.0131836690013
 31
0.0
  0
LINE
  5
704F
330
1E
100
AcDbEntity
  8
CENTER
  6
CENTER
100
AcDbLine
 10
760.0756863433532
 20
422.0131836690011
 30
0.0
 11
760.0756863433532
 21
401.0131836690011
 31
0.0
  0
LINE
  5
7050
330
1E
100
AcDbEntity
  8
CENTER
  6
CENTER
100
AcDbLine
 10
749.5756863433532
 20
411.5131836690011
 30
0.0
 11
770.5756863433532
 21
411.5131836690014
 31
0.0
  0
LINE
  5
7051
330
1E
100
AcDbEntity
  8
CENTER
  6
CENTER
100
AcDbLine
 10
749.5756863433532
 20
361.5131836690011
 30
0.0
 11
770.5756863433532
 21
361.5131836690011
 31
0.0
  0
LINE
  5
7052
330
1E
100
AcDbEntity
  8
CENTER
  6
CENTER
100
AcDbLine
 10
799.5756863433532
 20
361.5131836690011
 30
0.0
 11
820.5756863433531
 21
361.5131836690014
 31
0.0
  0
LINE
  5
7053
330
1E
100
AcDbEntity
  8
CENTER
  6
CENTER
100
AcDbLine
 10
799.5756863433532
 20
411.5131836690014
 30
0.0
 11
820.5756863433531
 21
411.5131836690014
 31
0.0
  0
LINE
  5
7054
330
1E
100
AcDbEntity
  8
CENTER
  6
CENTER
100
AcDbLine
 10
810.0756863433533
 20
372.0131836690011
 30
0.0
 11
810.0756863433533
 21
351.0131836690011
 31
0.0
  0
LINE
  5
7055
330
1E
100
AcDbEntity
  8
CENTER
  6
CENTER
100
AcDbLine
 10
760.0756863433532
 20
372.0131836690011
 30
0.0
 11
760.0756863433532
 21
351.0131836690011
 31
0.0
  0
LINE
  5
7056
330
1E
100
AcDbEntity
  8
CENTER
  6
CENTER
100
AcDbLine
 10
622.8392476689061
 20
663.8222934836542
 30
0.0
 11
622.8392476689061
 21
641.8222934836542
 31
0.0
  0
LINE
  5
7057
330
1E
100
AcDbEntity
  8
CENTER
  6
CENTER
100
AcDbLine
 10
622.8392476689061
 20
417.2049494759685
 30
0.0
 11
622.8392476689061
 21
393.0814847782151
 31
0.0
  0
LINE
  5
7058
330
1E
100
AcDbEntity
  8
UMCL1
  6
HIDDEN
 62
     2
100
AcDbLine
 10
652.839247668906
 20
377.1631836690013
 30
0.0
 11
640.139247668906
 21
377.9569336690013
 31
0.0
  0
LINE
  5
7059
330
1E
100
AcDbEntity
  8
UMCL1
  6
HIDDEN
 62
     2
100
AcDbLine
 10
640.139247668906
 20
395.0694336690012
 30
0.0
 11
652.839247668906
 21
395.8631836690013
 31
0.0
  0
LINE
  5
705A
330
1E
100
AcDbEntity
  8
UMCL1
  6
HIDDEN
 62
     2
100
AcDbLine
 10
652.839247668906
 20
376.0631836690013
 30
0.0
 11
641.4092476689061
 21
376.7775586690013
 31
0.0
  0
LINE
  5
705B
330
1E
100
AcDbEntity
  8
UMCL1
  6
HIDDEN
 62
     2
100
AcDbLine
 10
652.839247668906
 20
396.9631836690012
 30
0.0
 11
641.4092476689061
 21
396.2488086690012
 31
0.0
  0
CIRCLE
  5
705C
330
1E
100
AcDbEntity
  8
UMCL1
  6
Continuous
100
AcDbCircle
 10
785.0756863433532
 20
386.5131836690011
 30
0.0
 40
9.349999999999994
  0
ARC
  5
705D
330
1E
100
AcDbEntity
  8
UMCL1
  6
Continuous
 62
     2
100
AcDbCircle
 10
785.0756863433532
 20
386.5131836690011
 30
0.0
 40
10.44999999999999
100
AcDbArc
 50
71.17815801670637
 51
22.17985363635302
  0
LINE
  5
705E
330
1E
100
AcDbEntity
  8
UMCL1
  6
HIDDEN
 62
     2
100
AcDbLine
 10
652.839247668906
 20
643.4722934836541
 30
0.0
 11
640.139247668906
 21
644.2660434836541
 31
0.0
  0
LINE
  5
705F
330
1E
100
AcDbEntity
  8
UMCL1
  6
HIDDEN
 62
     2
100
AcDbLine
 10
652.839247668906
 20
642.3722934836542
 30
0.0
 11
641.4092476689061
 21
643.0866684836542
 31
0.0
  0
LINE
  5
7060
330
1E
100
AcDbEntity
  8
UMCL1
  6
HIDDEN
 62
     2
100
AcDbLine
 10
640.139247668906
 20
661.3785434836541
 30
0.0
 11
652.839247668906
 21
662.1722934836541
 31
0.0
  0
LINE
  5
7061
330
1E
100
AcDbEntity
  8
UMCL1
  6
HIDDEN
 62
     2
100
AcDbLine
 10
652.839247668906
 20
663.2722934836542
 30
0.0
 11
641.4092476689061
 21
662.5579184836542
 31
0.0
  0
LINE
  5
7062
330
1E
100
AcDbEntity
  8
CENTER
  6
CENTER
100
AcDbLine
 10
177.8392476689059
 20
393.9055265812831
 30
0.0
 11
177.8392476689059
 21
365.1161476907289
 31
0.0
  0
CIRCLE
  5
7063
330
1E
100
AcDbEntity
  8
UMCL1
  6
Continuous
100
AcDbCircle
 10
177.8392476689059
 20
652.8222934836541
 30
0.0
 40
13.0
  0
LINE
  5
7064
330
1E
100
AcDbEntity
  8
CENTER
  6
CENTER
100
AcDbLine
 10
432.6140408664173
 20
431.0131836690011
 30
0.0
 11
476.5647373530311
 21
431.0131836690013
 31
0.0
  0
LINE
  5
7065
330
1E
100
AcDbEntity
  8
CENTER
  6
CENTER
100
AcDbLine
 10
454.6140408664173
 20
411.5131836690011
 30
0.0
 11
482.839247668906
 21
411.5131836690014
 31
0.0
  0
LINE
  5
7066
330
1E
100
AcDbEntity
  8
CENTER
  6
CENTER
100
AcDbLine
 10
454.6140408664173
 20
361.5131836690011
 30
0.0
 11
482.839247668906
 21
361.5131836690011
 31
0.0
  0
LINE
  5
7067
330
1E
100
AcDbEntity
  8
CENTER
  6
CENTER
100
AcDbLine
 10
432.6140408664173
 20
342.0131836690011
 30
0.0
 11
490.0159750674434
 21
342.0131836690011
 31
0.0
  0
LINE
  5
7068
330
1E
100
AcDbEntity
  8
CENTER
  6
CENTER
100
AcDbLine
 10
193.064454471395
 20
431.0131836690011
 30
0.0
 11
149.1137579847811
 21
431.0131836690013
 31
0.0
  0
LINE
  5
7069
330
1E
100
AcDbEntity
  8
CENTER
  6
CENTER
100
AcDbLine
 10
193.064454471395
 20
342.0131836690011
 30
0.0
 11
134.8628754288902
 21
342.0131836690011
 31
0.0
  0
LINE
  5
706A
330
1E
100
AcDbEntity
  8
CENTER
  6
CENTER
100
AcDbLine
 10
432.6140408664173
 20
697.3222934836542
 30
0.0
 11
476.5647373530311
 21
697.3222934836542
 31
0.0
  0
LINE
  5
706B
330
1E
100
AcDbEntity
  8
CENTER
  6
CENTER
100
AcDbLine
 10
432.6140408664173
 20
608.3222934836542
 30
0.0
 11
476.5647373530311
 21
608.3222934836542
 31
0.0
  0
LINE
  5
706C
330
1E
100
AcDbEntity
  8
CENTER
  6
CENTER
100
AcDbLine
 10
193.064454471395
 20
608.3222934836542
 30
0.0
 11
134.1759766938298
 21
608.3222934836542
 31
0.0
  0
LINE
  5
706D
330
1E
100
AcDbEntity
  8
CENTER
  6
CENTER
100
AcDbLine
 10
193.064454471395
 20
697.3222934836542
 30
0.0
 11
134.1759766938298
 21
697.3222934836542
 31
0.0
  0
LINE
  5
706E
330
1E
100
AcDbEntity
  8
UMCL1
  6
Continuous
100
AcDbLine
 10
139.9392476689063
 20
600.3222934836542
 30
0.0
 11
149.3392476689059
 21
600.3222934836542
 31
0.0
  0
LINE
  5
706F
330
1E
100
AcDbEntity
  8
UMCL1
  6
Continuous
100
AcDbLine
 10
139.9392476689063
 20
616.3222934836542
 30
0.0
 11
149.3392476689059
 21
616.3222934836542
 31
0.0
  0
LINE
  5
7070
330
1E
100
AcDbEntity
  8
UMCL1
  6
Continuous
100
AcDbLine
 10
139.9392476689063
 20
689.3222934836542
 30
0.0
 11
149.3392476689059
 21
689.3222934836542
 31
0.0
  0
LINE
  5
7071
330
1E
100
AcDbEntity
  8
UMCL1
  6
Continuous
100
AcDbLine
 10
139.9392476689063
 20
705.3222934836542
 30
0.0
 11
149.3392476689059
 21
705.3222934836542
 31
0.0
  0
LINE
  5
7072
330
1E
100
AcDbEntity
  8
UMCL1
  6
Continuous
100
AcDbLine
 10
149.3392476689059
 20
617.5222934836531
 30
0.0
 11
151.8392476689059
 21
617.5222934836531
 31
0.0
  0
LINE
  5
7073
330
1E
100
AcDbEntity
  8
UMCL1
  6
Continuous
100
AcDbLine
 10
151.8392476689059
 20
599.1222934836534
 30
0.0
 11
149.3392476689059
 21
599.1222934836534
 31
0.0
  0
LINE
  5
7074
330
1E
100
AcDbEntity
  8
UMCL1
  6
Continuous
100
AcDbLine
 10
151.8392476689059
 20
609.1556268169881
 30
0.0
 11
149.3392476689059
 21
607.4889601503202
 31
0.0
  0
LINE
  5
7075
330
1E
100
AcDbEntity
  8
UMCL1
  6
Continuous
100
AcDbLine
 10
151.8392476689059
 20
696.4889601503203
 30
0.0
 11
149.3392476689059
 21
698.1556268169882
 31
0.0
  0
LINE
  5
7076
330
1E
100
AcDbEntity
  8
UMCL1
  6
Continuous
100
AcDbLine
 10
151.8392476689059
 20
706.5222934836549
 30
0.0
 11
149.3392476689059
 21
706.5222934836549
 31
0.0
  0
LINE
  5
7077
330
1E
100
AcDbEntity
  8
UMCL1
  6
Continuous
100
AcDbLine
 10
149.3392476689059
 20
688.1222934836553
 30
0.0
 11
151.8392476689059
 21
688.1222934836553
 31
0.0
  0
LINE
  5
7078
330
1E
100
AcDbEntity
  8
UMCL1
100
AcDbLine
 10
151.8392476689059
 20
595.5722934836542
 30
0.0
 11
151.8392476689059
 21
710.0722934836542
 31
0.0
  0
LINE
  5
7079
330
1E
100
AcDbEntity
  8
UMCL1
  6
Continuous
100
AcDbLine
 10
149.3392476689059
 20
599.1222934836534
 30
0.0
 11
149.3392476689059
 21
617.5222934836531
 31
0.0
  0
LINE
  5
707A
330
1E
100
AcDbEntity
  8
UMCL1
  6
Continuous
100
AcDbLine
 10
149.3392476689059
 20
706.5222934836549
 30
0.0
 11
149.3392476689059
 21
688.1222934836553
 31
0.0
  0
LINE
  5
707B
330
1E
100
AcDbEntity
  8
UMCL1
  6
Continuous
100
AcDbLine
 10
139.3392476689059
 20
601.0151341303046
 30
0.0
 11
139.9392476689063
 21
600.3222934836542
 31
0.0
  0
LINE
  5
707C
330
1E
100
AcDbEntity
  8
UMCL1
  6
Continuous
100
AcDbLine
 10
139.3392476689059
 20
615.6294528370038
 30
0.0
 11
139.9392476689063
 21
616.3222934836542
 31
0.0
  0
LINE
  5
707D
330
1E
100
AcDbEntity
  8
UMCL1
  6
Continuous
100
AcDbLine
 10
139.9392476689063
 20
600.3222934836542
 30
0.0
 11
139.9392476689063
 21
616.3222934836542
 31
0.0
  0
LINE
  5
707E
330
1E
100
AcDbEntity
  8
UMCL1
  6
Continuous
100
AcDbLine
 10
139.3392476689059
 20
615.6294528370035
 30
0.0
 11
139.3392476689059
 21
601.0151341303046
 31
0.0
  0
CIRCLE
  5
707F
330
1E
100
AcDbEntity
  8
UMCL1
  6
Continuous
100
AcDbCircle
 10
116.8392476689059
 20
615.3222934836541
 30
0.0
 40
7.0
  0
LINE
  5
7080
330
1E
100
AcDbEntity
  8
CENTER
  6
CENTER
100
AcDbLine
 10
107.8392476689062
 20
615.3222934836541
 30
0.0
 11
125.8392476689059
 21
615.322293483654
 31
0.0
  0
LINE
  5
7081
330
1E
100
AcDbEntity
  8
CENTER
  6
CENTER
100
AcDbLine
 10
116.8392476689059
 20
606.3222934836542
 30
0.0
 11
116.8392476689059
 21
624.3222934836542
 31
0.0
  0
LINE
  5
7082
330
1E
100
AcDbEntity
  8
CENTER
  6
CENTER
100
AcDbLine
 10
116.8392476689059
 20
699.322293483654
 30
0.0
 11
116.8392476689059
 21
681.3222934836542
 31
0.0
  0
LINE
  5
7083
330
1E
100
AcDbEntity
  8
CENTER
  6
CENTER
100
AcDbLine
 10
107.8392476689062
 20
690.3222934836541
 30
0.0
 11
125.8392476689059
 21
690.3222934836541
 31
0.0
  0
CIRCLE
  5
7084
330
1E
100
AcDbEntity
  8
UMCL1
  6
Continuous
100
AcDbCircle
 10
116.8392476689059
 20
690.3222934836541
 30
0.0
 40
7.0
  0
LINE
  5
7085
330
1E
100
AcDbEntity
  8
UMCL1
  6
Continuous
100
AcDbLine
 10
139.3392476689059
 20
690.0151341303046
 30
0.0
 11
139.3392476689059
 21
704.6294528370038
 31
0.0
  0
LINE
  5
7086
330
1E
100
AcDbEntity
  8
UMCL1
  6
Continuous
100
AcDbLine
 10
139.9392476689063
 20
705.3222934836542
 30
0.0
 11
139.9392476689063
 21
689.3222934836542
 31
0.0
  0
LINE
  5
7087
330
1E
100
AcDbEntity
  8
UMCL1
  6
Continuous
100
AcDbLine
 10
139.3392476689059
 20
690.0151341303046
 30
0.0
 11
139.9392476689063
 21
689.3222934836542
 31
0.0
  0
LINE
  5
7088
330
1E
100
AcDbEntity
  8
UMCL1
  6
Continuous
100
AcDbLine
 10
139.3392476689059
 20
704.6294528370038
 30
0.0
 11
139.9392476689063
 21
705.3222934836542
 31
0.0
  0
LINE
  5
7089
330
1E
100
AcDbEntity
  8
UMCL1
100
AcDbLine
 10
101.8392476689059
 20
598.3222934836541
 30
0.0
 11
101.8392476689061
 21
707.3222934836542
 31
0.0
  0
LINE
  5
708A
330
1E
100
AcDbEntity
  8
UMCL1
100
AcDbLine
 10
523.8392476689061
 20
321.5131836690011
 30
0.0
 11
475.839247668906
 21
321.5131836690011
 31
0.0
  0
LINE
  5
708B
330
1E
100
AcDbEntity
  8
UMCL1
100
AcDbLine
 10
523.8392476689061
 20
315.5131836690011
 30
0.0
 11
475.839247668906
 21
315.5131836690011
 31
0.0
  0
LINE
  5
708C
330
1E
100
AcDbEntity
  8
UMCL1
  6
Continuous
100
AcDbLine
 10
485.7392476689057
 20
334.0131836690011
 30
0.0
 11
485.7392476689057
 21
350.0131836690012
 31
0.0
  0
LINE
  5
708D
330
1E
100
AcDbEntity
  8
UMCL1
  6
Continuous
100
AcDbLine
 10
486.339247668906
 20
349.3203430223507
 30
0.0
 11
486.339247668906
 21
334.7060243156516
 31
0.0
  0
LINE
  5
708E
330
1E
100
AcDbEntity
  8
UMCL1
100
AcDbLine
 10
473.839247668906
 20
363.5131836690011
 30
0.0
 11
473.839247668906
 21
323.5131836690011
 31
0.0
  0
LINE
  5
708F
330
1E
100
AcDbEntity
  8
UMCL1
  6
Continuous
100
AcDbLine
 10
476.3392476689061
 20
332.8131836690004
 30
0.0
 11
476.3392476689061
 21
351.213183669
 31
0.0
  0
LINE
  5
7090
330
1E
100
AcDbEntity
  8
UMCL1
100
AcDbLine
 10
467.8392476689061
 20
363.5131836690011
 30
0.0
 11
467.8392476689061
 21
323.5131836690011
 31
0.0
  0
ARC
  5
7091
330
1E
100
AcDbEntity
  8
UMCL1
100
AcDbCircle
 10
475.839247668906
 20
323.5131836690011
 30
0.0
 40
2.0
100
AcDbArc
 50
180.0
 51
270.0
  0
ARC
  5
7092
330
1E
100
AcDbEntity
  8
UMCL1
100
AcDbCircle
 10
475.839247668906
 20
323.5131836690011
 30
0.0
 40
8.0
100
AcDbArc
 50
180.0
 51
270.0
  0
LINE
  5
7093
330
1E
100
AcDbEntity
  8
UMCL1
  6
Continuous
100
AcDbLine
 10
485.7392476689057
 20
334.0131836690011
 30
0.0
 11
476.3392476689061
 21
334.0131836690011
 31
0.0
  0
LINE
  5
7094
330
1E
100
AcDbEntity
  8
UMCL1
  6
Continuous
100
AcDbLine
 10
473.839247668906
 20
332.8131836690004
 30
0.0
 11
476.3392476689061
 21
332.8131836690004
 31
0.0
  0
LINE
  5
7095
330
1E
100
AcDbEntity
  8
UMCL1
  6
Continuous
100
AcDbLine
 10
486.339247668906
 20
334.7060243156516
 30
0.0
 11
485.7392476689057
 21
334.0131836690011
 31
0.0
  0
LINE
  5
7096
330
1E
100
AcDbEntity
  8
UMCL1
  6
Continuous
100
AcDbLine
 10
473.839247668906
 20
342.8465170023351
 30
0.0
 11
476.3392476689061
 21
341.1798503356672
 31
0.0
  0
LINE
  5
7097
330
1E
100
AcDbEntity
  8
UMCL1
100
AcDbLine
 10
473.839247668906
 20
363.5131836690011
 30
0.0
 11
467.8392476689061
 21
363.5131836690011
 31
0.0
  0
LINE
  5
7098
330
1E
100
AcDbEntity
  8
UMCL1
  6
Continuous
100
AcDbLine
 10
485.7392476689057
 20
350.0131836690012
 30
0.0
 11
476.3392476689061
 21
350.0131836690012
 31
0.0
  0
LINE
  5
7099
330
1E
100
AcDbEntity
  8
UMCL1
  6
Continuous
100
AcDbLine
 10
476.3392476689061
 20
351.213183669
 30
0.0
 11
473.839247668906
 21
351.213183669
 31
0.0
  0
LINE
  5
709A
330
1E
100
AcDbEntity
  8
UMCL1
  6
Continuous
100
AcDbLine
 10
486.339247668906
 20
349.3203430223507
 30
0.0
 11
485.7392476689057
 21
350.0131836690012
 31
0.0
  0
LINE
  5
709B
330
1E
100
AcDbEntity
  8
UMCL2
  6
Continuous
100
AcDbLine
 10
524.8392476689061
 20
315.5131836690011
 30
0.0
 11
532.8392476689061
 21
315.5131836690011
 31
0.0
  0
LINE
  5
709C
330
1E
100
AcDbEntity
  8
UMCL2
  6
Continuous
100
AcDbLine
 10
524.8392476689061
 20
321.5131836690011
 30
0.0
 11
532.8392476689061
 21
321.5131836690011
 31
0.0
  0
LINE
  5
709D
330
1E
100
AcDbEntity
  8
CENTER
  6
CENTER
100
AcDbLine
 10
508.839247668906
 20
313.5131836690011
 30
0.0
 11
508.839247668906
 21
323.5131836690011
 31
0.0
  0
LINE
  5
709E
330
1E
100
AcDbEntity
  8
UMCL1
  6
HIDDEN
 62
     2
100
AcDbLine
 10
502.839247668906
 20
315.5131836690011
 30
0.0
 11
502.839247668906
 21
321.5131836690011
 31
0.0
  0
LINE
  5
709F
330
1E
100
AcDbEntity
  8
UMCL1
  6
HIDDEN
 62
     2
100
AcDbLine
 10
514.8392476689061
 20
315.5131836690011
 30
0.0
 11
514.8392476689061
 21
321.5131836690011
 31
0.0
  0
LINE
  5
70A0
330
1E
100
AcDbEntity
  8
UMCL1
100
AcDbLine
 10
523.8392476689061
 20
321.5131836690011
 30
0.0
 11
523.8392476689061
 21
315.5131836690011
 31
0.0
  0
SOLID
  5
70A1
330
1E
100
AcDbEntity
  8
UMCL2
  6
Continuous
100
AcDbTrace
 10
531.3392476689061
 20
324.5131836690011
 30
0.0
 11
532.3392476689061
 21
324.5131836690011
 31
0.0
 12
531.8392476689061
 22
321.5131836690011
 32
0.0
 13
531.8392476689061
 23
321.5131836690011
 33
0.0
  0
SOLID
  5
70A2
330
1E
100
AcDbEntity
  8
UMCL2
  6
Continuous
100
AcDbTrace
 10
531.3392476689061
 20
312.5131836690012
 30
0.0
 11
532.3392476689061
 21
312.5131836690012
 31
0.0
 12
531.8392476689061
 22
315.5131836690011
 32
0.0
 13
531.8392476689061
 23
315.5131836690011
 33
0.0
  0
LINE
  5
70A3
330
1E
100
AcDbEntity
  8
UMCL2
  6
Continuous
100
AcDbLine
 10
531.8392476689061
 20
310.1912162959827
 30
0.0
 11
531.8392476689061
 21
321.5131836690011
 31
0.0
  0
LINE
  5
70A4
330
1E
100
AcDbEntity
  8
UMCL2
  6
Continuous
100
AcDbLine
 10
531.8392476689061
 20
324.5131836690011
 30
0.0
 11
531.8392476689061
 21
327.5131836690011
 31
0.0
  0
TEXT
  5
70A5
330
1E
100
AcDbEntity
  8
UMCL2
  6
Continuous
100
AcDbText
 10
530.3392476689062
 20
325.5836235632045
 30
0.0
 40
3.0
  1
6
 50
90.0
  7
ROMANSS
 72
     1
 11
528.8392476689061
 21
326.5121949917759
 31
0.0
100
AcDbText
 73
     2
  0
LINE
  5
70A6
330
1E
100
AcDbEntity
  8
UMCL2
  6
Continuous
100
AcDbLine
 10
100.8392476689059
 20
315.5131836690011
 30
0.0
 11
92.83924766890596
 21
315.5131836690011
 31
0.0
  0
LINE
  5
70A7
330
1E
100
AcDbEntity
  8
UMCL2
  6
Continuous
100
AcDbLine
 10
100.8392476689059
 20
321.5131836690011
 30
0.0
 11
93.77093227554041
 21
321.5131836690011
 31
0.0
  0
LINE
  5
70A8
330
1E
100
AcDbEntity
  8
UMCL2
  6
Continuous
100
AcDbLine
 10
94.98503526759122
 20
312.5131836690012
 30
0.0
 11
94.98503526759122
 21
309.5131836690011
 31
0.0
  0
SOLID
  5
70A9
330
1E
100
AcDbEntity
  8
UMCL2
  6
Continuous
100
AcDbTrace
 10
95.48503526759123
 20
324.5131836690011
 30
0.0
 11
94.48503526759123
 21
324.5131836690011
 31
0.0
 12
94.98503526759122
 22
321.5131836690011
 32
0.0
 13
94.98503526759122
 23
321.5131836690011
 33
0.0
  0
SOLID
  5
70AA
330
1E
100
AcDbEntity
  8
UMCL2
  6
Continuous
100
AcDbTrace
 10
95.48503526759123
 20
312.5131836690012
 30
0.0
 11
94.48503526759123
 21
312.5131836690012
 31
0.0
 12
94.98503526759122
 22
315.5131836690011
 32
0.0
 13
94.98503526759122
 23
315.5131836690011
 33
0.0
  0
LINE
  5
70AB
330
1E
100
AcDbEntity
  8
UMCL2
  6
Continuous
100
AcDbLine
 10
94.98503526759122
 20
315.5131836690011
 30
0.0
 11
94.98503526759122
 21
321.5131836690011
 31
0.0
  0
TEXT
  5
70AC
330
1E
100
AcDbEntity
  8
UMCL2
  6
Continuous
100
AcDbText
 10
93.48503526759122
 20
325.5836235632045
 30
0.0
 40
3.0
  1
6
 50
90.0
  7
ROMANSS
 72
     1
 11
91.98503526759123
 21
326.5121949917759
 31
0.0
100
AcDbText
 73
     2
  0
LINE
  5
70AD
330
1E
100
AcDbEntity
  8
UMCL2
  6
Continuous
100
AcDbLine
 10
94.98503526759122
 20
324.5131836690011
 30
0.0
 11
94.98503526759122
 21
327.5131836690011
 31
0.0
  0
LINE
  5
70AE
330
1E
100
AcDbEntity
  8
UMCL1
100
AcDbLine
 10
151.8392476689059
 20
363.5131836690011
 30
0.0
 11
151.8392476689059
 21
323.5131836690011
 31
0.0
  0
LINE
  5
70AF
330
1E
100
AcDbEntity
  8
UMCL1
  6
Continuous
100
AcDbLine
 10
149.3392476689059
 20
332.8131836690004
 30
0.0
 11
149.3392476689059
 21
351.213183669
 31
0.0
  0
LINE
  5
70B0
330
1E
100
AcDbEntity
  8
UMCL1
100
AcDbLine
 10
157.8392476689059
 20
363.5131836690011
 30
0.0
 11
157.8392476689059
 21
323.5131836690011
 31
0.0
  0
LINE
  5
70B1
330
1E
100
AcDbEntity
  8
UMCL1
100
AcDbLine
 10
101.8392476689059
 20
321.5131836690011
 30
0.0
 11
149.8392476689059
 21
321.5131836690011
 31
0.0
  0
LINE
  5
70B2
330
1E
100
AcDbEntity
  8
UMCL1
100
AcDbLine
 10
101.8392476689059
 20
315.5131836690011
 30
0.0
 11
149.8392476689059
 21
315.5131836690011
 31
0.0
  0
LINE
  5
70B3
330
1E
100
AcDbEntity
  8
UMCL2
  6
Continuous
100
AcDbLine
 10
116.8392476689059
 20
312.5131836690014
 30
0.0
 11
116.8392476689059
 21
306.5131836690011
 31
0.0
  0
LINE
  5
70B4
330
1E
100
AcDbEntity
  8
UMCL1
100
AcDbLine
 10
101.8392476689059
 20
321.5131836690011
 30
0.0
 11
101.8392476689059
 21
315.5131836690011
 31
0.0
  0
LINE
  5
70B5
330
1E
100
AcDbEntity
  8
UMCL1
  6
HIDDEN
 62
     2
100
AcDbLine
 10
110.8392476689059
 20
315.5131836690011
 30
0.0
 11
110.8392476689059
 21
321.5131836690011
 31
0.0
  0
LINE
  5
70B6
330
1E
100
AcDbEntity
  8
CENTER
  6
CENTER
100
AcDbLine
 10
116.8392476689059
 20
313.5131836690014
 30
0.0
 11
116.8392476689059
 21
323.5131836690011
 31
0.0
  0
LINE
  5
70B7
330
1E
100
AcDbEntity
  8
UMCL1
  6
HIDDEN
 62
     2
100
AcDbLine
 10
122.8392476689059
 20
315.5131836690011
 30
0.0
 11
122.8392476689059
 21
321.5131836690011
 31
0.0
  0
LINE
  5
70B8
330
1E
100
AcDbEntity
  8
UMCL1
  6
Continuous
100
AcDbLine
 10
151.8392476689059
 20
332.8131836690004
 30
0.0
 11
149.3392476689059
 21
332.8131836690004
 31
0.0
  0
ARC
  5
70B9
330
1E
100
AcDbEntity
  8
UMCL1
100
AcDbCircle
 10
149.8392476689059
 20
323.5131836690011
 30
0.0
 40
2.0
100
AcDbArc
 50
270.0
 51
0.0
  0
ARC
  5
70BA
330
1E
100
AcDbEntity
  8
UMCL1
100
AcDbCircle
 10
149.8392476689059
 20
323.5131836690011
 30
0.0
 40
8.0
100
AcDbArc
 50
270.0
 51
0.0
  0
LINE
  5
70BB
330
1E
100
AcDbEntity
  8
UMCL1
  6
Continuous
100
AcDbLine
 10
149.3392476689059
 20
351.213183669
 30
0.0
 11
151.8392476689059
 21
351.213183669
 31
0.0
  0
LINE
  5
70BC
330
1E
100
AcDbEntity
  8
UMCL1
  6
Continuous
100
AcDbLine
 10
151.8392476689059
 20
342.8465170023351
 30
0.0
 11
149.3392476689059
 21
341.1798503356672
 31
0.0
  0
LINE
  5
70BD
330
1E
100
AcDbEntity
  8
UMCL1
  6
Continuous
100
AcDbLine
 10
139.9392476689063
 20
334.0131836690011
 30
0.0
 11
139.9392476689063
 21
350.0131836690012
 31
0.0
  0
LINE
  5
70BE
330
1E
100
AcDbEntity
  8
UMCL1
  6
Continuous
100
AcDbLine
 10
139.3392476689059
 20
349.3203430223507
 30
0.0
 11
139.3392476689059
 21
334.7060243156516
 31
0.0
  0
LINE
  5
70BF
330
1E
100
AcDbEntity
  8
UMCL1
  6
Continuous
100
AcDbLine
 10
139.9392476689063
 20
334.0131836690011
 30
0.0
 11
149.3392476689059
 21
334.0131836690011
 31
0.0
  0
LINE
  5
70C0
330
1E
100
AcDbEntity
  8
UMCL1
  6
Continuous
100
AcDbLine
 10
139.3392476689059
 20
334.7060243156516
 30
0.0
 11
139.9392476689063
 21
334.0131836690011
 31
0.0
  0
LINE
  5
70C1
330
1E
100
AcDbEntity
  8
UMCL1
  6
Continuous
100
AcDbLine
 10
139.9392476689063
 20
350.0131836690012
 30
0.0
 11
149.3392476689059
 21
350.0131836690012
 31
0.0
  0
LINE
  5
70C2
330
1E
100
AcDbEntity
  8
UMCL1
  6
Continuous
100
AcDbLine
 10
139.3392476689059
 20
349.3203430223507
 30
0.0
 11
139.9392476689063
 21
350.0131836690012
 31
0.0
  0
LINE
  5
70C3
330
1E
100
AcDbEntity
  8
UMCL1
100
AcDbLine
 10
151.8392476689059
 20
363.5131836690011
 30
0.0
 11
157.8392476689059
 21
363.5131836690011
 31
0.0
  0
LINE
  5
70C4
330
1E
100
AcDbEntity
  8
CENTER
  6
CENTER
100
AcDbLine
 10
829.5756863433533
 20
332.5131836690011
 30
0.0
 11
829.5756863433533
 21
351.5131836690011
 31
0.0
  0
LINE
  5
70C5
330
1E
100
AcDbEntity
  8
CENTER
  6
CENTER
100
AcDbLine
 10
740.5756863433534
 20
330.9453087166232
 30
0.0
 11
740.5756863433533
 21
353.1334349585002
 31
0.0
  0
LINE
  5
70C6
330
1E
100
AcDbEntity
  8
UMCL1
100
AcDbLine
 10
842.5756863433534
 20
315.5131836690011
 30
0.0
 11
727.5756863433533
 21
315.5131836690011
 31
0.0
  0
LINE
  5
70C7
330
1E
100
AcDbEntity
  8
UMCL1
100
AcDbLine
 10
842.5756863433532
 20
321.5131836690011
 30
0.0
 11
727.5756863433533
 21
321.5131836690011
 31
0.0
  0
LINE
  5
70C8
330
1E
100
AcDbEntity
  8
CENTER
  6
CENTER
100
AcDbLine
 10
751.672032550332
 20
342.0131836690011
 30
0.0
 11
729.0864404890755
 21
342.0131836690011
 31
0.0
  0
LINE
  5
70C9
330
1E
100
AcDbEntity
  8
UMCL1
100
AcDbLine
 10
740.5756863433532
 20
315.5131836690011
 30
0.0
 11
740.5756863433532
 21
321.5131836690011
 31
0.0
  0
LINE
  5
70CA
330
1E
100
AcDbEntity
  8
CENTER
  6
CENTER
100
AcDbLine
 10
747.5756863433532
 20
312.5131836690012
 30
0.0
 11
747.5756863433532
 21
324.5131836690011
 31
0.0
  0
LINE
  5
70CB
330
1E
100
AcDbEntity
  8
UMCL1
100
AcDbLine
 10
754.5756863433532
 20
315.5131836690011
 30
0.0
 11
754.5756863433532
 21
321.5131836690011
 31
0.0
  0
LINE
  5
70CC
330
1E
100
AcDbEntity
  8
CENTER
  6
CENTER
100
AcDbLine
 10
822.5756863433533
 20
312.5131836690012
 30
0.0
 11
822.5756863433533
 21
324.5131836690011
 31
0.0
  0
LINE
  5
70CD
330
1E
100
AcDbEntity
  8
UMCL1
100
AcDbLine
 10
815.5756863433532
 20
315.5131836690011
 30
0.0
 11
815.5756863433531
 21
321.5131836690011
 31
0.0
  0
LINE
  5
70CE
330
1E
100
AcDbEntity
  8
UMCL1
100
AcDbLine
 10
829.5756863433533
 20
315.5131836690011
 30
0.0
 11
829.5756863433533
 21
321.5131836690011
 31
0.0
  0
LINE
  5
70CF
330
1E
100
AcDbEntity
  8
CENTER
  6
CENTER
100
AcDbLine
 10
839.0756863433532
 20
342.0131836690011
 30
0.0
 11
820.0756863433532
 21
342.0131836690011
 31
0.0
  0
LINE
  5
70D0
330
1E
100
AcDbEntity
  8
UMCL1
100
AcDbLine
 10
842.5756863433532
 20
363.5131836690011
 30
0.0
 11
824.0756863433531
 21
363.5131836690011
 31
0.0
  0
LINE
  5
70D1
330
1E
100
AcDbEntity
  8
UMCL1
100
AcDbLine
 10
746.0756863433532
 20
363.5131836690011
 30
0.0
 11
727.5756863433533
 21
363.5131836690011
 31
0.0
  0
CIRCLE
  5
70D2
330
1E
100
AcDbEntity
  8
UMCL1
  6
Continuous
100
AcDbCircle
 10
508.8392476689059
 20
690.3222934836541
 30
0.0
 40
7.0
  0
LINE
  5
70D3
330
1E
100
AcDbEntity
  8
CENTER
  6
CENTER
100
AcDbLine
 10
520.1002334992917
 20
690.3222934836541
 30
0.0
 11
497.5707358876652
 21
690.3222934836541
 31
0.0
  0
LINE
  5
70D4
330
1E
100
AcDbEntity
  8
CENTER
  6
CENTER
100
AcDbLine
 10
520.3622044017525
 20
615.3222934836541
 30
0.0
 11
497.832706790126
 21
615.3222934836544
 31
0.0
  0
CIRCLE
  5
70D5
330
1E
100
AcDbEntity
  8
UMCL1
  6
Continuous
100
AcDbCircle
 10
508.8392476689059
 20
615.3222934836541
 30
0.0
 40
7.0
  0
LINE
  5
70D6
330
1E
100
AcDbEntity
  8
UMCL1
100
AcDbLine
 10
473.839247668906
 20
595.3222934836542
 30
0.0
 11
473.839247668906
 21
614.8222934836542
 31
0.0
  0
LINE
  5
70D7
330
1E
100
AcDbEntity
  8
UMCL1
  6
Continuous
100
AcDbLine
 10
476.3392476689059
 20
599.1222934836534
 30
0.0
 11
476.3392476689058
 21
614.8222934836542
 31
0.0
  0
LINE
  5
70D8
330
1E
100
AcDbEntity
  8
UMCL1
  6
Continuous
100
AcDbLine
 10
486.3392476689059
 20
615.6294528370038
 30
0.0
 11
486.3392476689059
 21
601.0151341303046
 31
0.0
  0
LINE
  5
70D9
330
1E
100
AcDbEntity
  8
UMCL1
  6
Continuous
100
AcDbLine
 10
485.7392476689056
 20
600.3222934836542
 30
0.0
 11
485.7392476689056
 21
616.3222934836542
 31
0.0
  0
LINE
  5
70DA
330
1E
100
AcDbEntity
  8
UMCL1
  6
Continuous
100
AcDbLine
 10
485.7392476689056
 20
600.3222934836542
 30
0.0
 11
476.3392476689059
 21
600.3222934836542
 31
0.0
  0
LINE
  5
70DB
330
1E
100
AcDbEntity
  8
UMCL1
  6
Continuous
100
AcDbLine
 10
473.8392476689059
 20
599.1222934836534
 30
0.0
 11
476.3392476689059
 21
599.1222934836534
 31
0.0
  0
LINE
  5
70DC
330
1E
100
AcDbEntity
  8
UMCL1
  6
Continuous
100
AcDbLine
 10
486.3392476689059
 20
601.0151341303046
 30
0.0
 11
485.7392476689056
 21
600.3222934836542
 31
0.0
  0
LINE
  5
70DD
330
1E
100
AcDbEntity
  8
UMCL1
  6
Continuous
100
AcDbLine
 10
473.8392476689059
 20
609.1556268169881
 30
0.0
 11
476.3392476689059
 21
607.4889601503202
 31
0.0
  0
LINE
  5
70DE
330
1E
100
AcDbEntity
  8
UMCL1
  6
Continuous
100
AcDbLine
 10
485.7392476689056
 20
616.3222934836542
 30
0.0
 11
482.839247668906
 21
616.3222934836542
 31
0.0
  0
LINE
  5
70DF
330
1E
100
AcDbEntity
  8
UMCL1
  6
Continuous
100
AcDbLine
 10
486.3392476689059
 20
615.6294528370038
 30
0.0
 11
485.7392476689056
 21
616.3222934836542
 31
0.0
  0
LINE
  5
70E0
330
1E
100
AcDbEntity
  8
UMCL1
  6
Continuous
100
AcDbLine
 10
486.3392476689059
 20
690.0151341303046
 30
0.0
 11
486.3392476689059
 21
704.6294528370038
 31
0.0
  0
LINE
  5
70E1
330
1E
100
AcDbEntity
  8
UMCL1
  6
Continuous
100
AcDbLine
 10
485.7392476689056
 20
705.3222934836542
 30
0.0
 11
485.7392476689056
 21
689.3222934836542
 31
0.0
  0
LINE
  5
70E2
330
1E
100
AcDbEntity
  8
UMCL1
  6
Continuous
100
AcDbLine
 10
476.3392476689059
 20
706.5222934836549
 30
0.0
 11
476.3392476689059
 21
690.8222934836542
 31
0.0
  0
LINE
  5
70E3
330
1E
100
AcDbEntity
  8
UMCL1
  6
Continuous
100
AcDbLine
 10
485.7392476689056
 20
689.3222934836542
 30
0.0
 11
482.839247668906
 21
689.3222934836542
 31
0.0
  0
LINE
  5
70E4
330
1E
100
AcDbEntity
  8
UMCL1
  6
Continuous
100
AcDbLine
 10
486.3392476689059
 20
690.0151341303046
 30
0.0
 11
485.7392476689056
 21
689.3222934836542
 31
0.0
  0
LINE
  5
70E5
330
1E
100
AcDbEntity
  8
UMCL1
  6
Continuous
100
AcDbLine
 10
485.7392476689056
 20
705.3222934836542
 30
0.0
 11
476.3392476689059
 21
705.3222934836542
 31
0.0
  0
LINE
  5
70E6
330
1E
100
AcDbEntity
  8
UMCL1
  6
Continuous
100
AcDbLine
 10
473.8392476689059
 20
706.5222934836549
 30
0.0
 11
476.3392476689059
 21
706.5222934836549
 31
0.0
  0
LINE
  5
70E7
330
1E
100
AcDbEntity
  8
UMCL1
  6
Continuous
100
AcDbLine
 10
473.8392476689059
 20
696.4889601503203
 30
0.0
 11
476.3392476689059
 21
698.1556268169882
 31
0.0
  0
LINE
  5
70E8
330
1E
100
AcDbEntity
  8
UMCL1
  6
Continuous
100
AcDbLine
 10
486.3392476689059
 20
704.6294528370038
 30
0.0
 11
485.7392476689056
 21
705.3222934836542
 31
0.0
  0
LINE
  5
70E9
330
1E
100
AcDbEntity
  8
UMCL1
100
AcDbLine
 10
523.8392476689059
 20
598.3222934836541
 30
0.0
 11
523.8392476689059
 21
627.8222934836541
 31
0.0
  0
LINE
  5
70EA
330
1E
100
AcDbEntity
  8
CENTER
  6
CENTER
100
AcDbLine
 10
508.8392476689058
 20
604.5192113421119
 30
0.0
 11
508.8392476689059
 21
627.050853536703
 31
0.0
  0
LINE
  5
70EB
330
1E
100
AcDbEntity
  8
CENTER
  6
CENTER
100
AcDbLine
 10
508.8392476689059
 20
701.4484452525985
 30
0.0
 11
508.8392476689059
 21
679.4450340288581
 31
0.0
  0
LINE
  5
70EC
330
1E
100
AcDbEntity
  8
UMCL1
100
AcDbLine
 10
523.8392476689059
 20
677.8222934836541
 30
0.0
 11
523.8392476689059
 21
707.3222934836542
 31
0.0
  0
ARC
  5
70ED
330
1E
100
AcDbEntity
  8
UMCL1
  6
Continuous
100
AcDbCircle
 10
520.8392476689059
 20
707.3222934836542
 30
0.0
 40
3.0
100
AcDbArc
 50
0.0
 51
90.0
  0
ARC
  5
70EE
330
1E
100
AcDbEntity
  8
UMCL1
  6
Continuous
100
AcDbCircle
 10
520.8392476689059
 20
598.3222934836541
 30
0.0
 40
3.0
100
AcDbArc
 50
270.0
 51
0.0
  0
LINE
  5
70EF
330
1E
100
AcDbEntity
  8
UMCL1
100
AcDbLine
 10
473.839247668906
 20
690.8222934836542
 30
0.0
 11
473.8392476689059
 21
710.3222934836542
 31
0.0
  0
ARC
  5
70F0
330
1E
100
AcDbEntity
  8
UMCL1
  6
Continuous
100
AcDbCircle
 10
104.8392476689061
 20
707.3222934836542
 30
0.0
 40
3.0
100
AcDbArc
 50
90.0
 51
180.0
  0
ARC
  5
70F1
330
1E
100
AcDbEntity
  8
UMCL1
  6
Continuous
100
AcDbCircle
 10
104.8392476689059
 20
598.3222934836541
 30
0.0
 40
3.0
100
AcDbArc
 50
180.0
 51
270.0
  0
LINE
  5
70F2
330
1E
100
AcDbEntity
  8
UMCL1
  6
Continuous
100
AcDbLine
 10
151.8392476689059
 20
669.4222934836541
 30
0.0
 11
157.8392476689059
 21
669.4222934836541
 31
0.0
  0
LINE
  5
70F3
330
1E
100
AcDbEntity
  8
UMCL1
  6
Continuous
100
AcDbLine
 10
151.8392476689059
 20
636.222293483654
 30
0.0
 11
157.8392476689059
 21
636.222293483654
 31
0.0
  0
LINE
  5
70F4
330
1E
100
AcDbEntity
  8
UMCL1
  6
Continuous
100
AcDbLine
 10
752.0756863433533
 20
347.5131836690011
 30
0.0
 11
818.0756863433533
 21
347.5131836690011
 31
0.0
  0
LINE
  5
70F5
330
1E
100
AcDbEntity
  8
UMCL1
  6
Continuous
100
AcDbLine
 10
746.0756863433532
 20
353.5131836690011
 30
0.0
 11
746.0756863433532
 21
363.5131836690011
 31
0.0
  0
LINE
  5
70F6
330
1E
100
AcDbEntity
  8
UMCL1
  6
Continuous
100
AcDbLine
 10
824.0756863433531
 20
353.5131836690011
 30
0.0
 11
824.0756863433531
 21
363.5131836690011
 31
0.0
  0
LINE
  5
70F7
330
1E
100
AcDbEntity
  8
UMCL1
  6
Continuous
100
AcDbLine
 10
746.0756863433532
 20
353.5131836690011
 30
0.0
 11
752.0756863433533
 21
347.5131836690011
 31
0.0
  0
LINE
  5
70F8
330
1E
100
AcDbEntity
  8
UMCL1
  6
Continuous
100
AcDbLine
 10
824.0756863433531
 20
353.5131836690011
 30
0.0
 11
818.0756863433533
 21
347.5131836690011
 31
0.0
  0
LINE
  5
70F9
330
1E
100
AcDbEntity
  8
CENTER
  6
CENTER
100
AcDbLine
 10
-35.70568213060119
 20
507.0131836690015
 30
0.0
 11
-35.70568213060119
 21
312.0261719694938
 31
0.0
  0
LINE
  5
70FA
330
1E
100
AcDbEntity
  8
UMCL1
  6
Continuous
100
AcDbLine
 10
-73.70568213060119
 20
474.0131836690014
 30
0.0
 11
-73.70568213060096
 21
444.0131836690013
 31
0.0
  0
LINE
  5
70FB
330
1E
100
AcDbEntity
  8
UMCL1
  6
Continuous
100
AcDbLine
 10
2.29431786939881
 20
474.0131836690014
 30
0.0
 11
2.29431786939881
 21
444.0131836690013
 31
0.0
  0
LINE
  5
70FC
330
1E
100
AcDbEntity
  8
UMCL1
100
AcDbLine
 10
21.79431786939904
 20
321.5131836690011
 30
0.0
 11
-93.20568213060118
 21
321.5131836690011
 31
0.0
  0
LINE
  5
70FD
330
1E
100
AcDbEntity
  8
UMCL1
100
AcDbLine
 10
21.79431786939904
 20
315.5131836690011
 30
0.0
 11
-93.20568213060097
 21
315.5131836690011
 31
0.0
  0
LINE
  5
70FE
330
1E
100
AcDbEntity
  8
CENTER
  6
CENTER
100
AcDbLine
 10
-97.20568213060118
 20
386.5131836690011
 30
0.0
 11
25.79431786939859
 21
386.5131836690011
 31
0.0
  0
LINE
  5
70FF
330
1E
100
AcDbEntity
  8
UMCL1
  6
Continuous
100
AcDbLine
 10
-84.6342014215013
 20
444.0131836690013
 30
0.0
 11
13.22283716029915
 21
444.0131836690013
 31
0.0
  0
LINE
  5
7100
330
1E
100
AcDbEntity
  8
UMCL1
  6
Continuous
100
AcDbLine
 10
-93.20568213060118
 20
435.4417029599014
 30
0.0
 11
-93.20568213060097
 21
315.5131836690011
 31
0.0
  0
LINE
  5
7101
330
1E
100
AcDbEntity
  8
CENTER
  6
CENTER
100
AcDbLine
 10
-73.20568213060096
 20
312.5131836690012
 30
0.0
 11
-73.20568213060096
 21
324.5131836690011
 31
0.0
  0
LINE
  5
7102
330
1E
100
AcDbEntity
  8
UMCL1
  6
HIDDEN
 62
     2
100
AcDbLine
 10
-80.20568213060119
 20
315.5131836690011
 30
0.0
 11
-80.20568213060119
 21
321.5131836690011
 31
0.0
  0
LINE
  5
7103
330
1E
100
AcDbEntity
  8
UMCL1
  6
HIDDEN
 62
     2
100
AcDbLine
 10
-66.20568213060096
 20
315.5131836690011
 30
0.0
 11
-66.20568213060096
 21
321.5131836690011
 31
0.0
  0
LINE
  5
7104
330
1E
100
AcDbEntity
  8
CENTER
  6
CENTER
100
AcDbLine
 10
-80.20568213060119
 20
444.0131836690011
 30
0.0
 11
-80.20568213060119
 21
418.0131836690011
 31
0.0
  0
ARC
  5
7105
330
1E
100
AcDbEntity
  8
UMCL1
  6
Continuous
 62
     2
100
AcDbCircle
 10
-80.20568213060119
 20
431.0131836690011
 30
0.0
 40
5.0
100
AcDbArc
 50
66.06024884272078
 51
15.80874327065279
  0
CIRCLE
  5
7106
330
1E
100
AcDbEntity
  8
UMCL1
  6
Continuous
100
AcDbCircle
 10
-80.20568213060119
 20
431.0131836690011
 30
0.0
 40
4.25
  0
LINE
  5
7107
330
1E
100
AcDbEntity
  8
CENTER
  6
CENTER
100
AcDbLine
 10
-93.20568213060118
 20
431.0131836690011
 30
0.0
 11
-67.20568213060118
 21
431.0131836690013
 31
0.0
  0
ARC
  5
7108
330
1E
100
AcDbEntity
  8
UMCL1
  6
Continuous
100
AcDbCircle
 10
-35.70568213060119
 20
386.5131836690011
 30
0.0
 40
75.5
100
AcDbArc
 50
130.3954827096267
 51
139.6045172903745
  0
LINE
  5
7109
330
1E
100
AcDbEntity
  8
UMCL1
  6
Continuous
100
AcDbLine
 10
21.79431786939858
 20
435.4417029599014
 30
0.0
 11
21.79431786939904
 21
315.5131836690011
 31
0.0
  0
LINE
  5
710A
330
1E
100
AcDbEntity
  8
UMCL1
  6
HIDDEN
 62
     2
100
AcDbLine
 10
-5.205682130601189
 20
315.5131836690011
 30
0.0
 11
-5.205682130601417
 21
321.5131836690011
 31
0.0
  0
LINE
  5
710B
330
1E
100
AcDbEntity
  8
CENTER
  6
CENTER
100
AcDbLine
 10
1.79431786939881
 20
312.5131836690012
 30
0.0
 11
1.79431786939881
 21
324.5131836690011
 31
0.0
  0
LINE
  5
710C
330
1E
100
AcDbEntity
  8
UMCL1
  6
HIDDEN
 62
     2
100
AcDbLine
 10
8.79431786939881
 20
315.5131836690011
 30
0.0
 11
8.79431786939881
 21
321.5131836690011
 31
0.0
  0
LINE
  5
710D
330
1E
100
AcDbEntity
  8
CENTER
  6
CENTER
100
AcDbLine
 10
-4.205682130601189
 20
431.0131836690013
 30
0.0
 11
21.79431786939858
 21
431.0131836690013
 31
0.0
  0
LINE
  5
710E
330
1E
100
AcDbEntity
  8
CENTER
  6
CENTER
100
AcDbLine
 10
8.79431786939881
 20
444.0131836690013
 30
0.0
 11
8.79431786939881
 21
418.0131836690013
 31
0.0
  0
CIRCLE
  5
710F
330
1E
100
AcDbEntity
  8
UMCL1
  6
Continuous
100
AcDbCircle
 10
8.79431786939881
 20
431.0131836690013
 30
0.0
 40
4.25
  0
ARC
  5
7110
330
1E
100
AcDbEntity
  8
UMCL1
  6
Continuous
 62
     2
100
AcDbCircle
 10
8.79431786939881
 20
431.0131836690013
 30
0.0
 40
5.0
100
AcDbArc
 50
66.0602488427193
 51
15.80874327065279
  0
ARC
  5
7111
330
1E
100
AcDbEntity
  8
UMCL1
  6
Continuous
100
AcDbCircle
 10
-35.70568213060119
 20
386.5131836690011
 30
0.0
 40
75.5
100
AcDbArc
 50
40.39548270962544
 51
49.60451729037332
  0
LINE
  5
7112
330
1E
100
AcDbEntity
  8
UMCL1
  6
Continuous
100
AcDbLine
 10
-53.70568213060119
 20
494.0131836690013
 30
0.0
 11
-17.70568213060119
 21
494.0131836690013
 31
0.0
  0
ARC
  5
7113
330
1E
100
AcDbEntity
  8
UMCL1
  6
Continuous
100
AcDbCircle
 10
-29.20568213060119
 20
491.4506836690032
 30
0.0
 40
11.56249999999831
100
AcDbArc
 50
55.79454206188784
 51
124.2054579381121
  0
ARC
  5
7114
330
1E
100
AcDbEntity
  8
UMCL1
  6
Continuous
100
AcDbCircle
 10
-42.20568213060118
 20
491.4506836690029
 30
0.0
 40
11.56249999999854
100
AcDbArc
 50
55.79454206188918
 51
124.2054579381108
  0
LINE
  5
7115
330
1E
100
AcDbEntity
  8
UMCL1
  6
Continuous
100
AcDbLine
 10
-48.70568213060119
 20
503.0131836690014
 30
0.0
 11
-48.70568213060119
 21
494.0131836690013
 31
0.0
  0
LINE
  5
7116
330
1E
100
AcDbEntity
  8
UMCL1
  6
Continuous
100
AcDbLine
 10
-22.70568213060119
 20
494.0131836690013
 30
0.0
 11
-22.70568213060142
 21
503.0131836690015
 31
0.0
  0
LINE
  5
7117
330
1E
100
AcDbEntity
  8
UMCL1
  6
Continuous
100
AcDbLine
 10
-35.70568213060096
 20
501.0131836690011
 30
0.0
 11
-35.70568213060119
 21
494.0131836690013
 31
0.0
  0
LINE
  5
7118
330
1E
100
AcDbEntity
  8
UMCL1
  6
Continuous
100
AcDbLine
 10
-48.70568213060119
 20
503.0131836690014
 30
0.0
 11
-22.70568213060119
 21
503.0131836690015
 31
0.0
  0
LINE
  5
7119
330
1E
100
AcDbEntity
  8
UMCL2
  6
Continuous
100
AcDbLine
 10
747.5756863433532
 20
311.5131836690011
 30
0.0
 11
747.5756863433532
 21
306.5131836690011
 31
0.0
  0
LINE
  5
711A
330
1E
100
AcDbEntity
  8
UMCL2
  6
Continuous
100
AcDbLine
 10
822.5756863433533
 20
311.5131836690011
 30
0.0
 11
822.5756863433533
 21
306.5131836690011
 31
0.0
  0
LINE
  5
711B
330
1E
100
AcDbEntity
  8
UMCL2
  6
Continuous
100
AcDbLine
 10
750.5756863433532
 20
307.5131836690011
 30
0.0
 11
819.5756863433532
 21
307.5131836690011
 31
0.0
  0
SOLID
  5
711C
330
1E
100
AcDbEntity
  8
UMCL2
  6
Continuous
100
AcDbTrace
 10
750.5756863433532
 20
308.0131836690011
 30
0.0
 11
750.5756863433532
 21
307.0131836690011
 31
0.0
 12
747.5756863433532
 22
307.5131836690011
 32
0.0
 13
747.5756863433532
 23
307.5131836690011
 33
0.0
  0
SOLID
  5
711D
330
1E
100
AcDbEntity
  8
UMCL2
  6
Continuous
100
AcDbTrace
 10
819.5756863433532
 20
308.0131836690011
 30
0.0
 11
819.5756863433532
 21
307.0131836690011
 31
0.0
 12
822.5756863433533
 22
307.5131836690011
 32
0.0
 13
822.5756863433533
 23
307.5131836690011
 33
0.0
  0
TEXT
  5
711E
330
1E
100
AcDbEntity
  8
UMCL2
  6
Continuous
100
AcDbText
 10
782.6471149147818
 20
309.0131836690011
 30
0.0
 40
3.0
  1
75
  7
ROMANSS
 72
     1
 11
785.0756863433532
 21
310.5131836690012
 31
0.0
100
AcDbText
 73
     2
  0
LINE
  5
711F
330
1E
100
AcDbEntity
  8
UMCL2
  6
Continuous
100
AcDbLine
 10
727.5756863433533
 20
314.5131836690012
 30
0.0
 11
727.5756863433533
 21
298.5131836690012
 31
0.0
  0
LINE
  5
7120
330
1E
100
AcDbEntity
  8
UMCL2
  6
Continuous
100
AcDbLine
 10
842.5756863433534
 20
314.5131836690012
 30
0.0
 11
842.5756863433534
 21
298.5131836690012
 31
0.0
  0
LINE
  5
7121
330
1E
100
AcDbEntity
  8
UMCL2
  6
Continuous
100
AcDbLine
 10
730.5756863433532
 20
299.5131836690011
 30
0.0
 11
839.5756863433534
 21
299.5131836690011
 31
0.0
  0
SOLID
  5
7122
330
1E
100
AcDbEntity
  8
UMCL2
  6
Continuous
100
AcDbTrace
 10
730.5756863433532
 20
300.0131836690012
 30
0.0
 11
730.5756863433532
 21
299.0131836690011
 31
0.0
 12
727.5756863433533
 22
299.5131836690011
 32
0.0
 13
727.5756863433533
 23
299.5131836690011
 33
0.0
  0
SOLID
  5
7123
330
1E
100
AcDbEntity
  8
UMCL2
  6
Continuous
100
AcDbTrace
 10
839.5756863433534
 20
300.0131836690012
 30
0.0
 11
839.5756863433534
 21
299.0131836690011
 31
0.0
 12
842.5756863433534
 22
299.5131836690011
 32
0.0
 13
842.5756863433534
 23
299.5131836690011
 33
0.0
  0
TEXT
  5
7124
330
1E
100
AcDbEntity
  8
UMCL2
  6
Continuous
100
AcDbText
 10
781.7899720576392
 20
301.0131836690011
 30
0.0
 40
3.0
  1
115
  7
ROMANSS
 72
     1
 11
785.0756863433534
 21
302.5131836690011
 31
0.0
100
AcDbText
 73
     2
  0
LINE
  5
7125
330
1E
100
AcDbEntity
  8
UMCL2
  6
Continuous
100
AcDbLine
 10
843.5756863433535
 20
315.5131836690011
 30
0.0
 11
851.5756863433528
 21
315.5131836690011
 31
0.0
  0
LINE
  5
7126
330
1E
100
AcDbEntity
  8
UMCL2
  6
Continuous
100
AcDbLine
 10
847.5756863433529
 20
386.5131836690011
 30
0.0
 11
851.5756863433528
 21
386.5131836690011
 31
0.0
  0
LINE
  5
7127
330
1E
100
AcDbEntity
  8
UMCL2
  6
Continuous
100
AcDbLine
 10
850.5756863433528
 20
318.5131836690012
 30
0.0
 11
850.5756863433528
 21
383.5131836690012
 31
0.0
  0
SOLID
  5
7128
330
1E
100
AcDbEntity
  8
UMCL2
  6
Continuous
100
AcDbTrace
 10
850.0756863433528
 20
318.5131836690012
 30
0.0
 11
851.0756863433527
 21
318.5131836690012
 31
0.0
 12
850.5756863433528
 22
315.5131836690011
 32
0.0
 13
850.5756863433528
 23
315.5131836690011
 33
0.0
  0
SOLID
  5
7129
330
1E
100
AcDbEntity
  8
UMCL2
  6
Continuous
100
AcDbTrace
 10
850.0756863433528
 20
383.5131836690012
 30
0.0
 11
851.0756863433527
 21
383.5131836690012
 31
0.0
 12
850.5756863433528
 22
386.5131836690011
 32
0.0
 13
850.5756863433528
 23
386.5131836690011
 33
0.0
  0
TEXT
  5
712A
330
1E
100
AcDbEntity
  8
UMCL2
  6
Continuous
100
AcDbText
 10
849.0756863433528
 20
349.2274693832869
 30
0.0
 40
3.0
  1
71
 50
90.0
  7
ROMANSS
 72
     1
 11
847.5756863433527
 21
351.0131836690011
 31
0.0
100
AcDbText
 73
     2
  0
LINE
  5
712B
330
1E
100
AcDbEntity
  8
UMCL2
  6
Continuous
100
AcDbLine
 10
843.5756863433535
 20
315.5131836690011
 30
0.0
 11
859.5756863433528
 21
315.5131836690011
 31
0.0
  0
LINE
  5
712C
330
1E
100
AcDbEntity
  8
UMCL2
  6
Continuous
100
AcDbLine
 10
799.075686343353
 20
503.0131836690015
 30
0.0
 11
859.5756863433528
 21
503.0131836690015
 31
0.0
  0
LINE
  5
712D
330
1E
100
AcDbEntity
  8
UMCL2
  6
Continuous
100
AcDbLine
 10
858.5756863433529
 20
318.5131836690012
 30
0.0
 11
858.5756863433529
 21
500.0131836690015
 31
0.0
  0
SOLID
  5
712E
330
1E
100
AcDbEntity
  8
UMCL2
  6
Continuous
100
AcDbTrace
 10
858.0756863433528
 20
318.5131836690012
 30
0.0
 11
859.0756863433528
 21
318.5131836690012
 31
0.0
 12
858.5756863433529
 22
315.5131836690011
 32
0.0
 13
858.5756863433529
 23
315.5131836690011
 33
0.0
  0
SOLID
  5
712F
330
1E
100
AcDbEntity
  8
UMCL2
  6
Continuous
100
AcDbTrace
 10
858.0756863433528
 20
500.0131836690015
 30
0.0
 11
859.0756863433528
 21
500.0131836690015
 31
0.0
 12
858.5756863433529
 22
503.0131836690015
 32
0.0
 13
858.5756863433529
 23
503.0131836690015
 33
0.0
  0
TEXT
  5
7130
330
1E
100
AcDbEntity
  8
UMCL2
  6
Continuous
100
AcDbText
 10
857.0756863433528
 20
403.5488979547156
 30
0.0
 40
3.0
  1
187.5
 50
90.0
  7
ROMANSS
 72
     1
 11
855.5756863433527
 21
409.2631836690014
 31
0.0
100
AcDbText
 73
     2
  0
LINE
  5
7131
330
1E
100
AcDbEntity
  8
UMCL2
  6
Continuous
100
AcDbLine
 10
116.8392476689059
 20
307.5131836690011
 30
0.0
 11
116.8392476689059
 21
308.5131836690012
 31
0.0
  0
LINE
  5
7132
330
1E
100
AcDbEntity
  8
UMCL2
  6
Continuous
100
AcDbLine
 10
508.839247668906
 20
312.5131836690012
 30
0.0
 11
508.839247668906
 21
306.5131836690011
 31
0.0
  0
LINE
  5
7133
330
1E
100
AcDbEntity
  8
UMCL2
  6
Continuous
100
AcDbLine
 10
101.8392476689059
 20
307.5131836690011
 30
0.0
 11
523.8392476689061
 21
307.5131836690011
 31
0.0
  0
SOLID
  5
7134
330
1E
100
AcDbEntity
  8
UMCL2
  6
Continuous
100
AcDbTrace
 10
119.8392476689059
 20
308.0131836690011
 30
0.0
 11
119.8392476689059
 21
307.0131836690011
 31
0.0
 12
116.8392476689059
 22
307.5131836690011
 32
0.0
 13
116.8392476689059
 23
307.5131836690011
 33
0.0
  0
SOLID
  5
7135
330
1E
100
AcDbEntity
  8
UMCL2
  6
Continuous
100
AcDbTrace
 10
505.8392476689061
 20
308.0131836690011
 30
0.0
 11
505.8392476689061
 21
307.0131836690011
 31
0.0
 12
508.839247668906
 22
307.5131836690011
 32
0.0
 13
508.839247668906
 23
307.5131836690011
 33
0.0
  0
TEXT
  5
7136
330
1E
100
AcDbEntity
  8
UMCL2
  6
Continuous
100
AcDbText
 10
308.9821048117631
 20
309.0131836690011
 30
0.0
 40
3.0
  1
392
  7
ROMANSS
 72
     1
 11
312.839247668906
 21
310.5131836690012
 31
0.0
100
AcDbText
 73
     2
  0
LINE
  5
7137
330
1E
100
AcDbEntity
  8
UMCL2
  6
Continuous
100
AcDbLine
 10
101.8392476689059
 20
314.5131836690012
 30
0.0
 11
101.8392476689059
 21
298.5131836690012
 31
0.0
  0
LINE
  5
7138
330
1E
100
AcDbEntity
  8
UMCL2
  6
Continuous
100
AcDbLine
 10
523.8392476689061
 20
314.5131836690012
 30
0.0
 11
523.8392476689061
 21
298.5131836690012
 31
0.0
  0
LINE
  5
7139
330
1E
100
AcDbEntity
  8
UMCL2
  6
Continuous
100
AcDbLine
 10
104.8392476689059
 20
299.5131836690011
 30
0.0
 11
520.8392476689062
 21
299.5131836690011
 31
0.0
  0
SOLID
  5
713A
330
1E
100
AcDbEntity
  8
UMCL2
  6
Continuous
100
AcDbTrace
 10
104.8392476689059
 20
300.0131836690012
 30
0.0
 11
104.8392476689059
 21
299.0131836690011
 31
0.0
 12
101.8392476689059
 22
299.5131836690011
 32
0.0
 13
101.8392476689059
 23
299.5131836690011
 33
0.0
  0
SOLID
  5
713B
330
1E
100
AcDbEntity
  8
UMCL2
  6
Continuous
100
AcDbTrace
 10
520.8392476689062
 20
300.0131836690012
 30
0.0
 11
520.8392476689062
 21
299.0131836690011
 31
0.0
 12
523.8392476689061
 22
299.5131836690011
 32
0.0
 13
523.8392476689061
 23
299.5131836690011
 33
0.0
  0
TEXT
  5
713C
330
1E
100
AcDbEntity
  8
UMCL2
  6
Continuous
100
AcDbText
 10
308.9821048117631
 20
301.0131836690011
 30
0.0
 40
3.0
  1
422
  7
ROMANSS
 72
     1
 11
312.839247668906
 21
302.5131836690011
 31
0.0
100
AcDbText
 73
     2
  0
LINE
  5
713D
330
1E
100
AcDbEntity
  8
UMCL2
  6
Continuous
100
AcDbLine
 10
101.8392476689059
 20
314.5131836690012
 30
0.0
 11
101.8392476689059
 21
290.5131836690011
 31
0.0
  0
LINE
  5
713E
330
1E
100
AcDbEntity
  8
UMCL2
  6
Continuous
100
AcDbLine
 10
104.8392476689059
 20
291.5131836690012
 30
0.0
 11
649.839247668906
 21
291.5131836690012
 31
0.0
  0
SOLID
  5
713F
330
1E
100
AcDbEntity
  8
UMCL2
  6
Continuous
100
AcDbTrace
 10
104.8392476689059
 20
292.0131836690011
 30
0.0
 11
104.8392476689059
 21
291.0131836690011
 31
0.0
 12
101.8392476689059
 22
291.5131836690012
 32
0.0
 13
101.8392476689059
 23
291.5131836690012
 33
0.0
  0
SOLID
  5
7140
330
1E
100
AcDbEntity
  8
UMCL2
  6
Continuous
100
AcDbTrace
 10
649.839247668906
 20
292.0131836690011
 30
0.0
 11
649.839247668906
 21
291.0131836690011
 31
0.0
 12
652.839247668906
 22
291.5131836690012
 32
0.0
 13
652.839247668906
 23
291.5131836690012
 33
0.0
  0
TEXT
  5
7141
330
1E
100
AcDbEntity
  8
UMCL2
  6
Continuous
100
AcDbText
 10
374.1249619546203
 20
293.0131836690011
 30
0.0
 40
3.0
  1
551
  7
ROMANSS
 72
     1
 11
377.339247668906
 21
294.5131836690011
 31
0.0
100
AcDbText
 73
     2
  0
SOLID
  5
7142
330
1E
100
AcDbEntity
  8
UMCL2
  6
Continuous
100
AcDbTrace
 10
654.4633255886303
 20
389.0846367427835
 30
0.0
 11
653.5415528122833
 21
389.4723672533002
 31
0.0
 12
652.839247668906
 22
386.5131836690011
 32
0.0
 13
652.839247668906
 23
386.5131836690011
 33
0.0
  0
LINE
  5
7143
330
1E
100
AcDbEntity
  8
UMCL2
  6
Continuous
100
AcDbLine
 10
654.0024392004568
 20
389.278501998042
 30
0.0
 11
674.2334983714735
 21
437.3748964645074
 31
0.0
  0
LINE
  5
7144
330
1E
100
AcDbEntity
  8
UMCL2
  6
Continuous
100
AcDbLine
 10
674.2334983714735
 20
437.3748964645074
 30
0.0
 11
688.6446376802934
 21
437.3748964645074
 31
0.0
  0
TEXT
  5
7145
330
1E
100
AcDbEntity
  8
UMCL2
  6
Continuous
100
AcDbText
 10
677.1446376802933
 20
438.8748964645073
 30
0.0
 40
3.0
  1
PT1/2
  7
ROMANSS
 11
677.1446376802933
 21
440.3748964645074
 31
0.0
100
AcDbText
 73
     2
  0
SOLID
  5
7146
330
1E
100
AcDbEntity
  8
UMCL2
  6
Continuous
100
AcDbTrace
 10
621.8334115780901
 20
414.3834264737847
 30
0.0
 11
620.9568915382044
 21
413.9020611035318
 31
0.0
 12
622.8392476689061
 22
411.5131836690014
 32
0.0
 13
622.8392476689061
 23
411.5131836690014
 33
0.0
  0
LINE
  5
7147
330
1E
100
AcDbEntity
  8
UMCL2
  6
Continuous
100
AcDbLine
 10
621.3951515581473
 20
414.1427437886584
 30
0.0
 11
608.6365684502907
 21
437.3748964645074
 31
0.0
  0
LINE
  5
7148
330
1E
100
AcDbEntity
  8
UMCL2
  6
Continuous
100
AcDbLine
 10
608.6365684502907
 20
437.3748964645074
 30
0.0
 11
593.1365684502907
 21
437.3748964645074
 31
0.0
  0
TEXT
  5
7149
330
1E
100
AcDbEntity
  8
UMCL2
  6
Continuous
100
AcDbText
 10
591.4937113074336
 20
438.8748964645073
 30
0.0
 40
3.0
  1
PT1/4
  7
ROMANSS
 72
     2
 11
604.6365684502907
 21
440.3748964645074
 31
0.0
100
AcDbText
 73
     2
  0
SOLID
  5
714A
330
1E
100
AcDbEntity
  8
UMCL2
  6
Continuous
100
AcDbTrace
 10
169.3652975461559
 20
390.061761144485
 30
0.0
 11
168.6460992742913
 21
389.3669562468722
 31
0.0
 12
171.0901131030628
 22
387.5567638800849
 32
0.0
 13
171.0901131030628
 23
387.5567638800849
 33
0.0
  0
LINE
  5
714B
330
1E
100
AcDbEntity
  8
UMCL2
  6
Continuous
100
AcDbLine
 10
171.0901131030628
 20
387.5567638800851
 30
0.0
 11
135.6264074575044
 21
424.2655376694183
 31
0.0
  0
LINE
  5
714C
330
1E
100
AcDbEntity
  8
UMCL2
  6
Continuous
100
AcDbLine
 10
135.6264074575044
 20
424.2655376694183
 30
0.0
 11
132.6264074575044
 21
424.2655376694183
 31
0.0
  0
LINE
  5
714D
330
1E
100
AcDbEntity
  8
UMCL2
  6
Continuous
100
AcDbLine
 10
132.6264074575044
 20
424.2655376694183
 30
0.0
 11
114.2514074575044
 21
424.2655376694183
 31
0.0
  0
TEXT
  5
714E
330
1E
100
AcDbEntity
  8
UMCL2
  6
Continuous
100
AcDbText
 10
112.0549788860759
 20
425.7655376694183
 30
0.0
 40
3.0
  1
2-PT1/2
  7
ROMANSS
 72
     2
 11
131.6264074575044
 21
427.2655376694183
 31
0.0
100
AcDbText
 73
     2
  0
LINE
  5
714F
330
1E
100
AcDbEntity
  8
UMCL1
100
AcDbLine
 10
-19.12255817882442
 20
363.5131836690011
 30
0.0
 11
18.54431786939904
 21
363.5131836690011
 31
0.0
  0
LINE
  5
7150
330
1E
100
AcDbEntity
  8
UMCL1
100
AcDbLine
 10
-89.95568213060119
 20
363.5131836690011
 30
0.0
 11
-52.28880608237773
 21
363.5131836690011
 31
0.0
  0
ARC
  5
7151
330
1E
100
AcDbEntity
  8
UMCL1
100
AcDbCircle
 10
-89.95568213060119
 20
360.5131836690012
 30
0.0
 40
3.0
100
AcDbArc
 50
90.0
 51
180.0
  0
ARC
  5
7152
330
1E
100
AcDbEntity
  8
UMCL1
  6
Continuous
100
AcDbCircle
 10
-35.70568213060119
 20
386.5131836690011
 30
0.0
 40
28.0
100
AcDbArc
 50
236.4426902380816
 51
303.5573097619184
  0
ARC
  5
7153
330
1E
100
AcDbEntity
  8
UMCL1
  6
Continuous
100
AcDbCircle
 10
-52.28880608237773
 20
361.5131836690011
 30
0.0
 40
2.0
100
AcDbArc
 50
56.44269023808156
 51
90.0
  0
ARC
  5
7154
330
1E
100
AcDbEntity
  8
UMCL1
  6
Continuous
100
AcDbCircle
 10
-19.12255817882442
 20
361.5131836690011
 30
0.0
 40
2.0
100
AcDbArc
 50
90.0
 51
123.5573097619198
  0
ARC
  5
7155
330
1E
100
AcDbEntity
  8
UMCL1
100
AcDbCircle
 10
18.54431786939904
 20
360.5131836690012
 30
0.0
 40
3.0
100
AcDbArc
 50
0.0
 51
90.0
  0
SOLID
  5
7156
330
1E
100
AcDbEntity
  8
UMCL2
  6
Continuous
100
AcDbTrace
 10
510.8943333501804
 20
323.75519679176
 30
0.0
 11
510.0561082465141
 21
324.3005211682403
 31
0.0
 12
508.8392476689064
 22
321.5131836690014
 32
0.0
 13
508.8392476689064
 23
321.5131836690014
 33
0.0
  0
LINE
  5
7157
330
1E
100
AcDbEntity
  8
UMCL2
  6
Continuous
100
AcDbLine
 10
510.4752207983473
 20
324.0278589800003
 30
0.0
 11
520.9068192258012
 21
340.0624029145563
 31
0.0
  0
LINE
  5
7158
330
1E
100
AcDbEntity
  8
UMCL2
  6
Continuous
100
AcDbLine
 10
520.9068192258012
 20
340.0624029145563
 30
0.0
 11
523.9068192258011
 21
340.0624029145563
 31
0.0
  0
LINE
  5
7159
330
1E
100
AcDbEntity
  8
UMCL2
  6
Continuous
100
AcDbLine
 10
523.9068192258011
 20
340.0624029145563
 30
0.0
 11
537.4068192258012
 21
340.0624029145563
 31
0.0
  0
TEXT
  5
715A
330
1E
100
AcDbEntity
  8
UMCL2
  6
Continuous
100
AcDbText
 10
524.9068192258012
 20
341.5624029145563
 30
0.0
 40
3.0
  1
4-%%c14
  7
ROMANSS
 11
524.9068192258012
 21
343.0624029145563
 31
0.0
100
AcDbText
 73
     2
  0
LINE
  5
715B
330
1E
100
AcDbEntity
  8
UMCL1
  6
Continuous
100
AcDbLine
 10
803.0756863433532
 20
494.0131836690013
 30
0.0
 11
823.0756863433532
 21
474.0131836690014
 31
0.0
  0
LINE
  5
715C
330
1E
100
AcDbEntity
  8
UMCL1
  6
Continuous
100
AcDbLine
 10
767.075686343353
 20
494.0131836690013
 30
0.0
 11
747.0756863433532
 21
474.0131836690014
 31
0.0
  0
LINE
  5
715D
330
1E
100
AcDbEntity
  8
UMCL1
  6
Continuous
100
AcDbLine
 10
652.839247668906
 20
675.3222934836542
 30
0.0
 11
645.9705541202692
 21
677.8222934836541
 31
0.0
  0
LINE
  5
715E
330
1E
100
AcDbEntity
  8
UMCL1
  6
Continuous
100
AcDbLine
 10
645.9705541202692
 20
677.8222934836541
 30
0.0
 11
645.9705541202689
 21
627.8222934836541
 31
0.0
  0
LINE
  5
715F
330
1E
100
AcDbEntity
  8
UMCL1
  6
Continuous
100
AcDbLine
 10
652.839247668906
 20
630.322293483654
 30
0.0
 11
645.9705541202692
 21
627.822293483654
 31
0.0
  0
LINE
  5
7160
330
1E
100
AcDbEntity
  8
UMCL1
  6
Continuous
100
AcDbLine
 10
652.8392476689061
 20
409.0131836690013
 30
0.0
 11
645.9705541202694
 21
411.5131836690014
 31
0.0
  0
LINE
  5
7161
330
1E
100
AcDbEntity
  8
UMCL1
  6
Continuous
100
AcDbLine
 10
645.9705541202692
 20
411.5131836690014
 30
0.0
 11
645.9705541202691
 21
361.5131836690011
 31
0.0
  0
LINE
  5
7162
330
1E
100
AcDbEntity
  8
UMCL1
  6
Continuous
100
AcDbLine
 10
652.8392476689061
 20
364.0131836690011
 30
0.0
 11
645.9705541202694
 21
361.5131836690011
 31
0.0
  0
LINE
  5
7163
330
1E
100
AcDbEntity
  8
UMCL2
  6
Continuous
100
AcDbLine
 10
652.839247668906
 20
362.1041781514327
 30
0.0
 11
652.839247668906
 21
290.5131836690011
 31
0.0
  0
CIRCLE
  5
7164
330
1E
100
AcDbEntity
  8
UMCL1
  6
Continuous
100
AcDbCircle
 10
785.0756863433532
 20
386.5131836690011
 30
0.0
 40
22.50000000000003
  0
LINE
  5
7165
330
1E
100
AcDbEntity
  8
UMCL1
  6
Continuous
100
AcDbLine
 10
427.8392476689059
 20
474.0131836690014
 30
0.0
 11
467.8392476689061
 21
474.0131836690014
 31
0.0
  0
LINE
  5
7166
330
1E
100
AcDbEntity
  8
UMCL1
  6
Continuous
100
AcDbLine
 10
157.8392476689059
 20
474.0131836690014
 30
0.0
 11
197.8392476689059
 21
474.0131836690014
 31
0.0
  0
LINE
  5
7167
330
1E
100
AcDbEntity
  8
UMCL1
  6
Continuous
100
AcDbLine
 10
427.8392476689059
 20
634.8222934836542
 30
0.0
 11
467.8392476689061
 21
634.8222934836542
 31
0.0
  0
LINE
  5
7168
330
1E
100
AcDbEntity
  8
UMCL1
  6
Continuous
100
AcDbLine
 10
427.8392476689059
 20
670.8222934836542
 30
0.0
 11
467.8392476689061
 21
670.8222934836542
 31
0.0
  0
LINE
  5
7169
330
1E
100
AcDbEntity
  8
UMCL1
  6
Continuous
100
AcDbLine
 10
157.8392476689059
 20
670.8222934836542
 30
0.0
 11
197.8392476689059
 21
670.8222934836542
 31
0.0
  0
LINE
  5
716A
330
1E
100
AcDbEntity
  8
UMCL1
  6
Continuous
100
AcDbLine
 10
157.8392476689059
 20
634.8222934836542
 30
0.0
 11
197.8392476689059
 21
634.8222934836542
 31
0.0
  0
LINE
  5
716B
330
1E
100
AcDbEntity
  8
UMCL1
  6
Continuous
100
AcDbLine
 10
-17.70568213060119
 20
494.0131836690013
 30
0.0
 11
2.29431786939881
 21
474.0131836690014
 31
0.0
  0
LINE
  5
716C
330
1E
100
AcDbEntity
  8
UMCL1
  6
Continuous
100
AcDbLine
 10
-53.70568213060119
 20
494.0131836690013
 30
0.0
 11
-73.70568213060119
 21
474.0131836690014
 31
0.0
  0
POLYLINE
  5
716D
330
1E
100
AcDbEntity
  8
UMCL1
  6
Continuous
100
AcDb2dPolyline
 66
     1
 10
0.0
 20
0.0
 30
0.0
 70
     1
  0
VERTEX
  5
716E
330
716D
100
AcDbEntity
  8
UMCL1
  6
Continuous
100
AcDbVertex
100
AcDb2dVertex
 10
447.8392476689059
 20
488.2631836690014
 30
0.0
 42
0.0984914033571732
  0
VERTEX
  5
716F
330
716D
100
AcDbEntity
  8
UMCL1
  6
Continuous
100
AcDbVertex
100
AcDb2dVertex
 10
445.734488790898
 20
487.8445210978134
 30
0.0
 42
0.0984914033571683
  0
VERTEX
  5
7170
330
716D
100
AcDbEntity
  8
UMCL1
  6
Continuous
100
AcDbVertex
100
AcDb2dVertex
 10
443.9501603723802
 20
486.6522709655273
 30
0.0
 42
0.0984914033571757
  0
VERTEX
  5
7171
330
716D
100
AcDbEntity
  8
UMCL1
  6
Continuous
100
AcDbVertex
100
AcDb2dVertex
 10
442.7579102400941
 20
484.8679425470093
 30
0.0
 42
0.0984914033571758
  0
VERTEX
  5
7172
330
716D
100
AcDbEntity
  8
UMCL1
  6
Continuous
100
AcDbVertex
100
AcDb2dVertex
 10
442.3392476689059
 20
482.7631836690013
 30
0.0
 42
0.0984914033571496
  0
VERTEX
  5
7173
330
716D
100
AcDbEntity
  8
UMCL1
  6
Continuous
100
AcDbVertex
100
AcDb2dVertex
 10
442.7579102400938
 20
480.6584247909934
 30
0.0
 42
0.0984914033571535
  0
VERTEX
  5
7174
330
716D
100
AcDbEntity
  8
UMCL1
  6
Continuous
100
AcDbVertex
100
AcDb2dVertex
 10
443.9501603723802
 20
478.8740963724753
 30
0.0
 42
0.0984914033571683
  0
VERTEX
  5
7175
330
716D
100
AcDbEntity
  8
UMCL1
  6
Continuous
100
AcDbVertex
100
AcDb2dVertex
 10
445.734488790898
 20
477.6818462401893
 30
0.0
 42
0.0984914033571732
  0
VERTEX
  5
7176
330
716D
100
AcDbEntity
  8
UMCL1
  6
Continuous
100
AcDbVertex
100
AcDb2dVertex
 10
447.8392476689059
 20
477.2631836690013
 30
0.0
 42
0.0984914033571732
  0
VERTEX
  5
7177
330
716D
100
AcDbEntity
  8
UMCL1
  6
Continuous
100
AcDbVertex
100
AcDb2dVertex
 10
449.9440065469139
 20
477.6818462401893
 30
0.0
 42
0.0984914033571683
  0
VERTEX
  5
7178
330
716D
100
AcDbEntity
  8
UMCL1
  6
Continuous
100
AcDbVertex
100
AcDb2dVertex
 10
451.7283349654321
 20
478.8740963724753
 30
0.0
 42
0.0984914033571683
  0
VERTEX
  5
7179
330
716D
100
AcDbEntity
  8
UMCL1
  6
Continuous
100
AcDbVertex
100
AcDb2dVertex
 10
452.9205850977182
 20
480.6584247909934
 30
0.0
 42
0.0984914033571732
  0
VERTEX
  5
717A
330
716D
100
AcDbEntity
  8
UMCL1
  6
Continuous
100
AcDbVertex
100
AcDb2dVertex
 10
453.3392476689059
 20
482.7631836690013
 30
0.0
 42
0.0984914033571785
  0
VERTEX
  5
717B
330
716D
100
AcDbEntity
  8
UMCL1
  6
Continuous
100
AcDbVertex
100
AcDb2dVertex
 10
452.9205850977182
 20
484.867942547009
 30
0.0
 42
0.0984914033571825
  0
VERTEX
  5
717C
330
716D
100
AcDbEntity
  8
UMCL1
  6
Continuous
100
AcDbVertex
100
AcDb2dVertex
 10
451.7283349654321
 20
486.6522709655273
 30
0.0
 42
0.0984914033571579
  0
VERTEX
  5
717D
330
716D
100
AcDbEntity
  8
UMCL1
  6
Continuous
100
AcDbVertex
100
AcDb2dVertex
 10
449.9440065469139
 20
487.8445210978134
 30
0.0
 42
0.0984914033571601
  0
SEQEND
  5
717E
330
716D
100
AcDbEntity
  8
UMCL1
  6
Continuous
  0
POLYLINE
  5
717F
330
1E
100
AcDbEntity
  8
UMCL1
  6
Continuous
100
AcDb2dPolyline
 66
     1
 10
0.0
 20
0.0
 30
0.0
 70
     1
  0
VERTEX
  5
7180
330
717F
100
AcDbEntity
  8
UMCL1
  6
Continuous
100
AcDbVertex
100
AcDb2dVertex
 10
177.8392476689059
 20
488.2631836690014
 30
0.0
 42
0.0984914033571732
  0
VERTEX
  5
7181
330
717F
100
AcDbEntity
  8
UMCL1
  6
Continuous
100
AcDbVertex
100
AcDb2dVertex
 10
175.734488790898
 20
487.8445210978134
 30
0.0
 42
0.0984914033571683
  0
VERTEX
  5
7182
330
717F
100
AcDbEntity
  8
UMCL1
  6
Continuous
100
AcDbVertex
100
AcDb2dVertex
 10
173.9501603723802
 20
486.6522709655273
 30
0.0
 42
0.0984914033571757
  0
VERTEX
  5
7183
330
717F
100
AcDbEntity
  8
UMCL1
  6
Continuous
100
AcDbVertex
100
AcDb2dVertex
 10
172.7579102400941
 20
484.8679425470093
 30
0.0
 42
0.0984914033571758
  0
VERTEX
  5
7184
330
717F
100
AcDbEntity
  8
UMCL1
  6
Continuous
100
AcDbVertex
100
AcDb2dVertex
 10
172.3392476689059
 20
482.7631836690013
 30
0.0
 42
0.0984914033571496
  0
VERTEX
  5
7185
330
717F
100
AcDbEntity
  8
UMCL1
  6
Continuous
100
AcDbVertex
100
AcDb2dVertex
 10
172.7579102400939
 20
480.6584247909934
 30
0.0
 42
0.0984914033571535
  0
VERTEX
  5
7186
330
717F
100
AcDbEntity
  8
UMCL1
  6
Continuous
100
AcDbVertex
100
AcDb2dVertex
 10
173.9501603723802
 20
478.8740963724753
 30
0.0
 42
0.0984914033571683
  0
VERTEX
  5
7187
330
717F
100
AcDbEntity
  8
UMCL1
  6
Continuous
100
AcDbVertex
100
AcDb2dVertex
 10
175.734488790898
 20
477.6818462401893
 30
0.0
 42
0.0984914033571732
  0
VERTEX
  5
7188
330
717F
100
AcDbEntity
  8
UMCL1
  6
Continuous
100
AcDbVertex
100
AcDb2dVertex
 10
177.8392476689059
 20
477.2631836690013
 30
0.0
 42
0.0984914033571732
  0
VERTEX
  5
7189
330
717F
100
AcDbEntity
  8
UMCL1
  6
Continuous
100
AcDbVertex
100
AcDb2dVertex
 10
179.9440065469139
 20
477.6818462401893
 30
0.0
 42
0.0984914033571683
  0
VERTEX
  5
718A
330
717F
100
AcDbEntity
  8
UMCL1
  6
Continuous
100
AcDbVertex
100
AcDb2dVertex
 10
181.7283349654321
 20
478.8740963724753
 30
0.0
 42
0.0984914033571683
  0
VERTEX
  5
718B
330
717F
100
AcDbEntity
  8
UMCL1
  6
Continuous
100
AcDbVertex
100
AcDb2dVertex
 10
182.9205850977182
 20
480.6584247909934
 30
0.0
 42
0.0984914033571732
  0
VERTEX
  5
718C
330
717F
100
AcDbEntity
  8
UMCL1
  6
Continuous
100
AcDbVertex
100
AcDb2dVertex
 10
183.3392476689059
 20
482.7631836690013
 30
0.0
 42
0.0984914033571785
  0
VERTEX
  5
718D
330
717F
100
AcDbEntity
  8
UMCL1
  6
Continuous
100
AcDbVertex
100
AcDb2dVertex
 10
182.9205850977182
 20
484.867942547009
 30
0.0
 42
0.0984914033571825
  0
VERTEX
  5
718E
330
717F
100
AcDbEntity
  8
UMCL1
  6
Continuous
100
AcDbVertex
100
AcDb2dVertex
 10
181.7283349654321
 20
486.6522709655273
 30
0.0
 42
0.0984914033571579
  0
VERTEX
  5
718F
330
717F
100
AcDbEntity
  8
UMCL1
  6
Continuous
100
AcDbVertex
100
AcDb2dVertex
 10
179.9440065469139
 20
487.8445210978134
 30
0.0
 42
0.0984914033571601
  0
SEQEND
  5
7190
330
717F
100
AcDbEntity
  8
UMCL1
  6
Continuous
  0
LINE
  5
7191
330
1E
100
AcDbEntity
  8
CENTER
  6
CENTER
100
AcDbLine
 10
162.6584459112837
 20
379.5131836690011
 30
0.0
 11
192.1844537302258
 21
379.5131836690011
 31
0.0
  0
LINE
  5
7192
330
1E
100
AcDbEntity
  8
CENTER
  6
CENTER
100
AcDbLine
 10
182.8392476689059
 20
396.5131836690011
 30
0.0
 11
196.8392476689059
 21
396.5131836690011
 31
0.0
  0
LINE
  5
7193
330
1E
100
AcDbEntity
  8
CENTER
  6
CENTER
100
AcDbLine
 10
189.8392476689059
 20
403.5131836690011
 30
0.0
 11
189.8392476689059
 21
389.5131836690012
 31
0.0
  0
LINE
  5
7194
330
1E
100
AcDbEntity
  8
UMCL1
  6
HIDDEN
 62
     2
100
AcDbLine
 10
628.5892476689061
 20
411.5131836690014
 30
0.0
 11
628.001747668906
 21
402.1131836690015
 31
0.0
  0
LINE
  5
7195
330
1E
100
AcDbEntity
  8
UMCL1
  6
HIDDEN
 62
     2
100
AcDbLine
 10
617.676747668906
 20
402.1131836690015
 30
0.0
 11
617.089247668906
 21
411.5131836690014
 31
0.0
  0
LINE
  5
7196
330
1E
100
AcDbEntity
  8
UMCL1
  6
HIDDEN
 62
     2
100
AcDbLine
 10
629.389247668906
 20
411.5131836690014
 30
0.0
 11
628.860497668906
 21
403.0531836690013
 31
0.0
  0
LINE
  5
7197
330
1E
100
AcDbEntity
  8
UMCL1
  6
HIDDEN
 62
     2
100
AcDbLine
 10
616.289247668906
 20
411.5131836690014
 30
0.0
 11
616.817997668906
 21
403.0531836690013
 31
0.0
  0
LINE
  5
7198
330
1E
100
AcDbEntity
  8
UMCL1
  6
HIDDEN
 62
     2
100
AcDbLine
 10
779.913186343353
 20
402.113183669001
 30
0.0
 11
779.366968517096
 21
410.8526688891156
 31
0.0
  0
LINE
  5
7199
330
1E
100
AcDbEntity
  8
UMCL1
  6
HIDDEN
 62
     2
100
AcDbLine
 10
778.5793610581192
 20
410.654388232743
 30
0.0
 11
779.0544363433532
 21
403.0531836690008
 31
0.0
  0
LINE
  5
719A
330
1E
100
AcDbEntity
  8
UMCL1
  6
HIDDEN
 62
     2
100
AcDbLine
 10
790.7844041696105
 20
410.8526688891156
 30
0.0
 11
790.2381863433531
 21
402.113183669001
 31
0.0
  0
LINE
  5
719B
330
1E
100
AcDbEntity
  8
UMCL1
  6
HIDDEN
 62
     2
100
AcDbLine
 10
791.5720116285872
 20
410.654388232743
 30
0.0
 11
791.0969363433532
 21
403.0531836690008
 31
0.0
  0
ARC
  5
719C
330
1E
100
AcDbEntity
  8
UMCL1
  6
Continuous
 62
     2
100
AcDbCircle
 10
622.8392476689061
 20
652.8222934836541
 30
0.0
 40
6.549999999999954
100
AcDbArc
 50
68.70722695994671
 51
19.0858399291771
  0
CIRCLE
  5
719D
330
1E
100
AcDbEntity
  8
UMCL1
  6
Continuous
100
AcDbCircle
 10
622.8392476689061
 20
652.8222934836541
 30
0.0
 40
5.75
  0
CIRCLE
  5
719E
330
1E
100
AcDbEntity
  8
UMCL1
100
AcDbCircle
 10
189.8392476689059
 20
396.5131836690011
 30
0.0
 40
5.299999999999999
  0
CIRCLE
  5
719F
330
1E
100
AcDbEntity
  8
UMCL1
100
AcDbCircle
 10
189.8392476689059
 20
396.5131836690011
 30
0.0
 40
5.0
  0
CIRCLE
  5
71A0
330
1E
100
AcDbEntity
  8
UMCL1
100
AcDbCircle
 10
189.8392476689059
 20
396.5131836690011
 30
0.0
 40
2.5
  0
POLYLINE
  5
71A1
330
1E
100
AcDbEntity
  8
UMCL1
  6
Continuous
100
AcDb2dPolyline
 66
     1
 10
0.0
 20
0.0
 30
0.0
 70
     1
  0
VERTEX
  5
71A2
330
71A1
100
AcDbEntity
  8
UMCL1
  6
Continuous
100
AcDbVertex
100
AcDb2dVertex
 10
191.8392476689059
 20
395.3584831306218
 30
0.0
  0
VERTEX
  5
71A3
330
71A1
100
AcDbEntity
  8
UMCL1
  6
Continuous
100
AcDbVertex
100
AcDb2dVertex
 10
191.8392476689059
 20
397.6678842073805
 30
0.0
  0
VERTEX
  5
71A4
330
71A1
100
AcDbEntity
  8
UMCL1
  6
Continuous
100
AcDbVertex
100
AcDb2dVertex
 10
189.8392476689059
 20
398.8225847457597
 30
0.0
  0
VERTEX
  5
71A5
330
71A1
100
AcDbEntity
  8
UMCL1
  6
Continuous
100
AcDbVertex
100
AcDb2dVertex
 10
187.8392476689059
 20
397.6678842073805
 30
0.0
  0
VERTEX
  5
71A6
330
71A1
100
AcDbEntity
  8
UMCL1
  6
Continuous
100
AcDbVertex
100
AcDb2dVertex
 10
187.8392476689059
 20
395.3584831306218
 30
0.0
  0
VERTEX
  5
71A7
330
71A1
100
AcDbEntity
  8
UMCL1
  6
Continuous
100
AcDbVertex
100
AcDb2dVertex
 10
189.8392476689059
 20
394.2037825922428
 30
0.0
  0
SEQEND
  5
71A8
330
71A1
100
AcDbEntity
  8
UMCL1
  6
Continuous
  0
LINE
  5
71A9
330
1E
100
AcDbEntity
  8
UMCL1
  6
Continuous
 62
     7
100
AcDbLine
 10
188.989247668906
 20
400.4218279352397
 30
0.0
 11
188.989247668906
 21
401.4404039806981
 31
0.0
  0
LINE
  5
71AA
330
1E
100
AcDbEntity
  8
UMCL1
  6
Continuous
 62
     7
100
AcDbLine
 10
190.6892476689061
 20
400.4218279352397
 30
0.0
 11
190.6892476689061
 21
401.4404039806981
 31
0.0
  0
LINE
  5
71AB
330
1E
100
AcDbEntity
  8
UMCL1
  6
Continuous
 62
     7
100
AcDbLine
 10
190.6892476689061
 20
391.5859633573041
 30
0.0
 11
190.6892476689061
 21
392.6045394027626
 31
0.0
  0
LINE
  5
71AC
330
1E
100
AcDbEntity
  8
UMCL1
  6
Continuous
 62
     7
100
AcDbLine
 10
188.989247668906
 20
391.5859633573041
 30
0.0
 11
188.989247668906
 21
392.6045394027626
 31
0.0
  0
LINE
  5
71AD
330
1E
100
AcDbEntity
  8
UMCL1
  6
Continuous
 62
     7
100
AcDbLine
 10
186.0292624399871
 20
397.7313842089036
 30
0.0
 11
185.1471497089337
 21
398.240672231633
 31
0.0
  0
LINE
  5
71AE
330
1E
100
AcDbEntity
  8
UMCL1
  6
Continuous
 62
     7
100
AcDbLine
 10
186.8792624399871
 20
399.2036273953372
 30
0.0
 11
185.9971497089336
 21
399.7129154180663
 31
0.0
  0
LINE
  5
71AF
330
1E
100
AcDbEntity
  8
UMCL1
  6
Continuous
 62
     7
100
AcDbLine
 10
194.5313456288784
 20
394.7856951063696
 30
0.0
 11
193.6492328978252
 21
395.2949831290987
 31
0.0
  0
LINE
  5
71B0
330
1E
100
AcDbEntity
  8
UMCL1
  6
Continuous
 62
     7
100
AcDbLine
 10
193.6813456288782
 20
393.3134519199359
 30
0.0
 11
192.799232897825
 21
393.8227399426651
 31
0.0
  0
LINE
  5
71B1
330
1E
100
AcDbEntity
  8
UMCL1
  6
Continuous
 62
     7
100
AcDbLine
 10
186.0292624399871
 20
395.2949831290987
 30
0.0
 11
185.1471497089337
 21
394.7856951063696
 31
0.0
  0
LINE
  5
71B2
330
1E
100
AcDbEntity
  8
UMCL1
  6
Continuous
 62
     7
100
AcDbLine
 10
186.8792624399871
 20
393.8227399426651
 30
0.0
 11
185.9971497089336
 21
393.3134519199359
 31
0.0
  0
LINE
  5
71B3
330
1E
100
AcDbEntity
  8
UMCL1
  6
Continuous
 62
     7
100
AcDbLine
 10
194.5313456288784
 20
398.240672231633
 30
0.0
 11
193.6492328978252
 21
397.7313842089036
 31
0.0
  0
LINE
  5
71B4
330
1E
100
AcDbEntity
  8
UMCL1
  6
Continuous
 62
     7
100
AcDbLine
 10
193.6813456288782
 20
399.7129154180663
 30
0.0
 11
192.799232897825
 21
399.2036273953372
 31
0.0
  0
ARC
  5
71B5
330
1E
100
AcDbEntity
  8
UMCL1
100
AcDbCircle
 10
189.8392476689059
 20
396.5131836690011
 30
0.0
 40
4.0
100
AcDbArc
 50
102.2688989959564
 51
137.7311010040431
  0
ARC
  5
71B6
330
1E
100
AcDbEntity
  8
UMCL1
100
AcDbCircle
 10
189.8392476689059
 20
396.5131836690011
 30
0.0
 40
4.0
100
AcDbArc
 50
162.2688989959606
 51
197.7311010040455
  0
ARC
  5
71B7
330
1E
100
AcDbEntity
  8
UMCL1
100
AcDbCircle
 10
189.8392476689059
 20
396.5131836690011
 30
0.0
 40
4.0
100
AcDbArc
 50
222.2688989959569
 51
257.7311010040435
  0
ARC
  5
71B8
330
1E
100
AcDbEntity
  8
UMCL1
100
AcDbCircle
 10
189.8392476689059
 20
396.5131836690011
 30
0.0
 40
4.0
100
AcDbArc
 50
282.2688989959565
 51
317.7311010040431
  0
ARC
  5
71B9
330
1E
100
AcDbEntity
  8
UMCL1
100
AcDbCircle
 10
189.8392476689059
 20
396.5131836690011
 30
0.0
 40
4.0
100
AcDbArc
 50
342.2688989959544
 51
17.73110100403935
  0
ARC
  5
71BA
330
1E
100
AcDbEntity
  8
UMCL1
100
AcDbCircle
 10
189.8392476689059
 20
396.5131836690011
 30
0.0
 40
4.0
100
AcDbArc
 50
42.2688989959569
 51
77.73110100404354
  0
LINE
  5
71BB
330
1E
100
AcDbEntity
  8
CENTER
  6
CENTER
100
AcDbLine
 10
-80.20568213060119
 20
355.0131836690011
 30
0.0
 11
-80.20568213060119
 21
329.0131836690012
 31
0.0
  0
LINE
  5
71BC
330
1E
100
AcDbEntity
  8
CENTER
  6
CENTER
100
AcDbLine
 10
-93.20568213060118
 20
342.0131836690011
 30
0.0
 11
-67.20568213060118
 21
342.0131836690014
 31
0.0
  0
LINE
  5
71BD
330
1E
100
AcDbEntity
  8
CENTER
  6
CENTER
100
AcDbLine
 10
8.794317869399037
 20
355.0131836690011
 30
0.0
 11
8.794317869399037
 21
329.0131836690012
 31
0.0
  0
LINE
  5
71BE
330
1E
100
AcDbEntity
  8
CENTER
  6
CENTER
100
AcDbLine
 10
-4.205682130600962
 20
342.0131836690011
 30
0.0
 11
21.79431786939904
 21
342.0131836690014
 31
0.0
  0
LINE
  5
71BF
330
1E
100
AcDbEntity
  8
CENTER
  6
CENTER
100
AcDbLine
 10
447.8392476689059
 20
690.8222934836542
 30
0.0
 11
447.8392476689059
 21
670.8222934836542
 31
0.0
  0
LINE
  5
71C0
330
1E
100
AcDbEntity
  8
CENTER
  6
CENTER
100
AcDbLine
 10
447.8392476689059
 20
634.8222934836542
 30
0.0
 11
447.8392476689059
 21
614.8222934836542
 31
0.0
  0
SOLID
  5
71C1
330
1E
100
AcDbEntity
  8
UMCL2
  6
Continuous
100
AcDbTrace
 10
520.8392476689062
 20
308.0131836690011
 30
0.0
 11
520.8392476689062
 21
307.0131836690011
 31
0.0
 12
523.8392476689061
 22
307.5131836690011
 32
0.0
 13
523.8392476689061
 23
307.5131836690011
 33
0.0
  0
SOLID
  5
71C2
330
1E
100
AcDbEntity
  8
UMCL2
  6
Continuous
100
AcDbTrace
 10
511.839247668906
 20
308.0131836690011
 30
0.0
 11
511.839247668906
 21
307.0131836690011
 31
0.0
 12
508.839247668906
 22
307.5131836690011
 32
0.0
 13
508.839247668906
 23
307.5131836690011
 33
0.0
  0
TEXT
  5
71C3
330
1E
100
AcDbEntity
  8
UMCL2
  6
Continuous
100
AcDbText
 10
513.5798878811003
 20
309.0131836690013
 30
0.0
 40
3.0
  1
15
  7
ROMANSS
 11
513.5798878811003
 21
310.5131836690012
 31
0.0
100
AcDbText
 73
     2
  0
SOLID
  5
71C4
330
1E
100
AcDbEntity
  8
UMCL2
  6
Continuous
100
AcDbTrace
 10
113.8392476689062
 20
308.0131836690011
 30
0.0
 11
113.8392476689062
 21
307.0131836690011
 31
0.0
 12
116.8392476689062
 22
307.5131836690011
 32
0.0
 13
116.8392476689062
 23
307.5131836690011
 33
0.0
  0
SOLID
  5
71C5
330
1E
100
AcDbEntity
  8
UMCL2
  6
Continuous
100
AcDbTrace
 10
104.8392476689059
 20
308.0131836690013
 30
0.0
 11
104.8392476689059
 21
307.0131836690013
 31
0.0
 12
101.8392476689059
 22
307.5131836690013
 32
0.0
 13
101.8392476689059
 23
307.5131836690013
 33
0.0
  0
TEXT
  5
71C6
330
1E
100
AcDbEntity
  8
UMCL2
  6
Continuous
100
AcDbText
 10
106.5798878811003
 20
309.0131836690013
 30
0.0
 40
3.0
  1
15
  7
ROMANSS
 11
106.5798878811003
 21
310.5131836690012
 31
0.0
100
AcDbText
 73
     2
  0
ARC
  5
71C7
330
1E
100
AcDbEntity
  8
UMCL1
  6
Continuous
 62
     2
100
AcDbCircle
 10
447.8392476689059
 20
386.5131836690011
 30
0.0
 40
10.50000000000001
100
AcDbArc
 50
69.61697604876076
 51
23.41341888858055
  0
CIRCLE
  5
71C8
330
1E
100
AcDbEntity
  8
UMCL1
  6
Continuous
100
AcDbCircle
 10
447.8392476689059
 20
386.5131836690011
 30
0.0
 40
9.3
  0
CIRCLE
  5
71C9
330
1E
100
AcDbEntity
  8
UMCL1
  6
Continuous
100
AcDbCircle
 10
177.8392476689059
 20
379.5131836690011
 30
0.0
 40
9.3
  0
ARC
  5
71CA
330
1E
100
AcDbEntity
  8
UMCL1
  6
Continuous
 62
     2
100
AcDbCircle
 10
177.8392476689059
 20
379.5131836690011
 30
0.0
 40
10.50000000000001
100
AcDbArc
 50
69.61697604876076
 51
23.41341888858055
  0
CIRCLE
  5
71CB
330
1E
100
AcDbEntity
  8
UMCL1
  6
Continuous
100
AcDbCircle
 10
740.5756863433532
 20
431.0131836690011
 30
0.0
 40
9.0
  0
CIRCLE
  5
71CC
330
1E
100
AcDbEntity
  8
UMCL1
  6
Continuous
100
AcDbCircle
 10
740.5756863433532
 20
431.0131836690011
 30
0.0
 40
8.191685912240185
  0
POLYLINE
  5
71CD
330
1E
100
AcDbEntity
  8
UMCL1
  6
Continuous
100
AcDb2dPolyline
 66
     1
 10
0.0
 20
0.0
 30
0.0
 70
     1
  0
VERTEX
  5
71CE
330
71CD
100
AcDbEntity
  8
UMCL1
  6
Continuous
100
AcDbVertex
100
AcDb2dVertex
 10
737.688934997405
 20
436.0131836690011
 30
0.0
  0
VERTEX
  5
71CF
330
71CD
100
AcDbEntity
  8
UMCL1
  6
Continuous
100
AcDbVertex
100
AcDb2dVertex
 10
734.8021836514569
 20
431.0131836690011
 30
0.0
  0
VERTEX
  5
71D0
330
71CD
100
AcDbEntity
  8
UMCL1
  6
Continuous
100
AcDbVertex
100
AcDb2dVertex
 10
737.688934997405
 20
426.0131836690011
 30
0.0
  0
VERTEX
  5
71D1
330
71CD
100
AcDbEntity
  8
UMCL1
  6
Continuous
100
AcDbVertex
100
AcDb2dVertex
 10
743.4624376893014
 20
426.0131836690011
 30
0.0
  0
VERTEX
  5
71D2
330
71CD
100
AcDbEntity
  8
UMCL1
  6
Continuous
100
AcDbVertex
100
AcDb2dVertex
 10
746.3491890352495
 20
431.0131836690011
 30
0.0
  0
VERTEX
  5
71D3
330
71CD
100
AcDbEntity
  8
UMCL1
  6
Continuous
100
AcDbVertex
100
AcDb2dVertex
 10
743.4624376893014
 20
436.0131836690011
 30
0.0
  0
SEQEND
  5
71D4
330
71CD
100
AcDbEntity
  8
UMCL1
  6
Continuous
  0
CIRCLE
  5
71D5
330
1E
100
AcDbEntity
  8
UMCL1
  6
Continuous
100
AcDbCircle
 10
829.5756863433533
 20
431.0131836690013
 30
0.0
 40
9.0
  0
CIRCLE
  5
71D6
330
1E
100
AcDbEntity
  8
UMCL1
  6
Continuous
100
AcDbCircle
 10
829.5756863433533
 20
431.0131836690013
 30
0.0
 40
8.191685912240185
  0
POLYLINE
  5
71D7
330
1E
100
AcDbEntity
  8
UMCL1
  6
Continuous
100
AcDb2dPolyline
 66
     1
 10
0.0
 20
0.0
 30
0.0
 70
     1
  0
VERTEX
  5
71D8
330
71D7
100
AcDbEntity
  8
UMCL1
  6
Continuous
100
AcDbVertex
100
AcDb2dVertex
 10
826.688934997405
 20
436.0131836690014
 30
0.0
  0
VERTEX
  5
71D9
330
71D7
100
AcDbEntity
  8
UMCL1
  6
Continuous
100
AcDbVertex
100
AcDb2dVertex
 10
823.8021836514569
 20
431.0131836690013
 30
0.0
  0
VERTEX
  5
71DA
330
71D7
100
AcDbEntity
  8
UMCL1
  6
Continuous
100
AcDbVertex
100
AcDb2dVertex
 10
826.688934997405
 20
426.0131836690013
 30
0.0
  0
VERTEX
  5
71DB
330
71D7
100
AcDbEntity
  8
UMCL1
  6
Continuous
100
AcDbVertex
100
AcDb2dVertex
 10
832.4624376893014
 20
426.0131836690013
 30
0.0
  0
VERTEX
  5
71DC
330
71D7
100
AcDbEntity
  8
UMCL1
  6
Continuous
100
AcDbVertex
100
AcDb2dVertex
 10
835.3491890352495
 20
431.0131836690013
 30
0.0
  0
VERTEX
  5
71DD
330
71D7
100
AcDbEntity
  8
UMCL1
  6
Continuous
100
AcDbVertex
100
AcDb2dVertex
 10
832.4624376893014
 20
436.0131836690014
 30
0.0
  0
SEQEND
  5
71DE
330
71D7
100
AcDbEntity
  8
UMCL1
  6
Continuous
  0
CIRCLE
  5
71DF
330
1E
100
AcDbEntity
  8
UMCL1
  6
Continuous
100
AcDbCircle
 10
760.0756863433532
 20
411.5131836690011
 30
0.0
 40
6.5
  0
CIRCLE
  5
71E0
330
1E
100
AcDbEntity
  8
UMCL1
  6
Continuous
100
AcDbCircle
 10
760.0756863433532
 20
411.5131836690011
 30
0.0
 40
5.922632794457276
  0
POLYLINE
  5
71E1
330
1E
100
AcDbEntity
  8
UMCL1
  6
Continuous
100
AcDb2dPolyline
 66
     1
 10
0.0
 20
0.0
 30
0.0
 70
     1
  0
VERTEX
  5
71E2
330
71E1
100
AcDbEntity
  8
UMCL1
  6
Continuous
100
AcDbVertex
100
AcDb2dVertex
 10
758.3436355357851
 20
414.5131836690011
 30
0.0
  0
VERTEX
  5
71E3
330
71E1
100
AcDbEntity
  8
UMCL1
  6
Continuous
100
AcDbVertex
100
AcDb2dVertex
 10
756.6115847282151
 20
411.5131836690011
 30
0.0
  0
VERTEX
  5
71E4
330
71E1
100
AcDbEntity
  8
UMCL1
  6
Continuous
100
AcDbVertex
100
AcDb2dVertex
 10
758.3436355357851
 20
408.5131836690011
 30
0.0
  0
VERTEX
  5
71E5
330
71E1
100
AcDbEntity
  8
UMCL1
  6
Continuous
100
AcDbVertex
100
AcDb2dVertex
 10
761.8077371509214
 20
408.5131836690011
 30
0.0
  0
VERTEX
  5
71E6
330
71E1
100
AcDbEntity
  8
UMCL1
  6
Continuous
100
AcDbVertex
100
AcDb2dVertex
 10
763.5397879584914
 20
411.5131836690011
 30
0.0
  0
VERTEX
  5
71E7
330
71E1
100
AcDbEntity
  8
UMCL1
  6
Continuous
100
AcDbVertex
100
AcDb2dVertex
 10
761.8077371509214
 20
414.5131836690011
 30
0.0
  0
SEQEND
  5
71E8
330
71E1
100
AcDbEntity
  8
UMCL1
  6
Continuous
  0
CIRCLE
  5
71E9
330
1E
100
AcDbEntity
  8
UMCL1
  6
Continuous
100
AcDbCircle
 10
810.0756863433533
 20
411.5131836690014
 30
0.0
 40
6.5
  0
CIRCLE
  5
71EA
330
1E
100
AcDbEntity
  8
UMCL1
  6
Continuous
100
AcDbCircle
 10
810.0756863433533
 20
411.5131836690014
 30
0.0
 40
5.922632794457276
  0
POLYLINE
  5
71EB
330
1E
100
AcDbEntity
  8
UMCL1
  6
Continuous
100
AcDb2dPolyline
 66
     1
 10
0.0
 20
0.0
 30
0.0
 70
     1
  0
VERTEX
  5
71EC
330
71EB
100
AcDbEntity
  8
UMCL1
  6
Continuous
100
AcDbVertex
100
AcDb2dVertex
 10
808.343635535785
 20
414.5131836690013
 30
0.0
  0
VERTEX
  5
71ED
330
71EB
100
AcDbEntity
  8
UMCL1
  6
Continuous
100
AcDbVertex
100
AcDb2dVertex
 10
806.6115847282151
 20
411.5131836690014
 30
0.0
  0
VERTEX
  5
71EE
330
71EB
100
AcDbEntity
  8
UMCL1
  6
Continuous
100
AcDbVertex
100
AcDb2dVertex
 10
808.343635535785
 20
408.5131836690013
 30
0.0
  0
VERTEX
  5
71EF
330
71EB
100
AcDbEntity
  8
UMCL1
  6
Continuous
100
AcDbVertex
100
AcDb2dVertex
 10
811.8077371509214
 20
408.5131836690013
 30
0.0
  0
VERTEX
  5
71F0
330
71EB
100
AcDbEntity
  8
UMCL1
  6
Continuous
100
AcDbVertex
100
AcDb2dVertex
 10
813.5397879584914
 20
411.5131836690014
 30
0.0
  0
VERTEX
  5
71F1
330
71EB
100
AcDbEntity
  8
UMCL1
  6
Continuous
100
AcDbVertex
100
AcDb2dVertex
 10
811.8077371509214
 20
414.5131836690013
 30
0.0
  0
SEQEND
  5
71F2
330
71EB
100
AcDbEntity
  8
UMCL1
  6
Continuous
  0
CIRCLE
  5
71F3
330
1E
100
AcDbEntity
  8
UMCL1
  6
Continuous
100
AcDbCircle
 10
829.5756863433533
 20
342.0131836690011
 30
0.0
 40
8.0
  0
CIRCLE
  5
71F4
330
1E
100
AcDbEntity
  8
UMCL1
  6
Continuous
100
AcDbCircle
 10
829.5756863433533
 20
342.0131836690011
 30
0.0
 40
7.307159353348731
  0
POLYLINE
  5
71F5
330
1E
100
AcDbEntity
  8
UMCL1
  6
Continuous
100
AcDb2dPolyline
 66
     1
 10
0.0
 20
0.0
 30
0.0
 70
     1
  0
VERTEX
  5
71F6
330
71F5
100
AcDbEntity
  8
UMCL1
  6
Continuous
100
AcDbVertex
100
AcDb2dVertex
 10
827.266285266595
 20
346.0131836690012
 30
0.0
  0
VERTEX
  5
71F7
330
71F5
100
AcDbEntity
  8
UMCL1
  6
Continuous
100
AcDbVertex
100
AcDb2dVertex
 10
824.9568841898369
 20
342.0131836690011
 30
0.0
  0
VERTEX
  5
71F8
330
71F5
100
AcDbEntity
  8
UMCL1
  6
Continuous
100
AcDbVertex
100
AcDb2dVertex
 10
827.266285266595
 20
338.0131836690011
 30
0.0
  0
VERTEX
  5
71F9
330
71F5
100
AcDbEntity
  8
UMCL1
  6
Continuous
100
AcDbVertex
100
AcDb2dVertex
 10
831.8850874201114
 20
338.0131836690011
 30
0.0
  0
VERTEX
  5
71FA
330
71F5
100
AcDbEntity
  8
UMCL1
  6
Continuous
100
AcDbVertex
100
AcDb2dVertex
 10
834.1944884968695
 20
342.0131836690011
 30
0.0
  0
VERTEX
  5
71FB
330
71F5
100
AcDbEntity
  8
UMCL1
  6
Continuous
100
AcDbVertex
100
AcDb2dVertex
 10
831.8850874201114
 20
346.0131836690012
 30
0.0
  0
SEQEND
  5
71FC
330
71F5
100
AcDbEntity
  8
UMCL1
  6
Continuous
  0
CIRCLE
  5
71FD
330
1E
100
AcDbEntity
  8
UMCL1
  6
Continuous
100
AcDbCircle
 10
740.5756863433532
 20
342.0131836690011
 30
0.0
 40
8.0
  0
CIRCLE
  5
71FE
330
1E
100
AcDbEntity
  8
UMCL1
  6
Continuous
100
AcDbCircle
 10
740.5756863433532
 20
342.0131836690011
 30
0.0
 40
7.307159353348731
  0
POLYLINE
  5
71FF
330
1E
100
AcDbEntity
  8
UMCL1
  6
Continuous
100
AcDb2dPolyline
 66
     1
 10
0.0
 20
0.0
 30
0.0
 70
     1
  0
VERTEX
  5
7200
330
71FF
100
AcDbEntity
  8
UMCL1
  6
Continuous
100
AcDbVertex
100
AcDb2dVertex
 10
738.2662852665951
 20
346.0131836690012
 30
0.0
  0
VERTEX
  5
7201
330
71FF
100
AcDbEntity
  8
UMCL1
  6
Continuous
100
AcDbVertex
100
AcDb2dVertex
 10
735.956884189837
 20
342.0131836690011
 30
0.0
  0
VERTEX
  5
7202
330
71FF
100
AcDbEntity
  8
UMCL1
  6
Continuous
100
AcDbVertex
100
AcDb2dVertex
 10
738.2662852665951
 20
338.0131836690011
 30
0.0
  0
VERTEX
  5
7203
330
71FF
100
AcDbEntity
  8
UMCL1
  6
Continuous
100
AcDbVertex
100
AcDb2dVertex
 10
742.8850874201113
 20
338.0131836690011
 30
0.0
  0
VERTEX
  5
7204
330
71FF
100
AcDbEntity
  8
UMCL1
  6
Continuous
100
AcDbVertex
100
AcDb2dVertex
 10
745.1944884968695
 20
342.0131836690011
 30
0.0
  0
VERTEX
  5
7205
330
71FF
100
AcDbEntity
  8
UMCL1
  6
Continuous
100
AcDbVertex
100
AcDb2dVertex
 10
742.8850874201113
 20
346.0131836690012
 30
0.0
  0
SEQEND
  5
7206
330
71FF
100
AcDbEntity
  8
UMCL1
  6
Continuous
  0
CIRCLE
  5
7207
330
1E
100
AcDbEntity
  8
UMCL1
  6
Continuous
100
AcDbCircle
 10
-80.20568213060119
 20
342.0131836690011
 30
0.0
 40
8.0
  0
CIRCLE
  5
7208
330
1E
100
AcDbEntity
  8
UMCL1
  6
Continuous
100
AcDbCircle
 10
-80.20568213060119
 20
342.0131836690011
 30
0.0
 40
7.307159353348731
  0
POLYLINE
  5
7209
330
1E
100
AcDbEntity
  8
UMCL1
  6
Continuous
100
AcDb2dPolyline
 66
     1
 10
0.0
 20
0.0
 30
0.0
 70
     1
  0
VERTEX
  5
720A
330
7209
100
AcDbEntity
  8
UMCL1
  6
Continuous
100
AcDbVertex
100
AcDb2dVertex
 10
-82.51508320735934
 20
346.0131836690012
 30
0.0
  0
VERTEX
  5
720B
330
7209
100
AcDbEntity
  8
UMCL1
  6
Continuous
100
AcDbVertex
100
AcDb2dVertex
 10
-84.82448428411748
 20
342.0131836690011
 30
0.0
  0
VERTEX
  5
720C
330
7209
100
AcDbEntity
  8
UMCL1
  6
Continuous
100
AcDbVertex
100
AcDb2dVertex
 10
-82.51508320735934
 20
338.0131836690011
 30
0.0
  0
VERTEX
  5
720D
330
7209
100
AcDbEntity
  8
UMCL1
  6
Continuous
100
AcDbVertex
100
AcDb2dVertex
 10
-77.89628105384304
 20
338.0131836690011
 30
0.0
  0
VERTEX
  5
720E
330
7209
100
AcDbEntity
  8
UMCL1
  6
Continuous
100
AcDbVertex
100
AcDb2dVertex
 10
-75.58687997708489
 20
342.0131836690011
 30
0.0
  0
VERTEX
  5
720F
330
7209
100
AcDbEntity
  8
UMCL1
  6
Continuous
100
AcDbVertex
100
AcDb2dVertex
 10
-77.89628105384304
 20
346.0131836690012
 30
0.0
  0
SEQEND
  5
7210
330
7209
100
AcDbEntity
  8
UMCL1
  6
Continuous
  0
CIRCLE
  5
7211
330
1E
100
AcDbEntity
  8
UMCL1
  6
Continuous
100
AcDbCircle
 10
-80.20568213060119
 20
431.0131836690011
 30
0.0
 40
9.0
  0
CIRCLE
  5
7212
330
1E
100
AcDbEntity
  8
UMCL1
  6
Continuous
100
AcDbCircle
 10
-80.20568213060119
 20
431.0131836690011
 30
0.0
 40
8.191685912240185
  0
POLYLINE
  5
7213
330
1E
100
AcDbEntity
  8
UMCL1
  6
Continuous
100
AcDb2dPolyline
 66
     1
 10
0.0
 20
0.0
 30
0.0
 70
     1
  0
VERTEX
  5
7214
330
7213
100
AcDbEntity
  8
UMCL1
  6
Continuous
100
AcDbVertex
100
AcDb2dVertex
 10
-83.09243347654932
 20
436.0131836690011
 30
0.0
  0
VERTEX
  5
7215
330
7213
100
AcDbEntity
  8
UMCL1
  6
Continuous
100
AcDbVertex
100
AcDb2dVertex
 10
-85.97918482249747
 20
431.0131836690011
 30
0.0
  0
VERTEX
  5
7216
330
7213
100
AcDbEntity
  8
UMCL1
  6
Continuous
100
AcDbVertex
100
AcDb2dVertex
 10
-83.09243347654932
 20
426.0131836690011
 30
0.0
  0
VERTEX
  5
7217
330
7213
100
AcDbEntity
  8
UMCL1
  6
Continuous
100
AcDbVertex
100
AcDb2dVertex
 10
-77.31893078465304
 20
426.0131836690011
 30
0.0
  0
VERTEX
  5
7218
330
7213
100
AcDbEntity
  8
UMCL1
  6
Continuous
100
AcDbVertex
100
AcDb2dVertex
 10
-74.4321794387049
 20
431.0131836690011
 30
0.0
  0
VERTEX
  5
7219
330
7213
100
AcDbEntity
  8
UMCL1
  6
Continuous
100
AcDbVertex
100
AcDb2dVertex
 10
-77.31893078465304
 20
436.0131836690011
 30
0.0
  0
SEQEND
  5
721A
330
7213
100
AcDbEntity
  8
UMCL1
  6
Continuous
  0
CIRCLE
  5
721B
330
1E
100
AcDbEntity
  8
UMCL1
  6
Continuous
100
AcDbCircle
 10
8.794317869399037
 20
342.0131836690011
 30
0.0
 40
8.0
  0
CIRCLE
  5
721C
330
1E
100
AcDbEntity
  8
UMCL1
  6
Continuous
100
AcDbCircle
 10
8.794317869399037
 20
342.0131836690011
 30
0.0
 40
7.307159353348731
  0
POLYLINE
  5
721D
330
1E
100
AcDbEntity
  8
UMCL1
  6
Continuous
100
AcDb2dPolyline
 66
     1
 10
0.0
 20
0.0
 30
0.0
 70
     1
  0
VERTEX
  5
721E
330
721D
100
AcDbEntity
  8
UMCL1
  6
Continuous
100
AcDbVertex
100
AcDb2dVertex
 10
6.484916792640888
 20
346.0131836690012
 30
0.0
  0
VERTEX
  5
721F
330
721D
100
AcDbEntity
  8
UMCL1
  6
Continuous
100
AcDbVertex
100
AcDb2dVertex
 10
4.175515715882738
 20
342.0131836690011
 30
0.0
  0
VERTEX
  5
7220
330
721D
100
AcDbEntity
  8
UMCL1
  6
Continuous
100
AcDbVertex
100
AcDb2dVertex
 10
6.484916792640888
 20
338.0131836690011
 30
0.0
  0
VERTEX
  5
7221
330
721D
100
AcDbEntity
  8
UMCL1
  6
Continuous
100
AcDbVertex
100
AcDb2dVertex
 10
11.10371894615719
 20
338.0131836690011
 30
0.0
  0
VERTEX
  5
7222
330
721D
100
AcDbEntity
  8
UMCL1
  6
Continuous
100
AcDbVertex
100
AcDb2dVertex
 10
13.41312002291533
 20
342.0131836690011
 30
0.0
  0
VERTEX
  5
7223
330
721D
100
AcDbEntity
  8
UMCL1
  6
Continuous
100
AcDbVertex
100
AcDb2dVertex
 10
11.10371894615719
 20
346.0131836690012
 30
0.0
  0
SEQEND
  5
7224
330
721D
100
AcDbEntity
  8
UMCL1
  6
Continuous
  0
CIRCLE
  5
7225
330
1E
100
AcDbEntity
  8
UMCL1
  6
Continuous
100
AcDbCircle
 10
8.79431786939881
 20
431.0131836690013
 30
0.0
 40
9.0
  0
CIRCLE
  5
7226
330
1E
100
AcDbEntity
  8
UMCL1
  6
Continuous
100
AcDbCircle
 10
8.79431786939881
 20
431.0131836690013
 30
0.0
 40
8.191685912240185
  0
POLYLINE
  5
7227
330
1E
100
AcDbEntity
  8
UMCL1
  6
Continuous
100
AcDb2dPolyline
 66
     1
 10
0.0
 20
0.0
 30
0.0
 70
     1
  0
VERTEX
  5
7228
330
7227
100
AcDbEntity
  8
UMCL1
  6
Continuous
100
AcDbVertex
100
AcDb2dVertex
 10
5.907566523450668
 20
436.0131836690014
 30
0.0
  0
VERTEX
  5
7229
330
7227
100
AcDbEntity
  8
UMCL1
  6
Continuous
100
AcDbVertex
100
AcDb2dVertex
 10
3.020815177502527
 20
431.0131836690013
 30
0.0
  0
VERTEX
  5
722A
330
7227
100
AcDbEntity
  8
UMCL1
  6
Continuous
100
AcDbVertex
100
AcDb2dVertex
 10
5.907566523450668
 20
426.0131836690013
 30
0.0
  0
VERTEX
  5
722B
330
7227
100
AcDbEntity
  8
UMCL1
  6
Continuous
100
AcDbVertex
100
AcDb2dVertex
 10
11.68106921534695
 20
426.0131836690013
 30
0.0
  0
VERTEX
  5
722C
330
7227
100
AcDbEntity
  8
UMCL1
  6
Continuous
100
AcDbVertex
100
AcDb2dVertex
 10
14.56782056129509
 20
431.0131836690013
 30
0.0
  0
VERTEX
  5
722D
330
7227
100
AcDbEntity
  8
UMCL1
  6
Continuous
100
AcDbVertex
100
AcDb2dVertex
 10
11.68106921534695
 20
436.0131836690014
 30
0.0
  0
SEQEND
  5
722E
330
7227
100
AcDbEntity
  8
UMCL1
  6
Continuous
  0
CIRCLE
  5
722F
330
1E
100
AcDbEntity
  8
UMCL1
  6
Continuous
100
AcDbCircle
 10
447.8392476689059
 20
682.0722934836542
 30
0.0
 40
5.0
  0
CIRCLE
  5
7230
330
1E
100
AcDbEntity
  8
UMCL1
  6
Continuous
100
AcDbCircle
 10
447.8392476689059
 20
682.0722934836542
 30
0.0
 40
4.53810623556582
  0
POLYLINE
  5
7231
330
1E
100
AcDbEntity
  8
UMCL1
  6
Continuous
100
AcDb2dPolyline
 66
     1
 10
0.0
 20
0.0
 30
0.0
 70
     1
  0
VERTEX
  5
7232
330
7231
100
AcDbEntity
  8
UMCL1
  6
Continuous
100
AcDbVertex
100
AcDb2dVertex
 10
446.3958719959318
 20
684.5722934836542
 30
0.0
  0
VERTEX
  5
7233
330
7231
100
AcDbEntity
  8
UMCL1
  6
Continuous
100
AcDbVertex
100
AcDb2dVertex
 10
444.9524963229578
 20
682.0722934836542
 30
0.0
  0
VERTEX
  5
7234
330
7231
100
AcDbEntity
  8
UMCL1
  6
Continuous
100
AcDbVertex
100
AcDb2dVertex
 10
446.3958719959318
 20
679.5722934836541
 30
0.0
  0
VERTEX
  5
7235
330
7231
100
AcDbEntity
  8
UMCL1
  6
Continuous
100
AcDbVertex
100
AcDb2dVertex
 10
449.28262334188
 20
679.5722934836541
 30
0.0
  0
VERTEX
  5
7236
330
7231
100
AcDbEntity
  8
UMCL1
  6
Continuous
100
AcDbVertex
100
AcDb2dVertex
 10
450.7259990148541
 20
682.0722934836542
 30
0.0
  0
VERTEX
  5
7237
330
7231
100
AcDbEntity
  8
UMCL1
  6
Continuous
100
AcDbVertex
100
AcDb2dVertex
 10
449.28262334188
 20
684.5722934836542
 30
0.0
  0
SEQEND
  5
7238
330
7231
100
AcDbEntity
  8
UMCL1
  6
Continuous
  0
CIRCLE
  5
7239
330
1E
100
AcDbEntity
  8
UMCL1
  6
Continuous
100
AcDbCircle
 10
447.8392476689059
 20
623.5722934836542
 30
0.0
 40
5.0
  0
CIRCLE
  5
723A
330
1E
100
AcDbEntity
  8
UMCL1
  6
Continuous
100
AcDbCircle
 10
447.8392476689059
 20
623.5722934836542
 30
0.0
 40
4.53810623556582
  0
POLYLINE
  5
723B
330
1E
100
AcDbEntity
  8
UMCL1
  6
Continuous
100
AcDb2dPolyline
 66
     1
 10
0.0
 20
0.0
 30
0.0
 70
     1
  0
VERTEX
  5
723C
330
723B
100
AcDbEntity
  8
UMCL1
  6
Continuous
100
AcDbVertex
100
AcDb2dVertex
 10
446.3958719959318
 20
626.0722934836542
 30
0.0
  0
VERTEX
  5
723D
330
723B
100
AcDbEntity
  8
UMCL1
  6
Continuous
100
AcDbVertex
100
AcDb2dVertex
 10
444.9524963229578
 20
623.5722934836542
 30
0.0
  0
VERTEX
  5
723E
330
723B
100
AcDbEntity
  8
UMCL1
  6
Continuous
100
AcDbVertex
100
AcDb2dVertex
 10
446.3958719959318
 20
621.0722934836542
 30
0.0
  0
VERTEX
  5
723F
330
723B
100
AcDbEntity
  8
UMCL1
  6
Continuous
100
AcDbVertex
100
AcDb2dVertex
 10
449.28262334188
 20
621.0722934836542
 30
0.0
  0
VERTEX
  5
7240
330
723B
100
AcDbEntity
  8
UMCL1
  6
Continuous
100
AcDbVertex
100
AcDb2dVertex
 10
450.7259990148541
 20
623.5722934836542
 30
0.0
  0
VERTEX
  5
7241
330
723B
100
AcDbEntity
  8
UMCL1
  6
Continuous
100
AcDbVertex
100
AcDb2dVertex
 10
449.28262334188
 20
626.0722934836542
 30
0.0
  0
SEQEND
  5
7242
330
723B
100
AcDbEntity
  8
UMCL1
  6
Continuous
  0
CIRCLE
  5
7243
330
1E
100
AcDbEntity
  8
UMCL1
  6
Continuous
100
AcDbCircle
 10
177.8392476689059
 20
682.0722934836542
 30
0.0
 40
5.0
  0
CIRCLE
  5
7244
330
1E
100
AcDbEntity
  8
UMCL1
  6
Continuous
100
AcDbCircle
 10
177.8392476689059
 20
682.0722934836542
 30
0.0
 40
4.53810623556582
  0
POLYLINE
  5
7245
330
1E
100
AcDbEntity
  8
UMCL1
  6
Continuous
100
AcDb2dPolyline
 66
     1
 10
0.0
 20
0.0
 30
0.0
 70
     1
  0
VERTEX
  5
7246
330
7245
100
AcDbEntity
  8
UMCL1
  6
Continuous
100
AcDbVertex
100
AcDb2dVertex
 10
176.3958719959319
 20
684.5722934836542
 30
0.0
  0
VERTEX
  5
7247
330
7245
100
AcDbEntity
  8
UMCL1
  6
Continuous
100
AcDbVertex
100
AcDb2dVertex
 10
174.9524963229578
 20
682.0722934836542
 30
0.0
  0
VERTEX
  5
7248
330
7245
100
AcDbEntity
  8
UMCL1
  6
Continuous
100
AcDbVertex
100
AcDb2dVertex
 10
176.3958719959319
 20
679.5722934836541
 30
0.0
  0
VERTEX
  5
7249
330
7245
100
AcDbEntity
  8
UMCL1
  6
Continuous
100
AcDbVertex
100
AcDb2dVertex
 10
179.28262334188
 20
679.5722934836541
 30
0.0
  0
VERTEX
  5
724A
330
7245
100
AcDbEntity
  8
UMCL1
  6
Continuous
100
AcDbVertex
100
AcDb2dVertex
 10
180.7259990148541
 20
682.0722934836542
 30
0.0
  0
VERTEX
  5
724B
330
7245
100
AcDbEntity
  8
UMCL1
  6
Continuous
100
AcDbVertex
100
AcDb2dVertex
 10
179.28262334188
 20
684.5722934836542
 30
0.0
  0
SEQEND
  5
724C
330
7245
100
AcDbEntity
  8
UMCL1
  6
Continuous
  0
CIRCLE
  5
724D
330
1E
100
AcDbEntity
  8
UMCL1
  6
Continuous
100
AcDbCircle
 10
177.8392476689059
 20
623.5722934836542
 30
0.0
 40
5.0
  0
CIRCLE
  5
724E
330
1E
100
AcDbEntity
  8
UMCL1
  6
Continuous
100
AcDbCircle
 10
177.8392476689059
 20
623.5722934836542
 30
0.0
 40
4.53810623556582
  0
POLYLINE
  5
724F
330
1E
100
AcDbEntity
  8
UMCL1
  6
Continuous
100
AcDb2dPolyline
 66
     1
 10
0.0
 20
0.0
 30
0.0
 70
     1
  0
VERTEX
  5
7250
330
724F
100
AcDbEntity
  8
UMCL1
  6
Continuous
100
AcDbVertex
100
AcDb2dVertex
 10
176.3958719959319
 20
626.0722934836542
 30
0.0
  0
VERTEX
  5
7251
330
724F
100
AcDbEntity
  8
UMCL1
  6
Continuous
100
AcDbVertex
100
AcDb2dVertex
 10
174.9524963229578
 20
623.5722934836542
 30
0.0
  0
VERTEX
  5
7252
330
724F
100
AcDbEntity
  8
UMCL1
  6
Continuous
100
AcDbVertex
100
AcDb2dVertex
 10
176.3958719959319
 20
621.0722934836542
 30
0.0
  0
VERTEX
  5
7253
330
724F
100
AcDbEntity
  8
UMCL1
  6
Continuous
100
AcDbVertex
100
AcDb2dVertex
 10
179.28262334188
 20
621.0722934836542
 30
0.0
  0
VERTEX
  5
7254
330
724F
100
AcDbEntity
  8
UMCL1
  6
Continuous
100
AcDbVertex
100
AcDb2dVertex
 10
180.7259990148541
 20
623.5722934836542
 30
0.0
  0
VERTEX
  5
7255
330
724F
100
AcDbEntity
  8
UMCL1
  6
Continuous
100
AcDbVertex
100
AcDb2dVertex
 10
179.28262334188
 20
626.0722934836542
 30
0.0
  0
SEQEND
  5
7256
330
724F
100
AcDbEntity
  8
UMCL1
  6
Continuous
  0
CIRCLE
  5
7257
330
1E
100
AcDbEntity
  8
UMCL1
  6
Continuous
100
AcDbCircle
 10
760.0756863433532
 20
361.5131836690011
 30
0.0
 40
6.5
  0
CIRCLE
  5
7258
330
1E
100
AcDbEntity
  8
UMCL1
  6
Continuous
100
AcDbCircle
 10
760.0756863433532
 20
361.5131836690011
 30
0.0
 40
5.922632794457276
  0
POLYLINE
  5
7259
330
1E
100
AcDbEntity
  8
UMCL1
  6
Continuous
100
AcDb2dPolyline
 66
     1
 10
0.0
 20
0.0
 30
0.0
 70
     1
  0
VERTEX
  5
725A
330
7259
100
AcDbEntity
  8
UMCL1
  6
Continuous
100
AcDbVertex
100
AcDb2dVertex
 10
758.3436355357851
 20
364.5131836690012
 30
0.0
  0
VERTEX
  5
725B
330
7259
100
AcDbEntity
  8
UMCL1
  6
Continuous
100
AcDbVertex
100
AcDb2dVertex
 10
756.6115847282151
 20
361.5131836690011
 30
0.0
  0
VERTEX
  5
725C
330
7259
100
AcDbEntity
  8
UMCL1
  6
Continuous
100
AcDbVertex
100
AcDb2dVertex
 10
758.3436355357851
 20
358.5131836690012
 30
0.0
  0
VERTEX
  5
725D
330
7259
100
AcDbEntity
  8
UMCL1
  6
Continuous
100
AcDbVertex
100
AcDb2dVertex
 10
761.8077371509214
 20
358.5131836690012
 30
0.0
  0
VERTEX
  5
725E
330
7259
100
AcDbEntity
  8
UMCL1
  6
Continuous
100
AcDbVertex
100
AcDb2dVertex
 10
763.5397879584914
 20
361.5131836690011
 30
0.0
  0
VERTEX
  5
725F
330
7259
100
AcDbEntity
  8
UMCL1
  6
Continuous
100
AcDbVertex
100
AcDb2dVertex
 10
761.8077371509214
 20
364.5131836690012
 30
0.0
  0
SEQEND
  5
7260
330
7259
100
AcDbEntity
  8
UMCL1
  6
Continuous
  0
CIRCLE
  5
7261
330
1E
100
AcDbEntity
  8
UMCL1
  6
Continuous
100
AcDbCircle
 10
810.0756863433533
 20
361.5131836690011
 30
0.0
 40
6.5
  0
CIRCLE
  5
7262
330
1E
100
AcDbEntity
  8
UMCL1
  6
Continuous
100
AcDbCircle
 10
810.0756863433533
 20
361.5131836690011
 30
0.0
 40
5.922632794457276
  0
POLYLINE
  5
7263
330
1E
100
AcDbEntity
  8
UMCL1
  6
Continuous
100
AcDb2dPolyline
 66
     1
 10
0.0
 20
0.0
 30
0.0
 70
     1
  0
VERTEX
  5
7264
330
7263
100
AcDbEntity
  8
UMCL1
  6
Continuous
100
AcDbVertex
100
AcDb2dVertex
 10
808.343635535785
 20
364.5131836690012
 30
0.0
  0
VERTEX
  5
7265
330
7263
100
AcDbEntity
  8
UMCL1
  6
Continuous
100
AcDbVertex
100
AcDb2dVertex
 10
806.6115847282151
 20
361.5131836690011
 30
0.0
  0
VERTEX
  5
7266
330
7263
100
AcDbEntity
  8
UMCL1
  6
Continuous
100
AcDbVertex
100
AcDb2dVertex
 10
808.343635535785
 20
358.5131836690012
 30
0.0
  0
VERTEX
  5
7267
330
7263
100
AcDbEntity
  8
UMCL1
  6
Continuous
100
AcDbVertex
100
AcDb2dVertex
 10
811.8077371509214
 20
358.5131836690012
 30
0.0
  0
VERTEX
  5
7268
330
7263
100
AcDbEntity
  8
UMCL1
  6
Continuous
100
AcDbVertex
100
AcDb2dVertex
 10
813.5397879584914
 20
361.5131836690011
 30
0.0
  0
VERTEX
  5
7269
330
7263
100
AcDbEntity
  8
UMCL1
  6
Continuous
100
AcDbVertex
100
AcDb2dVertex
 10
811.8077371509214
 20
364.5131836690012
 30
0.0
  0
SEQEND
  5
726A
330
7263
100
AcDbEntity
  8
UMCL1
  6
Continuous
  0
ENDSEC
  0
SECTION
  2
OBJECTS
  0
DICTIONARY
  5
C
330
0
100
AcDbDictionary
281
     1
  3
ACAD_COLOR
350
628F
  3
ACAD_GROUP
350
D
  3
ACAD_IMAGE_DICT
350
3CB
  3
ACAD_LAYOUT
350
19
  3
ACAD_MATERIAL
350
628E
  3
ACAD_MLINESTYLE
350
16
  3
ACAD_PLOTSETTINGS
350
18
  3
ACAD_PLOTSTYLENAME
350
B31
  3
ACAD_TABLESTYLE
350
6290
  3
ACDBHEADERROUNDTRIPXREC
350
7324
  3
AcDbVariableDictionary
350
BD2
  3
ACMDICTIONARY
350
7C2
  3
AMG
350
7A8
  3
AMGSNAPSETTINGS
350
895
  3
DWGPROPS
350
7323
1001
ACAD
1000
TREAT_AS_HARD
1070
     0
  0
DICTIONARY
  5
6C50
330
2
100
AcDbDictionary
280
     1
281
     1
  3
ACAD_LAYERFILTERS
360
6C54
  3
ACLYDICTIONARY
360
6C53
  0
DICTIONARY
  5
708
330
1E
100
AcDbDictionary
280
     1
281
     1
  3
ACAD_LAYOUTSELFREF
360
4E3B
1001
ACAD
1000
TREAT_AS_HARD
1070
     1
  0
DICTIONARY
  5
70A
330
1A
100
AcDbDictionary
280
     1
281
     1
  3
ACAD_LAYOUTSELFREF
360
4E3A
1001
ACAD
1000
TREAT_AS_HARD
1070
     1
  0
DICTIONARY
  5
628F
102
{ACAD_REACTORS
330
C
102
}
330
C
100
AcDbDictionary
281
     1
  0
DICTIONARY
  5
D
102
{ACAD_REACTORS
330
C
102
}
330
C
100
AcDbDictionary
281
     1
1001
ACAD
1000
TREAT_AS_HARD
1070
     0
  0
DICTIONARY
  5
3CB
102
{ACAD_REACTORS
330
C
102
}
330
C
100
AcDbDictionary
281
     1
  3
PLOT
350
3CC
1001
ACAD
1000
TREAT_AS_HARD
1070
     0
  0
DICTIONARY
  5
19
102
{ACAD_REACTORS
330
C
102
}
330
C
100
AcDbDictionary
281
     1
  3
Layout1
350
B34
  3
Model
350
B33
1001
ACAD
1000
TREAT_AS_HARD
1070
     0
  0
DICTIONARY
  5
628E
102
{ACAD_REACTORS
330
C
102
}
330
C
100
AcDbDictionary
281
     1
  0
DICTIONARY
  5
16
102
{ACAD_REACTORS
330
C
102
}
330
C
100
AcDbDictionary
281
     1
  3
STANDARD
350
17
1001
ACAD
1000
TREAT_AS_HARD
1070
     0
  0
DICTIONARY
  5
18
102
{ACAD_REACTORS
330
C
102
}
330
C
100
AcDbDictionary
281
     1
1001
ACAD
1000
TREAT_AS_HARD
1070
     0
  0
ACDBDICTIONARYWDFLT
  5
B31
102
{ACAD_REACTORS
330
C
102
}
330
C
100
AcDbDictionary
281
     1
  3
Normal
350
B32
100
AcDbDictionaryWithDefault
340
B32
  0
DICTIONARY
  5
6290
102
{ACAD_REACTORS
330
C
102
}
330
C
100
AcDbDictionary
281
     1
  3
Standard
350
6291
  0
DICTIONARY
  5
7324
102
{ACAD_REACTORS
330
C
102
}
330
C
100
AcDbDictionary
281
     1
  0
DICTIONARY
  5
BD2
102
{ACAD_REACTORS
330
C
102
}
330
C
100
AcDbDictionary
281
     1
  3
CTABLESTYLE
350
6C72
  3
DIMASSOC
350
BD4
  3
INDEXCTL
350
BD3
  3
PROJECTNAME
350
6C73
  0
DICTIONARY
  5
7C2
102
{ACAD_REACTORS
330
C
102
}
330
C
100
AcDbDictionary
281
     1
  3
ACMSTDDICTIONARY
350
7C8
  3
AMDTSECTSYM_ARROWCOLOR
350
629C
1001
ACAD
1000
TREAT_AS_HARD
1070
     0
  0
DICTIONARY
  5
7A8
102
{ACAD_REACTORS
330
C
102
}
330
C
100
AcDbDictionary
281
     1
1001
ACAD
1000
TREAT_AS_HARD
1070
     0
  0
DICTIONARY
  5
895
102
{ACAD_REACTORS
330
C
102
}
330
C
100
AcDbDictionary
281
     1
1001
ACAD
1000
TREAT_AS_HARD
1070
     0
  0
XRECORD
  5
7323
102
{ACAD_REACTORS
330
C
102
}
330
C
100
AcDbXrecord
280
     1
  1
DWGPROPS COOKIE
  2

  3

  4

  6

  7

  8

  9

300
AmdtFileType=84
301
=
302
=
303
=
304
=
305
=
306
=
307
=
308
=
309
=
 40
0.4491392476851852
 41
2450294.602131481
 42
2453388.428482778
  1

 90
        1
  0
DICTIONARY
  5
6C54
102
{ACAD_REACTORS
330
6C50
102
}
330
6C50
100
AcDbDictionary
281
     1
  0
DICTIONARY
  5
6C53
102
{ACAD_REACTORS
330
6C50
102
}
330
6C50
100
AcDbDictionary
281
     1
1001
ACAD
1000
<All
  0
XRECORD
  5
4E3B
102
{ACAD_REACTORS
330
708
102
}
330
708
100
AcDbXrecord
280
     1
340
1E
  0
XRECORD
  5
4E3A
102
{ACAD_REACTORS
330
70A
102
}
330
70A
100
AcDbXrecord
280
     1
340
1A
  0
IMAGEDEF
  5
3CC
102
{ACAD_REACTORS
330
3CB
102
}
330
3CB
100
AcDbRasterImageDef
 90
        0
  1
D:\CHI\plot.bmp
 10
694.0
 20
470.0
 11
0.264550269889837
 21
0.264550269889837
280
     1
281
     2
  0
LAYOUT
  5
B34
102
{ACAD_XDICTIONARY
360
7327
102
}
102
{ACAD_REACTORS
330
19
102
}
330
19
100
AcDbPlotSettings
  1

  2
自動 PC-WM51 上的 Epson LQ-1070C+
  4

  6

 40
0.0
 41
0.0
 42
0.0
 43
0.0
 44
0.0
 45
0.0
 46
0.0
 47
0.0
 48
0.0
 49
0.0
140
0.0
141
0.0
142
1.0
143
1.0
 70
   688
 72
     0
 73
     0
 74
     5
  7
彩色出圖.ctb
 75
    16
147
1.0
148
0.0
149
0.0
100
AcDbLayout
  1
Layout1
 70
     0
 71
     1
 10
0.0
 20
0.0
 11
12.0
 21
9.0
 12
101.9887994410416
 22
50.0
 32
155.412184630939
 14
1.000000000000000E+20
 24
1.000000000000000E+20
 34
1.000000000000000E+20
 15
-1.000000000000000E+20
 25
-1.000000000000000E+20
 35
-1.000000000000000E+20
146
0.0
 13
0.0
 23
0.0
 33
0.0
 16
1.0
 26
0.0
 36
0.0
 17
0.0
 27
1.0
 37
0.0
 76
     0
330
1A
  0
LAYOUT
  5
B33
102
{ACAD_XDICTIONARY
360
7325
102
}
102
{ACAD_REACTORS
330
19
102
}
330
19
100
AcDbPlotSettings
  1

  2
DWF eView (optimized for viewing).pc3
  4
ISO_A4_(297.00_x_210.00_MM)
  6

 40
5.793749809265136
 41
17.79375076293945
 42
5.79376220703125
 43
17.79374694824219
 44
297.0
 45
210.0
 46
29.85
 47
0.0
 48
0.0
 49
0.0
140
0.0
141
0.0
142
1.0
143
0.6382186722569885
 70
 11956
 72
     1
 73
     0
 74
     1
  7
彩色出圖.ctb
 75
     0
147
1.566861082994661
148
-200.235718928552
149
46.05760240554945
100
AcDbLayout
  1
Model
 70
     1
 71
     0
 10
0.0
 20
0.0
 11
12.0
 21
9.0
 12
0.0
 22
0.0
 32
0.0
 14
0.0
 24
0.0
 34
0.0
 15
0.0
 25
0.0
 35
0.0
146
0.0
 13
0.0
 23
0.0
 33
0.0
 16
1.0
 26
0.0
 36
0.0
 17
0.0
 27
1.0
 37
0.0
 76
     0
330
1E
  0
MLINESTYLE
  5
17
102
{ACAD_REACTORS
330
16
102
}
330
16
100
AcDbMlineStyle
  2
STANDARD
 70
     0
  3

 62
   256
 51
90.0
 52
90.0
 71
     2
 49
0.5
 62
   256
  6
BYLAYER
 49
-0.5
 62
   256
  6
BYLAYER
  0
ACDBPLACEHOLDER
  5
B32
102
{ACAD_REACTORS
330
B31
102
}
330
B31
  0
TABLESTYLE
  5
6291
102
{ACAD_REACTORS
330
6290
102
}
330
6290
100
AcDbTableStyle
  3
Standard
 70
     0
 71
     0
 40
1.5
 41
1.5
280
     0
281
     0
  7
STANDARD
140
4.5
170
     2
 62
     0
 63
     7
283
     0
274
    -2
284
     1
 64
     0
275
    -2
285
     1
 65
     0
276
    -2
286
     1
 66
     0
277
    -2
287
     1
 67
     0
278
    -2
288
     1
 68
     0
279
    -2
289
     1
 69
     0
  7
STANDARD
140
6.0
170
     5
 62
     0
 63
     7
283
     0
274
    -2
284
     1
 64
     0
275
    -2
285
     1
 65
     0
276
    -2
286
     1
 66
     0
277
    -2
287
     1
 67
     0
278
    -2
288
     1
 68
     0
279
    -2
289
     1
 69
     0
  7
STANDARD
140
4.5
170
     5
 62
     0
 63
     7
283
     0
274
    -2
284
     1
 64
     0
275
    -2
285
     1
 65
     0
276
    -2
286
     1
 66
     0
277
    -2
287
     1
 67
     0
278
    -2
288
     1
 68
     0
279
    -2
289
     1
 69
     0
  0
DICTIONARYVAR
  5
6C72
102
{ACAD_REACTORS
330
BD2
102
}
330
BD2
100
DictionaryVariables
280
     0
  1
STANDARD
  0
DICTIONARYVAR
  5
BD4
102
{ACAD_REACTORS
330
BD2
102
}
330
BD2
100
DictionaryVariables
280
     0
  1
1
  0
DICTIONARYVAR
  5
BD3
102
{ACAD_REACTORS
330
BD2
102
}
330
BD2
100
DictionaryVariables
280
     0
  1
0
  0
DICTIONARYVAR
  5
6C73
102
{ACAD_REACTORS
330
BD2
102
}
330
BD2
100
DictionaryVariables
280
     0
  1

  0
DICTIONARY
  5
7C8
102
{ACAD_REACTORS
330
7C2
102
}
330
7C2
100
AcDbDictionary
281
     1
1001
ACAD
1000
TREAT_AS_HARD
1070
     0
  0
XRECORD
  5
629C
102
{ACAD_REACTORS
330
7C2
102
}
330
7C2
100
AcDbXrecord
280
     1
 90
-1023410169
  0
DICTIONARY
  5
7327
330
B34
100
AcDbDictionary
280
     1
281
     1
  3
ACAD_XREC_ROUNDTRIP
360
7328
  0
DICTIONARY
  5
7325
330
B33
100
AcDbDictionary
280
     1
281
     1
  3
ACAD_XREC_ROUNDTRIP
360
7326
  0
XRECORD
  5
7328
102
{ACAD_REACTORS
330
7327
102
}
330
7327
100
AcDbXrecord
280
     1
102
SHADEPLOT
 70
     0
102
SHADEPLOTRESLEVEL
 70
     2
102
SHADEPLOTCUSTOMDPI
 70
   300
  0
XRECORD
  5
7326
102
{ACAD_REACTORS
330
7325
102
}
330
7325
100
AcDbXrecord
280
     1
102
SHADEPLOT
 70
     0
102
SHADEPLOTRESLEVEL
 70
     2
102
SHADEPLOTCUSTOMDPI
 70
   300
  0
ENDSEC
  0
EOF
