  0
SECTION
  2
HEADER
  9
$ACADVER
  1
AC1009
  9
$INSBASE
 10
0.0
 20
0.0
 30
0.0
  9
$EXTMIN
 10
1076.49352933514
 20
756.46017935424561
 30
-0.0127928292711204
  9
$EXTMAX
 10
1545.7185717818361
 20
1048.735792782508
 30
209.62010486478471
  9
$LIMMIN
 10
0.0
 20
0.0
  9
$LIMMAX
 10
420.0
 20
297.0
  9
$ORTHOMODE
 70
     0
  9
$REGENMODE
 70
     1
  9
$FILLMODE
 70
     1
  9
$QTEXTMODE
 70
     0
  9
$MIRRTEXT
 70
     1
  9
$DRAGMODE
 70
     2
  9
$LTSCALE
 40
1.0
  9
$OSMODE
 70
    37
  9
$ATTMODE
 70
     1
  9
$TEXTSIZE
 40
1.0
  9
$TRACEWID
 40
1.0
  9
$TEXTSTYLE
  7
STANDARD
  9
$CLAYER
  8
0
  9
$CELTYPE
  6
BYLAYER
  9
$CECOLOR
 62
   256
  9
$DIMSCALE
 40
1.0
  9
$DIMASZ
 40
2.5
  9
$DIMEXO
 40
1.0
  9
$DIMDLI
 40
10.0
  9
$DIMRND
 40
0.0
  9
$DIMDLE
 40
0.0
  9
$DIMEXE
 40
1.0
  9
$DIMTP
 40
0.1
  9
$DIMTM
 40
0.1
  9
$DIMTXT
 40
3.5
  9
$DIMCEN
 40
0.0
  9
$DIMTSZ
 40
0.0
  9
$DIMTOL
 70
     0
  9
$DIMLIM
 70
     0
  9
$DIMTIH
 70
     0
  9
$DIMTOH
 70
     0
  9
$DIMSE1
 70
     0
  9
$DIMSE2
 70
     0
  9
$DIMTAD
 70
     1
  9
$DIMZIN
 70
     8
  9
$DIMBLK
  1

  9
$DIMASO
 70
     1
  9
$DIMSHO
 70
     1
  9
$DIMPOST
  1

  9
$DIMAPOST
  1
"
  9
$DIMALT
 70
     0
  9
$DIMALTD
 70
     2
  9
$DIMALTF
 40
0.0393701
  9
$DIMLFAC
 40
1.0
  9
$DIMTOFL
 70
     1
  9
$DIMTVP
 40
0.0
  9
$DIMTIX
 70
     0
  9
$DIMSOXD
 70
     0
  9
$DIMSAH
 70
     0
  9
$DIMBLK1
  1

  9
$DIMBLK2
  1

  9
$DIMSTYLE
  2
AM_ISO
  9
$DIMCLRD
 70
   256
  9
$DIMCLRE
 70
   256
  9
$DIMCLRT
 70
     2
  9
$DIMTFAC
 40
0.71
  9
$DIMGAP
 40
1.5
  9
$LUNITS
 70
     2
  9
$LUPREC
 70
     2
  9
$SKETCHINC
 40
1.0
  9
$FILLETRAD
 40
2.5
  9
$AUNITS
 70
     0
  9
$AUPREC
 70
     0
  9
$MENU
  1
.
  9
$ELEVATION
 40
0.0
  9
$PELEVATION
 40
0.0
  9
$THICKNESS
 40
0.0
  9
$LIMCHECK
 70
     0
  9
$BLIPMODE
 70
     0
  9
$CHAMFERA
 40
2.5
  9
$CHAMFERB
 40
2.5
  9
$SKPOLY
 70
     0
  9
$TDCREATE
 40
2454929.4468324999
  9
$TDUPDATE
 40
2454937.4772927309
  9
$TDINDWG
 40
0.0035275463
  9
$TDUSRTIMER
 40
0.0029007292
  9
$USRTIMER
 70
     1
  9
$ANGBASE
 50
0.0
  9
$ANGDIR
 70
     0
  9
$PDMODE
 70
     0
  9
$PDSIZE
 40
0.0
  9
$PLINEWID
 40
0.0
  9
$COORDS
 70
     1
  9
$SPLFRAME
 70
     0
  9
$SPLINETYPE
 70
     6
  9
$SPLINESEGS
 70
     8
  9
$ATTDIA
 70
     1
  9
$ATTREQ
 70
     1
  9
$HANDLING
 70
     1
  9
$HANDSEED
  5
AF1
  9
$SURFTAB1
 70
     6
  9
$SURFTAB2
 70
     6
  9
$SURFTYPE
 70
     6
  9
$SURFU
 70
     6
  9
$SURFV
 70
     6
  9
$UCSNAME
  2

  9
$UCSORG
 10
0.0
 20
0.0
 30
0.0
  9
$UCSXDIR
 10
1.0
 20
0.0
 30
0.0
  9
$UCSYDIR
 10
0.0
 20
1.0
 30
0.0
  9
$PUCSNAME
  2

  9
$PUCSORG
 10
0.0
 20
0.0
 30
0.0
  9
$PUCSXDIR
 10
1.0
 20
0.0
 30
0.0
  9
$PUCSYDIR
 10
0.0
 20
1.0
 30
0.0
  9
$USERI1
 70
     0
  9
$USERI2
 70
     0
  9
$USERI3
 70
     0
  9
$USERI4
 70
     0
  9
$USERI5
 70
     0
  9
$USERR1
 40
0.0
  9
$USERR2
 40
0.0
  9
$USERR3
 40
0.0
  9
$USERR4
 40
0.0
  9
$USERR5
 40
0.0
  9
$WORLDVIEW
 70
     1
  9
$SHADEDGE
 70
     3
  9
$SHADEDIF
 70
    70
  9
$TILEMODE
 70
     1
  9
$MAXACTVP
 70
    64
  9
$PLIMCHECK
 70
     0
  9
$PEXTMIN
 10
1.0000000000000000E+020
 20
1.0000000000000000E+020
 30
1.0000000000000000E+020
  9
$PEXTMAX
 10
-1.0000000000000000E+020
 20
-1.0000000000000000E+020
 30
-1.0000000000000000E+020
  9
$PLIMMIN
 10
0.0
 20
0.0
  9
$PLIMMAX
 10
420.0
 20
297.0
  9
$UNITMODE
 70
     0
  9
$VISRETAIN
 70
     1
  9
$PLINEGEN
 70
     0
  9
$PSLTSCALE
 70
     1
  0
ENDSEC
  0
SECTION
  2
TABLES
  0
TABLE
  2
VPORT
 70
     4
  0
VPORT
  2
*ACTIVE
 70
     0
 10
0.0
 20
0.0
 11
1.0
 21
1.0
 12
1311.1060505584881
 22
902.59798606837671
 13
0.0
 23
0.0
 14
2.5
 24
2.5
 15
10.0
 25
10.0
 16
0.0
 26
0.0
 36
1.0
 17
0.0
 27
0.0
 37
0.0
 40
518.96737049511637
 41
0.911957950065703
 42
50.0
 43
0.0
 44
0.0
 50
0.0
 51
0.0
 71
     0
 72
   100
 73
     1
 74
     3
 75
     0
 76
     0
 77
     0
 78
     0
  0
ENDTAB
  0
TABLE
  2
LTYPE
 70
    19
  0
LTYPE
  2
CONTINUOUS
 70
     0
  3
Solid line
 72
    65
 73
     0
 40
0.0
  0
LTYPE
  2
AM_ISO02W050
 70
     0
  3
__ __ __ __ __ __ __ __ __ __ __ __ __ __ __
 72
    65
 73
     2
 40
7.5
 49
6.0
 49
-1.5
  0
LTYPE
  2
AM_ISO08W050
 70
     0
  3
____ . ____ . ____ . ____ . ____ . ____ . ____
 72
    65
 73
     4
 40
18.0
 49
12.0
 49
-1.5
 49
3.0
 49
-1.5
  0
LTYPE
  2
AM_ISO09W050
 70
     0
  3
_____ . . _____ . . _____ . . ____ .. ____
 72
    65
 73
     6
 40
22.5
 49
12.0
 49
-1.5
 49
3.0
 49
-1.5
 49
3.0
 49
-1.5
  0
LTYPE
  2
AMCONSTR
 70
     0
  3
_______________________
 72
    65
 73
     2
 40
9999.0
 49
9999.0
 49
0.0
  0
LTYPE
  2
AM_ISO08W050X2
 70
     0
  3
__ . __ . __ . __ . __ . __
 72
    65
 73
     4
 40
9.0
 49
6.0
 49
-0.75
 49
1.5
 49
-0.75
  0
LTYPE
  2
AM_ISO02W050X2
 70
     0
  3
 _ _ _ _ _ _ _ _ _ _ _ _
 72
    65
 73
     2
 40
3.75
 49
3.0
 49
-0.75
  0
LTYPE
  2
AMZIGZAG
 70
     0
  3
/\/-/\/-/\/-/\/-/\/-/\/
 72
    65
 73
     2
 40
11.0001
 49
0.0001
 49
-11.0
  0
LTYPE
  2
ACISOWELD
 70
     0
  3
_ _ _ _ _
 72
    65
 73
     2
 40
2.0
 49
2.0
 49
-1.0
  0
LTYPE
  2
ACISOTGB
 70
     0
  3
__ . . __ . .
 72
    65
 73
     6
 40
9.0
 49
4.0
 49
-1.0
 49
1.0
 49
-1.0
 49
1.0
 49
-1.0
  0
LTYPE
  2
ACISOTGL
 70
     0
  3
_ _ _ _ _
 72
    65
 73
     2
 40
3.0
 49
2.0
 49
-1.0
  0
LTYPE
  2
CENTER
 70
     0
  3
__ . __
 72
    65
 73
     4
 40
7.0
 49
4.0
 49
-1.0
 49
1.0
 49
-1.0
  0
LTYPE
  2
HIDDEN
 70
     0
  3
Hidden __ __ __ __ __ __ __ __ __ __ __ __ __ _
 72
    65
 73
     2
 40
9.5249999999999986
 49
6.3499999999999988
 49
-3.1749999999999989
  0
LTYPE
  2
PHANTOM2
 70
     0
  3
Phantom (.5x) ___ _ _ ___ _ _ ___ _ _ ___ _ _
 72
    65
 73
     6
 40
31.75
 49
15.875
 49
-3.1749999999999989
 49
3.1749999999999989
 49
-3.1749999999999989
 49
3.1749999999999989
 49
-3.1749999999999989
  0
ENDTAB
  0
TABLE
  2
LAYER
 70
     5
  0
LAYER
  2
0
 70
     0
 62
     7
  6
CONTINUOUS
  0
LAYER
  2
UMCL1
 70
     0
 62
     7
  6
CONTINUOUS
  0
LAYER
  2
UMCL2
 70
     0
 62
     5
  6
CONTINUOUS
  0
LAYER
  2
LOGO
 70
     0
 62
     7
  6
CONTINUOUS
  0
ENDTAB
  0
TABLE
  2
STYLE
 70
    12
  0
STYLE
  2
STANDARD
 70
     0
 40
0.0
 41
1.0
 50
0.0
 71
     0
 42
1.0
  3
ISOCP.SHX
  4
CHINESET.SHX
  0
STYLE
  2

 70
     1
 40
0.0
 41
1.0
 50
0.0
 71
     0
 42
2.5
  3
ltypeshp.shx
  4

  0
STYLE
  2
ACISOTS
 70
     0
 40
1.0
 41
1.0
 50
0.0
 71
     0
 42
1.0
  3
isocp.shx
  4
chineset.shx
  0
STYLE
  2
ACISOGDT
 70
     0
 40
0.0
 41
1.0
 50
0.0
 71
     0
 42
2.5
  3
amgdt.shx
  4
chineset.shx
  0
STYLE
  2
ROMANS
 70
     0
 40
0.0
 41
1.0
 50
0.0
 71
     0
 42
3.0
  3
ROMANS.SHX
  4
LMP
  0
STYLE
  2
ROMANSS
 70
     0
 40
0.0
 41
1.0
 50
0.0
 71
     0
 42
3.0
  3
ROMANSS.SHX
  4
LMP
  0
STYLE
  2
CHINESET
 70
     0
 40
0.0
 41
1.0
 50
0.0
 71
     0
 42
5.0
  3
simplex.shx
  4
chineset.shx
  0
ENDTAB
  0
TABLE
  2
VIEW
 70
     0
  0
ENDTAB
  0
TABLE
  2
UCS
 70
     0
  0
ENDTAB
  0
TABLE
  2
APPID
 70
    15
  0
APPID
  2
ACAD
 70
     0
  0
APPID
  2
MCAD_NO_VIS
 70
     0
  0
APPID
  2
ACAD_TEMP_GRAPHIC
 70
     0
  0
APPID
  2
ACATTRIBSERVICES
 70
     0
  0
APPID
  2
AD_DRAW
 70
     0
  0
APPID
  2
DESIGNERASSEMBLIES
 70
     0
  0
APPID
  2
ACADM_DIM_EDIT
 70
     0
  0
APPID
  2
AMDT_DM_ADJ
 70
     0
  0
APPID
  2
GENIUS_GENODEF_13
 70
     0
  0
APPID
  2
GENIUS_GENREC_14
 70
     0
  0
APPID
  2
GENIUS_GENOBJ-N-REC_13
 70
     0
  0
APPID
  2
GENIUS_GENOLIS_13
 70
     0
  0
APPID
  2
GENIUS_GENOENT_13
 70
     0
  0
APPID
  2
GENIUS_GENOBJ-N-CRS_13
 70
     0
  0
APPID
  2
GENIUS_GENOREF_13
 70
     0
  0
ENDTAB
  0
TABLE
  2
DIMSTYLE
 70
    15
  0
DIMSTYLE
  2
AM_ISO
 70
     0
  3

  4
"
  5

  6

  7

 40
1.0
 41
2.5
 42
1.0
 43
10.0
 44
1.0
 45
0.0
 46
0.0
 47
0.1
 48
0.1
140
3.5
141
0.0
142
0.0
143
0.0393701
144
1.0
145
0.0
146
0.71
147
1.5
 71
     0
 72
     0
 73
     0
 74
     0
 75
     0
 76
     0
 77
     1
 78
     8
170
     0
171
     2
172
     1
173
     0
174
     0
175
     0
176
   256
177
   256
178
     2
  0
DIMSTYLE
  2
AM_ISO$3
 70
     0
  3

  4
"
  5

  6

  7

 40
1.0
 41
2.5
 42
1.0
 43
10.0
 44
1.0
 45
0.0
 46
0.0
 47
0.1
 48
0.1
140
3.5
141
0.0
142
0.0
143
0.0393701
144
1.0
145
0.0
146
0.71
147
1.5
 71
     0
 72
     0
 73
     0
 74
     1
 75
     0
 76
     0
 77
     1
 78
     8
170
     0
171
     2
172
     0
173
     0
174
     0
175
     0
176
   256
177
   256
178
     2
  0
DIMSTYLE
  2
AM_ISO$4
 70
     0
  3

  4
"
  5

  6

  7

 40
1.0
 41
2.5
 42
1.0
 43
10.0
 44
1.0
 45
0.0
 46
0.0
 47
0.1
 48
0.1
140
3.5
141
0.0
142
0.0
143
0.0393701
144
1.0
145
0.0
146
0.71
147
1.5
 71
     0
 72
     0
 73
     0
 74
     1
 75
     0
 76
     0
 77
     1
 78
     8
170
     0
171
     2
172
     0
173
     0
174
     0
175
     0
176
   256
177
   256
178
     2
  0
DIMSTYLE
  2
AM_ISO$6
 70
     0
  3

  4
"
  5

  6

  7

 40
1.0
 41
2.5
 42
1.0
 43
10.0
 44
1.0
 45
0.0
 46
0.0
 47
0.1
 48
0.1
140
3.5
141
0.0
142
0.0
143
0.0393701
144
1.0
145
0.0
146
0.71
147
1.5
 71
     0
 72
     0
 73
     0
 74
     0
 75
     0
 76
     0
 77
     0
 78
     8
170
     0
171
     2
172
     1
173
     0
174
     0
175
     0
176
   256
177
   256
178
     2
  0
DIMSTYLE
  2
AM_ISO$7
 70
     0
  3

  4
"
  5

  6

  7

 40
1.0
 41
2.5
 42
1.0
 43
10.0
 44
1.0
 45
0.0
 46
0.0
 47
0.1
 48
0.1
140
5.0
141
0.0
142
0.0
143
0.0393701
144
1.0
145
0.0
146
0.71
147
1.5
 71
     0
 72
     0
 73
     0
 74
     0
 75
     0
 76
     0
 77
     1
 78
     8
170
     0
171
     2
172
     1
173
     0
174
     0
175
     0
176
   256
177
   256
178
     2
  0
DIMSTYLE
  2
AM_ISO$SF
 70
     0
  3

  4
"
  5

  6

  7

 40
1.0
 41
2.5
 42
1.0
 43
10.0
 44
1.0
 45
0.0
 46
0.0
 47
0.1
 48
0.1
140
3.5
141
0.0
142
0.0
143
0.0393701
144
1.0
145
0.0
146
0.71
147
1.5
 71
     0
 72
     0
 73
     0
 74
     0
 75
     1
 76
     1
 77
     1
 78
     8
170
     0
171
     2
172
     1
173
     0
174
     0
175
     0
176
   256
177
   256
178
     2
  0
DIMSTYLE
  2
AM_ISO$SH
 70
     0
  3

  4
"
  5

  6
GENAXEH
  7

 40
1.0
 41
2.5
 42
1.0
 43
10.0
 44
1.0
 45
0.0
 46
0.0
 47
0.1
 48
0.1
140
3.5
141
0.0
142
0.0
143
0.0393701
144
2.0
145
0.0
146
0.71
147
1.5
 71
     0
 72
     0
 73
     0
 74
     0
 75
     1
 76
     1
 77
     1
 78
     8
170
     0
171
     2
172
     1
173
     1
174
     0
175
     0
176
   256
177
   256
178
     2
  0
DIMSTYLE
  2
STANDARD
 70
     0
  3

  4

  5

  6

  7

 40
1.0
 41
0.18
 42
0.0625
 43
0.38
 44
0.18
 45
0.0
 46
0.0
 47
0.0
 48
0.0
140
0.18
141
0.09
142
0.0
143
25.399999999999999
144
1.0
145
0.0
146
1.0
147
0.09
 71
     0
 72
     0
 73
     1
 74
     1
 75
     0
 76
     0
 77
     0
 78
     0
170
     0
171
     2
172
     0
173
     0
174
     0
175
     0
176
     0
177
     0
178
     0
  0
ENDTAB
  0
ENDSEC
  0
SECTION
  2
BLOCKS
  0
BLOCK
  8
0
  2
$MODEL_SPACE
 70
     0
 10
0.0
 20
0.0
 30
0.0
  3
$MODEL_SPACE
  1

  0
ENDBLK
  5
21
  8
0
  0
BLOCK
 67
     1
  8
0
  2
$PAPER_SPACE
 70
     0
 10
0.0
 20
0.0
 30
0.0
  3
$PAPER_SPACE
  1

  0
ENDBLK
  5
1D
 67
     1
  8
0
  0
BLOCK
  8
0
  2
GENAXEH
 70
     0
 10
0.0
 20
0.0
 30
0.0
  3
GENAXEH
  1

  0
LINE
  5
88
  8
0
 10
-1.0
 20
0.0
 30
0.0
 11
1.0
 21
0.0
 31
0.0
  0
ENDBLK
  5
8A
  8
0
  0
BLOCK
  8
0
  2
*U3
 70
     1
 10
0.0
 20
0.0
 30
0.0
  3
*U3
  1

  0
TEXT
  5
A28
  8
UMCL2
 10
1469.161576661998
 20
998.48233466980412
 30
0.0
 40
3.0
  1
11
 50
90.0
  0
ENDBLK
  5
A2A
  8
0
  0
BLOCK
  8
0
  2
*U4
 70
     1
 10
0.0
 20
0.0
 30
0.0
  3
*U4
  1

  0
TEXT
  5
A2C
  8
UMCL2
 10
1477.161576661998
 20
998.07494445130135
 30
0.0
 40
3.0
  1
19
 50
90.0
  0
ENDBLK
  5
A2E
  8
0
  0
BLOCK
  8
0
  2
*U5
 70
     1
 10
0.0
 20
0.0
 30
0.0
  3
*U5
  1

  0
TEXT
  5
A30
  8
UMCL2
 10
1485.161576661998
 20
997.58233466980414
 30
0.0
 40
3.0
  1
44
 50
90.0
  0
ENDBLK
  5
A32
  8
0
  0
BLOCK
  8
0
  2
*U6
 70
     1
 10
0.0
 20
0.0
 30
0.0
  3
*U6
  1

  0
TEXT
  5
A34
  8
UMCL2
 10
1493.1615766619991
 20
997.88233466980421
 30
0.0
 40
3.0
  1
57
 50
90.0
  0
ENDBLK
  5
A36
  8
0
  0
BLOCK
  8
0
  2
*U7
 70
     1
 10
0.0
 20
0.0
 30
0.0
  3
*U7
  1

  0
TEXT
  5
A38
  8
UMCL2
 10
1405.0095786305019
 20
963.75692556690933
 30
0.0
 40
3.0
  1
22
  0
ENDBLK
  5
A3A
  8
0
  0
BLOCK
  8
0
  2
*U8
 70
     1
 10
0.0
 20
0.0
 30
0.0
  3
*U8
  1

  0
TEXT
  5
A3C
  8
UMCL2
 10
1371.373894089817
 20
998.881834989916
 30
0.0
 40
3.0
  1
9
 50
90.0
  0
ENDBLK
  5
A3E
  8
0
  0
BLOCK
  8
0
  2
*U9
 70
     1
 10
0.0
 20
0.0
 30
0.0
  3
*U9
  1

  0
TEXT
  5
A40
  8
UMCL2
 10
1441.0996672131789
 20
937.63630667728137
 30
0.0
 40
3.0
  1
28
  0
ENDBLK
  5
A42
  8
0
  0
BLOCK
  8
0
  2
*U10
 70
     1
 10
0.0
 20
0.0
 30
0.0
  3
*U10
  1

  0
TEXT
  5
A44
  8
UMCL2
 10
1416.0095786305019
 20
937.63630667728137
 30
0.0
 40
3.0
  1
22
  0
ENDBLK
  5
A46
  8
0
  0
BLOCK
  8
0
  2
*U11
 70
     1
 10
0.0
 20
0.0
 30
0.0
  3
*U11
  1

  0
TEXT
  5
A48
  8
UMCL2
 10
1430.0603955596359
 20
945.63630667728137
 30
0.0
 40
3.0
  1
50
  0
ENDBLK
  5
A4A
  8
0
  0
BLOCK
  8
0
  2
*U12
 70
     1
 10
0.0
 20
0.0
 30
0.0
  3
*U12
  1

  0
TEXT
  5
A4C
  8
UMCL2
 10
1428.0013404415261
 20
953.63630667728137
 30
0.0
 40
3.0
  1
64
  0
ENDBLK
  5
A4E
  8
0
  0
BLOCK
  8
0
  2
*U13
 70
     1
 10
0.0
 20
0.0
 30
0.0
  3
*U13
  1

  0
TEXT
  5
A50
  8
UMCL2
 10
1442.902220227063
 20
901.10323300852258
 30
0.0
 40
3.0
  1
24
 50
90.0
  0
ENDBLK
  5
A52
  8
0
  0
BLOCK
  8
0
  2
*U14
 70
     1
 10
0.0
 20
0.0
 30
0.0
  3
*U14
  1

  0
TEXT
  5
A54
  8
UMCL2
 10
1461.161576661998
 20
805.2289164587786
 30
0.0
 40
3.0
  1
19
 50
90.0
  0
ENDBLK
  5
A56
  8
0
  0
BLOCK
  8
0
  2
*U15
 70
     1
 10
0.0
 20
0.0
 30
0.0
  3
*U15
  1

  0
TEXT
  5
A58
  8
UMCL2
 10
1461.161576661998
 20
833.536306677281
 30
0.0
 40
3.0
  1
38
 50
90.0
  0
ENDBLK
  5
A5A
  8
0
  0
BLOCK
  8
0
  2
*U16
 70
     1
 10
0.0
 20
0.0
 30
0.0
  3
*U16
  1

  0
TEXT
  5
A5C
  8
UMCL2
 10
1469.161576661998
 20
837.97417464292528
 30
0.0
 40
3.0
  1
85
 50
90.0
  0
ENDBLK
  5
A5E
  8
0
  0
BLOCK
  8
0
  2
*U17
 70
     1
 10
0.0
 20
0.0
 30
0.0
  3
*U17
  1

  0
TEXT
  5
A60
  8
UMCL2
 10
1447.537535178823
 20
888.49816548954561
 30
0.0
 40
3.0
  1
25
  0
ENDBLK
  5
A62
  8
0
  0
BLOCK
  8
0
  2
*U18
 70
     1
 10
0.0
 20
0.0
 30
0.0
  3
*U18
  1

  0
TEXT
  5
A64
  8
UMCL2
 10
1469.161576661998
 20
913.63630667728137
 30
0.0
 40
3.0
  1
11
 50
90.0
  0
ENDBLK
  5
A66
  8
0
  0
BLOCK
  8
0
  2
*U19
 70
     1
 10
0.0
 20
0.0
 30
0.0
  3
*U19
  1

  0
TEXT
  5
A68
  8
UMCL2
 10
1477.161576661998
 20
850.99621809460427
 30
0.0
 40
3.0
  1
112
 50
90.0
  0
ENDBLK
  5
A6A
  8
0
  0
BLOCK
  8
0
  2
*U20
 70
     1
 10
0.0
 20
0.0
 30
0.0
  3
*U20
  1

  0
TEXT
  5
A6C
  8
UMCL2
 10
1477.161576661998
 20
917.22891645877871
 30
0.0
 40
3.0
  1
19
 50
90.0
  0
ENDBLK
  5
A6E
  8
0
  0
BLOCK
  8
0
  2
*U21
 70
     1
 10
0.0
 20
0.0
 30
0.0
  3
*U21
  1

  0
TEXT
  5
A70
  8
UMCL2
 10
1485.161576661998
 20
860.58630667728141
 30
0.0
 40
3.0
  1
131
 50
90.0
  0
ENDBLK
  5
A72
  8
0
  0
BLOCK
  8
0
  2
*U22
 70
     1
 10
0.0
 20
0.0
 30
0.0
  3
*U22
  1

  0
TEXT
  5
A74
  8
UMCL2
 10
1392.8954521998569
 20
910.58402032545723
 30
0.0
 40
3.0
  1
\U+22058
 50
36.116800907083281
  0
ENDBLK
  5
A76
  8
0
  0
BLOCK
  8
0
  2
*U23
 70
     1
 10
0.0
 20
0.0
 30
0.0
  3
*U23
  1

  0
TEXT
  5
A78
  8
UMCL2
 10
1385.0106568094441
 20
929.02417464292535
 30
0.0
 40
3.0
  1
3
 50
90.0
  0
ENDBLK
  5
A7A
  8
0
  0
BLOCK
  8
0
  2
*U24
 70
     1
 10
0.0
 20
0.0
 30
0.0
  3
*U24
  1

  0
TEXT
  5
A94
  8
UMCL2
 10
1231.584239474015
 20
998.48233466980389
 30
0.0
 40
3.0
  1
11
 50
90.0
  0
ENDBLK
  5
A96
  8
0
  0
BLOCK
  8
0
  2
*U25
 70
     1
 10
0.0
 20
0.0
 30
0.0
  3
*U25
  1

  0
TEXT
  5
A98
  8
UMCL2
 10
1239.584239474015
 20
998.07494445130135
 30
0.0
 40
3.0
  1
19
 50
90.0
  0
ENDBLK
  5
A9A
  8
0
  0
BLOCK
  8
0
  2
*U26
 70
     1
 10
0.0
 20
0.0
 30
0.0
  3
*U26
  1

  0
TEXT
  5
A9C
  8
UMCL2
 10
1247.584239474015
 20
997.58233466980391
 30
0.0
 40
3.0
  1
44
 50
90.0
  0
ENDBLK
  5
A9E
  8
0
  0
BLOCK
  8
0
  2
*U27
 70
     1
 10
0.0
 20
0.0
 30
0.0
  3
*U27
  1

  0
TEXT
  5
AA0
  8
UMCL2
 10
1255.584239474015
 20
997.8823346698041
 30
0.0
 40
3.0
  1
57
 50
90.0
  0
ENDBLK
  5
AA2
  8
0
  0
BLOCK
  8
0
  2
*U28
 70
     1
 10
0.0
 20
0.0
 30
0.0
  3
*U28
  1

  0
TEXT
  5
AA4
  8
UMCL2
 10
1133.796556901834
 20
998.881834989916
 30
0.0
 40
3.0
  1
9
 50
90.0
  0
ENDBLK
  5
AA6
  8
0
  0
BLOCK
  8
0
  2
*U29
 70
     1
 10
0.0
 20
0.0
 30
0.0
  3
*U29
  1

  0
TEXT
  5
AA8
  8
UMCL2
 10
1203.522330025196
 20
937.63630667728125
 30
0.0
 40
3.0
  1
28
  0
ENDBLK
  5
AAA
  8
0
  0
BLOCK
  8
0
  2
*U30
 70
     1
 10
0.0
 20
0.0
 30
0.0
  3
*U30
  1

  0
TEXT
  5
AAC
  8
UMCL2
 10
1178.4322414425189
 20
937.63630667728125
 30
0.0
 40
3.0
  1
22
  0
ENDBLK
  5
AAE
  8
0
  0
BLOCK
  8
0
  2
*U31
 70
     1
 10
0.0
 20
0.0
 30
0.0
  3
*U31
  1

  0
TEXT
  5
AB0
  8
UMCL2
 10
1192.483058371653
 20
945.63630667728125
 30
0.0
 40
3.0
  1
50
  0
ENDBLK
  5
AB2
  8
0
  0
BLOCK
  8
0
  2
*U32
 70
     1
 10
0.0
 20
0.0
 30
0.0
  3
*U32
  1

  0
TEXT
  5
AB4
  8
UMCL2
 10
1190.424003253542
 20
953.63630667728125
 30
0.0
 40
3.0
  1
64
  0
ENDBLK
  5
AB6
  8
0
  0
BLOCK
  8
0
  2
*U33
 70
     1
 10
0.0
 20
0.0
 30
0.0
  3
*U33
  1

  0
TEXT
  5
AB8
  8
UMCL2
 10
1205.3248830390801
 20
901.10323300852258
 30
0.0
 40
3.0
  1
24
 50
90.0
  0
ENDBLK
  5
ABA
  8
0
  0
BLOCK
  8
0
  2
*U34
 70
     1
 10
0.0
 20
0.0
 30
0.0
  3
*U34
  1

  0
TEXT
  5
ABC
  8
UMCL2
 10
1231.584239474015
 20
837.97417464292505
 30
0.0
 40
3.0
  1
85
 50
90.0
  0
ENDBLK
  5
ABE
  8
0
  0
BLOCK
  8
0
  2
*U35
 70
     1
 10
0.0
 20
0.0
 30
0.0
  3
*U35
  1

  0
TEXT
  5
AC0
  8
UMCL2
 10
1209.96019799084
 20
888.49816548954561
 30
0.0
 40
3.0
  1
25
  0
ENDBLK
  5
AC2
  8
0
  0
BLOCK
  8
0
  2
*U36
 70
     1
 10
0.0
 20
0.0
 30
0.0
  3
*U36
  1

  0
TEXT
  5
AC4
  8
UMCL2
 10
1231.584239474015
 20
913.63630667728137
 30
0.0
 40
3.0
  1
11
 50
90.0
  0
ENDBLK
  5
AC6
  8
0
  0
BLOCK
  8
0
  2
*U37
 70
     1
 10
0.0
 20
0.0
 30
0.0
  3
*U37
  1

  0
TEXT
  5
AC8
  8
UMCL2
 10
1239.584239474015
 20
850.99621809460405
 30
0.0
 40
3.0
  1
112
 50
90.0
  0
ENDBLK
  5
ACA
  8
0
  0
BLOCK
  8
0
  2
*U38
 70
     1
 10
0.0
 20
0.0
 30
0.0
  3
*U38
  1

  0
TEXT
  5
ACC
  8
UMCL2
 10
1239.584239474015
 20
917.22891645877871
 30
0.0
 40
3.0
  1
19
 50
90.0
  0
ENDBLK
  5
ACE
  8
0
  0
BLOCK
  8
0
  2
*U39
 70
     1
 10
0.0
 20
0.0
 30
0.0
  3
*U39
  1

  0
TEXT
  5
AD0
  8
UMCL2
 10
1247.584239474015
 20
860.58630667728141
 30
0.0
 40
3.0
  1
131
 50
90.0
  0
ENDBLK
  5
AD2
  8
0
  0
BLOCK
  8
0
  2
*U40
 70
     1
 10
0.0
 20
0.0
 30
0.0
  3
*U40
  1

  0
TEXT
  5
AD4
  8
UMCL2
 10
1155.318115011873
 20
910.58402032545723
 30
0.0
 40
3.0
  1
\U+22058
 50
36.116800907083281
  0
ENDBLK
  5
AD6
  8
0
  0
BLOCK
  8
0
  2
*U41
 70
     1
 10
0.0
 20
0.0
 30
0.0
  3
*U41
  1

  0
TEXT
  5
AD8
  8
UMCL2
 10
1147.4333196214609
 20
929.02417464292535
 30
0.0
 40
3.0
  1
3
 50
90.0
  0
ENDBLK
  5
ADA
  8
0
  0
BLOCK
  8
0
  2
*U42
 70
     1
 10
0.0
 20
0.0
 30
0.0
  3
*U42
  1

  0
TEXT
  5
ADC
  8
UMCL2
 10
1167.4322414425189
 20
964.01454717227284
 30
0.0
 40
3.0
  1
22
  0
ENDBLK
  5
ADE
  8
0
  0
BLOCK
  8
0
  2
*U43
 70
     1
 10
0.0
 20
0.0
 30
0.0
  3
*U43
  1

  0
TEXT
  5
AE0
  8
UMCL2
 10
1126.5393099401911
 20
986.8303366383077
 30
0.0
 40
3.0
  1
22
 50
90.0
  0
ENDBLK
  5
AE2
  8
0
  0
ENDSEC
  0
SECTION
  2
ENTITIES
  0
CIRCLE
  5
5CB
  8
UMCL1
  6
CONTINUOUS
 10
1429.161576661998
 20
919.13630667728171
 30
0.0
 40
4.0
  0
CIRCLE
  5
5CC
  8
UMCL1
  6
CONTINUOUS
 10
1429.161576661998
 20
895.13630667728103
 30
0.0
 40
4.0
  0
LINE
  5
5CD
  8
UMCL1
  6
HIDDEN
 62
     3
 10
1419.661576661998
 20
928.63630667728137
 30
0.0
 11
1419.661576661998
 21
909.63630667728148
 31
0.0
  0
CIRCLE
  5
5CE
  8
UMCL1
  6
CONTINUOUS
 10
1429.161576661998
 20
1021.982334669804
 30
0.0
 40
3.3999999999999999
  0
CIRCLE
  5
5CF
  8
UMCL1
  6
CONTINUOUS
 10
1429.161576661998
 20
1021.982334669804
 30
0.0
 40
5.25
  0
LINE
  5
5D0
  8
UMCL1
  6
CONTINUOUS
 10
1419.661576661998
 20
1004.482334669804
 30
0.0
 11
1419.661576661998
 21
995.482334669804
 31
0.0
  0
LINE
  5
5D1
  8
UMCL1
  6
CONTINUOUS
 10
1421.161576661998
 20
1009.482334669804
 30
0.0
 11
1421.161576661998
 21
1014.482334669804
 31
0.0
  0
LINE
  5
5D2
  8
UMCL1
  6
CONTINUOUS
 10
1421.161576661998
 20
985.482334669804
 30
0.0
 11
1421.161576661998
 21
990.48233466980389
 31
0.0
  0
LINE
  5
5D3
  8
UMCL1
  6
CONTINUOUS
 10
1437.161576661998
 20
1009.482334669804
 30
0.0
 11
1437.161576661998
 21
1014.482334669804
 31
0.0
  0
LINE
  5
5D4
  8
UMCL1
  6
CONTINUOUS
 10
1437.161576661998
 20
985.482334669804
 30
0.0
 11
1437.161576661998
 21
990.48233466980389
 31
0.0
  0
LINE
  5
5D5
  8
UMCL1
  6
CONTINUOUS
 10
1421.161576661998
 20
1014.482334669804
 30
0.0
 11
1437.161576661998
 21
1014.482334669804
 31
0.0
  0
LINE
  5
5D6
  8
UMCL1
  6
CONTINUOUS
 10
1421.161576661998
 20
985.482334669804
 30
0.0
 11
1437.161576661998
 21
985.482334669804
 31
0.0
  0
CIRCLE
  5
5D7
  8
UMCL1
  6
CONTINUOUS
 10
1385.161576661998
 20
1021.982334669804
 30
0.0
 40
3.3999999999999999
  0
CIRCLE
  5
5D8
  8
UMCL1
  6
CONTINUOUS
 10
1385.161576661998
 20
1021.982334669804
 30
0.0
 40
5.25
  0
CIRCLE
  5
5D9
  8
UMCL1
  6
CONTINUOUS
 10
1385.161576661998
 20
977.98233466980389
 30
0.0
 40
3.3999999999999999
  0
CIRCLE
  5
5DA
  8
UMCL1
  6
CONTINUOUS
 10
1385.161576661998
 20
977.98233466980389
 30
0.0
 40
5.25
  0
CIRCLE
  5
5DB
  8
UMCL1
  6
CONTINUOUS
 10
1429.161576661998
 20
977.98233466980389
 30
0.0
 40
3.3999999999999999
  0
CIRCLE
  5
5DC
  8
UMCL1
  6
CONTINUOUS
 10
1429.161576661998
 20
977.98233466980389
 30
0.0
 40
5.25
  0
POLYLINE
  5
5DD
  8
UMCL1
  6
CONTINUOUS
 66
     1
 10
0.0
 20
0.0
 30
0.0
 70
     1
  0
VERTEX
  5
A19
  8
UMCL1
  6
CONTINUOUS
 10
1437.1615766619971
 20
895.13630868500877
 30
0.0
  0
VERTEX
  5
A1A
  8
UMCL1
  6
CONTINUOUS
 10
1437.1615766619971
 20
919.13630667728171
 30
0.0
 42
1.000000000000002
  0
VERTEX
  5
A1B
  8
UMCL1
  6
CONTINUOUS
 10
1421.161576661998
 20
919.13630667728171
 30
0.0
  0
VERTEX
  5
A1C
  8
UMCL1
  6
CONTINUOUS
 10
1421.161576661998
 20
895.13630667728103
 30
0.0
 42
1.000000126302435
  0
SEQEND
  5
A1D
  8
UMCL1
  6
CONTINUOUS
  0
LINE
  5
5DE
  8
UMCL1
  6
HIDDEN
 62
     3
 10
1425.161576661998
 20
903.13630667728114
 30
0.0
 11
1433.161576661998
 21
903.13630667728103
 31
0.0
  0
LINE
  5
5DF
  8
UMCL1
  6
HIDDEN
 62
     3
 10
1421.161576661998
 20
899.13630667728125
 30
0.0
 11
1425.161576661998
 21
903.13630667728114
 31
0.0
  0
LINE
  5
5E0
  8
UMCL1
  6
HIDDEN
 62
     3
 10
1437.161576661998
 20
899.13630667728114
 30
0.0
 11
1433.161576661998
 21
903.13630667728114
 31
0.0
  0
LINE
  5
5E1
  8
UMCL1
  6
HIDDEN
 62
     3
 10
1435.661576661998
 20
1014.482334669804
 30
0.0
 11
1435.661576661998
 21
985.482334669804
 31
0.0
  0
LINE
  5
5E2
  8
UMCL1
  6
CONTINUOUS
 10
1447.2333734317231
 20
1009.482334669804
 30
0.0
 11
1447.2333734317231
 21
990.48233466980389
 31
0.0
  0
LINE
  5
5E3
  8
UMCL1
  6
CONTINUOUS
 10
1447.2333734317231
 20
990.48233466980389
 30
0.0
 11
1462.1615766619991
 21
994.482334669804
 31
0.0
  0
LINE
  5
5E4
  8
UMCL1
  6
CONTINUOUS
 10
1462.1615766619991
 20
1005.482334669804
 30
0.0
 11
1447.2333734317231
 21
1009.482334669804
 31
0.0
  0
LINE
  5
5E5
  8
UMCL1
  6
CONTINUOUS
 10
1462.1615766619991
 20
994.482334669804
 30
0.0
 11
1462.1615766619991
 21
1005.482334669804
 31
0.0
  0
LINE
  5
5E6
  8
UMCL1
  6
HIDDEN
 62
     3
 10
1403.161576661998
 20
1009.482334669804
 30
0.0
 11
1403.161576661998
 21
990.48233466980389
 31
0.0
  0
LINE
  5
5E7
  8
UMCL1
  6
HIDDEN
 62
     3
 10
1411.1615766619991
 20
1009.482334669804
 30
0.0
 11
1411.1615766619991
 21
990.48233466980389
 31
0.0
  0
ARC
  5
5E8
  8
UMCL1
  6
CONTINUOUS
 10
1407.1615766619991
 20
999.982334669804
 30
0.0
 40
10.0
 50
333.25631604959329
 51
26.743683950406691
  0
ARC
  5
5E9
  8
UMCL1
  6
CONTINUOUS
 10
1407.1615766619991
 20
999.982334669804
 30
0.0
 40
10.0
 50
153.25631604959329
 51
206.74368395040671
  0
LINE
  5
5EA
  8
UMCL1
  6
HIDDEN
 62
     3
 10
1425.161576661998
 20
1014.482334669804
 30
0.0
 11
1425.161576661998
 21
985.482334669804
 31
0.0
  0
LINE
  5
5EB
  8
UMCL1
  6
HIDDEN
 62
     3
 10
1433.161576661998
 20
1014.482334669804
 30
0.0
 11
1433.161576661998
 21
985.482334669804
 31
0.0
  0
LINE
  5
5EC
  8
UMCL1
  6
CONTINUOUS
 10
1403.3615766619989
 20
1009.482334669804
 30
0.0
 11
1403.3615766619989
 21
1010.382334669804
 31
0.0
  0
LINE
  5
5ED
  8
UMCL1
  6
CONTINUOUS
 10
1410.9615766619979
 20
1009.482334669804
 30
0.0
 11
1410.9615766619979
 21
1010.382334669804
 31
0.0
  0
LINE
  5
5EE
  8
UMCL1
  6
CONTINUOUS
 10
1401.9615766619991
 20
1009.482334669804
 30
0.0
 11
1401.9615766619991
 21
1010.382334669804
 31
0.0
  0
LINE
  5
5EF
  8
UMCL1
  6
CONTINUOUS
 10
1412.361576661998
 20
1009.482334669804
 30
0.0
 11
1412.361576661998
 21
1010.382334669804
 31
0.0
  0
LINE
  5
5F0
  8
UMCL1
  6
CONTINUOUS
 10
1401.9615766619991
 20
1010.382334669804
 30
0.0
 11
1412.361576661998
 21
1010.382334669804
 31
0.0
  0
LINE
  5
5F1
  8
UMCL1
  6
CONTINUOUS
 10
1425.361576661998
 20
1014.482334669804
 30
0.0
 11
1425.361576661998
 21
1015.382334669804
 31
0.0
  0
LINE
  5
5F2
  8
UMCL1
  6
CONTINUOUS
 10
1432.9615766619979
 20
1014.482334669804
 30
0.0
 11
1432.9615766619979
 21
1015.382334669804
 31
0.0
  0
LINE
  5
5F3
  8
UMCL1
  6
CONTINUOUS
 10
1423.9615766619979
 20
1014.482334669804
 30
0.0
 11
1423.9615766619979
 21
1015.382334669804
 31
0.0
  0
LINE
  5
5F4
  8
UMCL1
  6
CONTINUOUS
 10
1434.3615766619989
 20
1014.482334669804
 30
0.0
 11
1434.3615766619989
 21
1015.382334669804
 31
0.0
  0
LINE
  5
5F5
  8
UMCL1
  6
CONTINUOUS
 10
1423.9615766619979
 20
1015.382334669804
 30
0.0
 11
1434.3615766619989
 21
1015.382334669804
 31
0.0
  0
LINE
  5
5F6
  8
UMCL1
  6
CONTINUOUS
 10
1403.3615766619989
 20
990.48233466980389
 30
0.0
 11
1403.3615766619989
 21
989.58233466980403
 31
0.0
  0
LINE
  5
5F7
  8
UMCL1
  6
CONTINUOUS
 10
1410.9615766619979
 20
990.48233466980389
 30
0.0
 11
1410.9615766619979
 21
989.58233466980403
 31
0.0
  0
LINE
  5
5F8
  8
UMCL1
  6
CONTINUOUS
 10
1401.9615766619991
 20
990.48233466980389
 30
0.0
 11
1401.9615766619991
 21
989.58233466980403
 31
0.0
  0
LINE
  5
5F9
  8
UMCL1
  6
CONTINUOUS
 10
1412.361576661998
 20
990.48233466980389
 30
0.0
 11
1412.361576661998
 21
989.58233466980403
 31
0.0
  0
LINE
  5
5FA
  8
UMCL1
  6
CONTINUOUS
 10
1401.9615766619991
 20
989.58233466980403
 30
0.0
 11
1412.361576661998
 21
989.58233466980403
 31
0.0
  0
LINE
  5
5FB
  8
UMCL1
  6
CONTINUOUS
 10
1425.361576661998
 20
985.482334669804
 30
0.0
 11
1425.361576661998
 21
984.5823346698038
 31
0.0
  0
LINE
  5
5FC
  8
UMCL1
  6
CONTINUOUS
 10
1432.9615766619979
 20
985.482334669804
 30
0.0
 11
1432.9615766619979
 21
984.58233466980425
 31
0.0
  0
LINE
  5
5FD
  8
UMCL1
  6
CONTINUOUS
 10
1423.9615766619979
 20
985.482334669804
 30
0.0
 11
1423.9615766619979
 21
984.5823346698038
 31
0.0
  0
LINE
  5
5FE
  8
UMCL1
  6
CONTINUOUS
 10
1434.3615766619989
 20
985.482334669804
 30
0.0
 11
1434.3615766619989
 21
984.58233466980425
 31
0.0
  0
LINE
  5
5FF
  8
UMCL1
  6
CONTINUOUS
 10
1423.9615766619979
 20
984.5823346698038
 30
0.0
 11
1434.3615766619989
 21
984.5823346698038
 31
0.0
  0
POLYLINE
  5
600
  8
UMCL1
  6
CONTINUOUS
 66
     1
 10
0.0
 20
0.0
 30
0.0
  0
VERTEX
  5
A1E
  8
UMCL1
  6
CONTINUOUS
 10
1447.2333734317219
 20
928.63630667728137
 30
0.0
  0
VERTEX
  5
A1F
  8
UMCL1
  6
CONTINUOUS
 10
1447.2333734317219
 20
909.63630667728148
 30
0.0
  0
SEQEND
  5
A20
  8
UMCL1
  6
CONTINUOUS
  0
LINE
  5
601
  8
UMCL1
  6
CONTINUOUS
 10
1421.161576661998
 20
882.63630667728103
 30
0.0
 11
1437.161576661998
 21
882.63630667728103
 31
0.0
  0
LINE
  5
602
  8
UMCL1
  6
CONTINUOUS
 10
1421.161576661998
 20
899.13630667728125
 30
0.0
 11
1421.161576661998
 21
882.63630667728103
 31
0.0
  0
LINE
  5
603
  8
UMCL1
  6
CONTINUOUS
 10
1437.161576661998
 20
899.13630667728114
 30
0.0
 11
1437.161576661998
 21
882.63630667728103
 31
0.0
  0
CIRCLE
  5
604
  8
UMCL1
  6
CONTINUOUS
 10
1407.161576661998
 20
919.13630667728148
 30
0.0
 40
4.0
  0
LINE
  5
605
  8
UMCL1
  6
CONTINUOUS
 10
1398.161576661998
 20
915.63630667728148
 30
0.0
 11
1404.161576661998
 21
909.63630667728148
 31
0.0
  0
LINE
  5
606
  8
UMCL1
  6
CONTINUOUS
 10
1462.161576661998
 20
909.63630667728148
 30
0.0
 11
1462.161576661998
 21
920.63630667728137
 31
0.0
  0
LINE
  5
607
  8
UMCL1
  6
CONTINUOUS
 10
1462.161576661998
 20
920.63630667728137
 30
0.0
 11
1447.2333734317219
 21
928.63630667728137
 31
0.0
  0
LINE
  5
608
  8
UMCL1
  6
CONTINUOUS
 10
1398.161576661998
 20
928.63630667728137
 30
0.0
 11
1398.161576661998
 21
915.63630667728148
 31
0.0
  0
LINE
  5
609
  8
UMCL1
  6
CENTER
 62
     1
 10
1407.161576661998
 20
795.63630667728103
 30
0.0
 11
1407.161576661998
 21
930.63630667728148
 31
0.0
  0
LINE
  5
60A
  8
UMCL1
  6
CONTINUOUS
 10
1397.911576661998
 20
908.13630667728137
 30
0.0
 11
1416.411576661998
 21
908.13630667728137
 31
0.0
  0
POLYLINE
  5
60B
  8
UMCL1
  6
CONTINUOUS
 66
     1
 10
0.0
 20
0.0
 30
0.0
  0
VERTEX
  5
A21
  8
UMCL1
  6
CONTINUOUS
 10
1397.911576661998
 20
925.13630667728137
 30
0.0
  0
VERTEX
  5
A22
  8
UMCL1
  6
CONTINUOUS
 10
1397.911576661998
 20
908.13630667728125
 30
0.0
  0
VERTEX
  5
A23
  8
UMCL1
  6
CONTINUOUS
 10
1397.161576661998
 20
906.13630667728137
 30
0.0
  0
VERTEX
  5
A24
  8
UMCL1
  6
CONTINUOUS
 10
1417.161576661998
 20
906.13630667728137
 30
0.0
  0
VERTEX
  5
A25
  8
UMCL1
  6
CONTINUOUS
 10
1416.411576661998
 20
908.13630667728137
 30
0.0
  0
SEQEND
  5
A26
  8
UMCL1
  6
CONTINUOUS
  0
LINE
  5
60C
  8
UMCL1
  6
HIDDEN
 62
     3
 10
1416.411576661998
 20
925.13630667728137
 30
0.0
 11
1412.911576661998
 21
928.63630667728137
 31
0.0
  0
LINE
  5
60D
  8
UMCL1
  6
HIDDEN
 62
     2
 10
1412.911576661998
 20
928.63630667728137
 30
0.0
 11
1401.411576661998
 21
928.63630667728137
 31
0.0
  0
LINE
  5
60E
  8
UMCL1
  6
HIDDEN
 62
     3
 10
1401.411576661998
 20
928.63630667728137
 30
0.0
 11
1398.161576661998
 21
925.38630667728171
 31
0.0
  0
LINE
  5
60F
  8
UMCL1
  6
CONTINUOUS
 10
1403.661576661998
 20
1011.582334669804
 30
0.0
 11
1410.661576661998
 21
1011.582334669804
 31
0.0
  0
LINE
  5
610
  8
UMCL1
  6
CONTINUOUS
 10
1403.661576661998
 20
988.38233466980398
 30
0.0
 11
1410.661576661998
 21
988.38233466980398
 31
0.0
  0
LINE
  5
611
  8
UMCL1
  6
CONTINUOUS
 10
1403.161576661998
 20
1011.082334669804
 30
0.0
 11
1403.161576661998
 21
1010.382334669804
 31
0.0
  0
LINE
  5
612
  8
UMCL1
  6
CONTINUOUS
 10
1411.161576661998
 20
1011.082334669804
 30
0.0
 11
1411.161576661998
 21
1010.382334669804
 31
0.0
  0
LINE
  5
613
  8
UMCL1
  6
CONTINUOUS
 10
1403.161576661998
 20
1011.082334669804
 30
0.0
 11
1403.661576661998
 21
1011.582334669804
 31
0.0
  0
LINE
  5
614
  8
UMCL1
  6
CONTINUOUS
 10
1410.661576661998
 20
1011.582334669804
 30
0.0
 11
1411.161576661998
 21
1011.082334669804
 31
0.0
  0
LINE
  5
615
  8
UMCL1
  6
CONTINUOUS
 10
1403.161576661998
 20
988.8823346698041
 30
0.0
 11
1403.161576661998
 21
989.58233466980403
 31
0.0
  0
LINE
  5
616
  8
UMCL1
  6
CONTINUOUS
 10
1411.1615766619991
 20
988.8823346698041
 30
0.0
 11
1411.1615766619991
 21
989.58233466980403
 31
0.0
  0
LINE
  5
617
  8
UMCL1
  6
CONTINUOUS
 10
1403.661576661998
 20
988.38233466980398
 30
0.0
 11
1403.161576661998
 21
988.8823346698041
 31
0.0
  0
LINE
  5
618
  8
UMCL1
  6
CONTINUOUS
 10
1410.661576661998
 20
988.38233466980398
 30
0.0
 11
1411.1615766619991
 21
988.8823346698041
 31
0.0
  0
ARC
  5
619
  8
UMCL1
  6
CONTINUOUS
 10
1407.1615766619991
 20
999.982334669804
 30
0.0
 40
9.25
 50
150.89009106012631
 51
209.10990893987369
  0
ARC
  5
61A
  8
UMCL1
  6
CONTINUOUS
 10
1407.1615766619991
 20
999.982334669804
 30
0.0
 40
9.25
 50
330.89009106012628
 51
29.109908939873659
  0
ARC
  5
61B
  8
UMCL1
  6
CONTINUOUS
 10
1407.1615766619991
 20
999.982334669804
 30
0.0
 40
5.75
 50
128.49995040925299
 51
231.50004959074701
  0
ARC
  5
61C
  8
UMCL1
  6
CONTINUOUS
 10
1407.1615766619991
 20
999.982334669804
 30
0.0
 40
5.75
 50
308.49995040925302
 51
51.500049590746961
  0
LINE
  5
61D
  8
UMCL1
  6
HIDDEN
 62
     3
 10
1416.4115766619991
 20
925.13630667728137
 30
0.0
 11
1415.243191599621
 21
925.13630667728137
 31
0.0
  0
LINE
  5
61E
  8
UMCL1
  6
CONTINUOUS
 10
1417.161576661998
 20
882.63630667728114
 30
0.0
 11
1417.161576661998
 21
906.13630667728125
 31
0.0
  0
LINE
  5
61F
  8
UMCL1
  6
CONTINUOUS
 10
1397.161576661998
 20
906.13630667728137
 30
0.0
 11
1397.161576661998
 21
882.63630667728114
 31
0.0
  0
LINE
  5
620
  8
UMCL1
  6
CONTINUOUS
 10
1398.161576661998
 20
1009.482334669804
 30
0.0
 11
1398.1615766619991
 21
1004.482334669804
 31
0.0
  0
LINE
  5
621
  8
UMCL1
  6
CONTINUOUS
 10
1398.1615766619991
 20
995.482334669804
 30
0.0
 11
1398.1615766619991
 21
990.48233466980389
 31
0.0
  0
LINE
  5
622
  8
UMCL1
  6
CONTINUOUS
 10
1398.161576661998
 20
1004.482334669804
 30
0.0
 11
1419.661576661998
 21
1004.482334669804
 31
0.0
  0
LINE
  5
623
  8
UMCL1
  6
CONTINUOUS
 10
1398.161576661998
 20
1009.482334669804
 30
0.0
 11
1447.2333734317231
 21
1009.482334669804
 31
0.0
  0
LINE
  5
624
  8
UMCL1
  6
CONTINUOUS
 10
1419.661576661998
 20
995.482334669804
 30
0.0
 11
1398.1615766619991
 21
995.482334669804
 31
0.0
  0
LINE
  5
625
  8
UMCL1
  6
CONTINUOUS
 10
1398.1615766619991
 20
990.48233466980389
 30
0.0
 11
1447.2333734317231
 21
990.48233466980389
 31
0.0
  0
LINE
  5
626
  8
UMCL1
  6
CONTINUOUS
 10
1403.161576661998
 20
1011.082334669804
 30
0.0
 11
1411.161576661998
 21
1011.082334669804
 31
0.0
  0
LINE
  5
627
  8
UMCL1
  6
CONTINUOUS
 10
1403.161576661998
 20
988.8823346698041
 30
0.0
 11
1411.1615766619991
 21
988.8823346698041
 31
0.0
  0
LINE
  5
628
  8
UMCL1
  6
HIDDEN
 62
     3
 10
1437.161576661998
 20
1009.482334669804
 30
0.0
 11
1437.161576661998
 21
990.48233466980389
 31
0.0
  0
LINE
  5
629
  8
UMCL1
  6
CONTINUOUS
 10
1425.661576661998
 20
1016.582334669804
 30
0.0
 11
1432.661576661998
 21
1016.582334669804
 31
0.0
  0
LINE
  5
62A
  8
UMCL1
  6
CONTINUOUS
 10
1425.161576661998
 20
1016.082334669804
 30
0.0
 11
1425.161576661998
 21
1015.382334669804
 31
0.0
  0
LINE
  5
62B
  8
UMCL1
  6
CONTINUOUS
 10
1433.161576661998
 20
1016.082334669804
 30
0.0
 11
1433.161576661998
 21
1015.382334669804
 31
0.0
  0
LINE
  5
62C
  8
UMCL1
  6
CONTINUOUS
 10
1425.161576661998
 20
1016.082334669804
 30
0.0
 11
1425.661576661998
 21
1016.582334669804
 31
0.0
  0
LINE
  5
62D
  8
UMCL1
  6
CONTINUOUS
 10
1432.661576661998
 20
1016.582334669804
 30
0.0
 11
1433.161576661998
 21
1016.082334669804
 31
0.0
  0
LINE
  5
62E
  8
UMCL1
  6
CONTINUOUS
 10
1425.161576661998
 20
1016.082334669804
 30
0.0
 11
1433.161576661998
 21
1016.082334669804
 31
0.0
  0
LINE
  5
62F
  8
UMCL1
  6
CONTINUOUS
 10
1425.661576661998
 20
983.38233466980375
 30
0.0
 11
1432.661576661998
 21
983.38233466980375
 31
0.0
  0
LINE
  5
630
  8
UMCL1
  6
CONTINUOUS
 10
1425.161576661998
 20
983.88233466980375
 30
0.0
 11
1425.161576661998
 21
984.5823346698038
 31
0.0
  0
LINE
  5
631
  8
UMCL1
  6
CONTINUOUS
 10
1433.161576661998
 20
983.88233466980375
 30
0.0
 11
1433.161576661998
 21
984.5823346698038
 31
0.0
  0
LINE
  5
632
  8
UMCL1
  6
CONTINUOUS
 10
1425.661576661998
 20
983.38233466980375
 30
0.0
 11
1425.161576661998
 21
983.88233466980375
 31
0.0
  0
LINE
  5
633
  8
UMCL1
  6
CONTINUOUS
 10
1432.661576661998
 20
983.38233466980375
 30
0.0
 11
1433.161576661998
 21
983.88233466980375
 31
0.0
  0
LINE
  5
634
  8
UMCL1
  6
CONTINUOUS
 10
1425.161576661998
 20
983.88233466980375
 30
0.0
 11
1433.161576661998
 21
983.88233466980375
 31
0.0
  0
LINE
  5
635
  8
UMCL1
  6
CONTINUOUS
 10
1447.2333734317219
 20
928.63630667728137
 30
0.0
 11
1398.161576661998
 21
928.63630667728125
 31
0.0
  0
LINE
  5
636
  8
UMCL1
  6
HIDDEN
 62
     3
 10
1388.5615766619981
 20
876.13630667728137
 30
0.0
 11
1388.5615766619981
 21
797.63630667728125
 31
0.0
  0
LINE
  5
637
  8
UMCL1
  6
HIDDEN
 62
     3
 10
1381.7615766619981
 20
876.13630667728137
 30
0.0
 11
1381.7615766619981
 21
797.63630667728137
 31
0.0
  0
LINE
  5
638
  8
UMCL1
  6
CENTER
 62
     1
 10
1385.161576661998
 20
796.13630667728125
 30
0.0
 11
1385.161576661998
 21
884.13630667728125
 31
0.0
  0
LINE
  5
639
  8
UMCL1
  6
CENTER
 62
     1
 10
1429.1615766619991
 20
796.13630667728125
 30
0.0
 11
1429.161576661998
 21
884.13630667728125
 31
0.0
  0
LINE
  5
63A
  8
UMCL1
  6
CONTINUOUS
 10
1404.161576661998
 20
909.63630667728148
 30
0.0
 11
1421.161576661998
 21
909.63630667728148
 31
0.0
  0
LINE
  5
63B
  8
UMCL1
  6
CONTINUOUS
 10
1437.1615766619971
 20
909.63630667728148
 30
0.0
 11
1462.161576661998
 21
909.63630667728148
 31
0.0
  0
LINE
  5
63C
  8
UMCL1
  6
HIDDEN
 62
     3
 10
1421.161576661998
 20
909.63630667728148
 30
0.0
 11
1437.1615766619971
 21
909.63630667728148
 31
0.0
  0
LINE
  5
63D
  8
UMCL1
  6
HIDDEN
 62
     3
 10
1398.161576661998
 20
925.13630667728137
 30
0.0
 11
1399.0799617243761
 21
925.13630667728137
 31
0.0
  0
LINE
  5
63E
  8
UMCL1
  6
CONTINUOUS
 10
1398.161576661998
 20
925.38630667728171
 30
0.0
 11
1397.911576661998
 21
925.13630667728137
 31
0.0
  0
LINE
  5
63F
  8
UMCL1
  6
CONTINUOUS
 10
1397.911576661998
 20
925.13630667728137
 30
0.0
 11
1398.161576661998
 21
925.13630667728137
 31
0.0
  0
LINE
  5
640
  8
UMCL1
  6
HIDDEN
 62
     3
 10
1399.0799617243761
 20
926.30469173965946
 30
0.0
 11
1399.0799617243761
 21
914.7179216149035
 31
0.0
  0
LINE
  5
641
  8
UMCL1
  6
HIDDEN
 62
     3
 10
1416.411576661998
 20
909.63630667728148
 30
0.0
 11
1416.411576661998
 21
925.13630667728137
 31
0.0
  0
LINE
  5
642
  8
UMCL1
  6
HIDDEN
 62
     3
 10
1415.243191599621
 20
926.30469173965946
 30
0.0
 11
1415.243191599621
 21
909.63630667728148
 31
0.0
  0
LINE
  5
643
  8
UMCL1
  6
CONTINUOUS
 10
1399.0799617243761
 20
914.7179216149035
 30
0.0
 11
1399.0799617243761
 21
908.13630667728137
 31
0.0
  0
LINE
  5
644
  8
UMCL1
  6
CONTINUOUS
 10
1415.243191599621
 20
909.63630667728148
 30
0.0
 11
1415.243191599621
 21
908.13630667728137
 31
0.0
  0
LINE
  5
645
  8
UMCL1
  6
CONTINUOUS
 10
1416.411576661998
 20
909.63630667728148
 30
0.0
 11
1416.411576661998
 21
908.13630667728137
 31
0.0
  0
LINE
  5
646
  8
UMCL1
  6
CENTER
 62
     1
 10
1376.661576661998
 20
999.982334669804
 30
0.0
 11
1464.1615766619991
 21
999.982334669804
 31
0.0
  0
LINE
  5
647
  8
UMCL1
  6
CENTER
 62
     1
 10
1407.161576661998
 20
1030.482334669804
 30
0.0
 11
1407.161576661998
 21
969.482334669804
 31
0.0
  0
LINE
  5
648
  8
UMCL1
  6
CENTER
 62
     1
 10
1429.161576661998
 20
1017.582334669804
 30
0.0
 11
1429.161576661998
 21
982.38233466980375
 31
0.0
  0
LINE
  5
649
  8
UMCL1
  6
CENTER
 62
     1
 10
1378.911576661998
 20
1021.982334669804
 30
0.0
 11
1383.161576661998
 21
1021.982334669804
 31
0.0
  0
LINE
  5
64A
  8
UMCL1
  6
CENTER
 62
     1
 10
1384.161576661998
 20
1021.982334669804
 30
0.0
 11
1386.161576661998
 21
1021.982334669804
 31
0.0
  0
LINE
  5
64B
  8
UMCL1
  6
CENTER
 62
     1
 10
1387.161576661998
 20
1021.982334669804
 30
0.0
 11
1391.411576661998
 21
1021.982334669804
 31
0.0
  0
LINE
  5
64C
  8
UMCL1
  6
CENTER
 62
     1
 10
1385.161576661998
 20
1015.732334669804
 30
0.0
 11
1385.161576661998
 21
1019.982334669804
 31
0.0
  0
LINE
  5
64D
  8
UMCL1
  6
CENTER
 62
     1
 10
1385.161576661998
 20
1020.982334669804
 30
0.0
 11
1385.161576661998
 21
1022.982334669804
 31
0.0
  0
LINE
  5
64E
  8
UMCL1
  6
CENTER
 62
     1
 10
1385.161576661998
 20
1023.982334669804
 30
0.0
 11
1385.161576661998
 21
1028.232334669804
 31
0.0
  0
LINE
  5
64F
  8
UMCL1
  6
CENTER
 62
     1
 10
1422.9115766619991
 20
1021.982334669804
 30
0.0
 11
1427.1615766619991
 21
1021.982334669804
 31
0.0
  0
LINE
  5
650
  8
UMCL1
  6
CENTER
 62
     1
 10
1428.1615766619991
 20
1021.982334669804
 30
0.0
 11
1430.1615766619991
 21
1021.982334669804
 31
0.0
  0
LINE
  5
651
  8
UMCL1
  6
CENTER
 62
     1
 10
1431.161576661998
 20
1021.982334669804
 30
0.0
 11
1435.4115766619991
 21
1021.982334669804
 31
0.0
  0
LINE
  5
652
  8
UMCL1
  6
CENTER
 62
     1
 10
1429.161576661998
 20
1015.732334669804
 30
0.0
 11
1429.161576661998
 21
1019.982334669804
 31
0.0
  0
LINE
  5
653
  8
UMCL1
  6
CENTER
 62
     1
 10
1429.161576661998
 20
1020.982334669804
 30
0.0
 11
1429.161576661998
 21
1022.982334669804
 31
0.0
  0
LINE
  5
654
  8
UMCL1
  6
CENTER
 62
     1
 10
1429.161576661998
 20
1023.982334669804
 30
0.0
 11
1429.161576661998
 21
1028.232334669804
 31
0.0
  0
LINE
  5
655
  8
UMCL1
  6
CENTER
 62
     1
 10
1378.911576661998
 20
977.98233466980389
 30
0.0
 11
1383.161576661998
 21
977.98233466980389
 31
0.0
  0
LINE
  5
656
  8
UMCL1
  6
CENTER
 62
     1
 10
1384.1615766619991
 20
977.98233466980389
 30
0.0
 11
1386.1615766619991
 21
977.98233466980389
 31
0.0
  0
LINE
  5
657
  8
UMCL1
  6
CENTER
 62
     1
 10
1387.1615766619991
 20
977.98233466980389
 30
0.0
 11
1391.411576661998
 21
977.98233466980389
 31
0.0
  0
LINE
  5
658
  8
UMCL1
  6
CENTER
 62
     1
 10
1385.161576661998
 20
971.73233466980389
 30
0.0
 11
1385.161576661998
 21
975.98233466980389
 31
0.0
  0
LINE
  5
659
  8
UMCL1
  6
CENTER
 62
     1
 10
1385.161576661998
 20
976.98233466980389
 30
0.0
 11
1385.161576661998
 21
978.98233466980412
 31
0.0
  0
LINE
  5
65A
  8
UMCL1
  6
CENTER
 62
     1
 10
1385.161576661998
 20
979.982334669804
 30
0.0
 11
1385.161576661998
 21
984.23233466980389
 31
0.0
  0
LINE
  5
65B
  8
UMCL1
  6
CENTER
 62
     1
 10
1422.9115766619991
 20
977.98233466980389
 30
0.0
 11
1427.1615766619991
 21
977.98233466980389
 31
0.0
  0
LINE
  5
65C
  8
UMCL1
  6
CENTER
 62
     1
 10
1428.1615766619991
 20
977.98233466980389
 30
0.0
 11
1430.1615766619991
 21
977.98233466980389
 31
0.0
  0
LINE
  5
65D
  8
UMCL1
  6
CENTER
 62
     1
 10
1431.161576661998
 20
977.98233466980389
 30
0.0
 11
1435.4115766619991
 21
977.98233466980389
 31
0.0
  0
LINE
  5
65E
  8
UMCL1
  6
CENTER
 62
     1
 10
1429.161576661998
 20
971.73233466980389
 30
0.0
 11
1429.161576661998
 21
975.98233466980389
 31
0.0
  0
LINE
  5
65F
  8
UMCL1
  6
CENTER
 62
     1
 10
1429.161576661998
 20
976.98233466980389
 30
0.0
 11
1429.161576661998
 21
978.98233466980412
 31
0.0
  0
LINE
  5
660
  8
UMCL1
  6
CENTER
 62
     1
 10
1429.161576661998
 20
979.982334669804
 30
0.0
 11
1429.161576661998
 21
984.23233466980389
 31
0.0
  0
LINE
  5
661
  8
UMCL1
  6
CONTINUOUS
 10
1379.161576661998
 20
797.63630667728125
 30
0.0
 11
1435.161576661998
 21
797.63630667728137
 31
0.0
  0
LINE
  5
662
  8
UMCL1
  6
CONTINUOUS
 10
1435.661576661998
 20
798.13630667728125
 30
0.0
 11
1435.661576661998
 21
882.13630667728125
 31
0.0
  0
LINE
  5
663
  8
UMCL1
  6
CONTINUOUS
 10
1435.161576661998
 20
882.63630667728114
 30
0.0
 11
1379.161576661998
 21
882.63630667728114
 31
0.0
  0
LINE
  5
664
  8
UMCL1
  6
CONTINUOUS
 10
1378.661576661998
 20
882.13630667728125
 30
0.0
 11
1378.661576661998
 21
798.13630667728125
 31
0.0
  0
LINE
  5
665
  8
UMCL1
  6
CONTINUOUS
 10
1378.661576661998
 20
798.13630667728125
 30
0.0
 11
1435.661576661998
 21
798.13630667728125
 31
0.0
  0
LINE
  5
666
  8
UMCL1
  6
CONTINUOUS
 10
1435.661576661998
 20
882.13630667728125
 30
0.0
 11
1378.661576661998
 21
882.13630667728125
 31
0.0
  0
LINE
  5
667
  8
UMCL1
  6
CONTINUOUS
 10
1378.661576661998
 20
882.13630667728125
 30
0.0
 11
1379.161576661998
 21
882.63630667728114
 31
0.0
  0
LINE
  5
668
  8
UMCL1
  6
CONTINUOUS
 10
1435.161576661998
 20
882.63630667728114
 30
0.0
 11
1435.661576661998
 21
882.13630667728125
 31
0.0
  0
LINE
  5
669
  8
UMCL1
  6
CONTINUOUS
 10
1435.161576661998
 20
797.63630667728137
 30
0.0
 11
1435.661576661998
 21
798.13630667728125
 31
0.0
  0
LINE
  5
66A
  8
UMCL1
  6
CONTINUOUS
 10
1379.161576661998
 20
797.63630667728125
 30
0.0
 11
1378.661576661998
 21
798.13630667728125
 31
0.0
  0
LINE
  5
66B
  8
UMCL1
  6
HIDDEN
 62
     3
 10
1379.911576661998
 20
876.13630667728137
 30
0.0
 11
1390.411576661998
 21
876.13630667728137
 31
0.0
  0
LINE
  5
66C
  8
UMCL1
  6
HIDDEN
 62
     3
 10
1379.911576661998
 20
882.63630667728148
 30
0.0
 11
1379.911576661998
 21
876.13630667728125
 31
0.0
  0
LINE
  5
66D
  8
UMCL1
  6
HIDDEN
 62
     3
 10
1390.411576661998
 20
876.13630667728125
 30
0.0
 11
1390.411576661998
 21
882.63630667728148
 31
0.0
  0
LINE
  5
66E
  8
UMCL1
  6
HIDDEN
 62
     3
 10
1432.5615766619981
 20
876.13630667728137
 30
0.0
 11
1432.5615766619981
 21
797.63630667728137
 31
0.0
  0
LINE
  5
66F
  8
UMCL1
  6
HIDDEN
 62
     3
 10
1425.761576661999
 20
876.13630667728137
 30
0.0
 11
1425.761576661999
 21
797.63630667728137
 31
0.0
  0
LINE
  5
670
  8
UMCL1
  6
HIDDEN
 62
     3
 10
1423.911576661998
 20
876.13630667728137
 30
0.0
 11
1434.4115766619991
 21
876.13630667728137
 31
0.0
  0
LINE
  5
671
  8
UMCL1
  6
HIDDEN
 62
     3
 10
1423.911576661998
 20
882.63630667728148
 30
0.0
 11
1423.911576661998
 21
876.13630667728137
 31
0.0
  0
LINE
  5
672
  8
UMCL1
  6
HIDDEN
 62
     3
 10
1434.4115766619991
 20
876.13630667728137
 30
0.0
 11
1434.4115766619991
 21
882.63630667728148
 31
0.0
  0
LINE
  5
673
  8
UMCL1
  6
CENTER
 62
     1
 10
1423.9615766619979
 20
919.13630667728171
 30
0.0
 11
1426.7615766619981
 21
919.13630667728171
 31
0.0
  0
LINE
  5
674
  8
UMCL1
  6
CENTER
 62
     1
 10
1427.9615766619979
 20
919.13630667728171
 30
0.0
 11
1430.361576661998
 21
919.13630667728171
 31
0.0
  0
LINE
  5
675
  8
UMCL1
  6
CENTER
 62
     1
 10
1431.5615766619981
 20
919.13630667728171
 30
0.0
 11
1434.361576661998
 21
919.13630667728171
 31
0.0
  0
LINE
  5
676
  8
UMCL1
  6
CENTER
 62
     1
 10
1429.161576661998
 20
913.93630667728155
 30
0.0
 11
1429.161576661998
 21
916.73630667728162
 31
0.0
  0
LINE
  5
677
  8
UMCL1
  6
CENTER
 62
     1
 10
1429.161576661998
 20
917.93630667728155
 30
0.0
 11
1429.161576661998
 21
920.33630667728175
 31
0.0
  0
LINE
  5
678
  8
UMCL1
  6
CENTER
 62
     1
 10
1429.161576661998
 20
921.5363066772818
 30
0.0
 11
1429.161576661998
 21
924.33630667728175
 31
0.0
  0
LINE
  5
679
  8
UMCL1
  6
CENTER
 62
     1
 10
1423.9615766619979
 20
895.13630667728103
 30
0.0
 11
1426.7615766619981
 21
895.13630667728103
 31
0.0
  0
LINE
  5
67A
  8
UMCL1
  6
CENTER
 62
     1
 10
1427.9615766619979
 20
895.13630667728103
 30
0.0
 11
1430.361576661998
 21
895.13630667728103
 31
0.0
  0
LINE
  5
67B
  8
UMCL1
  6
CENTER
 62
     1
 10
1431.5615766619981
 20
895.13630667728103
 30
0.0
 11
1434.361576661998
 21
895.13630667728103
 31
0.0
  0
LINE
  5
67C
  8
UMCL1
  6
CENTER
 62
     1
 10
1429.161576661998
 20
889.93630667728098
 30
0.0
 11
1429.161576661998
 21
892.73630667728094
 31
0.0
  0
LINE
  5
67D
  8
UMCL1
  6
CENTER
 62
     1
 10
1429.161576661998
 20
893.93630667728087
 30
0.0
 11
1429.161576661998
 21
896.33630667728096
 31
0.0
  0
LINE
  5
67E
  8
UMCL1
  6
CENTER
 62
     1
 10
1429.161576661998
 20
897.53630667728112
 30
0.0
 11
1429.161576661998
 21
900.33630667728107
 31
0.0
  0
LINE
  5
67F
  8
UMCL1
  6
CENTER
 62
     1
 10
1401.9615766619979
 20
919.13630667728148
 30
0.0
 11
1404.7615766619981
 21
919.13630667728148
 31
0.0
  0
LINE
  5
680
  8
UMCL1
  6
CENTER
 62
     1
 10
1409.5615766619981
 20
919.13630667728148
 30
0.0
 11
1412.361576661998
 21
919.13630667728148
 31
0.0
  0
LINE
  5
681
  8
UMCL1
  6
CENTER
 62
     1
 10
1429.161576661998
 20
900.33630667728107
 30
0.0
 11
1429.161576661998
 21
913.93630667728155
 31
0.0
  0
LINE
  5
682
  8
UMCL1
  6
CENTER
 62
     1
 10
1457.161576661998
 20
902.1095082876717
 30
0.0
 11
1457.161576661998
 21
929.78856703714882
 31
0.0
  0
LINE
  5
683
  8
UMCL1
  6
CONTINUOUS
 10
1435.661576661998
 20
1014.482334669804
 30
0.0
 11
1435.661576661998
 21
1023.577885097798
 31
0.0
  0
ARC
  5
684
  8
UMCL1
  6
CONTINUOUS
 10
1407.161576661998
 20
999.982334669804
 30
0.0
 40
37.0
 50
39.62183490723735
 51
50.378165092766807
  0
LINE
  5
685
  8
UMCL1
  6
CONTINUOUS
 10
1435.661576661998
 20
976.38678424181001
 30
0.0
 11
1435.661576661998
 21
985.482334669804
 31
0.0
  0
ARC
  5
686
  8
UMCL1
  6
CONTINUOUS
 10
1407.161576661998
 20
999.982334669804
 30
0.0
 40
37.0
 50
309.62183490723322
 51
320.37816509276257
  0
LINE
  5
687
  8
UMCL1
  6
CONTINUOUS
 10
1383.566026234005
 20
971.482334669804
 30
0.0
 11
1430.7571270899921
 21
971.482334669804
 31
0.0
  0
ARC
  5
688
  8
UMCL1
  6
CONTINUOUS
 10
1407.161576661998
 20
999.982334669804
 30
0.0
 40
37.0
 50
219.6218349072374
 51
230.37816509276681
  0
ARC
  5
689
  8
UMCL1
  6
CONTINUOUS
 10
1407.161576661998
 20
999.982334669804
 30
0.0
 40
37.0
 50
129.62183490723319
 51
140.3781650927626
  0
LINE
  5
68A
  8
UMCL1
  6
CONTINUOUS
 10
1430.7571270899921
 20
1028.482334669804
 30
0.0
 11
1383.566026234005
 21
1028.482334669804
 31
0.0
  0
LINE
  5
68B
  8
UMCL1
  6
CONTINUOUS
 10
1378.661576661998
 20
1023.577885097798
 30
0.0
 11
1378.661576661998
 21
976.38678424181035
 31
0.0
  0
LINE
  5
68C
  8
UMCL1
  6
CENTER
 62
     1
 10
1405.9615766619979
 20
919.13630667728148
 30
0.0
 11
1408.361576661998
 21
919.13630667728148
 31
0.0
  0
LINE
  5
68D
  8
UMCL1
  6
HIDDEN
 62
     3
 10
1391.3015766619981
 20
971.482334669804
 30
0.0
 11
1391.551576661999
 21
979.482334669804
 31
0.0
  0
LINE
  5
68E
  8
UMCL1
  6
HIDDEN
 62
     3
 10
1391.861576661998
 20
971.482334669804
 30
0.0
 11
1392.111576661998
 21
979.482334669804
 31
0.0
  0
LINE
  5
68F
  8
UMCL1
  6
HIDDEN
 62
     3
 10
1401.021576661999
 20
971.482334669804
 30
0.0
 11
1400.7715766619981
 21
979.482334669804
 31
0.0
  0
LINE
  5
690
  8
UMCL1
  6
HIDDEN
 62
     3
 10
1400.4615766619979
 20
971.482334669804
 30
0.0
 11
1400.2115766619979
 21
979.482334669804
 31
0.0
  0
LINE
  5
691
  8
UMCL1
  6
HIDDEN
 62
     3
 10
1413.3015766619981
 20
971.482334669804
 30
0.0
 11
1413.5515766619981
 21
979.482334669804
 31
0.0
  0
LINE
  5
692
  8
UMCL1
  6
HIDDEN
 62
     3
 10
1413.861576661998
 20
971.482334669804
 30
0.0
 11
1414.111576661998
 21
979.482334669804
 31
0.0
  0
LINE
  5
693
  8
UMCL1
  6
HIDDEN
 62
     3
 10
1423.021576661999
 20
971.482334669804
 30
0.0
 11
1422.771576661999
 21
979.482334669804
 31
0.0
  0
LINE
  5
694
  8
UMCL1
  6
HIDDEN
 62
     3
 10
1422.4615766619991
 20
971.482334669804
 30
0.0
 11
1422.2115766619979
 21
979.482334669804
 31
0.0
  0
LINE
  5
695
  8
UMCL1
  6
CENTER
 62
     1
 10
1396.1615766619991
 20
980.982334669804
 30
0.0
 11
1396.1615766619991
 21
969.98233466980389
 31
0.0
  0
LINE
  5
696
  8
UMCL1
  6
CENTER
 62
     1
 10
1418.161576661998
 20
980.982334669804
 30
0.0
 11
1418.161576661998
 21
969.98233466980389
 31
0.0
  0
LINE
  5
697
  8
UMCL1
  6
HIDDEN
 62
     3
 10
1391.3015766619981
 20
1028.482334669804
 30
0.0
 11
1391.551576661999
 21
1020.482334669804
 31
0.0
  0
LINE
  5
698
  8
UMCL1
  6
HIDDEN
 62
     3
 10
1391.861576661998
 20
1028.482334669804
 30
0.0
 11
1392.111576661998
 21
1020.482334669804
 31
0.0
  0
LINE
  5
699
  8
UMCL1
  6
HIDDEN
 62
     3
 10
1401.021576661999
 20
1028.482334669804
 30
0.0
 11
1400.7715766619981
 21
1020.482334669804
 31
0.0
  0
LINE
  5
69A
  8
UMCL1
  6
HIDDEN
 62
     3
 10
1400.4615766619979
 20
1028.482334669804
 30
0.0
 11
1400.2115766619979
 21
1020.482334669804
 31
0.0
  0
LINE
  5
69B
  8
UMCL1
  6
HIDDEN
 62
     3
 10
1413.3015766619981
 20
1028.482334669804
 30
0.0
 11
1413.5515766619981
 21
1020.482334669804
 31
0.0
  0
LINE
  5
69C
  8
UMCL1
  6
HIDDEN
 62
     3
 10
1413.861576661998
 20
1028.482334669804
 30
0.0
 11
1414.111576661998
 21
1020.482334669804
 31
0.0
  0
LINE
  5
69D
  8
UMCL1
  6
HIDDEN
 62
     3
 10
1423.021576661999
 20
1028.482334669804
 30
0.0
 11
1422.771576661999
 21
1020.482334669804
 31
0.0
  0
LINE
  5
69E
  8
UMCL1
  6
HIDDEN
 62
     3
 10
1422.4615766619991
 20
1028.482334669804
 30
0.0
 11
1422.2115766619979
 21
1020.482334669804
 31
0.0
  0
LINE
  5
69F
  8
UMCL1
  6
CENTER
 62
     1
 10
1396.1615766619991
 20
1018.982334669804
 30
0.0
 11
1396.1615766619991
 21
1029.982334669804
 31
0.0
  0
LINE
  5
6A0
  8
UMCL1
  6
CENTER
 62
     1
 10
1418.161576661998
 20
1018.982334669804
 30
0.0
 11
1418.161576661998
 21
1029.982334669804
 31
0.0
  0
TEXT
  5
6A1
  8
UMCL2
  6
CONTINUOUS
 10
1394.772166349783
 20
863.20072291616236
 30
0.0
 40
3.0
  1
B
  7
ROMANS
  0
CIRCLE
  5
6A2
  8
UMCL2
  6
CONTINUOUS
 10
1396.161576661998
 20
864.6963066772812
 30
0.0
 40
2.5
  0
CIRCLE
  5
6A3
  8
UMCL1
  6
CONTINUOUS
 10
1396.161576661998
 20
854.63630667728125
 30
0.0
 40
4.2999999999999989
  0
ARC
  5
6A4
  8
UMCL1
  6
CONTINUOUS
 62
     3
 10
1396.161576661998
 20
854.63630667728125
 30
0.0
 40
4.8599999999999994
 50
344.99999999999932
 51
284.99999999999437
  0
TEXT
  5
6A5
  8
UMCL2
  6
CONTINUOUS
 10
1416.7289443158479
 20
825.44920642293778
 30
0.0
 40
3.0
  1
A
  7
ROMANS
  0
CIRCLE
  5
6A6
  8
UMCL2
  6
CONTINUOUS
 10
1418.161576661998
 20
826.69630667728097
 30
0.0
 40
2.5
  0
CIRCLE
  5
6A7
  8
UMCL1
  6
CONTINUOUS
 10
1418.161576661998
 20
816.63630667728091
 30
0.0
 40
4.2999999999999989
  0
ARC
  5
6A8
  8
UMCL1
  6
CONTINUOUS
 62
     3
 10
1418.161576661998
 20
816.63630667728091
 30
0.0
 40
4.8599999999999994
 50
344.99999999999932
 51
284.99999999999437
  0
LINE
  5
6A9
  8
UMCL1
  6
CENTER
 62
     1
 10
1390.3295766619981
 20
854.63630667728125
 30
0.0
 11
1401.9935766619981
 21
854.63630667728125
 31
0.0
  0
LINE
  5
6AA
  8
UMCL1
  6
CENTER
 62
     1
 10
1396.161576661998
 20
860.46830667728102
 30
0.0
 11
1396.161576661998
 21
848.80430667728115
 31
0.0
  0
LINE
  5
6AB
  8
UMCL1
  6
CENTER
 62
     1
 10
1412.3295766619981
 20
816.63630667728091
 30
0.0
 11
1423.9935766619981
 21
816.63630667728091
 31
0.0
  0
LINE
  5
6AC
  8
UMCL1
  6
CENTER
 62
     1
 10
1418.161576661998
 20
822.46830667728079
 30
0.0
 11
1418.161576661998
 21
810.80430667728092
 31
0.0
  0
LINE
  5
6AD
  8
UMCL2
  6
CONTINUOUS
 10
1463.161576661998
 20
994.482334669804
 30
0.0
 11
1471.161576661998
 21
994.482334669804
 31
0.0
  0
LINE
  5
6AE
  8
UMCL2
  6
CONTINUOUS
 10
1463.161576661998
 20
1005.482334669804
 30
0.0
 11
1471.161576661998
 21
1005.482334669804
 31
0.0
  0
LINE
  5
6AF
  8
UMCL2
  6
CONTINUOUS
 10
1470.1615766619991
 20
996.982334669804
 30
0.0
 11
1470.1615766619991
 21
1002.982334669804
 31
0.0
  0
SOLID
  5
6B0
  8
UMCL2
  6
CONTINUOUS
 10
1469.7449099953319
 20
996.982334669804
 30
0.0
 11
1470.5782433286649
 21
996.982334669804
 31
0.0
 12
1470.1615766619991
 22
994.482334669804
 32
0.0
 13
1470.1615766619991
 23
994.482334669804
 33
0.0
  0
SOLID
  5
6B1
  8
UMCL2
  6
CONTINUOUS
 10
1469.7449099953319
 20
1002.982334669804
 30
0.0
 11
1470.5782433286649
 21
1002.982334669804
 31
0.0
 12
1470.1615766619991
 22
1005.482334669804
 32
0.0
 13
1470.1615766619991
 23
1005.482334669804
 33
0.0
  0
INSERT
  5
6B2
  8
0
  2
*U3
 10
0.0
 20
0.0
 30
0.0
  0
LINE
  5
6B3
  8
UMCL2
  6
CONTINUOUS
 10
1448.2333734317231
 20
990.48233466980389
 30
0.0
 11
1479.161576661998
 21
990.48233466980389
 31
0.0
  0
LINE
  5
6B4
  8
UMCL2
  6
CONTINUOUS
 10
1448.2333734317231
 20
1009.482334669804
 30
0.0
 11
1479.161576661998
 21
1009.482334669804
 31
0.0
  0
LINE
  5
6B5
  8
UMCL2
  6
CONTINUOUS
 10
1478.1615766619991
 20
992.98233466980389
 30
0.0
 11
1478.1615766619991
 21
1006.982334669804
 31
0.0
  0
SOLID
  5
6B6
  8
UMCL2
  6
CONTINUOUS
 10
1477.7449099953319
 20
992.98233466980389
 30
0.0
 11
1478.5782433286649
 21
992.98233466980389
 31
0.0
 12
1478.1615766619991
 22
990.48233466980389
 32
0.0
 13
1478.1615766619991
 23
990.48233466980389
 33
0.0
  0
SOLID
  5
6B7
  8
UMCL2
  6
CONTINUOUS
 10
1477.7449099953319
 20
1006.982334669804
 30
0.0
 11
1478.5782433286649
 21
1006.982334669804
 31
0.0
 12
1478.1615766619991
 22
1009.482334669804
 32
0.0
 13
1478.1615766619991
 23
1009.482334669804
 33
0.0
  0
INSERT
  5
6B8
  8
0
  2
*U4
 10
0.0
 20
0.0
 30
0.0
  0
LINE
  5
6B9
  8
UMCL2
  6
CONTINUOUS
 10
1436.411576661998
 20
977.98233466980389
 30
0.0
 11
1487.161576661998
 21
977.98233466980389
 31
0.0
  0
LINE
  5
6BA
  8
UMCL2
  6
CONTINUOUS
 10
1436.411576661998
 20
1021.982334669804
 30
0.0
 11
1487.161576661998
 21
1021.982334669804
 31
0.0
  0
LINE
  5
6BB
  8
UMCL2
  6
CONTINUOUS
 10
1486.1615766619991
 20
980.48233466980389
 30
0.0
 11
1486.1615766619991
 21
1019.482334669804
 31
0.0
  0
SOLID
  5
6BC
  8
UMCL2
  6
CONTINUOUS
 10
1485.7449099953319
 20
980.48233466980389
 30
0.0
 11
1486.5782433286649
 21
980.48233466980389
 31
0.0
 12
1486.1615766619991
 22
977.98233466980389
 32
0.0
 13
1486.1615766619991
 23
977.98233466980389
 33
0.0
  0
SOLID
  5
6BD
  8
UMCL2
  6
CONTINUOUS
 10
1485.7449099953319
 20
1019.482334669804
 30
0.0
 11
1486.5782433286649
 21
1019.482334669804
 31
0.0
 12
1486.1615766619991
 22
1021.982334669804
 32
0.0
 13
1486.1615766619991
 23
1021.982334669804
 33
0.0
  0
INSERT
  5
6BE
  8
0
  2
*U5
 10
0.0
 20
0.0
 30
0.0
  0
LINE
  5
6BF
  8
UMCL2
  6
CONTINUOUS
 10
1431.7571270899921
 20
971.482334669804
 30
0.0
 11
1495.1615766619991
 21
971.482334669804
 31
0.0
  0
LINE
  5
6C0
  8
UMCL2
  6
CONTINUOUS
 10
1431.7571270899921
 20
1028.482334669804
 30
0.0
 11
1495.1615766619991
 21
1028.482334669804
 31
0.0
  0
LINE
  5
6C1
  8
UMCL2
  6
CONTINUOUS
 10
1494.1615766619991
 20
973.982334669804
 30
0.0
 11
1494.1615766619991
 21
1025.982334669804
 31
0.0
  0
SOLID
  5
6C2
  8
UMCL2
  6
CONTINUOUS
 10
1493.7449099953319
 20
973.982334669804
 30
0.0
 11
1494.5782433286649
 21
973.982334669804
 31
0.0
 12
1494.1615766619991
 22
971.482334669804
 32
0.0
 13
1494.1615766619991
 23
971.482334669804
 33
0.0
  0
SOLID
  5
6C3
  8
UMCL2
  6
CONTINUOUS
 10
1493.7449099953319
 20
1025.982334669804
 30
0.0
 11
1494.5782433286649
 21
1025.982334669804
 31
0.0
 12
1494.1615766619991
 22
1028.482334669804
 32
0.0
 13
1494.1615766619991
 23
1028.482334669804
 33
0.0
  0
INSERT
  5
6C4
  8
0
  2
*U6
 10
0.0
 20
0.0
 30
0.0
  0
LINE
  5
6C5
  8
UMCL2
  6
CONTINUOUS
 10
1482.16606775537
 20
996.41137558442608
 30
0.0
 11
1484.7886133766781
 21
996.41137558442608
 31
0.0
  0
LINE
  5
6C6
  8
UMCL2
  6
CONTINUOUS
 10
1484.7886133766781
 20
996.41137558442608
 30
0.0
 11
1484.7886133766781
 21
994.0015291071993
 31
0.0
  0
LINE
  5
6C7
  8
UMCL2
  6
CONTINUOUS
 10
1484.7886133766781
 20
994.0015291071993
 30
0.0
 11
1482.16606775537
 21
994.0015291071993
 31
0.0
  0
LINE
  5
6C8
  8
UMCL2
  6
CONTINUOUS
 10
1482.16606775537
 20
994.0015291071993
 30
0.0
 11
1482.16606775537
 21
996.41137558442608
 31
0.0
  0
LINE
  5
6C9
  8
UMCL2
  6
CONTINUOUS
 10
1490.16606775537
 20
996.4113755844262
 30
0.0
 11
1492.7886133766781
 21
996.4113755844262
 31
0.0
  0
LINE
  5
6CA
  8
UMCL2
  6
CONTINUOUS
 10
1492.7886133766781
 20
996.4113755844262
 30
0.0
 11
1492.7886133766781
 21
994.0015291071993
 31
0.0
  0
LINE
  5
6CB
  8
UMCL2
  6
CONTINUOUS
 10
1492.7886133766781
 20
994.0015291071993
 30
0.0
 11
1490.16606775537
 21
994.0015291071993
 31
0.0
  0
LINE
  5
6CC
  8
UMCL2
  6
CONTINUOUS
 10
1490.16606775537
 20
994.0015291071993
 30
0.0
 11
1490.16606775537
 21
996.4113755844262
 31
0.0
  0
TEXT
  5
6CD
  8
UMCL2
  6
CONTINUOUS
 10
1456.4317119463651
 20
964.13297982872984
 30
0.0
 40
3.0
  1
4-%%C6.8 Through-hole 
  7
ROMANSS
 72
     2
 11
1509.14599766065
 21
965.63297982872973
 31
0.0
 73
     2
  0
LINE
  5
6CE
  8
UMCL2
  6
CONTINUOUS
 10
1509.759670347159
 20
962.42055756565878
 30
0.0
 11
1450.1732149099389
 21
962.42055756565878
 31
0.0
  0
TEXT
  5
6CF
  8
UMCL2
  6
CONTINUOUS
 10
1449.995555784438
 20
957.96967333996838
 30
0.0
 40
3.0
  1
Counter bore %%C10.5x6.5dp
  7
ROMANSS
 72
     2
 11
1508.995555784438
 21
959.46967333996838
 31
0.0
 73
     2
  0
LINE
  5
6D0
  8
UMCL2
 10
1450.1732149099389
 20
962.42055756565878
 30
0.0
 11
1433.3804823450459
 21
974.85770111728107
 31
0.0
  0
SOLID
  5
6D1
  8
UMCL2
  6
CONTINUOUS
 10
1436.0748842713899
 20
973.44695724991516
 30
0.0
 11
1435.471702372442
 21
972.64935359095841
 31
0.0
 12
1433.380482345045
 22
974.85770111728107
 32
0.0
 13
1433.380482345045
 23
974.85770111728107
 33
0.0
  0
LINE
  5
6D2
  8
UMCL2
  6
CONTINUOUS
 10
1396.1615766619991
 20
968.98233466980389
 30
0.0
 11
1396.1615766619991
 21
961.75692556690944
 31
0.0
  0
LINE
  5
6D3
  8
UMCL2
  6
CONTINUOUS
 10
1418.161576661998
 20
968.98233466980389
 30
0.0
 11
1418.161576661998
 21
961.75692556690944
 31
0.0
  0
LINE
  5
6D4
  8
UMCL2
  6
CONTINUOUS
 10
1398.661576661998
 20
962.75692556690944
 30
0.0
 11
1415.6615766619991
 21
962.75692556690944
 31
0.0
  0
SOLID
  5
6D5
  8
UMCL2
  6
CONTINUOUS
 10
1398.661576661998
 20
963.17359223357596
 30
0.0
 11
1398.661576661998
 21
962.34025890024247
 31
0.0
 12
1396.1615766619991
 22
962.75692556690944
 32
0.0
 13
1396.1615766619991
 23
962.75692556690944
 33
0.0
  0
SOLID
  5
6D6
  8
UMCL2
  6
CONTINUOUS
 10
1415.6615766619991
 20
963.17359223357596
 30
0.0
 11
1415.6615766619991
 21
962.34025890024247
 31
0.0
 12
1418.161576661998
 22
962.75692556690944
 32
0.0
 13
1418.161576661998
 23
962.75692556690944
 33
0.0
  0
INSERT
  5
6D7
  8
0
  2
*U7
 10
0.0
 20
0.0
 30
0.0
  0
LINE
  5
6D8
  8
UMCL2
  6
CONTINUOUS
 10
1357.7665693452809
 20
960.33132795520658
 30
0.0
 11
1383.8755861718189
 21
960.33132795520658
 31
0.0
  0
TEXT
  5
6D9
  8
UMCL2
  6
CONTINUOUS
 10
1358.3328563409341
 20
961.83132795520646
 30
0.0
 40
3.0
  1
2x2-PT1/8
  7
ROMANSS
 72
     2
 11
1383.1899991980761
 21
963.33132795520658
 31
0.0
 73
     2
  0
LINE
  5
6DA
  8
UMCL2
 10
1383.8755861718189
 20
960.33132795520658
 30
0.0
 11
1396.1739685595639
 21
971.49358179986427
 31
0.0
  0
SOLID
  5
6DB
  8
UMCL2
  6
CONTINUOUS
 10
1393.597781827086
 20
969.87661484480736
 30
0.0
 11
1394.260682593065
 21
969.12790757593268
 31
0.0
 12
1396.175354016699
 22
971.49096350830439
 32
0.0
 13
1396.175354016699
 23
971.49096350830439
 33
0.0
  0
LINE
  5
6DC
  8
UMCL2
  6
CONTINUOUS
 10
1397.161576661998
 20
995.482334669804
 30
0.0
 11
1371.3738940898179
 21
995.482334669804
 31
0.0
  0
LINE
  5
6DD
  8
UMCL2
  6
CONTINUOUS
 10
1397.161576661998
 20
1004.482334669804
 30
0.0
 11
1371.3738940898179
 21
1004.482334669804
 31
0.0
  0
LINE
  5
6DE
  8
UMCL2
  6
CONTINUOUS
 10
1372.3738940898179
 20
997.982334669804
 30
0.0
 11
1372.3738940898179
 21
1001.982334669804
 31
0.0
  0
SOLID
  5
6DF
  8
UMCL2
  6
CONTINUOUS
 10
1371.9572274231509
 20
997.982334669804
 30
0.0
 11
1372.790560756484
 21
997.982334669804
 31
0.0
 12
1372.3738940898179
 22
995.482334669804
 32
0.0
 13
1372.3738940898179
 23
995.482334669804
 33
0.0
  0
SOLID
  5
6E0
  8
UMCL2
  6
CONTINUOUS
 10
1371.9572274231509
 20
1001.982334669804
 30
0.0
 11
1372.790560756484
 21
1001.982334669804
 31
0.0
 12
1372.3738940898179
 22
1004.482334669804
 32
0.0
 13
1372.3738940898179
 23
1004.482334669804
 33
0.0
  0
INSERT
  5
6E1
  8
0
  2
*U8
 10
0.0
 20
0.0
 30
0.0
  0
LINE
  5
6E2
  8
UMCL2
  6
CONTINUOUS
 10
1429.161576661998
 20
925.33630667728175
 30
0.0
 11
1429.161576661998
 21
937.63630667728137
 31
0.0
  0
LINE
  5
6E3
  8
UMCL2
  6
CONTINUOUS
 10
1457.161576661998
 20
930.78856703714882
 30
0.0
 11
1457.161576661998
 21
937.63630667728137
 31
0.0
  0
LINE
  5
6E4
  8
UMCL2
  6
CONTINUOUS
 10
1431.661576661998
 20
936.63630667728137
 30
0.0
 11
1454.661576661998
 21
936.63630667728137
 31
0.0
  0
SOLID
  5
6E5
  8
UMCL2
  6
CONTINUOUS
 10
1431.661576661998
 20
937.05297334394811
 30
0.0
 11
1431.661576661998
 21
936.21964001061485
 31
0.0
 12
1429.161576661998
 22
936.63630667728137
 32
0.0
 13
1429.161576661998
 23
936.63630667728137
 33
0.0
  0
SOLID
  5
6E6
  8
UMCL2
  6
CONTINUOUS
 10
1454.661576661998
 20
937.05297334394811
 30
0.0
 11
1454.661576661998
 21
936.21964001061485
 31
0.0
 12
1457.161576661998
 22
936.63630667728137
 32
0.0
 13
1457.161576661998
 23
936.63630667728137
 33
0.0
  0
INSERT
  5
6E7
  8
0
  2
*U9
 10
0.0
 20
0.0
 30
0.0
  0
LINE
  5
6E8
  8
UMCL2
  6
CONTINUOUS
 10
1429.161576661998
 20
925.33630667728175
 30
0.0
 11
1429.161576661998
 21
937.63630667728137
 31
0.0
  0
LINE
  5
6E9
  8
UMCL2
  6
CONTINUOUS
 10
1407.161576661998
 20
931.63630667728148
 30
0.0
 11
1407.161576661998
 21
937.63630667728137
 31
0.0
  0
LINE
  5
6EA
  8
UMCL2
  6
CONTINUOUS
 10
1426.661576661998
 20
936.63630667728137
 30
0.0
 11
1409.661576661998
 21
936.63630667728137
 31
0.0
  0
SOLID
  5
6EB
  8
UMCL2
  6
CONTINUOUS
 10
1426.661576661998
 20
937.05297334394811
 30
0.0
 11
1426.661576661998
 21
936.21964001061485
 31
0.0
 12
1429.161576661998
 22
936.63630667728137
 32
0.0
 13
1429.161576661998
 23
936.63630667728137
 33
0.0
  0
SOLID
  5
6EC
  8
UMCL2
  6
CONTINUOUS
 10
1409.661576661998
 20
937.05297334394811
 30
0.0
 11
1409.661576661998
 21
936.21964001061485
 31
0.0
 12
1407.161576661998
 22
936.63630667728137
 32
0.0
 13
1407.161576661998
 23
936.63630667728137
 33
0.0
  0
INSERT
  5
6ED
  8
0
  2
*U10
 10
0.0
 20
0.0
 30
0.0
  0
LINE
  5
6EE
  8
UMCL2
  6
CONTINUOUS
 10
1407.161576661998
 20
931.63630667728148
 30
0.0
 11
1407.161576661998
 21
945.63630667728137
 31
0.0
  0
LINE
  5
6EF
  8
UMCL2
  6
CONTINUOUS
 10
1457.161576661998
 20
930.78856703714882
 30
0.0
 11
1457.161576661998
 21
945.63630667728137
 31
0.0
  0
LINE
  5
6F0
  8
UMCL2
  6
CONTINUOUS
 10
1409.661576661998
 20
944.63630667728137
 30
0.0
 11
1454.661576661998
 21
944.63630667728137
 31
0.0
  0
SOLID
  5
6F1
  8
UMCL2
  6
CONTINUOUS
 10
1409.661576661998
 20
945.05297334394811
 30
0.0
 11
1409.661576661998
 21
944.21964001061485
 31
0.0
 12
1407.161576661998
 22
944.63630667728137
 32
0.0
 13
1407.161576661998
 23
944.63630667728137
 33
0.0
  0
SOLID
  5
6F2
  8
UMCL2
  6
CONTINUOUS
 10
1454.661576661998
 20
945.05297334394811
 30
0.0
 11
1454.661576661998
 21
944.21964001061485
 31
0.0
 12
1457.161576661998
 22
944.63630667728137
 32
0.0
 13
1457.161576661998
 23
944.63630667728137
 33
0.0
  0
INSERT
  5
6F3
  8
0
  2
*U11
 10
0.0
 20
0.0
 30
0.0
  0
LINE
  5
6F4
  8
UMCL2
  6
CONTINUOUS
 10
1462.161576661998
 20
921.63630667728137
 30
0.0
 11
1462.161576661998
 21
953.63630667728137
 31
0.0
  0
LINE
  5
6F5
  8
UMCL2
  6
CONTINUOUS
 10
1398.161576661998
 20
929.63630667728125
 30
0.0
 11
1398.161576661998
 21
953.63630667728137
 31
0.0
  0
LINE
  5
6F6
  8
UMCL2
  6
CONTINUOUS
 10
1459.661576661998
 20
952.63630667728137
 30
0.0
 11
1400.661576661998
 21
952.63630667728137
 31
0.0
  0
SOLID
  5
6F7
  8
UMCL2
  6
CONTINUOUS
 10
1459.661576661998
 20
953.05297334394811
 30
0.0
 11
1459.661576661998
 21
952.21964001061485
 31
0.0
 12
1462.161576661998
 22
952.63630667728137
 32
0.0
 13
1462.161576661998
 23
952.63630667728137
 33
0.0
  0
SOLID
  5
6F8
  8
UMCL2
  6
CONTINUOUS
 10
1400.661576661998
 20
953.05297334394811
 30
0.0
 11
1400.661576661998
 21
952.21964001061485
 31
0.0
 12
1398.161576661998
 22
952.63630667728137
 32
0.0
 13
1398.161576661998
 23
952.63630667728137
 33
0.0
  0
INSERT
  5
6F9
  8
0
  2
*U12
 10
0.0
 20
0.0
 30
0.0
  0
LINE
  5
6FA
  8
UMCL2
  6
CONTINUOUS
 10
1435.361576661998
 20
919.13630667728171
 30
0.0
 11
1444.902220227063
 21
919.13630667728171
 31
0.0
  0
LINE
  5
6FB
  8
UMCL2
  6
CONTINUOUS
 10
1435.361576661998
 20
895.13630667728103
 30
0.0
 11
1444.902220227063
 21
895.13630667728103
 31
0.0
  0
LINE
  5
6FC
  8
UMCL2
  6
CONTINUOUS
 10
1443.902220227063
 20
916.63630667728171
 30
0.0
 11
1443.902220227063
 21
897.63630667728103
 31
0.0
  0
INSERT
  5
6FD
  8
0
  2
*U13
 10
0.0
 20
0.0
 30
0.0
  0
SOLID
  5
6FE
  8
UMCL2
  6
CONTINUOUS
 10
1443.4855535603961
 20
916.63630667728171
 30
0.0
 11
1444.31888689373
 21
916.63630667728171
 31
0.0
 12
1443.902220227063
 22
919.13630667728171
 32
0.0
 13
1443.902220227063
 23
919.13630667728171
 33
0.0
  0
SOLID
  5
6FF
  8
UMCL2
  6
CONTINUOUS
 10
1443.4855535603961
 20
897.63630667728103
 30
0.0
 11
1444.31888689373
 21
897.63630667728103
 31
0.0
 12
1443.902220227063
 22
895.13630667728103
 32
0.0
 13
1443.902220227063
 23
895.13630667728103
 33
0.0
  0
LINE
  5
700
  8
UMCL2
  6
CONTINUOUS
 10
1436.161576661998
 20
797.63630667728137
 30
0.0
 11
1463.161576661998
 21
797.63630667728137
 31
0.0
  0
LINE
  5
701
  8
UMCL2
  6
CONTINUOUS
 10
1424.9935766619981
 20
816.63630667728091
 30
0.0
 11
1463.161576661998
 21
816.63630667728091
 31
0.0
  0
LINE
  5
702
  8
UMCL2
  6
CONTINUOUS
 10
1462.161576661998
 20
800.13630667728137
 30
0.0
 11
1462.161576661998
 21
814.13630667728091
 31
0.0
  0
SOLID
  5
703
  8
UMCL2
  6
CONTINUOUS
 10
1461.7449099953319
 20
800.13630667728137
 30
0.0
 11
1462.5782433286649
 21
800.13630667728137
 31
0.0
 12
1462.161576661998
 22
797.63630667728137
 32
0.0
 13
1462.161576661998
 23
797.63630667728137
 33
0.0
  0
SOLID
  5
704
  8
UMCL2
  6
CONTINUOUS
 10
1461.7449099953319
 20
814.13630667728091
 30
0.0
 11
1462.5782433286649
 21
814.13630667728091
 31
0.0
 12
1462.161576661998
 22
816.63630667728091
 32
0.0
 13
1462.161576661998
 23
816.63630667728091
 33
0.0
  0
INSERT
  5
705
  8
0
  2
*U14
 10
0.0
 20
0.0
 30
0.0
  0
LINE
  5
706
  8
UMCL2
  6
CONTINUOUS
 10
1424.9935766619981
 20
816.63630667728091
 30
0.0
 11
1463.161576661998
 21
816.63630667728091
 31
0.0
  0
LINE
  5
707
  8
UMCL2
  6
CONTINUOUS
 10
1402.9935766619981
 20
854.63630667728125
 30
0.0
 11
1463.161576661998
 21
854.63630667728103
 31
0.0
  0
LINE
  5
708
  8
UMCL2
  6
CONTINUOUS
 10
1462.161576661998
 20
819.1363066772808
 30
0.0
 11
1462.161576661998
 21
852.13630667728125
 31
0.0
  0
SOLID
  5
709
  8
UMCL2
  6
CONTINUOUS
 10
1461.7449099953319
 20
819.1363066772808
 30
0.0
 11
1462.5782433286649
 21
819.1363066772808
 31
0.0
 12
1462.161576661998
 22
816.63630667728091
 32
0.0
 13
1462.161576661998
 23
816.63630667728091
 33
0.0
  0
SOLID
  5
70A
  8
UMCL2
  6
CONTINUOUS
 10
1461.7449099953319
 20
852.13630667728125
 30
0.0
 11
1462.5782433286649
 21
852.13630667728125
 31
0.0
 12
1462.161576661998
 22
854.63630667728103
 32
0.0
 13
1462.161576661998
 23
854.63630667728103
 33
0.0
  0
INSERT
  5
70B
  8
0
  2
*U15
 10
0.0
 20
0.0
 30
0.0
  0
LINE
  5
70C
  8
UMCL2
  6
CONTINUOUS
 10
1436.161576661998
 20
797.63630667728137
 30
0.0
 11
1471.161576661998
 21
797.63630667728137
 31
0.0
  0
LINE
  5
70D
  8
UMCL2
  6
CONTINUOUS
 10
1438.161576661998
 20
882.63630667728103
 30
0.0
 11
1471.161576661998
 21
882.63630667728103
 31
0.0
  0
LINE
  5
70E
  8
UMCL2
  6
CONTINUOUS
 10
1470.1615766619991
 20
800.13630667728137
 30
0.0
 11
1470.1615766619991
 21
880.13630667728091
 31
0.0
  0
SOLID
  5
70F
  8
UMCL2
  6
CONTINUOUS
 10
1469.7449099953319
 20
800.13630667728137
 30
0.0
 11
1470.5782433286649
 21
800.13630667728137
 31
0.0
 12
1470.1615766619991
 22
797.63630667728137
 32
0.0
 13
1470.1615766619991
 23
797.63630667728137
 33
0.0
  0
SOLID
  5
710
  8
UMCL2
  6
CONTINUOUS
 10
1469.7449099953319
 20
880.13630667728091
 30
0.0
 11
1470.5782433286649
 21
880.13630667728091
 31
0.0
 12
1470.1615766619991
 22
882.63630667728103
 32
0.0
 13
1470.1615766619991
 23
882.63630667728103
 33
0.0
  0
INSERT
  5
711
  8
0
  2
*U16
 10
0.0
 20
0.0
 30
0.0
  0
LINE
  5
712
  8
UMCL2
  6
CONTINUOUS
 10
1462.161576661998
 20
908.63630667728148
 30
0.0
 11
1462.161576661998
 21
886.49816548954573
 31
0.0
  0
LINE
  5
713
  8
UMCL2
  6
CONTINUOUS
 10
1437.1615766619971
 20
894.13630868500866
 30
0.0
 11
1437.1615766619971
 21
886.49816548954573
 31
0.0
  0
LINE
  5
714
  8
UMCL2
  6
CONTINUOUS
 10
1459.661576661998
 20
887.49816548954561
 30
0.0
 11
1439.6615766619971
 21
887.49816548954561
 31
0.0
  0
SOLID
  5
715
  8
UMCL2
  6
CONTINUOUS
 10
1459.661576661998
 20
887.91483215621247
 30
0.0
 11
1459.661576661998
 21
887.08149882287898
 31
0.0
 12
1462.161576661998
 22
887.49816548954561
 32
0.0
 13
1462.161576661998
 23
887.49816548954561
 33
0.0
  0
SOLID
  5
716
  8
UMCL2
  6
CONTINUOUS
 10
1439.6615766619971
 20
887.91483215621247
 30
0.0
 11
1439.6615766619971
 21
887.08149882287898
 31
0.0
 12
1437.1615766619971
 22
887.49816548954561
 32
0.0
 13
1437.1615766619971
 23
887.49816548954561
 33
0.0
  0
INSERT
  5
717
  8
0
  2
*U17
 10
0.0
 20
0.0
 30
0.0
  0
LINE
  5
718
  8
UMCL2
  6
CONTINUOUS
 10
1463.161576661998
 20
909.63630667728148
 30
0.0
 11
1471.161576661998
 21
909.63630667728148
 31
0.0
  0
LINE
  5
719
  8
UMCL2
  6
CONTINUOUS
 10
1463.161576661998
 20
920.63630667728137
 30
0.0
 11
1471.161576661998
 21
920.63630667728137
 31
0.0
  0
LINE
  5
71A
  8
UMCL2
  6
CONTINUOUS
 10
1470.1615766619991
 20
912.13630667728148
 30
0.0
 11
1470.1615766619991
 21
918.13630667728148
 31
0.0
  0
SOLID
  5
71B
  8
UMCL2
  6
CONTINUOUS
 10
1469.7449099953319
 20
912.13630667728148
 30
0.0
 11
1470.5782433286649
 21
912.13630667728148
 31
0.0
 12
1470.1615766619991
 22
909.63630667728148
 32
0.0
 13
1470.1615766619991
 23
909.63630667728148
 33
0.0
  0
SOLID
  5
71C
  8
UMCL2
  6
CONTINUOUS
 10
1469.7449099953319
 20
918.13630667728148
 30
0.0
 11
1470.5782433286649
 21
918.13630667728148
 31
0.0
 12
1470.1615766619991
 22
920.63630667728137
 32
0.0
 13
1470.1615766619991
 23
920.63630667728137
 33
0.0
  0
INSERT
  5
71D
  8
0
  2
*U18
 10
0.0
 20
0.0
 30
0.0
  0
LINE
  5
71E
  8
UMCL2
  6
CONTINUOUS
 10
1436.161576661998
 20
797.63630667728137
 30
0.0
 11
1479.161576661998
 21
797.63630667728137
 31
0.0
  0
LINE
  5
71F
  8
UMCL2
  6
CONTINUOUS
 10
1463.161576661998
 20
909.63630667728148
 30
0.0
 11
1479.161576661998
 21
909.63630667728148
 31
0.0
  0
LINE
  5
720
  8
UMCL2
  6
CONTINUOUS
 10
1478.1615766619991
 20
800.13630667728137
 30
0.0
 11
1478.1615766619991
 21
907.13630667728137
 31
0.0
  0
SOLID
  5
721
  8
UMCL2
  6
CONTINUOUS
 10
1477.7449099953319
 20
800.13630667728137
 30
0.0
 11
1478.5782433286649
 21
800.13630667728137
 31
0.0
 12
1478.1615766619991
 22
797.63630667728137
 32
0.0
 13
1478.1615766619991
 23
797.63630667728137
 33
0.0
  0
SOLID
  5
722
  8
UMCL2
  6
CONTINUOUS
 10
1477.7449099953319
 20
907.13630667728137
 30
0.0
 11
1478.5782433286649
 21
907.13630667728137
 31
0.0
 12
1478.1615766619991
 22
909.63630667728148
 32
0.0
 13
1478.1615766619991
 23
909.63630667728148
 33
0.0
  0
INSERT
  5
723
  8
0
  2
*U19
 10
0.0
 20
0.0
 30
0.0
  0
LINE
  5
724
  8
UMCL2
  6
CONTINUOUS
 10
1463.161576661998
 20
909.63630667728148
 30
0.0
 11
1479.161576661998
 21
909.63630667728148
 31
0.0
  0
LINE
  5
725
  8
UMCL2
  6
CONTINUOUS
 10
1448.2333734317219
 20
928.63630667728137
 30
0.0
 11
1479.161576661998
 21
928.63630667728137
 31
0.0
  0
LINE
  5
726
  8
UMCL2
  6
CONTINUOUS
 10
1478.1615766619991
 20
912.13630667728148
 30
0.0
 11
1478.1615766619991
 21
926.13630667728137
 31
0.0
  0
SOLID
  5
727
  8
UMCL2
  6
CONTINUOUS
 10
1477.7449099953319
 20
912.13630667728148
 30
0.0
 11
1478.5782433286649
 21
912.13630667728148
 31
0.0
 12
1478.1615766619991
 22
909.63630667728148
 32
0.0
 13
1478.1615766619991
 23
909.63630667728148
 33
0.0
  0
SOLID
  5
728
  8
UMCL2
  6
CONTINUOUS
 10
1477.7449099953319
 20
926.13630667728137
 30
0.0
 11
1478.5782433286649
 21
926.13630667728137
 31
0.0
 12
1478.1615766619991
 22
928.63630667728137
 32
0.0
 13
1478.1615766619991
 23
928.63630667728137
 33
0.0
  0
INSERT
  5
729
  8
0
  2
*U20
 10
0.0
 20
0.0
 30
0.0
  0
LINE
  5
72A
  8
UMCL2
  6
CONTINUOUS
 10
1436.161576661998
 20
797.63630667728137
 30
0.0
 11
1487.161576661998
 21
797.63630667728137
 31
0.0
  0
LINE
  5
72B
  8
UMCL2
  6
CONTINUOUS
 10
1448.2333734317219
 20
928.63630667728137
 30
0.0
 11
1487.161576661998
 21
928.63630667728137
 31
0.0
  0
LINE
  5
72C
  8
UMCL2
  6
CONTINUOUS
 10
1486.161576661998
 20
800.13630667728137
 30
0.0
 11
1486.1615766619991
 21
926.13630667728137
 31
0.0
  0
SOLID
  5
72D
  8
UMCL2
  6
CONTINUOUS
 10
1485.7449099953319
 20
800.13630667728137
 30
0.0
 11
1486.5782433286649
 21
800.13630667728137
 31
0.0
 12
1486.161576661998
 22
797.63630667728137
 32
0.0
 13
1486.161576661998
 23
797.63630667728137
 33
0.0
  0
SOLID
  5
72E
  8
UMCL2
  6
CONTINUOUS
 10
1485.7449099953319
 20
926.13630667728137
 30
0.0
 11
1486.5782433286649
 21
926.13630667728137
 31
0.0
 12
1486.1615766619991
 22
928.63630667728137
 32
0.0
 13
1486.1615766619991
 23
928.63630667728137
 33
0.0
  0
INSERT
  5
72F
  8
0
  2
*U21
 10
0.0
 20
0.0
 30
0.0
  0
LINE
  5
730
  8
UMCL2
  6
CONTINUOUS
 10
1408.373302279658
 20
920.02045656700955
 30
0.0
 11
1405.949851044337
 21
918.25215678755364
 31
0.0
  0
INSERT
  5
731
  8
0
  2
*U22
 10
0.0
 20
0.0
 30
0.0
  0
SOLID
  5
732
  8
UMCL2
  6
CONTINUOUS
 10
1408.1277050880669
 20
920.35704701635962
 30
0.0
 11
1408.6188994712491
 21
919.68386611765925
 31
0.0
 12
1410.3928449757591
 22
921.49403971655613
 32
0.0
 13
1410.3928449757591
 23
921.49403971655613
 33
0.0
  0
SOLID
  5
733
  8
UMCL2
  6
CONTINUOUS
 10
1405.7042538527469
 20
918.58874723690349
 30
0.0
 11
1406.195448235929
 21
917.91556633820346
 31
0.0
 12
1403.9303083482371
 22
916.77857363800695
 32
0.0
 13
1403.9303083482371
 23
916.77857363800695
 33
0.0
  0
LINE
  5
734
  8
UMCL2
  6
CONTINUOUS
 10
1410.3928449757591
 20
921.49403971655568
 30
0.0
 11
1392.3468241810481
 21
908.40896144461863
 31
0.0
  0
LINE
  5
735
  8
UMCL1
  6
HIDDEN
 62
     6
 10
1415.911576661998
 20
928.63630667728137
 30
0.0
 11
1412.911576661998
 21
931.63630667728148
 31
0.0
  0
LINE
  5
736
  8
UMCL1
  6
HIDDEN
 62
     6
 10
1412.911576661998
 20
931.63630667728148
 30
0.0
 11
1401.411576661998
 21
931.63630667728148
 31
0.0
  0
LINE
  5
737
  8
UMCL1
  6
HIDDEN
 62
     6
 10
1401.411576661998
 20
931.63630667728148
 30
0.0
 11
1398.411576661998
 21
928.63630667728125
 31
0.0
  0
LINE
  5
738
  8
UMCL2
  6
CONTINUOUS
 10
1400.411576661998
 20
931.63630667728148
 30
0.0
 11
1386.5106568094441
 21
931.63630667728148
 31
0.0
  0
LINE
  5
739
  8
UMCL2
  6
CONTINUOUS
 10
1397.161576661998
 20
928.63630667728137
 30
0.0
 11
1386.5106568094441
 21
928.63630667728137
 31
0.0
  0
LINE
  5
73A
  8
UMCL2
  6
CONTINUOUS
 10
1387.5106568094441
 20
934.13630667728137
 30
0.0
 11
1387.5106568094441
 21
936.63630667728137
 31
0.0
  0
LINE
  5
73B
  8
UMCL2
  6
CONTINUOUS
 10
1387.5106568094441
 20
926.13630667728137
 30
0.0
 11
1387.5106568094441
 21
923.63630667728148
 31
0.0
  0
INSERT
  5
73C
  8
0
  2
*U23
 10
0.0
 20
0.0
 30
0.0
  0
LINE
  5
73D
  8
UMCL2
  6
CONTINUOUS
 10
1387.5106568094441
 20
931.63630667728148
 30
0.0
 11
1387.5106568094441
 21
928.63630667728137
 31
0.0
  0
SOLID
  5
73E
  8
UMCL2
  6
CONTINUOUS
 10
1387.093990142778
 20
934.13630667728137
 30
0.0
 11
1387.927323476111
 21
934.13630667728137
 31
0.0
 12
1387.5106568094441
 22
931.63630667728148
 32
0.0
 13
1387.5106568094441
 23
931.63630667728148
 33
0.0
  0
SOLID
  5
73F
  8
UMCL2
  6
CONTINUOUS
 10
1387.093990142778
 20
926.13630667728137
 30
0.0
 11
1387.927323476111
 21
926.13630667728137
 31
0.0
 12
1387.5106568094441
 22
928.63630667728137
 32
0.0
 13
1387.5106568094441
 23
928.63630667728137
 33
0.0
  0
TEXT
  5
740
  8
UMCL2
 10
1378.6561215581701
 20
913.27916382013859
 30
0.0
 40
3.0
  1
Raise clearnce
 50
90.0
  0
LINE
  5
741
  8
UMCL2
 10
1379.1848155273719
 20
913.42057204123353
 30
0.0
 11
1379.1848155273719
 21
946.55192674781244
 31
0.0
  0
LINE
  5
742
  8
UMCL2
 10
1380.1848155273719
 20
913.42057204123353
 30
0.0
 11
1380.1848155273719
 21
946.55192674781244
 31
0.0
  0
TEXT
  5
743
  8
UMCL2
  6
CONTINUOUS
 10
1494.135798700793
 20
809.54136237038188
 30
0.0
 40
3.0
  1
A
  7
ROMANS
  0
CIRCLE
  5
744
  8
UMCL2
  6
CONTINUOUS
 10
1495.5684310469439
 20
810.78846262472507
 30
0.0
 40
2.5
  0
TEXT
  5
745
  8
UMCL2
  6
CONTINUOUS
 10
1494.135798700793
 20
802.87592146479983
 30
0.0
 40
3.0
  1
B
  7
ROMANS
  0
CIRCLE
  5
746
  8
UMCL2
  6
CONTINUOUS
 10
1495.5684310469439
 20
804.12302171914291
 30
0.0
 40
2.5
  0
TEXT
  5
747
  8
UMCL2
  6
CONTINUOUS
 10
1501.1016846548939
 20
810.17182434821939
 30
0.0
 40
3.0
  1
Clamping port
  7
ROMANSS
 72
     2
 11
1532.6731132263219
 21
811.67182434821939
 31
0.0
 73
     2
  0
TEXT
  5
748
  8
UMCL2
  6
CONTINUOUS
 10
1500.9589945239391
 20
802.6065199733597
 30
0.0
 40
3.0
  1
Unclamping port
  7
ROMANSS
 72
     2
 11
1537.9589945239391
 21
804.10651997335981
 31
0.0
 73
     2
  0
LINE
  5
749
  8
UMCL2
 10
1491.1962399089509
 20
815.49213437693447
 30
0.0
 11
1540.2017419706799
 21
815.49213437693447
 31
0.0
  0
LINE
  5
74A
  8
UMCL2
 10
1540.2017419706799
 20
815.49213437693447
 30
0.0
 11
1540.2017419706799
 21
799.69125019079331
 31
0.0
  0
LINE
  5
74B
  8
UMCL2
 10
1540.2017419706799
 20
799.69125019079331
 30
0.0
 11
1491.1962399089509
 21
799.69125019079331
 31
0.0
  0
LINE
  5
74C
  8
UMCL2
 10
1491.1962399089509
 20
799.69125019079331
 30
0.0
 11
1491.1962399089509
 21
815.49213437693447
 31
0.0
  0
TEXT
  5
74D
  8
LOGO
 62
     7
 10
1148.752969155662
 20
774.45210126275254
 30
0.0
 40
4.2643185611669976
  1
Order example:
 41
0.8
  7
CHINESET
  0
TEXT
  5
74E
  8
LOGO
 62
     7
 10
1149.518023170016
 20
780.45537885845135
 30
0.0
 40
6.3964778417504968
  1
訂購代號：
  7
CHINESET
  0
LINE
  5
74F
  8
LOGO
 62
     4
 10
1146.9001082770981
 20
756.48065253949778
 30
0.0
 11
1146.9001082770981
 21
788.46304174825048
 31
0.0
  0
TEXT
  5
750
  8
LOGO
  6
CONTINUOUS
 10
1088.0270699852481
 20
762.76354463392363
 30
0.0
 40
4.7973583813128737
  1
金器工業股份有限公司
  7
CHINESET
  0
TEXT
  5
751
  8
LOGO
  6
CONTINUOUS
 10
1079.215271749327
 20
757.96524634649529
 30
0.0
 40
3.198238920875248
  1
MINDMAN INDUSTRIAL CO., LTD.
 41
0.85
  7
CHINESET
  0
LINE
  5
752
  8
LOGO
 62
     4
 10
1146.9001082770981
 20
782.06656390649982
 30
0.0
 11
1099.9926041042611
 21
782.06656390649982
 31
0.0
  0
LINE
  5
753
  8
LOGO
 62
     4
 10
1146.9001082770981
 20
775.6700860647494
 30
0.0
 11
1099.9926041042611
 21
775.6700860647494
 31
0.0
  0
LINE
  5
754
  8
LOGO
 62
     4
 10
1146.9001082770981
 20
769.2736082229992
 30
0.0
 11
1076.5388520178431
 21
769.2736082229992
 31
0.0
  0
LINE
  5
755
  8
LOGO
 62
     4
 10
1099.9926041042611
 20
769.2736082229992
 30
0.0
 11
1099.9926041042611
 21
788.46304174825048
 31
0.0
  0
TEXT
  5
756
  8
LOGO
 10
1132.0516692059221
 20
770.87272768343632
 30
0.0
 40
3.198238920875248
  1
mm
  7
CHINESET
 72
     1
 11
1136.011393584148
 21
772.47184714387379
 31
0.0
 73
     2
  0
TEXT
  5
757
  8
LOGO
 10
1130.3764011997489
 20
783.6656833669374
 30
0.0
 40
3.198238920875248
  1
1 : 1
  7
CHINESET
 72
     1
 11
1136.011393584148
 21
785.26480282737487
 31
0.0
 73
     2
  0
LINE
  5
758
  8
LOGO
 62
     4
 10
1125.578515471263
 20
769.2736082229992
 30
0.0
 11
1125.578515471263
 21
788.46304174825048
 31
0.0
  0
TEXT
  5
759
  8
LOGO
 10
1102.629723428751
 20
783.66725730341409
 30
209.60731008333369
 40
3.198238920875248
  1
比例 Scale:
 41
0.9
  7
CHINESET
 72
     4
 11
1112.7855597877619
 21
785.26480282737487
 31
209.60731008333369
  0
TEXT
  5
75A
  8
LOGO
 10
1102.445539133754
 20
777.31419387614903
 30
209.60731008333369
 40
3.198238920875248
  1
投影  View:
 41
0.9
  7
CHINESET
 72
     4
 11
1112.7855597877619
 21
778.86832498562455
 31
209.60731008333369
  0
TEXT
  5
75B
  8
LOGO
 10
1102.758224099679
 20
770.87272768343632
 30
209.60731008333369
 40
3.198238920875248
  1
單位  Unit:
 41
0.9
  7
CHINESET
 72
     4
 11
1112.7855597877619
 21
772.47184714387379
 31
209.60731008333369
  0
POLYLINE
  5
75C
  8
LOGO
 62
     4
 66
     1
 10
0.0
 20
0.0
 30
0.0
 70
     1
1001
GENIUS_GENREC_14
1002
{
1000
PYDIR
1011
1076.5388520178431
1021
-1.0635973680267822E+279
1031
-8.5087789297521947E+278
1021
1048.671781076361
1031
0.0
1002
}
1002
{
1000
PXDIR
1011
1545.6242257285371
1021
-1.0635973680267822E+279
1031
-8.5087789297521947E+278
1021
788.46304174825036
1031
0.0
1002
}
1002
{
1000
PORI
1011
1076.5388520178431
1021
-1.0635973680267822E+279
1031
-8.5087789297521947E+278
1021
788.46304174825036
1031
0.0
1002
}
1002
{
1000
PINS
1011
1076.5388520178431
1021
-1.0635973680267822E+279
1031
-8.5087789297521947E+278
1021
788.46304174825036
1031
0.0
1002
}
1002
{
1000
PINS2
1011
1545.6242257285371
1021
-1.0635973680267822E+279
1031
-8.5087789297521947E+278
1021
1048.671781076361
1031
0.0
1002
}
1002
{
1000
C
1070
     1
1002
}
1001
GENIUS_GENODEF_13
1002
{
1000
HIER
1070
     0
1002
}
1002
{
1000
MANEDIT
1070
     0
1002
}
1002
{
1000
NOSEL
1070
     0
1002
}
1002
{
1000
BEHIND
1070
     0
1002
}
1002
{
1000
OTHER
1070
     0
1002
}
1002
{
1000
REACTOR
1002
}
1001
GENIUS_GENOBJ-N-REC_13
1002
{
1000
OWNER
1000
GEN
1002
}
  0
VERTEX
  5
A7B
  8
LOGO
 62
     4
 10
1076.5388520178431
 20
788.46304174825036
 30
0.0
  0
VERTEX
  5
A7C
  8
LOGO
 62
     4
 10
1545.6242257285371
 20
788.46304174825036
 30
0.0
  0
VERTEX
  5
A7D
  8
LOGO
 62
     4
 10
1545.6242257285371
 20
1048.671781076361
 30
0.0
  0
VERTEX
  5
A7E
  8
LOGO
 62
     4
 10
1076.5388520178431
 20
1048.671781076361
 30
0.0
  0
SEQEND
  5
A7F
  8
LOGO
 62
     4
  0
SOLID
  5
75D
  8
LOGO
 62
     5
 10
1079.8570762260811
 20
774.59022519549114
 30
0.0
 11
1081.2399108136781
 21
774.59022519549103
 31
0.0
 12
1087.0096689205491
 22
787.70331180201674
 32
0.0
 13
1088.392503508147
 23
787.70331180201583
 33
0.0
  0
SOLID
  5
75E
  8
LOGO
 62
     5
 10
1081.8121182292371
 20
774.59022519549114
 30
0.0
 11
1083.1949528168341
 21
774.59022519549114
 31
0.0
 12
1088.392503508147
 22
786.65426487349384
 32
0.0
 13
1087.0096689205491
 23
781.58387138563739
 33
0.0
  0
SOLID
  5
75F
  8
LOGO
 62
     2
 10
1081.2399108136781
 20
774.59022519549103
 30
0.0
 11
1081.8121182292371
 21
774.59022519549114
 31
0.0
 12
1088.392503508147
 22
787.70331180201583
 32
0.0
 13
1088.9647109237051
 23
787.70331180201583
 33
0.0
  0
SOLID
  5
760
  8
LOGO
 62
     5
 10
1077.6400532695829
 20
769.82183006584614
 30
0.0
 11
1078.1168927825479
 21
769.82183006584614
 31
0.0
 12
1079.4597099652781
 22
772.20602763066847
 32
0.0
 13
1079.9365494782419
 23
772.20602763066847
 33
0.0
  0
SOLID
  5
761
  8
LOGO
 62
     5
 10
1079.4597099652781
 20
772.20602763066847
 30
0.0
 11
1079.9365494782419
 21
772.20602763066847
 31
0.0
 12
1079.4597099652781
 22
769.82183006584614
 32
0.0
 13
1079.9365494782419
 23
769.82183006584614
 33
0.0
  0
SOLID
  5
762
  8
LOGO
 62
     5
 10
1079.4597099652781
 20
769.82183006584614
 30
0.0
 11
1079.9365494782419
 21
769.82183006584614
 31
0.0
 12
1081.279366660973
 22
772.20602763066847
 32
0.0
 13
1081.7562061739379
 23
772.20602763066847
 33
0.0
  0
SOLID
  5
763
  8
LOGO
 62
     5
 10
1081.279366660973
 20
772.20602763066847
 30
0.0
 11
1081.7562061739379
 21
772.20602763066847
 31
0.0
 12
1081.279366660973
 22
769.82183006584614
 32
0.0
 13
1081.7562061739379
 23
769.82183006584614
 33
0.0
  0
POLYLINE
  5
764
  8
LOGO
 62
     5
 66
     1
 10
0.0
 20
0.0
 30
0.0
 40
0.477603678850704
 41
0.477603678850704
  0
VERTEX
  5
765
  8
LOGO
 62
     5
 10
1097.262864698117
 20
771.25234860473961
 30
0.0
 42
1.0
  0
VERTEX
  5
766
  8
LOGO
 62
     5
 10
1095.830053661565
 20
771.25234860473961
 30
0.0
 42
1.0
  0
SEQEND
  5
767
  8
LOGO
 62
     5
  0
POLYLINE
  5
768
  8
LOGO
 62
     5
 66
     1
 10
0.0
 20
0.0
 30
0.0
 70
     1
  0
VERTEX
  5
769
  8
LOGO
 62
     5
 10
1093.129141126228
 20
771.01392884825691
 30
0.0
 42
1.0000000573306349
  0
VERTEX
  5
76A
  8
LOGO
 62
     5
 10
1094.5596596651219
 20
771.01392884825691
 30
0.0
 42
1.0000000573306349
  0
SEQEND
  5
76B
  8
LOGO
 62
     5
  0
CIRCLE
  5
76C
  8
LOGO
 62
     5
 10
1093.8444003956761
 20
771.01392884825691
 30
0.0
 40
0.7152592694468146
  0
POLYLINE
  5
76D
  8
LOGO
 62
     5
 66
     1
 10
0.0
 20
0.0
 30
0.0
 70
     1
 40
0.477603678850704
 41
0.477603678850704
  0
VERTEX
  5
76E
  8
LOGO
 62
     5
 10
1092.8891930379741
 20
771.01392884825691
 30
0.0
 42
1.0
  0
VERTEX
  5
76F
  8
LOGO
 62
     5
 10
1094.7996077533769
 20
771.01392884825691
 30
0.0
 42
1.0
  0
SEQEND
  5
770
  8
LOGO
 62
     5
  0
LINE
  5
771
  8
LOGO
 10
1097.500138205769
 20
769.82183006584614
 30
0.0
 11
1097.500138205769
 21
771.25234860473961
 31
0.0
  0
SOLID
  5
772
  8
LOGO
 62
     5
 10
1094.559611981173
 20
772.20602763066847
 30
0.0
 11
1095.0364514941359
 21
772.20602763066847
 31
0.0
 12
1094.559611981173
 22
769.82183006584614
 32
0.0
 13
1095.0364514941359
 23
769.82183006584614
 33
0.0
  0
SOLID
  5
773
  8
LOGO
 62
     5
 10
1095.5927801539119
 20
769.82183006584614
 30
0.0
 11
1096.069619666876
 21
769.82183006584614
 31
0.0
 12
1095.5927801539119
 22
772.20602763066847
 32
0.0
 13
1096.069619666876
 23
772.20602763066847
 33
0.0
  0
SOLID
  5
774
  8
LOGO
 62
     5
 10
1097.0232986928061
 20
771.25234860473961
 30
0.0
 11
1097.500138205769
 21
771.25234860473961
 31
0.0
 12
1097.0232986928061
 22
769.82183006584614
 32
0.0
 13
1097.500138205769
 23
769.82183006584614
 33
0.0
  0
SOLID
  5
775
  8
LOGO
 62
     5
 10
1095.545096202615
 20
786.65426487349384
 30
0.0
 11
1094.1622616150189
 21
781.58387138563739
 31
0.0
 12
1095.545096202615
 22
774.59022519549103
 32
0.0
 13
1094.1622616150189
 23
774.59022519549103
 33
0.0
  0
SOLID
  5
776
  8
LOGO
 62
     5
 10
1096.1173036181731
 20
774.59022519549103
 30
0.0
 11
1097.500138205769
 21
774.59022519549103
 31
0.0
 12
1096.1173036181731
 22
787.70331180201583
 32
0.0
 13
1097.500138205769
 23
787.70331180201674
 33
0.0
  0
SOLID
  5
777
  8
LOGO
 62
     2
 10
1095.545096202615
 20
787.70331180201674
 30
0.0
 11
1096.1173036181731
 21
787.70331180201583
 31
0.0
 12
1095.545096202615
 22
774.59022519549103
 32
0.0
 13
1096.1173036181731
 23
774.59022519549103
 33
0.0
  0
POLYLINE
  5
778
  8
LOGO
 62
     5
 66
     1
 10
0.0
 20
0.0
 30
0.0
 40
0.477603678850704
 41
0.477603678850704
  0
VERTEX
  5
779
  8
LOGO
 62
     5
 10
1090.4281332229909
 20
771.25234860473961
 30
0.0
 42
1.0
  0
VERTEX
  5
77A
  8
LOGO
 62
     5
 10
1088.9953221864389
 20
771.25234860473961
 30
0.0
 42
1.0
  0
SEQEND
  5
77B
  8
LOGO
 62
     5
  0
POLYLINE
  5
77C
  8
LOGO
 62
     5
 66
     1
 10
0.0
 20
0.0
 30
0.0
 40
0.477603678850704
 41
0.477603678850704
  0
VERTEX
  5
77D
  8
LOGO
 62
     5
 10
1091.8586517618839
 20
771.25234860473961
 30
0.0
 42
1.0
  0
VERTEX
  5
77E
  8
LOGO
 62
     5
 10
1090.4258407253319
 20
771.25234860473961
 30
0.0
 42
1.0
  0
SEQEND
  5
77F
  8
LOGO
 62
     5
  0
POLYLINE
  5
780
  8
LOGO
 62
     5
 66
     1
 10
0.0
 20
0.0
 30
0.0
 40
0.477603678850704
 41
0.477603678850704
  0
VERTEX
  5
781
  8
LOGO
 62
     5
 10
1085.0239202867581
 20
771.25234860473961
 30
0.0
 42
1.0
  0
VERTEX
  5
782
  8
LOGO
 62
     5
 10
1083.591109250207
 20
771.25234860473961
 30
0.0
 42
1.0
  0
SEQEND
  5
783
  8
LOGO
 62
     5
  0
SOLID
  5
784
  8
LOGO
 62
     5
 10
1083.3538357425541
 20
772.20602763066847
 30
0.0
 11
1083.830675255517
 21
772.20602763066847
 31
0.0
 12
1083.3538357425541
 22
769.82183006584614
 32
0.0
 13
1083.830675255517
 23
769.82183006584614
 33
0.0
  0
SOLID
  5
785
  8
LOGO
 62
     5
 10
1084.7843542814469
 20
771.25234860473961
 30
0.0
 11
1085.2611937944121
 21
771.25234860473961
 31
0.0
 12
1084.7843542814469
 22
769.82183006584614
 32
0.0
 13
1085.2611937944121
 23
769.82183006584614
 33
0.0
  0
POLYLINE
  5
786
  8
LOGO
 62
     5
 66
     1
 10
0.0
 20
0.0
 30
0.0
 70
     1
 40
0.477603678850704
 41
0.477603678850704
  0
VERTEX
  5
787
  8
LOGO
 62
     5
 10
1086.054461562848
 20
771.01392884825691
 30
0.0
 42
1.0
  0
VERTEX
  5
788
  8
LOGO
 62
     5
 10
1087.9648762782519
 20
771.01392884825691
 30
0.0
 42
1.0
  0
SEQEND
  5
789
  8
LOGO
 62
     5
  0
SOLID
  5
78A
  8
LOGO
 62
     5
 10
1087.724880506046
 20
772.92128690011566
 30
0.0
 11
1088.2017200190101
 21
772.92128690011566
 31
0.0
 12
1087.724880506046
 22
769.82183006584614
 32
0.0
 13
1088.2017200190101
 23
769.82183006584614
 33
0.0
  0
SOLID
  5
78B
  8
LOGO
 62
     5
 10
1088.758048678787
 20
772.20602763066847
 30
0.0
 11
1089.234888191751
 21
772.20602763066847
 31
0.0
 12
1088.758048678787
 22
769.82183006584614
 32
0.0
 13
1089.234888191751
 23
769.82183006584614
 33
0.0
  0
SOLID
  5
78C
  8
LOGO
 62
     5
 10
1090.1885672176791
 20
771.25234860473961
 30
0.0
 11
1090.665406730644
 21
771.25234860473961
 31
0.0
 12
1090.1885672176791
 22
769.82183006584614
 32
0.0
 13
1090.665406730644
 23
769.82183006584614
 33
0.0
  0
SOLID
  5
78D
  8
LOGO
 62
     5
 10
1091.619085756573
 20
771.25234860473961
 30
0.0
 11
1092.095925269537
 21
771.25234860473961
 31
0.0
 12
1091.619085756573
 22
769.82183006584535
 32
0.0
 13
1092.095925269537
 23
769.82183006584535
 33
0.0
  0
SOLID
  5
78E
  8
LOGO
 62
     5
 10
1082.3206675698129
 20
772.53981528974396
 30
0.0
 11
1082.797507082779
 21
772.53981528974396
 31
0.0
 12
1082.3206675698129
 22
772.92128690011566
 32
0.0
 13
1082.797507082779
 23
772.92128690011566
 33
0.0
  0
SOLID
  5
78F
  8
LOGO
 62
     5
 10
1082.3206675698129
 20
772.20602763066847
 30
0.0
 11
1082.797507082779
 21
772.20602763066847
 31
0.0
 12
1082.3206675698129
 22
769.82183006584535
 32
0.0
 13
1082.797507082779
 23
769.82183006584614
 33
0.0
  0
SOLID
  5
790
  8
LOGO
 62
     5
 10
1087.0096689205491
 20
774.59022519549114
 30
0.0
 11
1088.392503508147
 21
774.59022519549114
 31
0.0
 12
1087.0096689205491
 22
781.58387138563739
 32
0.0
 13
1088.392503508147
 23
786.65426487349384
 33
0.0
  0
SOLID
  5
791
  8
LOGO
 62
     5
 10
1088.9647109237051
 20
787.70331180201583
 30
0.0
 11
1090.3475455113021
 21
787.70331180201674
 31
0.0
 12
1088.9647109237051
 22
775.63927212401313
 32
0.0
 13
1090.3475455113021
 23
780.70966561186958
 33
0.0
  0
SOLID
  5
792
  8
LOGO
 62
     2
 10
1088.392503508147
 20
787.70331180201583
 30
0.0
 11
1088.9647109237051
 21
787.70331180201583
 31
0.0
 12
1088.392503508147
 22
774.59022519549114
 32
0.0
 13
1088.9647109237051
 23
774.59022519549114
 33
0.0
  0
SOLID
  5
793
  8
LOGO
 62
     5
 10
1088.9647109237051
 20
775.63927212401313
 30
0.0
 11
1090.3475455113021
 21
780.70966561186958
 31
0.0
 12
1095.545096202615
 22
787.70331180201674
 32
0.0
 13
1094.1622616150189
 23
787.70331180201674
 33
0.0
  0
SOLID
  5
794
  8
LOGO
 62
     5
 10
1088.9647109237051
 20
774.59022519549114
 30
0.0
 11
1090.3475455113021
 21
774.59022519549114
 31
0.0
 12
1095.545096202615
 22
786.65426487349384
 32
0.0
 13
1094.1622616150189
 23
781.58387138563739
 33
0.0
  0
SOLID
  5
795
  8
LOGO
 62
     2
 10
1088.392503508147
 20
774.59022519549114
 30
0.0
 11
1088.9647109237051
 21
774.59022519549114
 31
0.0
 12
1095.545096202615
 22
787.70331180201674
 32
0.0
 13
1096.1173036181731
 23
787.70331180201583
 33
0.0
  0
POLYLINE
  5
796
  8
LOGO
 62
     4
 66
     1
 10
0.0
 20
0.0
 30
0.0
 70
     1
1001
GENIUS_GENREC_14
1002
{
1000
PYDIR
1011
1076.5388520178431
1021
-1.0635973680267822E+279
1031
-8.5087789297521947E+278
1021
756.48065253949744
1031
0.0
1002
}
1002
{
1000
PXDIR
1011
1545.6242257285371
1021
-1.0635973680267822E+279
1031
-8.5087789297521947E+278
1021
788.46304174825036
1031
0.0
1002
}
1002
{
1000
PORI
1011
1076.5388520178431
1021
-1.0635973680267822E+279
1031
-8.5087789297521947E+278
1021
788.46304174825036
1031
0.0
1002
}
1002
{
1000
PINS
1011
1076.5388520178431
1021
-1.0635973680267822E+279
1031
-8.5087789297521947E+278
1021
788.46304174825036
1031
0.0
1002
}
1002
{
1000
PINS2
1011
1545.6242257285371
1021
-1.0635973680267822E+279
1031
-8.5087789297521947E+278
1021
756.48065253949744
1031
0.0
1002
}
1002
{
1000
C
1070
     1
1002
}
1001
GENIUS_GENOBJ-N-REC_13
1002
{
1000
OWNER
1000
GEN
1002
}
1001
GENIUS_GENODEF_13
1002
{
1000
HIER
1070
     0
1002
}
1002
{
1000
MANEDIT
1070
     0
1002
}
1002
{
1000
NOSEL
1070
     0
1002
}
1002
{
1000
BEHIND
1070
     0
1002
}
1002
{
1000
OTHER
1070
     0
1002
}
1002
{
1000
REACTOR
1002
}
  0
VERTEX
  5
A80
  8
LOGO
 62
     4
 10
1076.5388520178431
 20
788.46304174825036
 30
0.0
  0
VERTEX
  5
A81
  8
LOGO
 62
     4
 10
1545.6242257285371
 20
788.46304174825036
 30
0.0
  0
VERTEX
  5
A82
  8
LOGO
 62
     4
 10
1545.6242257285371
 20
756.48065253949744
 30
0.0
  0
VERTEX
  5
A83
  8
LOGO
 62
     4
 10
1076.5388520178431
 20
756.48065253949744
 30
0.0
  0
SEQEND
  5
A84
  8
LOGO
 62
     4
  0
LINE
  5
797
  8
LOGO
 62
     4
 10
1212.2120579890809
 20
770.87272768343701
 30
0.0
 11
1212.2120579890809
 21
759.14585164022719
 31
0.0
  0
LINE
  5
798
  8
LOGO
 62
     4
 10
1190.8904651832461
 20
770.87272768343701
 30
0.0
 11
1190.8904651832461
 21
759.14585164022719
 31
0.0
  0
LINE
  5
799
  8
LOGO
 62
     4
 10
1212.2120579890809
 20
759.14585164022719
 30
0.0
 11
1190.8904651832461
 21
759.14585164022719
 31
0.0
  0
LINE
  5
79A
  8
LOGO
 62
     4
 10
1216.036312254143
 20
785.26480282737487
 30
0.0
 11
1190.8904651832461
 21
785.26480282737487
 31
0.0
  0
LINE
  5
79B
  8
LOGO
 62
     4
 10
1216.036312254143
 20
775.6700860647494
 30
0.0
 11
1190.8904651832461
 21
775.6700860647494
 31
0.0
  0
LINE
  5
79C
  8
LOGO
 62
     4
 10
1190.8904651832461
 20
785.26480282737487
 30
0.0
 11
1190.8904651832461
 21
775.6700860647494
 31
0.0
  0
LINE
  5
79D
  8
LOGO
 62
     4
 10
1216.036312254143
 20
785.26480282737487
 30
0.0
 11
1216.036312254143
 21
775.6700860647494
 31
0.0
  0
LINE
  5
79E
  8
LOGO
 62
     4
 10
1202.663713198355
 20
775.6700860647494
 30
0.0
 11
1202.663713198355
 21
770.87272768343701
 31
0.0
  0
TEXT
  5
79F
  8
LOGO
  6
CONTINUOUS
 10
1192.595296085226
 20
777.67296916147302
 30
0.0
 40
5.5977286423758299
  1
MHCK
  7
CHINESET
  0
LINE
  5
7A0
  8
LOGO
 62
     4
 10
1212.2120579890809
 20
770.87272768343701
 30
0.0
 11
1190.8904651832461
 21
770.87272768343701
 31
0.0
  0
TEXT
  5
7A1
  8
LOGO
  6
CONTINUOUS
 10
1197.7324968115031
 20
760.80107532630768
 30
209.60731008333369
 40
2.3990265610182129
  1
Model
 41
0.8
  7
CHINESET
  0
TEXT
  5
7A2
  8
LOGO
 10
1197.0939539285171
 20
765.24835354331049
 30
209.60731008333369
 40
3.9983776016970221
  1
型號
  7
CHINESET
  0
LINE
  5
7A3
  8
LOGO
  6
CONTINUOUS
 10
1218.4403202860819
 20
780.43345844296539
 30
0.0
 11
1222.6769971127981
 21
780.43345844296539
 31
0.0
  0
LINE
  5
7A4
  8
LOGO
 62
     4
 10
1239.8585398404391
 20
770.87272768343701
 30
0.0
 11
1239.8585398404391
 21
759.14585164022719
 31
0.0
  0
LINE
  5
7A5
  8
LOGO
 62
     4
 10
1218.5369470346041
 20
770.87272768343701
 30
0.0
 11
1218.5369470346041
 21
759.14585164022719
 31
0.0
  0
LINE
  5
7A6
  8
LOGO
 62
     4
 10
1239.8585398404391
 20
759.14585164022719
 30
0.0
 11
1218.5369470346041
 21
759.14585164022719
 31
0.0
  0
LINE
  5
7A7
  8
LOGO
 62
     4
 10
1240.4083841778261
 20
785.26480282737487
 30
0.0
 11
1224.0134453230639
 21
785.26480282737487
 31
0.0
  0
LINE
  5
7A8
  8
LOGO
 62
     4
 10
1240.4083841778261
 20
775.6700860647494
 30
0.0
 11
1224.0134453230639
 21
775.6700860647494
 31
0.0
  0
LINE
  5
7A9
  8
LOGO
 62
     4
 10
1224.0134453230639
 20
785.26480282737487
 30
0.0
 11
1224.0134453230639
 21
775.6700860647494
 31
0.0
  0
LINE
  5
7AA
  8
LOGO
 62
     4
 10
1240.4083841778261
 20
785.26480282737487
 30
0.0
 11
1240.4083841778261
 21
775.6700860647494
 31
0.0
  0
LINE
  5
7AB
  8
LOGO
 62
     4
 10
1232.210914750445
 20
775.6700860647494
 30
0.0
 11
1232.210914750445
 21
770.87272768343701
 31
0.0
  0
TEXT
  5
7AC
  8
LOGO
  6
CONTINUOUS
 10
1227.5323895031181
 20
777.48361176533012
 30
0.0
 40
5.5977286423758299
  1
32
  7
CHINESET
  0
LINE
  5
7AD
  8
LOGO
 62
     4
 10
1239.8585398404391
 20
770.87272768343701
 30
0.0
 11
1218.5369470346041
 21
770.87272768343701
 31
0.0
  0
LINE
  5
7AE
  8
LOGO
  6
CONTINUOUS
 10
1241.7731754131389
 20
780.43345844296539
 30
0.0
 11
1246.0098522398571
 21
780.43345844296539
 31
0.0
  0
LINE
  5
7AF
  8
LOGO
 62
     4
 10
1267.2584829383511
 20
770.87272768343701
 30
0.0
 11
1267.2584829383511
 21
759.14585164022719
 31
0.0
  0
LINE
  5
7B0
  8
LOGO
 62
     4
 10
1242.414746461938
 20
770.87272768343701
 30
0.0
 11
1242.414746461938
 21
759.14585164022719
 31
0.0
  0
LINE
  5
7B1
  8
LOGO
 62
     4
 10
1267.2584829383511
 20
759.14585164022719
 30
0.0
 11
1242.414746461938
 21
759.14585164022719
 31
0.0
  0
LINE
  5
7B2
  8
LOGO
 62
     4
 10
1257.5548126421711
 20
785.26480282737487
 30
0.0
 11
1247.346300450122
 21
785.26480282737487
 31
0.0
  0
LINE
  5
7B3
  8
LOGO
 62
     4
 10
1257.5548126421711
 20
775.6700860647494
 30
0.0
 11
1247.346300450122
 21
775.6700860647494
 31
0.0
  0
LINE
  5
7B4
  8
LOGO
 62
     4
 10
1247.346300450122
 20
785.26480282737487
 30
0.0
 11
1247.346300450122
 21
775.6700860647494
 31
0.0
  0
LINE
  5
7B5
  8
LOGO
 62
     4
 10
1257.5548126421711
 20
785.26480282737487
 30
0.0
 11
1257.5548126421711
 21
775.6700860647494
 31
0.0
  0
LINE
  5
7B6
  8
LOGO
 62
     4
 10
1252.520958010173
 20
775.6700860647494
 30
0.0
 11
1252.520958010173
 21
770.87272768343701
 31
0.0
  0
TEXT
  5
7B7
  8
LOGO
  6
CONTINUOUS
 10
1250.78705629311
 20
777.67296916147302
 30
0.0
 40
5.5977286423758299
  1
*
  7
CHINESET
  0
LINE
  5
7B8
  8
LOGO
 62
     4
 10
1267.2584829383511
 20
770.87272768343701
 30
0.0
 11
1242.414746461938
 21
770.87272768343701
 31
0.0
  0
TEXT
  5
7B9
  8
LOGO
  6
CONTINUOUS
 10
1223.0029492907529
 20
760.80107532630768
 30
209.60731008333369
 40
2.3990265610182129
  1
Tube I.D.
 41
0.8
  7
CHINESET
  0
TEXT
  5
7BA
  8
LOGO
 10
1224.5811011560229
 20
765.24835354331049
 30
209.60731008333369
 40
3.9983776016970221
  1
內徑
  7
CHINESET
  0
TEXT
  5
7BB
  8
LOGO
  6
CONTINUOUS
 10
1244.919349981157
 20
760.80107532630768
 30
209.60731008333369
 40
2.3990265610182129
  1
Manifold type
 41
0.8
  7
CHINESET
  0
TEXT
  5
7BC
  8
LOGO
 10
1246.826239848107
 20
765.24835354331049
 30
209.60731008333369
 40
3.9983776016970221
  1
油口型式
  7
CHINESET
  0
TEXT
  5
7BD
  8
LOGO
 10
1147.9554703283229
 20
758.18210302215687
 30
0.0
 40
3.1987020813576179
  1
00904070
 41
0.7
  7
CHINESET
 72
     1
 11
1156.165472337141
 21
758.18210302215687
 31
0.0
  0
LINE
  5
7BE
  8
LOGO
 62
     4
 10
1166.092320765242
 20
762.87713038124912
 30
0.0
 11
1166.092320765244
 21
756.48065253949835
 31
0.0
  0
LINE
  5
7BF
  8
LOGO
 62
     4
 10
1166.092320765242
 20
762.87713038124912
 30
0.0
 11
1146.9001082770981
 21
762.87713038124912
 31
0.0
  0
CIRCLE
  5
7C0
  8
LOGO
  6
CONTINUOUS
 10
1131.5004548626639
 20
778.87516604208076
 30
0.0
 40
1.85697279551854
  0
CIRCLE
  5
7C1
  8
LOGO
  6
CONTINUOUS
 10
1131.5004548626639
 20
778.87516604208076
 30
0.0
 40
1.0880216696731571
  0
LINE
  5
7C2
  8
LOGO
 10
1143.169887383714
 20
777.01819324656185
 30
0.0
 11
1143.169887383714
 21
780.73213883759968
 31
0.0
  0
LINE
  5
7C3
  8
LOGO
 10
1137.348384265088
 20
777.78714437240774
 30
0.0
 11
1137.348384265088
 21
779.96318771175402
 31
0.0
  0
LINE
  5
7C4
  8
LOGO
  6
CONTINUOUS
 10
1137.348384265088
 20
779.96318771175402
 30
0.0
 11
1143.169887383714
 21
780.73213883759968
 31
0.0
  0
LINE
  5
7C5
  8
LOGO
  6
CONTINUOUS
 10
1137.348384265088
 20
777.78714437240774
 30
0.0
 11
1143.169887383714
 21
777.01819324656185
 31
0.0
  0
LINE
  5
7C6
  8
LOGO
  6
AM_ISO08W050X2
 10
1128.9405900580639
 20
778.87516604208076
 30
0.0
 11
1134.0603196672639
 21
778.87516604208076
 31
0.0
1001
GENIUS_GENOREF_13
1005
954
  0
LINE
  5
7C7
  8
LOGO
  6
AM_ISO08W050X2
 10
1131.5004548626639
 20
776.31530123748041
 30
0.0
 11
1131.5004548626639
 21
781.43503084668112
 31
0.0
1001
GENIUS_GENOREF_13
1005
953
  0
LINE
  5
7C8
  8
LOGO
  6
CENTER
 10
1136.8828258235201
 20
778.87516604208076
 30
0.0
 11
1143.7560939025821
 21
778.87516604208076
 31
0.0
1001
GENIUS_GENOREF_13
1005
952
  0
LINE
  5
7C9
  8
LOGO
 62
     4
 10
1311.0815388731901
 20
1048.671781076361
 30
0.0
 11
1311.0815388731901
 21
788.46304174825036
 31
0.0
  0
CIRCLE
  5
7CA
  8
UMCL1
  6
CONTINUOUS
 10
1191.584239474015
 20
919.13630667728148
 30
0.0
 40
4.0
  0
CIRCLE
  5
7CB
  8
UMCL1
  6
CONTINUOUS
 10
1191.584239474015
 20
895.13630667728103
 30
0.0
 40
4.0
  0
LINE
  5
7CC
  8
UMCL1
  6
HIDDEN
 62
     3
 10
1182.084239474015
 20
928.63630667728125
 30
0.0
 11
1182.084239474015
 21
909.63630667728125
 31
0.0
  0
CIRCLE
  5
7CD
  8
UMCL1
  6
CONTINUOUS
 10
1191.584239474015
 20
1021.982334669804
 30
0.0
 40
3.3999999999999999
  0
CIRCLE
  5
7CE
  8
UMCL1
  6
CONTINUOUS
 10
1191.584239474015
 20
1021.982334669804
 30
0.0
 40
5.25
  0
LINE
  5
7CF
  8
UMCL1
  6
CONTINUOUS
 10
1182.084239474015
 20
1004.482334669804
 30
0.0
 11
1182.084239474015
 21
995.482334669804
 31
0.0
  0
LINE
  5
7D0
  8
UMCL1
  6
CONTINUOUS
 10
1183.584239474015
 20
1009.482334669804
 30
0.0
 11
1183.584239474015
 21
1014.482334669804
 31
0.0
  0
LINE
  5
7D1
  8
UMCL1
  6
CONTINUOUS
 10
1183.584239474015
 20
985.482334669804
 30
0.0
 11
1183.584239474015
 21
990.48233466980389
 31
0.0
  0
LINE
  5
7D2
  8
UMCL1
  6
CONTINUOUS
 10
1199.584239474015
 20
1009.482334669804
 30
0.0
 11
1199.584239474015
 21
1014.482334669804
 31
0.0
  0
LINE
  5
7D3
  8
UMCL1
  6
CONTINUOUS
 10
1199.584239474015
 20
985.482334669804
 30
0.0
 11
1199.584239474015
 21
990.48233466980389
 31
0.0
  0
LINE
  5
7D4
  8
UMCL1
  6
CONTINUOUS
 10
1183.584239474015
 20
1014.482334669804
 30
0.0
 11
1199.584239474015
 21
1014.482334669804
 31
0.0
  0
LINE
  5
7D5
  8
UMCL1
  6
CONTINUOUS
 10
1183.584239474015
 20
985.482334669804
 30
0.0
 11
1199.584239474015
 21
985.482334669804
 31
0.0
  0
CIRCLE
  5
7D6
  8
UMCL1
  6
CONTINUOUS
 10
1147.584239474015
 20
1021.982334669804
 30
0.0
 40
3.3999999999999999
  0
CIRCLE
  5
7D7
  8
UMCL1
  6
CONTINUOUS
 10
1147.584239474015
 20
1021.982334669804
 30
0.0
 40
5.25
  0
CIRCLE
  5
7D8
  8
UMCL1
  6
CONTINUOUS
 10
1147.584239474015
 20
977.98233466980366
 30
0.0
 40
3.3999999999999999
  0
CIRCLE
  5
7D9
  8
UMCL1
  6
CONTINUOUS
 10
1147.584239474015
 20
977.98233466980366
 30
0.0
 40
5.25
  0
CIRCLE
  5
7DA
  8
UMCL1
  6
CONTINUOUS
 10
1191.584239474015
 20
977.98233466980389
 30
0.0
 40
3.3999999999999999
  0
CIRCLE
  5
7DB
  8
UMCL1
  6
CONTINUOUS
 10
1191.584239474015
 20
977.98233466980389
 30
0.0
 40
5.25
  0
POLYLINE
  5
7DC
  8
UMCL1
  6
CONTINUOUS
 66
     1
 10
0.0
 20
0.0
 30
0.0
 70
     1
  0
VERTEX
  5
A85
  8
UMCL1
  6
CONTINUOUS
 10
1199.5842394740141
 20
895.13630868500854
 30
0.0
  0
VERTEX
  5
A86
  8
UMCL1
  6
CONTINUOUS
 10
1199.5842394740141
 20
919.13630667728148
 30
0.0
 42
1.000000000000002
  0
VERTEX
  5
A87
  8
UMCL1
  6
CONTINUOUS
 10
1183.584239474015
 20
919.13630667728171
 30
0.0
  0
VERTEX
  5
A88
  8
UMCL1
  6
CONTINUOUS
 10
1183.584239474015
 20
895.13630667728103
 30
0.0
 42
1.000000126302435
  0
SEQEND
  5
A89
  8
UMCL1
  6
CONTINUOUS
  0
LINE
  5
7DD
  8
UMCL1
  6
HIDDEN
 62
     3
 10
1187.5842394740141
 20
903.13630667728103
 30
0.0
 11
1195.5842394740141
 21
903.13630667728103
 31
0.0
  0
LINE
  5
7DE
  8
UMCL1
  6
HIDDEN
 62
     3
 10
1183.5842394740141
 20
899.13630667728114
 30
0.0
 11
1187.5842394740141
 21
903.13630667728103
 31
0.0
  0
LINE
  5
7DF
  8
UMCL1
  6
HIDDEN
 62
     3
 10
1199.5842394740141
 20
899.13630667728114
 30
0.0
 11
1195.5842394740141
 21
903.13630667728103
 31
0.0
  0
LINE
  5
7E0
  8
UMCL1
  6
HIDDEN
 62
     3
 10
1198.084239474015
 20
1014.482334669804
 30
0.0
 11
1198.084239474015
 21
985.482334669804
 31
0.0
  0
LINE
  5
7E1
  8
UMCL1
  6
CONTINUOUS
 10
1209.656036243739
 20
1009.482334669804
 30
0.0
 11
1209.656036243739
 21
990.48233466980389
 31
0.0
  0
LINE
  5
7E2
  8
UMCL1
  6
CONTINUOUS
 10
1209.656036243739
 20
990.48233466980389
 30
0.0
 11
1224.584239474015
 21
994.482334669804
 31
0.0
  0
LINE
  5
7E3
  8
UMCL1
  6
CONTINUOUS
 10
1224.584239474015
 20
1005.482334669804
 30
0.0
 11
1209.656036243739
 21
1009.482334669804
 31
0.0
  0
LINE
  5
7E4
  8
UMCL1
  6
CONTINUOUS
 10
1224.584239474015
 20
994.482334669804
 30
0.0
 11
1224.584239474015
 21
1005.482334669804
 31
0.0
  0
LINE
  5
7E5
  8
UMCL1
  6
HIDDEN
 62
     3
 10
1165.584239474015
 20
1009.482334669804
 30
0.0
 11
1165.584239474015
 21
990.48233466980366
 31
0.0
  0
LINE
  5
7E6
  8
UMCL1
  6
HIDDEN
 62
     3
 10
1173.584239474015
 20
1009.482334669804
 30
0.0
 11
1173.584239474015
 21
990.48233466980389
 31
0.0
  0
ARC
  5
7E7
  8
UMCL1
  6
CONTINUOUS
 10
1169.584239474015
 20
999.982334669804
 30
0.0
 40
10.0
 50
333.25631604959329
 51
26.743683950406691
  0
ARC
  5
7E8
  8
UMCL1
  6
CONTINUOUS
 10
1169.584239474015
 20
999.982334669804
 30
0.0
 40
10.0
 50
153.25631604959329
 51
206.74368395040671
  0
LINE
  5
7E9
  8
UMCL1
  6
HIDDEN
 62
     3
 10
1187.584239474015
 20
1014.482334669804
 30
0.0
 11
1187.584239474015
 21
985.482334669804
 31
0.0
  0
LINE
  5
7EA
  8
UMCL1
  6
HIDDEN
 62
     3
 10
1195.584239474015
 20
1014.482334669804
 30
0.0
 11
1195.584239474015
 21
985.482334669804
 31
0.0
  0
LINE
  5
7EB
  8
UMCL1
  6
CONTINUOUS
 10
1165.7842394740151
 20
1009.482334669804
 30
0.0
 11
1165.7842394740151
 21
1010.382334669804
 31
0.0
  0
LINE
  5
7EC
  8
UMCL1
  6
CONTINUOUS
 10
1173.384239474015
 20
1009.482334669804
 30
0.0
 11
1173.384239474015
 21
1010.382334669804
 31
0.0
  0
LINE
  5
7ED
  8
UMCL1
  6
CONTINUOUS
 10
1164.384239474015
 20
1009.482334669804
 30
0.0
 11
1164.384239474015
 21
1010.382334669804
 31
0.0
  0
LINE
  5
7EE
  8
UMCL1
  6
CONTINUOUS
 10
1174.7842394740151
 20
1009.482334669804
 30
0.0
 11
1174.7842394740151
 21
1010.382334669804
 31
0.0
  0
LINE
  5
7EF
  8
UMCL1
  6
CONTINUOUS
 10
1164.384239474015
 20
1010.382334669804
 30
0.0
 11
1174.7842394740151
 21
1010.382334669804
 31
0.0
  0
LINE
  5
7F0
  8
UMCL1
  6
CONTINUOUS
 10
1187.7842394740151
 20
1014.482334669804
 30
0.0
 11
1187.7842394740151
 21
1015.382334669804
 31
0.0
  0
LINE
  5
7F1
  8
UMCL1
  6
CONTINUOUS
 10
1195.384239474015
 20
1014.482334669804
 30
0.0
 11
1195.384239474015
 21
1015.382334669804
 31
0.0
  0
LINE
  5
7F2
  8
UMCL1
  6
CONTINUOUS
 10
1186.384239474015
 20
1014.482334669804
 30
0.0
 11
1186.384239474015
 21
1015.382334669804
 31
0.0
  0
LINE
  5
7F3
  8
UMCL1
  6
CONTINUOUS
 10
1196.7842394740151
 20
1014.482334669804
 30
0.0
 11
1196.7842394740151
 21
1015.382334669804
 31
0.0
  0
LINE
  5
7F4
  8
UMCL1
  6
CONTINUOUS
 10
1186.384239474015
 20
1015.382334669804
 30
0.0
 11
1196.7842394740151
 21
1015.382334669804
 31
0.0
  0
LINE
  5
7F5
  8
UMCL1
  6
CONTINUOUS
 10
1165.7842394740151
 20
990.48233466980389
 30
0.0
 11
1165.7842394740151
 21
989.58233466980391
 31
0.0
  0
LINE
  5
7F6
  8
UMCL1
  6
CONTINUOUS
 10
1173.384239474015
 20
990.48233466980389
 30
0.0
 11
1173.384239474015
 21
989.58233466980403
 31
0.0
  0
LINE
  5
7F7
  8
UMCL1
  6
CONTINUOUS
 10
1164.384239474015
 20
990.48233466980389
 30
0.0
 11
1164.384239474015
 21
989.58233466980391
 31
0.0
  0
LINE
  5
7F8
  8
UMCL1
  6
CONTINUOUS
 10
1174.7842394740151
 20
990.48233466980389
 30
0.0
 11
1174.7842394740151
 21
989.58233466980403
 31
0.0
  0
LINE
  5
7F9
  8
UMCL1
  6
CONTINUOUS
 10
1164.384239474015
 20
989.58233466980391
 30
0.0
 11
1174.7842394740151
 21
989.58233466980391
 31
0.0
  0
LINE
  5
7FA
  8
UMCL1
  6
CONTINUOUS
 10
1187.7842394740151
 20
985.48233466980378
 30
0.0
 11
1187.7842394740151
 21
984.5823346698038
 31
0.0
  0
LINE
  5
7FB
  8
UMCL1
  6
CONTINUOUS
 10
1195.384239474015
 20
985.48233466980378
 30
0.0
 11
1195.384239474015
 21
984.5823346698038
 31
0.0
  0
LINE
  5
7FC
  8
UMCL1
  6
CONTINUOUS
 10
1186.384239474015
 20
985.48233466980378
 30
0.0
 11
1186.384239474015
 21
984.5823346698038
 31
0.0
  0
LINE
  5
7FD
  8
UMCL1
  6
CONTINUOUS
 10
1196.7842394740151
 20
985.48233466980378
 30
0.0
 11
1196.7842394740151
 21
984.5823346698038
 31
0.0
  0
LINE
  5
7FE
  8
UMCL1
  6
CONTINUOUS
 10
1186.384239474015
 20
984.5823346698038
 30
0.0
 11
1196.7842394740151
 21
984.5823346698038
 31
0.0
  0
POLYLINE
  5
7FF
  8
UMCL1
  6
CONTINUOUS
 66
     1
 10
0.0
 20
0.0
 30
0.0
  0
VERTEX
  5
A8A
  8
UMCL1
  6
CONTINUOUS
 10
1209.656036243739
 20
928.63630667728137
 30
0.0
  0
VERTEX
  5
A8B
  8
UMCL1
  6
CONTINUOUS
 10
1209.656036243739
 20
909.63630667728125
 30
0.0
  0
SEQEND
  5
A8C
  8
UMCL1
  6
CONTINUOUS
  0
LINE
  5
800
  8
UMCL1
  6
CONTINUOUS
 10
1183.5842394740141
 20
882.63630667728103
 30
0.0
 11
1199.5842394740141
 21
882.63630667728103
 31
0.0
  0
LINE
  5
801
  8
UMCL1
  6
CONTINUOUS
 10
1183.5842394740141
 20
899.13630667728114
 30
0.0
 11
1183.5842394740141
 21
882.63630667728103
 31
0.0
  0
LINE
  5
802
  8
UMCL1
  6
CONTINUOUS
 10
1199.5842394740141
 20
899.13630667728114
 30
0.0
 11
1199.5842394740141
 21
882.63630667728103
 31
0.0
  0
CIRCLE
  5
803
  8
UMCL1
  6
CONTINUOUS
 10
1169.584239474015
 20
919.13630667728125
 30
0.0
 40
4.0
  0
LINE
  5
804
  8
UMCL1
  6
CONTINUOUS
 10
1160.584239474015
 20
915.63630667728114
 30
0.0
 11
1166.584239474015
 21
909.63630667728125
 31
0.0
  0
LINE
  5
805
  8
UMCL1
  6
CONTINUOUS
 10
1224.584239474015
 20
909.63630667728125
 30
0.0
 11
1224.584239474015
 21
920.63630667728137
 31
0.0
  0
LINE
  5
806
  8
UMCL1
  6
CONTINUOUS
 10
1224.584239474015
 20
920.63630667728137
 30
0.0
 11
1209.656036243739
 21
928.63630667728137
 31
0.0
  0
LINE
  5
807
  8
UMCL1
  6
CONTINUOUS
 10
1160.584239474015
 20
928.63630667728125
 30
0.0
 11
1160.584239474015
 21
915.63630667728114
 31
0.0
  0
LINE
  5
808
  8
UMCL1
  6
CENTER
 62
     1
 10
1169.584239474015
 20
795.63630667728103
 30
0.0
 11
1169.584239474015
 21
930.63630667728148
 31
0.0
  0
LINE
  5
809
  8
UMCL1
  6
CONTINUOUS
 10
1160.334239474015
 20
908.13630667728125
 30
0.0
 11
1178.8342394740141
 21
908.13630667728125
 31
0.0
  0
POLYLINE
  5
80A
  8
UMCL1
  6
CONTINUOUS
 66
     1
 10
0.0
 20
0.0
 30
0.0
  0
VERTEX
  5
A8D
  8
UMCL1
  6
CONTINUOUS
 10
1160.334239474015
 20
925.13630667728125
 30
0.0
  0
VERTEX
  5
A8E
  8
UMCL1
  6
CONTINUOUS
 10
1160.334239474015
 20
908.13630667728125
 30
0.0
  0
VERTEX
  5
A8F
  8
UMCL1
  6
CONTINUOUS
 10
1159.584239474015
 20
906.13630667728125
 30
0.0
  0
VERTEX
  5
A90
  8
UMCL1
  6
CONTINUOUS
 10
1179.584239474015
 20
906.13630667728125
 30
0.0
  0
VERTEX
  5
A91
  8
UMCL1
  6
CONTINUOUS
 10
1178.8342394740141
 20
908.13630667728125
 30
0.0
  0
SEQEND
  5
A92
  8
UMCL1
  6
CONTINUOUS
  0
LINE
  5
80B
  8
UMCL1
  6
HIDDEN
 62
     3
 10
1178.834239474015
 20
925.13630667728125
 30
0.0
 11
1175.334239474015
 21
928.63630667728125
 31
0.0
  0
LINE
  5
80C
  8
UMCL1
  6
HIDDEN
 62
     2
 10
1175.334239474015
 20
928.63630667728125
 30
0.0
 11
1163.834239474015
 21
928.63630667728125
 31
0.0
  0
LINE
  5
80D
  8
UMCL1
  6
HIDDEN
 62
     3
 10
1163.834239474015
 20
928.63630667728125
 30
0.0
 11
1160.584239474015
 21
925.38630667728171
 31
0.0
  0
LINE
  5
80E
  8
UMCL1
  6
CONTINUOUS
 10
1166.084239474015
 20
1011.582334669804
 30
0.0
 11
1173.084239474015
 21
1011.582334669804
 31
0.0
  0
LINE
  5
80F
  8
UMCL1
  6
CONTINUOUS
 10
1166.084239474015
 20
988.38233466980375
 30
0.0
 11
1173.084239474015
 21
988.38233466980375
 31
0.0
  0
LINE
  5
810
  8
UMCL1
  6
CONTINUOUS
 10
1165.584239474015
 20
1011.082334669804
 30
0.0
 11
1165.584239474015
 21
1010.382334669804
 31
0.0
  0
LINE
  5
811
  8
UMCL1
  6
CONTINUOUS
 10
1173.584239474015
 20
1011.082334669804
 30
0.0
 11
1173.584239474015
 21
1010.382334669804
 31
0.0
  0
LINE
  5
812
  8
UMCL1
  6
CONTINUOUS
 10
1165.584239474015
 20
1011.082334669804
 30
0.0
 11
1166.084239474015
 21
1011.582334669804
 31
0.0
  0
LINE
  5
813
  8
UMCL1
  6
CONTINUOUS
 10
1173.084239474015
 20
1011.582334669804
 30
0.0
 11
1173.584239474015
 21
1011.082334669804
 31
0.0
  0
LINE
  5
814
  8
UMCL1
  6
CONTINUOUS
 10
1165.584239474015
 20
988.88233466980387
 30
0.0
 11
1165.584239474015
 21
989.58233466980391
 31
0.0
  0
LINE
  5
815
  8
UMCL1
  6
CONTINUOUS
 10
1173.584239474015
 20
988.88233466980387
 30
0.0
 11
1173.584239474015
 21
989.58233466980391
 31
0.0
  0
LINE
  5
816
  8
UMCL1
  6
CONTINUOUS
 10
1166.084239474015
 20
988.38233466980375
 30
0.0
 11
1165.584239474015
 21
988.88233466980387
 31
0.0
  0
LINE
  5
817
  8
UMCL1
  6
CONTINUOUS
 10
1173.084239474015
 20
988.38233466980375
 30
0.0
 11
1173.584239474015
 21
988.88233466980387
 31
0.0
  0
ARC
  5
818
  8
UMCL1
  6
CONTINUOUS
 10
1169.584239474015
 20
999.982334669804
 30
0.0
 40
9.25
 50
150.89009106012631
 51
209.10990893987369
  0
ARC
  5
819
  8
UMCL1
  6
CONTINUOUS
 10
1169.584239474015
 20
999.982334669804
 30
0.0
 40
9.25
 50
330.89009106012628
 51
29.109908939873659
  0
ARC
  5
81A
  8
UMCL1
  6
CONTINUOUS
 10
1169.584239474015
 20
999.982334669804
 30
0.0
 40
5.75
 50
128.49995040925299
 51
231.50004959074701
  0
ARC
  5
81B
  8
UMCL1
  6
CONTINUOUS
 10
1169.584239474015
 20
999.982334669804
 30
0.0
 40
5.75
 50
308.49995040925302
 51
51.500049590746961
  0
LINE
  5
81C
  8
UMCL1
  6
HIDDEN
 62
     3
 10
1178.834239474015
 20
925.13630667728137
 30
0.0
 11
1177.6658544116369
 21
925.13630667728137
 31
0.0
  0
LINE
  5
81D
  8
UMCL1
  6
CONTINUOUS
 10
1179.5842394740141
 20
882.63630667728103
 30
0.0
 11
1179.584239474015
 21
906.13630667728114
 31
0.0
  0
LINE
  5
81E
  8
UMCL1
  6
CONTINUOUS
 10
1159.584239474015
 20
906.13630667728125
 30
0.0
 11
1159.5842394740141
 21
882.63630667728103
 31
0.0
  0
LINE
  5
81F
  8
UMCL1
  6
CONTINUOUS
 10
1160.584239474015
 20
1009.482334669804
 30
0.0
 11
1160.584239474015
 21
1004.482334669804
 31
0.0
  0
LINE
  5
820
  8
UMCL1
  6
CONTINUOUS
 10
1160.584239474015
 20
995.482334669804
 30
0.0
 11
1160.584239474015
 21
990.48233466980389
 31
0.0
  0
LINE
  5
821
  8
UMCL1
  6
CONTINUOUS
 10
1160.584239474015
 20
1004.482334669804
 30
0.0
 11
1182.084239474015
 21
1004.482334669804
 31
0.0
  0
LINE
  5
822
  8
UMCL1
  6
CONTINUOUS
 10
1160.584239474015
 20
1009.482334669804
 30
0.0
 11
1209.656036243739
 21
1009.482334669804
 31
0.0
  0
LINE
  5
823
  8
UMCL1
  6
CONTINUOUS
 10
1182.084239474015
 20
995.482334669804
 30
0.0
 11
1160.584239474015
 21
995.482334669804
 31
0.0
  0
LINE
  5
824
  8
UMCL1
  6
CONTINUOUS
 10
1160.584239474015
 20
990.48233466980366
 30
0.0
 11
1209.656036243739
 21
990.48233466980389
 31
0.0
  0
LINE
  5
825
  8
UMCL1
  6
CONTINUOUS
 10
1165.584239474015
 20
1011.082334669804
 30
0.0
 11
1173.584239474015
 21
1011.082334669804
 31
0.0
  0
LINE
  5
826
  8
UMCL1
  6
CONTINUOUS
 10
1165.584239474015
 20
988.88233466980387
 30
0.0
 11
1173.584239474015
 21
988.88233466980387
 31
0.0
  0
LINE
  5
827
  8
UMCL1
  6
HIDDEN
 62
     3
 10
1199.584239474015
 20
1009.482334669804
 30
0.0
 11
1199.584239474015
 21
990.48233466980389
 31
0.0
  0
LINE
  5
828
  8
UMCL1
  6
CONTINUOUS
 10
1188.084239474015
 20
1016.582334669804
 30
0.0
 11
1195.084239474015
 21
1016.582334669804
 31
0.0
  0
LINE
  5
829
  8
UMCL1
  6
CONTINUOUS
 10
1187.584239474015
 20
1016.082334669804
 30
0.0
 11
1187.584239474015
 21
1015.382334669804
 31
0.0
  0
LINE
  5
82A
  8
UMCL1
  6
CONTINUOUS
 10
1195.584239474015
 20
1016.082334669804
 30
0.0
 11
1195.584239474015
 21
1015.382334669804
 31
0.0
  0
LINE
  5
82B
  8
UMCL1
  6
CONTINUOUS
 10
1187.584239474015
 20
1016.082334669804
 30
0.0
 11
1188.084239474015
 21
1016.582334669804
 31
0.0
  0
LINE
  5
82C
  8
UMCL1
  6
CONTINUOUS
 10
1195.084239474015
 20
1016.582334669804
 30
0.0
 11
1195.584239474015
 21
1016.082334669804
 31
0.0
  0
LINE
  5
82D
  8
UMCL1
  6
CONTINUOUS
 10
1187.584239474015
 20
1016.082334669804
 30
0.0
 11
1195.584239474015
 21
1016.082334669804
 31
0.0
  0
LINE
  5
82E
  8
UMCL1
  6
CONTINUOUS
 10
1188.084239474015
 20
983.38233466980364
 30
0.0
 11
1195.084239474015
 21
983.38233466980364
 31
0.0
  0
LINE
  5
82F
  8
UMCL1
  6
CONTINUOUS
 10
1187.584239474015
 20
983.88233466980375
 30
0.0
 11
1187.584239474015
 21
984.58233466980357
 31
0.0
  0
LINE
  5
830
  8
UMCL1
  6
CONTINUOUS
 10
1195.584239474015
 20
983.88233466980375
 30
0.0
 11
1195.584239474015
 21
984.58233466980357
 31
0.0
  0
LINE
  5
831
  8
UMCL1
  6
CONTINUOUS
 10
1188.084239474015
 20
983.38233466980364
 30
0.0
 11
1187.584239474015
 21
983.88233466980375
 31
0.0
  0
LINE
  5
832
  8
UMCL1
  6
CONTINUOUS
 10
1195.084239474015
 20
983.38233466980364
 30
0.0
 11
1195.584239474015
 21
983.88233466980375
 31
0.0
  0
LINE
  5
833
  8
UMCL1
  6
CONTINUOUS
 10
1187.584239474015
 20
983.88233466980375
 30
0.0
 11
1195.584239474015
 21
983.88233466980375
 31
0.0
  0
LINE
  5
834
  8
UMCL1
  6
CONTINUOUS
 10
1209.656036243739
 20
928.63630667728137
 30
0.0
 11
1160.584239474015
 21
928.63630667728125
 31
0.0
  0
LINE
  5
835
  8
UMCL1
  6
HIDDEN
 62
     3
 10
1150.9842394740151
 20
876.13630667728125
 30
0.0
 11
1150.9842394740151
 21
797.63630667728125
 31
0.0
  0
LINE
  5
836
  8
UMCL1
  6
HIDDEN
 62
     3
 10
1144.1842394740149
 20
876.13630667728125
 30
0.0
 11
1144.1842394740149
 21
797.63630667728125
 31
0.0
  0
LINE
  5
837
  8
UMCL1
  6
CENTER
 62
     1
 10
1147.584239474015
 20
796.13630667728125
 30
0.0
 11
1147.584239474015
 21
884.13630667728125
 31
0.0
  0
LINE
  5
838
  8
UMCL1
  6
CENTER
 62
     1
 10
1191.584239474015
 20
796.13630667728125
 30
0.0
 11
1191.584239474015
 21
884.13630667728125
 31
0.0
  0
LINE
  5
839
  8
UMCL1
  6
CONTINUOUS
 10
1166.584239474015
 20
909.63630667728125
 30
0.0
 11
1183.584239474015
 21
909.63630667728125
 31
0.0
  0
LINE
  5
83A
  8
UMCL1
  6
CONTINUOUS
 10
1199.5842394740141
 20
909.63630667728125
 30
0.0
 11
1224.584239474015
 21
909.63630667728125
 31
0.0
  0
LINE
  5
83B
  8
UMCL1
  6
HIDDEN
 62
     3
 10
1183.584239474015
 20
909.63630667728125
 30
0.0
 11
1199.5842394740141
 21
909.63630667728125
 31
0.0
  0
LINE
  5
83C
  8
UMCL1
  6
HIDDEN
 62
     3
 10
1160.584239474015
 20
925.13630667728125
 30
0.0
 11
1161.5026245363929
 21
925.13630667728125
 31
0.0
  0
LINE
  5
83D
  8
UMCL1
  6
CONTINUOUS
 10
1160.584239474015
 20
925.38630667728171
 30
0.0
 11
1160.334239474015
 21
925.13630667728125
 31
0.0
  0
LINE
  5
83E
  8
UMCL1
  6
CONTINUOUS
 10
1160.334239474015
 20
925.13630667728125
 30
0.0
 11
1160.584239474015
 21
925.13630667728125
 31
0.0
  0
LINE
  5
83F
  8
UMCL1
  6
HIDDEN
 62
     3
 10
1161.5026245363929
 20
926.30469173965935
 30
0.0
 11
1161.5026245363929
 21
914.7179216149035
 31
0.0
  0
LINE
  5
840
  8
UMCL1
  6
HIDDEN
 62
     3
 10
1178.8342394740141
 20
909.63630667728125
 30
0.0
 11
1178.834239474015
 21
925.13630667728125
 31
0.0
  0
LINE
  5
841
  8
UMCL1
  6
HIDDEN
 62
     3
 10
1177.6658544116369
 20
926.30469173965935
 30
0.0
 11
1177.6658544116369
 21
909.63630667728125
 31
0.0
  0
LINE
  5
842
  8
UMCL1
  6
CONTINUOUS
 10
1161.5026245363929
 20
914.7179216149035
 30
0.0
 11
1161.5026245363929
 21
908.13630667728125
 31
0.0
  0
LINE
  5
843
  8
UMCL1
  6
CONTINUOUS
 10
1177.6658544116369
 20
909.63630667728125
 30
0.0
 11
1177.6658544116369
 21
908.13630667728125
 31
0.0
  0
LINE
  5
844
  8
UMCL1
  6
CONTINUOUS
 10
1178.8342394740141
 20
909.63630667728125
 30
0.0
 11
1178.8342394740141
 21
908.13630667728125
 31
0.0
  0
LINE
  5
845
  8
UMCL1
  6
CENTER
 62
     1
 10
1139.084239474015
 20
999.982334669804
 30
0.0
 11
1226.584239474015
 21
999.982334669804
 31
0.0
  0
LINE
  5
846
  8
UMCL1
  6
CENTER
 62
     1
 10
1169.584239474015
 20
1030.482334669804
 30
0.0
 11
1169.584239474015
 21
969.482334669804
 31
0.0
  0
LINE
  5
847
  8
UMCL1
  6
CENTER
 62
     1
 10
1191.584239474015
 20
1017.582334669804
 30
0.0
 11
1191.584239474015
 21
982.38233466980364
 31
0.0
  0
LINE
  5
848
  8
UMCL1
  6
CENTER
 62
     1
 10
1141.334239474015
 20
1021.982334669804
 30
0.0
 11
1145.584239474015
 21
1021.982334669804
 31
0.0
  0
LINE
  5
849
  8
UMCL1
  6
CENTER
 62
     1
 10
1146.584239474015
 20
1021.982334669804
 30
0.0
 11
1148.584239474015
 21
1021.982334669804
 31
0.0
  0
LINE
  5
84A
  8
UMCL1
  6
CENTER
 62
     1
 10
1149.584239474015
 20
1021.982334669804
 30
0.0
 11
1153.834239474015
 21
1021.982334669804
 31
0.0
  0
LINE
  5
84B
  8
UMCL1
  6
CENTER
 62
     1
 10
1147.584239474015
 20
1015.732334669804
 30
0.0
 11
1147.584239474015
 21
1019.982334669804
 31
0.0
  0
LINE
  5
84C
  8
UMCL1
  6
CENTER
 62
     1
 10
1147.584239474015
 20
1020.982334669804
 30
0.0
 11
1147.584239474015
 21
1022.982334669804
 31
0.0
  0
LINE
  5
84D
  8
UMCL1
  6
CENTER
 62
     1
 10
1147.584239474015
 20
1023.982334669804
 30
0.0
 11
1147.584239474015
 21
1028.232334669804
 31
0.0
  0
LINE
  5
84E
  8
UMCL1
  6
CENTER
 62
     1
 10
1185.334239474015
 20
1021.982334669804
 30
0.0
 11
1189.584239474015
 21
1021.982334669804
 31
0.0
  0
LINE
  5
84F
  8
UMCL1
  6
CENTER
 62
     1
 10
1190.584239474015
 20
1021.982334669804
 30
0.0
 11
1192.584239474015
 21
1021.982334669804
 31
0.0
  0
LINE
  5
850
  8
UMCL1
  6
CENTER
 62
     1
 10
1193.584239474015
 20
1021.982334669804
 30
0.0
 11
1197.834239474015
 21
1021.982334669804
 31
0.0
  0
LINE
  5
851
  8
UMCL1
  6
CENTER
 62
     1
 10
1191.584239474015
 20
1015.732334669804
 30
0.0
 11
1191.584239474015
 21
1019.982334669804
 31
0.0
  0
LINE
  5
852
  8
UMCL1
  6
CENTER
 62
     1
 10
1191.584239474015
 20
1020.982334669804
 30
0.0
 11
1191.584239474015
 21
1022.982334669804
 31
0.0
  0
LINE
  5
853
  8
UMCL1
  6
CENTER
 62
     1
 10
1191.584239474015
 20
1023.982334669804
 30
0.0
 11
1191.584239474015
 21
1028.232334669804
 31
0.0
  0
LINE
  5
854
  8
UMCL1
  6
CENTER
 62
     1
 10
1141.334239474015
 20
977.98233466980366
 30
0.0
 11
1145.584239474015
 21
977.98233466980366
 31
0.0
  0
LINE
  5
855
  8
UMCL1
  6
CENTER
 62
     1
 10
1146.584239474015
 20
977.98233466980366
 30
0.0
 11
1148.584239474015
 21
977.98233466980366
 31
0.0
  0
LINE
  5
856
  8
UMCL1
  6
CENTER
 62
     1
 10
1149.584239474015
 20
977.98233466980366
 30
0.0
 11
1153.834239474015
 21
977.98233466980366
 31
0.0
  0
LINE
  5
857
  8
UMCL1
  6
CENTER
 62
     1
 10
1147.584239474015
 20
971.73233466980366
 30
0.0
 11
1147.584239474015
 21
975.98233466980378
 31
0.0
  0
LINE
  5
858
  8
UMCL1
  6
CENTER
 62
     1
 10
1147.584239474015
 20
976.98233466980366
 30
0.0
 11
1147.584239474015
 21
978.98233466980366
 31
0.0
  0
LINE
  5
859
  8
UMCL1
  6
CENTER
 62
     1
 10
1147.584239474015
 20
979.98233466980366
 30
0.0
 11
1147.584239474015
 21
984.23233466980366
 31
0.0
  0
LINE
  5
85A
  8
UMCL1
  6
CENTER
 62
     1
 10
1185.334239474015
 20
977.98233466980389
 30
0.0
 11
1189.584239474015
 21
977.98233466980389
 31
0.0
  0
LINE
  5
85B
  8
UMCL1
  6
CENTER
 62
     1
 10
1190.584239474015
 20
977.98233466980389
 30
0.0
 11
1192.584239474015
 21
977.98233466980389
 31
0.0
  0
LINE
  5
85C
  8
UMCL1
  6
CENTER
 62
     1
 10
1193.584239474015
 20
977.98233466980389
 30
0.0
 11
1197.834239474015
 21
977.98233466980389
 31
0.0
  0
LINE
  5
85D
  8
UMCL1
  6
CENTER
 62
     1
 10
1191.584239474015
 20
971.73233466980389
 30
0.0
 11
1191.584239474015
 21
975.98233466980389
 31
0.0
  0
LINE
  5
85E
  8
UMCL1
  6
CENTER
 62
     1
 10
1191.584239474015
 20
976.98233466980389
 30
0.0
 11
1191.584239474015
 21
978.98233466980412
 31
0.0
  0
LINE
  5
85F
  8
UMCL1
  6
CENTER
 62
     1
 10
1191.584239474015
 20
979.982334669804
 30
0.0
 11
1191.584239474015
 21
984.23233466980389
 31
0.0
  0
LINE
  5
860
  8
UMCL1
  6
CONTINUOUS
 10
1141.584239474015
 20
797.63630667728125
 30
0.0
 11
1197.584239474015
 21
797.63630667728125
 31
0.0
  0
LINE
  5
861
  8
UMCL1
  6
CONTINUOUS
 10
1198.084239474015
 20
798.13630667728125
 30
0.0
 11
1198.084239474015
 21
882.13630667728125
 31
0.0
  0
LINE
  5
862
  8
UMCL1
  6
CONTINUOUS
 10
1197.584239474015
 20
882.63630667728114
 30
0.0
 11
1141.584239474015
 21
882.63630667728114
 31
0.0
  0
LINE
  5
863
  8
UMCL1
  6
CONTINUOUS
 10
1141.084239474015
 20
882.13630667728125
 30
0.0
 11
1141.084239474015
 21
798.13630667728125
 31
0.0
  0
LINE
  5
864
  8
UMCL1
  6
CONTINUOUS
 10
1141.084239474015
 20
798.13630667728125
 30
0.0
 11
1198.084239474015
 21
798.13630667728125
 31
0.0
  0
LINE
  5
865
  8
UMCL1
  6
CONTINUOUS
 10
1198.084239474015
 20
882.13630667728125
 30
0.0
 11
1141.084239474015
 21
882.13630667728125
 31
0.0
  0
LINE
  5
866
  8
UMCL1
  6
CONTINUOUS
 10
1141.084239474015
 20
882.13630667728125
 30
0.0
 11
1141.584239474015
 21
882.63630667728114
 31
0.0
  0
LINE
  5
867
  8
UMCL1
  6
CONTINUOUS
 10
1197.584239474015
 20
882.63630667728114
 30
0.0
 11
1198.084239474015
 21
882.13630667728125
 31
0.0
  0
LINE
  5
868
  8
UMCL1
  6
CONTINUOUS
 10
1197.584239474015
 20
797.63630667728125
 30
0.0
 11
1198.084239474015
 21
798.13630667728125
 31
0.0
  0
LINE
  5
869
  8
UMCL1
  6
CONTINUOUS
 10
1141.584239474015
 20
797.63630667728125
 30
0.0
 11
1141.084239474015
 21
798.13630667728125
 31
0.0
  0
LINE
  5
86A
  8
UMCL1
  6
HIDDEN
 62
     3
 10
1142.334239474015
 20
876.13630667728125
 30
0.0
 11
1152.834239474015
 21
876.13630667728125
 31
0.0
  0
LINE
  5
86B
  8
UMCL1
  6
HIDDEN
 62
     3
 10
1142.334239474015
 20
882.63630667728114
 30
0.0
 11
1142.334239474015
 21
876.13630667728125
 31
0.0
  0
LINE
  5
86C
  8
UMCL1
  6
HIDDEN
 62
     3
 10
1152.834239474015
 20
876.13630667728125
 30
0.0
 11
1152.834239474015
 21
882.63630667728114
 31
0.0
  0
LINE
  5
86D
  8
UMCL1
  6
HIDDEN
 62
     3
 10
1194.9842394740151
 20
876.13630667728137
 30
0.0
 11
1194.9842394740151
 21
797.63630667728125
 31
0.0
  0
LINE
  5
86E
  8
UMCL1
  6
HIDDEN
 62
     3
 10
1188.1842394740149
 20
876.13630667728137
 30
0.0
 11
1188.1842394740149
 21
797.63630667728137
 31
0.0
  0
LINE
  5
86F
  8
UMCL1
  6
HIDDEN
 62
     3
 10
1186.334239474015
 20
876.13630667728137
 30
0.0
 11
1196.834239474015
 21
876.13630667728137
 31
0.0
  0
LINE
  5
870
  8
UMCL1
  6
HIDDEN
 62
     3
 10
1186.334239474015
 20
882.63630667728148
 30
0.0
 11
1186.334239474015
 21
876.13630667728125
 31
0.0
  0
LINE
  5
871
  8
UMCL1
  6
HIDDEN
 62
     3
 10
1196.834239474015
 20
876.13630667728125
 30
0.0
 11
1196.834239474015
 21
882.63630667728148
 31
0.0
  0
LINE
  5
872
  8
UMCL1
  6
CENTER
 62
     1
 10
1186.384239474015
 20
919.13630667728148
 30
0.0
 11
1189.184239474014
 21
919.13630667728148
 31
0.0
  0
LINE
  5
873
  8
UMCL1
  6
CENTER
 62
     1
 10
1190.384239474015
 20
919.13630667728148
 30
0.0
 11
1192.7842394740151
 21
919.13630667728148
 31
0.0
  0
LINE
  5
874
  8
UMCL1
  6
CENTER
 62
     1
 10
1193.9842394740151
 20
919.13630667728148
 30
0.0
 11
1196.7842394740151
 21
919.13630667728148
 31
0.0
  0
LINE
  5
875
  8
UMCL1
  6
CENTER
 62
     1
 10
1191.584239474015
 20
913.93630667728144
 30
0.0
 11
1191.584239474015
 21
916.73630667728139
 31
0.0
  0
LINE
  5
876
  8
UMCL1
  6
CENTER
 62
     1
 10
1191.584239474015
 20
917.93630667728155
 30
0.0
 11
1191.584239474015
 21
920.33630667728164
 31
0.0
  0
LINE
  5
877
  8
UMCL1
  6
CENTER
 62
     1
 10
1191.584239474015
 20
921.53630667728157
 30
0.0
 11
1191.584239474015
 21
924.33630667728153
 31
0.0
  0
LINE
  5
878
  8
UMCL1
  6
CENTER
 62
     1
 10
1186.384239474015
 20
895.13630667728103
 30
0.0
 11
1189.184239474014
 21
895.13630667728103
 31
0.0
  0
LINE
  5
879
  8
UMCL1
  6
CENTER
 62
     1
 10
1190.384239474015
 20
895.13630667728103
 30
0.0
 11
1192.7842394740151
 21
895.13630667728103
 31
0.0
  0
LINE
  5
87A
  8
UMCL1
  6
CENTER
 62
     1
 10
1193.9842394740151
 20
895.13630667728103
 30
0.0
 11
1196.7842394740151
 21
895.13630667728103
 31
0.0
  0
LINE
  5
87B
  8
UMCL1
  6
CENTER
 62
     1
 10
1191.584239474015
 20
889.93630667728098
 30
0.0
 11
1191.584239474015
 21
892.73630667728094
 31
0.0
  0
LINE
  5
87C
  8
UMCL1
  6
CENTER
 62
     1
 10
1191.584239474015
 20
893.93630667728087
 30
0.0
 11
1191.584239474015
 21
896.33630667728096
 31
0.0
  0
LINE
  5
87D
  8
UMCL1
  6
CENTER
 62
     1
 10
1191.584239474015
 20
897.53630667728112
 30
0.0
 11
1191.584239474015
 21
900.33630667728107
 31
0.0
  0
LINE
  5
87E
  8
UMCL1
  6
CENTER
 62
     1
 10
1164.3842394740141
 20
919.13630667728125
 30
0.0
 11
1167.1842394740149
 21
919.13630667728125
 31
0.0
  0
LINE
  5
87F
  8
UMCL1
  6
CENTER
 62
     1
 10
1171.9842394740151
 20
919.13630667728125
 30
0.0
 11
1174.7842394740151
 21
919.13630667728125
 31
0.0
  0
LINE
  5
880
  8
UMCL1
  6
CENTER
 62
     1
 10
1191.584239474015
 20
900.33630667728107
 30
0.0
 11
1191.584239474015
 21
913.93630667728144
 31
0.0
  0
LINE
  5
881
  8
UMCL1
  6
CENTER
 62
     1
 10
1219.584239474015
 20
902.1095082876717
 30
0.0
 11
1219.584239474015
 21
929.78856703714848
 31
0.0
  0
LINE
  5
882
  8
UMCL1
  6
CONTINUOUS
 10
1198.084239474015
 20
1014.482334669804
 30
0.0
 11
1198.084239474015
 21
1023.577885097798
 31
0.0
  0
ARC
  5
883
  8
UMCL1
  6
CONTINUOUS
 10
1169.584239474015
 20
999.982334669804
 30
0.0
 40
37.0
 50
39.62183490723735
 51
50.378165092766807
  0
LINE
  5
884
  8
UMCL1
  6
CONTINUOUS
 10
1198.084239474015
 20
976.38678424181001
 30
0.0
 11
1198.084239474015
 21
985.482334669804
 31
0.0
  0
ARC
  5
885
  8
UMCL1
  6
CONTINUOUS
 10
1169.584239474015
 20
999.982334669804
 30
0.0
 40
37.0
 50
309.62183490723322
 51
320.37816509276257
  0
LINE
  5
886
  8
UMCL1
  6
CONTINUOUS
 10
1145.988689046022
 20
971.482334669804
 30
0.0
 11
1193.1797899020089
 21
971.482334669804
 31
0.0
  0
ARC
  5
887
  8
UMCL1
  6
CONTINUOUS
 10
1169.584239474015
 20
999.982334669804
 30
0.0
 40
37.0
 50
219.6218349072374
 51
230.37816509276681
  0
ARC
  5
888
  8
UMCL1
  6
CONTINUOUS
 10
1169.584239474015
 20
999.982334669804
 30
0.0
 40
37.0
 50
129.62183490723319
 51
140.3781650927626
  0
LINE
  5
889
  8
UMCL1
  6
CONTINUOUS
 10
1193.1797899020089
 20
1028.482334669804
 30
0.0
 11
1145.9886890460209
 21
1028.482334669804
 31
0.0
  0
LINE
  5
88A
  8
UMCL1
  6
CONTINUOUS
 10
1141.084239474015
 20
1023.577885097798
 30
0.0
 11
1141.084239474015
 21
976.38678424181001
 31
0.0
  0
LINE
  5
88B
  8
UMCL1
  6
CENTER
 62
     1
 10
1168.384239474015
 20
919.13630667728125
 30
0.0
 11
1170.7842394740151
 21
919.13630667728125
 31
0.0
  0
TEXT
  5
88C
  8
UMCL2
  6
CONTINUOUS
 10
1153.2742100210351
 20
964.17936831157203
 30
0.0
 40
3.0
  1
B
  7
ROMANS
  0
CIRCLE
  5
88D
  8
UMCL2
  6
CONTINUOUS
 10
1154.6636203332509
 20
965.67495207269099
 30
0.0
 40
2.5
  0
CIRCLE
  5
88E
  8
UMCL1
  6
CONTINUOUS
 10
1158.584239474015
 20
854.63630667728103
 30
0.0
 40
4.2999999999999989
  0
ARC
  5
88F
  8
UMCL1
  6
CONTINUOUS
 62
     3
 10
1158.584239474015
 20
854.63630667728103
 30
0.0
 40
4.8599999999999994
 50
344.99999999999932
 51
284.99999999999437
  0
TEXT
  5
890
  8
UMCL2
  6
CONTINUOUS
 10
1183.850933004371
 20
964.6027082690357
 30
0.0
 40
3.0
  1
A
  7
ROMANS
  0
CIRCLE
  5
891
  8
UMCL2
  6
CONTINUOUS
 10
1185.2835653505219
 20
965.8498085233789
 30
0.0
 40
2.5
  0
CIRCLE
  5
892
  8
UMCL1
  6
CONTINUOUS
 10
1180.584239474015
 20
816.6363066772808
 30
0.0
 40
4.2999999999999989
  0
ARC
  5
893
  8
UMCL1
  6
CONTINUOUS
 62
     3
 10
1180.584239474015
 20
816.6363066772808
 30
0.0
 40
4.8599999999999994
 50
344.99999999999932
 51
284.99999999999437
  0
LINE
  5
894
  8
UMCL1
  6
CENTER
 62
     1
 10
1152.7522394740149
 20
854.63630667728103
 30
0.0
 11
1164.4162394740149
 21
854.63630667728103
 31
0.0
  0
LINE
  5
895
  8
UMCL1
  6
CENTER
 62
     1
 10
1158.584239474015
 20
860.46830667728102
 30
0.0
 11
1158.584239474015
 21
848.80430667728115
 31
0.0
  0
LINE
  5
896
  8
UMCL1
  6
CENTER
 62
     1
 10
1174.7522394740149
 20
816.6363066772808
 30
0.0
 11
1186.4162394740149
 21
816.6363066772808
 31
0.0
  0
LINE
  5
897
  8
UMCL1
  6
CENTER
 62
     1
 10
1180.584239474015
 20
822.46830667728079
 30
0.0
 11
1180.584239474015
 21
810.80430667728092
 31
0.0
  0
LINE
  5
898
  8
UMCL2
  6
CONTINUOUS
 10
1225.584239474015
 20
994.482334669804
 30
0.0
 11
1233.584239474015
 21
994.482334669804
 31
0.0
  0
LINE
  5
899
  8
UMCL2
  6
CONTINUOUS
 10
1225.584239474015
 20
1005.482334669804
 30
0.0
 11
1233.584239474015
 21
1005.482334669804
 31
0.0
  0
LINE
  5
89A
  8
UMCL2
  6
CONTINUOUS
 10
1232.584239474015
 20
996.982334669804
 30
0.0
 11
1232.584239474015
 21
1002.982334669804
 31
0.0
  0
SOLID
  5
89B
  8
UMCL2
  6
CONTINUOUS
 10
1232.1675728073481
 20
996.982334669804
 30
0.0
 11
1233.000906140682
 21
996.982334669804
 31
0.0
 12
1232.584239474015
 22
994.482334669804
 32
0.0
 13
1232.584239474015
 23
994.482334669804
 33
0.0
  0
SOLID
  5
89C
  8
UMCL2
  6
CONTINUOUS
 10
1232.1675728073481
 20
1002.982334669804
 30
0.0
 11
1233.000906140682
 21
1002.982334669804
 31
0.0
 12
1232.584239474015
 22
1005.482334669804
 32
0.0
 13
1232.584239474015
 23
1005.482334669804
 33
0.0
  0
INSERT
  5
89D
  8
0
  2
*U24
 10
0.0
 20
0.0
 30
0.0
  0
LINE
  5
89E
  8
UMCL2
  6
CONTINUOUS
 10
1210.656036243739
 20
990.48233466980389
 30
0.0
 11
1241.584239474015
 21
990.48233466980389
 31
0.0
  0
LINE
  5
89F
  8
UMCL2
  6
CONTINUOUS
 10
1210.656036243739
 20
1009.482334669804
 30
0.0
 11
1241.584239474015
 21
1009.482334669804
 31
0.0
  0
LINE
  5
8A0
  8
UMCL2
  6
CONTINUOUS
 10
1240.584239474015
 20
992.98233466980389
 30
0.0
 11
1240.584239474015
 21
1006.982334669804
 31
0.0
  0
SOLID
  5
8A1
  8
UMCL2
  6
CONTINUOUS
 10
1240.1675728073481
 20
992.98233466980389
 30
0.0
 11
1241.000906140682
 21
992.98233466980389
 31
0.0
 12
1240.584239474015
 22
990.48233466980389
 32
0.0
 13
1240.584239474015
 23
990.48233466980389
 33
0.0
  0
SOLID
  5
8A2
  8
UMCL2
  6
CONTINUOUS
 10
1240.1675728073481
 20
1006.982334669804
 30
0.0
 11
1241.000906140682
 21
1006.982334669804
 31
0.0
 12
1240.584239474015
 22
1009.482334669804
 32
0.0
 13
1240.584239474015
 23
1009.482334669804
 33
0.0
  0
INSERT
  5
8A3
  8
0
  2
*U25
 10
0.0
 20
0.0
 30
0.0
  0
LINE
  5
8A4
  8
UMCL2
  6
CONTINUOUS
 10
1198.834239474015
 20
977.98233466980389
 30
0.0
 11
1249.584239474015
 21
977.98233466980389
 31
0.0
  0
LINE
  5
8A5
  8
UMCL2
  6
CONTINUOUS
 10
1198.834239474015
 20
1021.982334669804
 30
0.0
 11
1249.584239474015
 21
1021.982334669804
 31
0.0
  0
LINE
  5
8A6
  8
UMCL2
  6
CONTINUOUS
 10
1248.584239474015
 20
980.48233466980389
 30
0.0
 11
1248.584239474015
 21
1019.482334669804
 31
0.0
  0
SOLID
  5
8A7
  8
UMCL2
  6
CONTINUOUS
 10
1248.1675728073481
 20
980.48233466980389
 30
0.0
 11
1249.000906140682
 21
980.48233466980389
 31
0.0
 12
1248.584239474015
 22
977.98233466980389
 32
0.0
 13
1248.584239474015
 23
977.98233466980389
 33
0.0
  0
SOLID
  5
8A8
  8
UMCL2
  6
CONTINUOUS
 10
1248.1675728073481
 20
1019.482334669804
 30
0.0
 11
1249.000906140682
 21
1019.482334669804
 31
0.0
 12
1248.584239474015
 22
1021.982334669804
 32
0.0
 13
1248.584239474015
 23
1021.982334669804
 33
0.0
  0
INSERT
  5
8A9
  8
0
  2
*U26
 10
0.0
 20
0.0
 30
0.0
  0
LINE
  5
8AA
  8
UMCL2
  6
CONTINUOUS
 10
1194.1797899020089
 20
971.48233466980378
 30
0.0
 11
1257.584239474015
 21
971.48233466980378
 31
0.0
  0
LINE
  5
8AB
  8
UMCL2
  6
CONTINUOUS
 10
1194.1797899020089
 20
1028.482334669804
 30
0.0
 11
1257.584239474015
 21
1028.482334669804
 31
0.0
  0
LINE
  5
8AC
  8
UMCL2
  6
CONTINUOUS
 10
1256.5842394740159
 20
973.98233466980378
 30
0.0
 11
1256.5842394740159
 21
1025.982334669804
 31
0.0
  0
SOLID
  5
8AD
  8
UMCL2
  6
CONTINUOUS
 10
1256.167572807349
 20
973.98233466980378
 30
0.0
 11
1257.000906140682
 21
973.98233466980378
 31
0.0
 12
1256.5842394740159
 22
971.48233466980378
 32
0.0
 13
1256.5842394740159
 23
971.48233466980378
 33
0.0
  0
SOLID
  5
8AE
  8
UMCL2
  6
CONTINUOUS
 10
1256.167572807349
 20
1025.982334669804
 30
0.0
 11
1257.000906140682
 21
1025.982334669804
 31
0.0
 12
1256.5842394740159
 22
1028.482334669804
 32
0.0
 13
1256.5842394740159
 23
1028.482334669804
 33
0.0
  0
INSERT
  5
8AF
  8
0
  2
*U27
 10
0.0
 20
0.0
 30
0.0
  0
LINE
  5
8B0
  8
UMCL2
  6
CONTINUOUS
 10
1244.5887305673871
 20
996.41137558442585
 30
0.0
 11
1247.2112761886949
 21
996.41137558442585
 31
0.0
  0
LINE
  5
8B1
  8
UMCL2
  6
CONTINUOUS
 10
1247.2112761886949
 20
996.41137558442585
 30
0.0
 11
1247.2112761886949
 21
994.00152910719919
 31
0.0
  0
LINE
  5
8B2
  8
UMCL2
  6
CONTINUOUS
 10
1247.2112761886949
 20
994.00152910719919
 30
0.0
 11
1244.5887305673871
 21
994.00152910719919
 31
0.0
  0
LINE
  5
8B3
  8
UMCL2
  6
CONTINUOUS
 10
1244.5887305673871
 20
994.00152910719919
 30
0.0
 11
1244.5887305673871
 21
996.41137558442585
 31
0.0
  0
LINE
  5
8B4
  8
UMCL2
  6
CONTINUOUS
 10
1252.5887305673871
 20
996.41137558442585
 30
0.0
 11
1255.2112761886949
 21
996.41137558442585
 31
0.0
  0
LINE
  5
8B5
  8
UMCL2
  6
CONTINUOUS
 10
1255.2112761886949
 20
996.41137558442585
 30
0.0
 11
1255.2112761886949
 21
994.00152910719919
 31
0.0
  0
LINE
  5
8B6
  8
UMCL2
  6
CONTINUOUS
 10
1255.2112761886949
 20
994.00152910719919
 30
0.0
 11
1252.5887305673871
 21
994.00152910719919
 31
0.0
  0
LINE
  5
8B7
  8
UMCL2
  6
CONTINUOUS
 10
1252.5887305673871
 20
994.00152910719919
 30
0.0
 11
1252.5887305673871
 21
996.41137558442585
 31
0.0
  0
TEXT
  5
8B8
  8
UMCL2
  6
CONTINUOUS
 10
1218.8543747583819
 20
964.13297982872962
 30
0.0
 40
3.0
  1
4-%%C6.8 Through-hole 
  7
ROMANSS
 72
     2
 11
1271.568660472667
 21
965.63297982872973
 31
0.0
 73
     2
  0
LINE
  5
8B9
  8
UMCL2
  6
CONTINUOUS
 10
1272.1823331591761
 20
962.42055756565867
 30
0.0
 11
1212.595877721955
 21
962.42055756565867
 31
0.0
  0
TEXT
  5
8BA
  8
UMCL2
  6
CONTINUOUS
 10
1212.4182185964539
 20
957.96967333996838
 30
0.0
 40
3.0
  1
Counter bore %%C10.5x6.5dp
  7
ROMANSS
 72
     2
 11
1271.4182185964539
 21
959.46967333996838
 31
0.0
 73
     2
  0
LINE
  5
8BB
  8
UMCL2
 10
1212.595877721955
 20
962.42055756565867
 30
0.0
 11
1195.8031451570621
 21
974.85770111728095
 31
0.0
  0
SOLID
  5
8BC
  8
UMCL2
  6
CONTINUOUS
 10
1198.497547083407
 20
973.44695724991504
 30
0.0
 11
1197.894365184459
 21
972.64935359095819
 31
0.0
 12
1195.8031451570621
 22
974.85770111728095
 32
0.0
 13
1195.8031451570621
 23
974.85770111728095
 33
0.0
  0
LINE
  5
8BD
  8
UMCL2
  6
CONTINUOUS
 10
1120.1892321572971
 20
960.33132795520646
 30
0.0
 11
1146.2982489838359
 21
960.33132795520646
 31
0.0
  0
TEXT
  5
8BE
  8
UMCL2
  6
CONTINUOUS
 10
1127.6995273672489
 20
961.35607303910933
 30
0.0
 40
3.0
  1
P-07
  7
ROMANSS
 72
     2
 11
1139.2709559386781
 21
962.85607303910911
 31
0.0
 73
     2
  0
LINE
  5
8BF
  8
UMCL2
 10
1146.2982489838359
 20
960.33132795520646
 30
0.0
 11
1155.7278158237841
 21
973.87857493872843
 31
0.0
  0
SOLID
  5
8C0
  8
UMCL2
  6
CONTINUOUS
 10
1153.572901107337
 20
971.73233577105771
 30
0.0
 11
1154.3854605517949
 21
971.14945743965211
 31
0.0
 12
1155.7278158237841
 22
973.87857493872843
 32
0.0
 13
1155.7278158237841
 23
973.87857493872843
 33
0.0
  0
LINE
  5
8C1
  8
UMCL2
  6
CONTINUOUS
 10
1159.584239474015
 20
995.482334669804
 30
0.0
 11
1133.796556901834
 21
995.482334669804
 31
0.0
  0
LINE
  5
8C2
  8
UMCL2
  6
CONTINUOUS
 10
1159.584239474015
 20
1004.482334669804
 30
0.0
 11
1133.796556901834
 21
1004.482334669804
 31
0.0
  0
LINE
  5
8C3
  8
UMCL2
  6
CONTINUOUS
 10
1134.796556901834
 20
997.982334669804
 30
0.0
 11
1134.796556901834
 21
1001.982334669804
 31
0.0
  0
SOLID
  5
8C4
  8
UMCL2
  6
CONTINUOUS
 10
1134.379890235168
 20
997.982334669804
 30
0.0
 11
1135.213223568501
 21
997.982334669804
 31
0.0
 12
1134.796556901834
 22
995.482334669804
 32
0.0
 13
1134.796556901834
 23
995.482334669804
 33
0.0
  0
SOLID
  5
8C5
  8
UMCL2
  6
CONTINUOUS
 10
1134.379890235168
 20
1001.982334669804
 30
0.0
 11
1135.213223568501
 21
1001.982334669804
 31
0.0
 12
1134.796556901834
 22
1004.482334669804
 32
0.0
 13
1134.796556901834
 23
1004.482334669804
 33
0.0
  0
INSERT
  5
8C6
  8
0
  2
*U28
 10
0.0
 20
0.0
 30
0.0
  0
LINE
  5
8C7
  8
UMCL2
  6
CONTINUOUS
 10
1191.584239474015
 20
925.33630667728153
 30
0.0
 11
1191.584239474015
 21
937.63630667728125
 31
0.0
  0
LINE
  5
8C8
  8
UMCL2
  6
CONTINUOUS
 10
1219.584239474015
 20
930.7885670371486
 30
0.0
 11
1219.584239474015
 21
937.63630667728125
 31
0.0
  0
LINE
  5
8C9
  8
UMCL2
  6
CONTINUOUS
 10
1194.0842394740141
 20
936.63630667728125
 30
0.0
 11
1217.084239474015
 21
936.63630667728125
 31
0.0
  0
SOLID
  5
8CA
  8
UMCL2
  6
CONTINUOUS
 10
1194.0842394740141
 20
937.05297334394811
 30
0.0
 11
1194.0842394740141
 21
936.21964001061463
 31
0.0
 12
1191.584239474015
 22
936.63630667728125
 32
0.0
 13
1191.584239474015
 23
936.63630667728125
 33
0.0
  0
SOLID
  5
8CB
  8
UMCL2
  6
CONTINUOUS
 10
1217.084239474015
 20
937.05297334394811
 30
0.0
 11
1217.084239474015
 21
936.21964001061463
 31
0.0
 12
1219.584239474015
 22
936.63630667728125
 32
0.0
 13
1219.584239474015
 23
936.63630667728125
 33
0.0
  0
INSERT
  5
8CC
  8
0
  2
*U29
 10
0.0
 20
0.0
 30
0.0
  0
LINE
  5
8CD
  8
UMCL2
  6
CONTINUOUS
 10
1191.584239474015
 20
925.33630667728153
 30
0.0
 11
1191.584239474015
 21
937.63630667728125
 31
0.0
  0
LINE
  5
8CE
  8
UMCL2
  6
CONTINUOUS
 10
1169.584239474015
 20
931.63630667728148
 30
0.0
 11
1169.584239474015
 21
937.63630667728125
 31
0.0
  0
LINE
  5
8CF
  8
UMCL2
  6
CONTINUOUS
 10
1189.084239474015
 20
936.63630667728125
 30
0.0
 11
1172.084239474015
 21
936.63630667728125
 31
0.0
  0
SOLID
  5
8D0
  8
UMCL2
  6
CONTINUOUS
 10
1189.084239474015
 20
937.05297334394811
 30
0.0
 11
1189.084239474015
 21
936.21964001061463
 31
0.0
 12
1191.584239474015
 22
936.63630667728125
 32
0.0
 13
1191.584239474015
 23
936.63630667728125
 33
0.0
  0
SOLID
  5
8D1
  8
UMCL2
  6
CONTINUOUS
 10
1172.084239474015
 20
937.05297334394811
 30
0.0
 11
1172.084239474015
 21
936.21964001061463
 31
0.0
 12
1169.584239474015
 22
936.63630667728125
 32
0.0
 13
1169.584239474015
 23
936.63630667728125
 33
0.0
  0
INSERT
  5
8D2
  8
0
  2
*U30
 10
0.0
 20
0.0
 30
0.0
  0
LINE
  5
8D3
  8
UMCL2
  6
CONTINUOUS
 10
1169.584239474015
 20
931.63630667728148
 30
0.0
 11
1169.584239474015
 21
945.63630667728125
 31
0.0
  0
LINE
  5
8D4
  8
UMCL2
  6
CONTINUOUS
 10
1219.584239474015
 20
930.7885670371486
 30
0.0
 11
1219.584239474015
 21
945.63630667728125
 31
0.0
  0
LINE
  5
8D5
  8
UMCL2
  6
CONTINUOUS
 10
1172.084239474015
 20
944.63630667728125
 30
0.0
 11
1217.084239474015
 21
944.63630667728125
 31
0.0
  0
SOLID
  5
8D6
  8
UMCL2
  6
CONTINUOUS
 10
1172.084239474015
 20
945.05297334394788
 30
0.0
 11
1172.084239474015
 21
944.21964001061463
 31
0.0
 12
1169.584239474015
 22
944.63630667728125
 32
0.0
 13
1169.584239474015
 23
944.63630667728125
 33
0.0
  0
SOLID
  5
8D7
  8
UMCL2
  6
CONTINUOUS
 10
1217.084239474015
 20
945.05297334394788
 30
0.0
 11
1217.084239474015
 21
944.21964001061463
 31
0.0
 12
1219.584239474015
 22
944.63630667728125
 32
0.0
 13
1219.584239474015
 23
944.63630667728125
 33
0.0
  0
INSERT
  5
8D8
  8
0
  2
*U31
 10
0.0
 20
0.0
 30
0.0
  0
LINE
  5
8D9
  8
UMCL2
  6
CONTINUOUS
 10
1224.584239474015
 20
921.63630667728137
 30
0.0
 11
1224.584239474015
 21
953.63630667728125
 31
0.0
  0
LINE
  5
8DA
  8
UMCL2
  6
CONTINUOUS
 10
1160.584239474015
 20
929.63630667728125
 30
0.0
 11
1160.584239474015
 21
953.63630667728125
 31
0.0
  0
LINE
  5
8DB
  8
UMCL2
  6
CONTINUOUS
 10
1222.084239474015
 20
952.63630667728125
 30
0.0
 11
1163.084239474015
 21
952.63630667728125
 31
0.0
  0
SOLID
  5
8DC
  8
UMCL2
  6
CONTINUOUS
 10
1222.084239474015
 20
953.05297334394788
 30
0.0
 11
1222.084239474015
 21
952.21964001061463
 31
0.0
 12
1224.584239474015
 22
952.63630667728125
 32
0.0
 13
1224.584239474015
 23
952.63630667728125
 33
0.0
  0
SOLID
  5
8DD
  8
UMCL2
  6
CONTINUOUS
 10
1163.084239474015
 20
953.05297334394788
 30
0.0
 11
1163.084239474015
 21
952.21964001061463
 31
0.0
 12
1160.584239474015
 22
952.63630667728125
 32
0.0
 13
1160.584239474015
 23
952.63630667728125
 33
0.0
  0
INSERT
  5
8DE
  8
0
  2
*U32
 10
0.0
 20
0.0
 30
0.0
  0
LINE
  5
8DF
  8
UMCL2
  6
CONTINUOUS
 10
1197.7842394740151
 20
919.13630667728148
 30
0.0
 11
1207.3248830390801
 21
919.13630667728148
 31
0.0
  0
LINE
  5
8E0
  8
UMCL2
  6
CONTINUOUS
 10
1197.7842394740151
 20
895.13630667728103
 30
0.0
 11
1207.3248830390801
 21
895.13630667728103
 31
0.0
  0
LINE
  5
8E1
  8
UMCL2
  6
CONTINUOUS
 10
1206.3248830390801
 20
916.63630667728148
 30
0.0
 11
1206.3248830390801
 21
897.63630667728103
 31
0.0
  0
INSERT
  5
8E2
  8
0
  2
*U33
 10
0.0
 20
0.0
 30
0.0
  0
SOLID
  5
8E3
  8
UMCL2
  6
CONTINUOUS
 10
1205.9082163724131
 20
916.63630667728148
 30
0.0
 11
1206.7415497057459
 21
916.63630667728148
 31
0.0
 12
1206.3248830390801
 22
919.13630667728148
 32
0.0
 13
1206.3248830390801
 23
919.13630667728148
 33
0.0
  0
SOLID
  5
8E4
  8
UMCL2
  6
CONTINUOUS
 10
1205.9082163724131
 20
897.63630667728103
 30
0.0
 11
1206.7415497057459
 21
897.63630667728103
 31
0.0
 12
1206.3248830390801
 22
895.13630667728103
 32
0.0
 13
1206.3248830390801
 23
895.13630667728103
 33
0.0
  0
LINE
  5
8E5
  8
UMCL2
  6
CONTINUOUS
 10
1198.584239474015
 20
797.63630667728125
 30
0.0
 11
1233.584239474015
 21
797.63630667728125
 31
0.0
  0
LINE
  5
8E6
  8
UMCL2
  6
CONTINUOUS
 10
1200.5842394740141
 20
882.63630667728103
 30
0.0
 11
1233.584239474015
 21
882.63630667728103
 31
0.0
  0
LINE
  5
8E7
  8
UMCL2
  6
CONTINUOUS
 10
1232.584239474015
 20
800.13630667728125
 30
0.0
 11
1232.584239474015
 21
880.13630667728091
 31
0.0
  0
SOLID
  5
8E8
  8
UMCL2
  6
CONTINUOUS
 10
1232.1675728073481
 20
800.13630667728125
 30
0.0
 11
1233.000906140682
 21
800.13630667728125
 31
0.0
 12
1232.584239474015
 22
797.63630667728125
 32
0.0
 13
1232.584239474015
 23
797.63630667728125
 33
0.0
  0
SOLID
  5
8E9
  8
UMCL2
  6
CONTINUOUS
 10
1232.1675728073481
 20
880.13630667728091
 30
0.0
 11
1233.000906140682
 21
880.13630667728091
 31
0.0
 12
1232.584239474015
 22
882.63630667728103
 32
0.0
 13
1232.584239474015
 23
882.63630667728103
 33
0.0
  0
INSERT
  5
8EA
  8
0
  2
*U34
 10
0.0
 20
0.0
 30
0.0
  0
LINE
  5
8EB
  8
UMCL2
  6
CONTINUOUS
 10
1224.584239474015
 20
908.63630667728125
 30
0.0
 11
1224.584239474015
 21
886.49816548954573
 31
0.0
  0
LINE
  5
8EC
  8
UMCL2
  6
CONTINUOUS
 10
1199.5842394740141
 20
894.13630868500854
 30
0.0
 11
1199.5842394740141
 21
886.49816548954573
 31
0.0
  0
LINE
  5
8ED
  8
UMCL2
  6
CONTINUOUS
 10
1222.084239474015
 20
887.49816548954561
 30
0.0
 11
1202.0842394740141
 21
887.49816548954561
 31
0.0
  0
SOLID
  5
8EE
  8
UMCL2
  6
CONTINUOUS
 10
1222.084239474015
 20
887.91483215621236
 30
0.0
 11
1222.084239474015
 21
887.08149882287898
 31
0.0
 12
1224.584239474015
 22
887.49816548954561
 32
0.0
 13
1224.584239474015
 23
887.49816548954561
 33
0.0
  0
SOLID
  5
8EF
  8
UMCL2
  6
CONTINUOUS
 10
1202.0842394740141
 20
887.91483215621236
 30
0.0
 11
1202.0842394740141
 21
887.08149882287898
 31
0.0
 12
1199.5842394740141
 22
887.49816548954561
 32
0.0
 13
1199.5842394740141
 23
887.49816548954561
 33
0.0
  0
INSERT
  5
8F0
  8
0
  2
*U35
 10
0.0
 20
0.0
 30
0.0
  0
LINE
  5
8F1
  8
UMCL2
  6
CONTINUOUS
 10
1225.584239474015
 20
909.63630667728125
 30
0.0
 11
1233.584239474015
 21
909.63630667728125
 31
0.0
  0
LINE
  5
8F2
  8
UMCL2
  6
CONTINUOUS
 10
1225.584239474015
 20
920.63630667728137
 30
0.0
 11
1233.584239474015
 21
920.63630667728137
 31
0.0
  0
LINE
  5
8F3
  8
UMCL2
  6
CONTINUOUS
 10
1232.584239474015
 20
912.13630667728125
 30
0.0
 11
1232.584239474015
 21
918.13630667728148
 31
0.0
  0
SOLID
  5
8F4
  8
UMCL2
  6
CONTINUOUS
 10
1232.1675728073481
 20
912.13630667728125
 30
0.0
 11
1233.000906140682
 21
912.13630667728125
 31
0.0
 12
1232.584239474015
 22
909.63630667728125
 32
0.0
 13
1232.584239474015
 23
909.63630667728125
 33
0.0
  0
SOLID
  5
8F5
  8
UMCL2
  6
CONTINUOUS
 10
1232.1675728073481
 20
918.13630667728148
 30
0.0
 11
1233.000906140682
 21
918.13630667728148
 31
0.0
 12
1232.584239474015
 22
920.63630667728137
 32
0.0
 13
1232.584239474015
 23
920.63630667728137
 33
0.0
  0
INSERT
  5
8F6
  8
0
  2
*U36
 10
0.0
 20
0.0
 30
0.0
  0
LINE
  5
8F7
  8
UMCL2
  6
CONTINUOUS
 10
1198.584239474015
 20
797.63630667728125
 30
0.0
 11
1241.584239474015
 21
797.63630667728125
 31
0.0
  0
LINE
  5
8F8
  8
UMCL2
  6
CONTINUOUS
 10
1225.584239474015
 20
909.63630667728125
 30
0.0
 11
1241.584239474015
 21
909.63630667728125
 31
0.0
  0
LINE
  5
8F9
  8
UMCL2
  6
CONTINUOUS
 10
1240.584239474015
 20
800.13630667728125
 30
0.0
 11
1240.584239474015
 21
907.13630667728125
 31
0.0
  0
SOLID
  5
8FA
  8
UMCL2
  6
CONTINUOUS
 10
1240.1675728073481
 20
800.13630667728125
 30
0.0
 11
1241.000906140682
 21
800.13630667728125
 31
0.0
 12
1240.584239474015
 22
797.63630667728125
 32
0.0
 13
1240.584239474015
 23
797.63630667728125
 33
0.0
  0
SOLID
  5
8FB
  8
UMCL2
  6
CONTINUOUS
 10
1240.1675728073481
 20
907.13630667728125
 30
0.0
 11
1241.000906140682
 21
907.13630667728125
 31
0.0
 12
1240.584239474015
 22
909.63630667728125
 32
0.0
 13
1240.584239474015
 23
909.63630667728125
 33
0.0
  0
INSERT
  5
8FC
  8
0
  2
*U37
 10
0.0
 20
0.0
 30
0.0
  0
LINE
  5
8FD
  8
UMCL2
  6
CONTINUOUS
 10
1225.584239474015
 20
909.63630667728125
 30
0.0
 11
1241.584239474015
 21
909.63630667728125
 31
0.0
  0
LINE
  5
8FE
  8
UMCL2
  6
CONTINUOUS
 10
1210.656036243739
 20
928.63630667728137
 30
0.0
 11
1241.584239474015
 21
928.63630667728137
 31
0.0
  0
LINE
  5
8FF
  8
UMCL2
  6
CONTINUOUS
 10
1240.584239474015
 20
912.13630667728125
 30
0.0
 11
1240.584239474015
 21
926.13630667728137
 31
0.0
  0
SOLID
  5
900
  8
UMCL2
  6
CONTINUOUS
 10
1240.1675728073481
 20
912.13630667728125
 30
0.0
 11
1241.000906140682
 21
912.13630667728125
 31
0.0
 12
1240.584239474015
 22
909.63630667728125
 32
0.0
 13
1240.584239474015
 23
909.63630667728125
 33
0.0
  0
SOLID
  5
901
  8
UMCL2
  6
CONTINUOUS
 10
1240.1675728073481
 20
926.13630667728137
 30
0.0
 11
1241.000906140682
 21
926.13630667728137
 31
0.0
 12
1240.584239474015
 22
928.63630667728137
 32
0.0
 13
1240.584239474015
 23
928.63630667728137
 33
0.0
  0
INSERT
  5
902
  8
0
  2
*U38
 10
0.0
 20
0.0
 30
0.0
  0
LINE
  5
903
  8
UMCL2
  6
CONTINUOUS
 10
1198.584239474015
 20
797.63630667728125
 30
0.0
 11
1249.584239474015
 21
797.63630667728125
 31
0.0
  0
LINE
  5
904
  8
UMCL2
  6
CONTINUOUS
 10
1210.656036243739
 20
928.63630667728137
 30
0.0
 11
1249.584239474015
 21
928.63630667728137
 31
0.0
  0
LINE
  5
905
  8
UMCL2
  6
CONTINUOUS
 10
1248.584239474015
 20
800.13630667728125
 30
0.0
 11
1248.584239474015
 21
926.13630667728137
 31
0.0
  0
SOLID
  5
906
  8
UMCL2
  6
CONTINUOUS
 10
1248.1675728073481
 20
800.13630667728125
 30
0.0
 11
1249.000906140682
 21
800.13630667728125
 31
0.0
 12
1248.584239474015
 22
797.63630667728125
 32
0.0
 13
1248.584239474015
 23
797.63630667728125
 33
0.0
  0
SOLID
  5
907
  8
UMCL2
  6
CONTINUOUS
 10
1248.1675728073481
 20
926.13630667728137
 30
0.0
 11
1249.000906140682
 21
926.13630667728137
 31
0.0
 12
1248.584239474015
 22
928.63630667728137
 32
0.0
 13
1248.584239474015
 23
928.63630667728137
 33
0.0
  0
INSERT
  5
908
  8
0
  2
*U39
 10
0.0
 20
0.0
 30
0.0
  0
LINE
  5
909
  8
UMCL2
  6
CONTINUOUS
 10
1170.795965091675
 20
920.02045656700909
 30
0.0
 11
1168.3725138563541
 21
918.25215678755319
 31
0.0
  0
INSERT
  5
90A
  8
0
  2
*U40
 10
0.0
 20
0.0
 30
0.0
  0
SOLID
  5
90B
  8
UMCL2
  6
CONTINUOUS
 10
1170.550367900084
 20
920.35704701635916
 30
0.0
 11
1171.0415622832661
 21
919.68386611765925
 31
0.0
 12
1172.815507787775
 22
921.49403971655568
 32
0.0
 13
1172.815507787775
 23
921.49403971655568
 33
0.0
  0
SOLID
  5
90C
  8
UMCL2
  6
CONTINUOUS
 10
1168.126916664763
 20
918.58874723690326
 30
0.0
 11
1168.6181110479449
 21
917.91556633820312
 31
0.0
 12
1166.3529711602539
 22
916.77857363800683
 32
0.0
 13
1166.3529711602539
 23
916.77857363800683
 33
0.0
  0
LINE
  5
90D
  8
UMCL2
  6
CONTINUOUS
 10
1172.815507787775
 20
921.49403971655568
 30
0.0
 11
1154.769486993064
 21
908.40896144461863
 31
0.0
  0
LINE
  5
90E
  8
UMCL1
  6
HIDDEN
 62
     6
 10
1178.334239474015
 20
928.63630667728125
 30
0.0
 11
1175.334239474015
 21
931.63630667728125
 31
0.0
  0
LINE
  5
90F
  8
UMCL1
  6
HIDDEN
 62
     6
 10
1175.334239474015
 20
931.63630667728125
 30
0.0
 11
1163.834239474015
 21
931.63630667728125
 31
0.0
  0
LINE
  5
910
  8
UMCL1
  6
HIDDEN
 62
     6
 10
1163.834239474015
 20
931.63630667728125
 30
0.0
 11
1160.834239474015
 21
928.63630667728125
 31
0.0
  0
LINE
  5
911
  8
UMCL2
  6
CONTINUOUS
 10
1162.8342394740141
 20
931.63630667728125
 30
0.0
 11
1148.9333196214609
 21
931.63630667728125
 31
0.0
  0
LINE
  5
912
  8
UMCL2
  6
CONTINUOUS
 10
1159.584239474015
 20
928.63630667728125
 30
0.0
 11
1148.9333196214609
 21
928.63630667728125
 31
0.0
  0
LINE
  5
913
  8
UMCL2
  6
CONTINUOUS
 10
1149.9333196214609
 20
934.13630667728125
 30
0.0
 11
1149.9333196214609
 21
936.63630667728125
 31
0.0
  0
LINE
  5
914
  8
UMCL2
  6
CONTINUOUS
 10
1149.9333196214609
 20
926.13630667728125
 30
0.0
 11
1149.9333196214609
 21
923.63630667728125
 31
0.0
  0
INSERT
  5
915
  8
0
  2
*U41
 10
0.0
 20
0.0
 30
0.0
  0
LINE
  5
916
  8
UMCL2
  6
CONTINUOUS
 10
1149.9333196214609
 20
931.63630667728125
 30
0.0
 11
1149.9333196214609
 21
928.63630667728125
 31
0.0
  0
SOLID
  5
917
  8
UMCL2
  6
CONTINUOUS
 10
1149.5166529547939
 20
934.13630667728125
 30
0.0
 11
1150.3499862881281
 21
934.13630667728125
 31
0.0
 12
1149.9333196214609
 22
931.63630667728125
 32
0.0
 13
1149.9333196214609
 23
931.63630667728125
 33
0.0
  0
SOLID
  5
918
  8
UMCL2
  6
CONTINUOUS
 10
1149.5166529547939
 20
926.13630667728125
 30
0.0
 11
1150.3499862881281
 21
926.13630667728125
 31
0.0
 12
1149.9333196214609
 22
928.63630667728125
 32
0.0
 13
1149.9333196214609
 23
928.63630667728125
 33
0.0
  0
TEXT
  5
919
  8
UMCL2
 10
1141.078784370186
 20
913.27916382013859
 30
0.0
 40
3.0
  1
Raise clearnce
 50
90.0
  0
LINE
  5
91A
  8
UMCL2
 10
1141.607478339389
 20
913.4205720412333
 30
0.0
 11
1141.607478339389
 21
946.55192674781233
 31
0.0
  0
LINE
  5
91B
  8
UMCL2
 10
1142.607478339389
 20
913.4205720412333
 30
0.0
 11
1142.607478339389
 21
946.55192674781233
 31
0.0
  0
TEXT
  5
91C
  8
UMCL2
  6
CONTINUOUS
 10
1256.55846151281
 20
809.54136237038176
 30
0.0
 40
3.0
  1
A
  7
ROMANS
  0
CIRCLE
  5
91D
  8
UMCL2
  6
CONTINUOUS
 10
1257.991093858961
 20
810.78846262472507
 30
0.0
 40
2.5
  0
TEXT
  5
91E
  8
UMCL2
  6
CONTINUOUS
 10
1256.55846151281
 20
802.8759214647996
 30
0.0
 40
3.0
  1
B
  7
ROMANS
  0
CIRCLE
  5
91F
  8
UMCL2
  6
CONTINUOUS
 10
1257.991093858961
 20
804.1230217191428
 30
0.0
 40
2.5
  0
TEXT
  5
920
  8
UMCL2
  6
CONTINUOUS
 10
1263.5243474669101
 20
810.17182434821939
 30
0.0
 40
3.0
  1
Clamping port
  7
ROMANSS
 72
     2
 11
1295.095776038339
 21
811.67182434821927
 31
0.0
 73
     2
  0
TEXT
  5
921
  8
UMCL2
  6
CONTINUOUS
 10
1263.3816573359561
 20
802.6065199733597
 30
0.0
 40
3.0
  1
Unclamping port
  7
ROMANSS
 72
     2
 11
1300.3816573359561
 21
804.10651997335958
 31
0.0
 73
     2
  0
LINE
  5
922
  8
UMCL2
 10
1253.618902720968
 20
815.49213437693447
 30
0.0
 11
1302.624404782696
 21
815.49213437693447
 31
0.0
  0
LINE
  5
923
  8
UMCL2
 10
1302.624404782696
 20
815.49213437693447
 30
0.0
 11
1302.624404782696
 21
799.6912501907932
 31
0.0
  0
LINE
  5
924
  8
UMCL2
 10
1302.624404782696
 20
799.6912501907932
 30
0.0
 11
1253.618902720968
 21
799.6912501907932
 31
0.0
  0
LINE
  5
925
  8
UMCL2
 10
1253.618902720968
 20
799.6912501907932
 30
0.0
 11
1253.618902720968
 21
815.49213437693447
 31
0.0
  0
CIRCLE
  5
926
  8
UMCL1
  6
HIDDEN
 62
     3
 10
1158.584239474015
 20
977.98233466980389
 30
0.0
 40
2.5
  0
CIRCLE
  5
927
  8
UMCL1
  6
HIDDEN
 62
     3
 10
1158.584239474015
 20
977.98233466980389
 30
0.0
 40
5.0
  0
CIRCLE
  5
928
  8
UMCL1
  6
HIDDEN
 62
     3
 10
1180.584239474015
 20
977.98233466980389
 30
0.0
 40
2.5
  0
CIRCLE
  5
929
  8
UMCL1
  6
HIDDEN
 62
     3
 10
1180.584239474015
 20
977.98233466980389
 30
0.0
 40
5.0
  0
LINE
  5
92A
  8
UMCL1
  6
CENTER
 62
     1
 10
1152.7842394740151
 20
977.98233466980389
 30
0.0
 11
1156.9842394740151
 21
977.98233466980389
 31
0.0
  0
LINE
  5
92B
  8
UMCL1
  6
CENTER
 62
     1
 10
1157.7842394740151
 20
977.98233466980389
 30
0.0
 11
1159.384239474015
 21
977.98233466980389
 31
0.0
  0
LINE
  5
92C
  8
UMCL1
  6
CENTER
 62
     1
 10
1160.1842394740149
 20
977.98233466980389
 30
0.0
 11
1164.384239474015
 21
977.98233466980389
 31
0.0
  0
LINE
  5
92D
  8
UMCL1
  6
CENTER
 62
     1
 10
1158.584239474015
 20
972.18233466980405
 30
0.0
 11
1158.584239474015
 21
976.3823346698041
 31
0.0
  0
LINE
  5
92E
  8
UMCL1
  6
CENTER
 62
     1
 10
1158.584239474015
 20
977.18233466980405
 30
0.0
 11
1158.584239474015
 21
978.78233466980396
 31
0.0
  0
LINE
  5
92F
  8
UMCL1
  6
CENTER
 62
     1
 10
1158.584239474015
 20
979.58233466980391
 30
0.0
 11
1158.584239474015
 21
983.78233466980384
 31
0.0
  0
LINE
  5
930
  8
UMCL1
  6
CENTER
 62
     1
 10
1174.7842394740151
 20
977.98233466980389
 30
0.0
 11
1178.9842394740151
 21
977.98233466980389
 31
0.0
  0
LINE
  5
931
  8
UMCL1
  6
CENTER
 62
     1
 10
1179.7842394740151
 20
977.98233466980389
 30
0.0
 11
1181.384239474015
 21
977.98233466980389
 31
0.0
  0
LINE
  5
932
  8
UMCL1
  6
CENTER
 62
     1
 10
1182.1842394740149
 20
977.98233466980389
 30
0.0
 11
1186.384239474015
 21
977.98233466980389
 31
0.0
  0
LINE
  5
933
  8
UMCL1
  6
CENTER
 62
     1
 10
1180.584239474015
 20
972.18233466980405
 30
0.0
 11
1180.584239474015
 21
976.3823346698041
 31
0.0
  0
LINE
  5
934
  8
UMCL1
  6
CENTER
 62
     1
 10
1180.584239474015
 20
977.18233466980405
 30
0.0
 11
1180.584239474015
 21
978.78233466980396
 31
0.0
  0
LINE
  5
935
  8
UMCL1
  6
CENTER
 62
     1
 10
1180.584239474015
 20
979.58233466980391
 30
0.0
 11
1180.584239474015
 21
983.78233466980384
 31
0.0
  0
LINE
  5
936
  8
UMCL2
 10
1158.584239474015
 20
971.18233466980394
 30
0.0
 11
1158.584239474015
 21
962.01454717227296
 31
0.0
  0
LINE
  5
937
  8
UMCL2
 10
1180.584239474015
 20
971.18233466980394
 30
0.0
 11
1180.584239474015
 21
962.01454717227296
 31
0.0
  0
LINE
  5
938
  8
UMCL2
 10
1161.084239474015
 20
963.01454717227296
 30
0.0
 11
1178.084239474015
 21
963.01454717227296
 31
0.0
  0
SOLID
  5
939
  8
UMCL2
 10
1161.084239474015
 20
963.43121383893947
 30
0.0
 11
1161.084239474015
 21
962.59788050560621
 31
0.0
 12
1158.584239474015
 22
963.01454717227296
 32
0.0
 13
1158.584239474015
 23
963.01454717227296
 33
0.0
  0
SOLID
  5
93A
  8
UMCL2
 10
1178.084239474015
 20
963.43121383893947
 30
0.0
 11
1178.084239474015
 21
962.59788050560621
 31
0.0
 12
1180.584239474015
 22
963.01454717227296
 32
0.0
 13
1180.584239474015
 23
963.01454717227296
 33
0.0
  0
INSERT
  5
93B
  8
0
  2
*U42
 10
0.0
 20
0.0
 30
0.0
  0
TEXT
  5
93C
  8
UMCL2
  6
CONTINUOUS
 10
1124.952182177828
 20
955.89063870653035
 30
0.0
 40
3.0
  1
O-Ring
  7
ROMANSS
 72
     2
 11
1140.3807536063989
 21
957.39063870653035
 31
0.0
 73
     2
  0
LINE
  5
93D
  8
UMCL2
  6
CONTINUOUS
 10
1138.084239474015
 20
999.982334669804
 30
0.0
 11
1136.5581078624689
 21
999.982334669804
 31
0.0
  0
LINE
  5
93E
  8
UMCL2
  6
CONTINUOUS
 10
1130.130435304726
 20
999.982334669804
 30
0.0
 11
1126.5393099401911
 21
999.982334669804
 31
0.0
  0
LINE
  5
93F
  8
UMCL2
  6
CONTINUOUS
 10
1140.334239474015
 20
977.98233466980366
 30
0.0
 11
1126.5393099401911
 21
977.98233466980366
 31
0.0
  0
LINE
  5
940
  8
UMCL2
  6
CONTINUOUS
 10
1127.5393099401911
 20
997.48233466980389
 30
0.0
 11
1127.5393099401911
 21
980.48233466980378
 31
0.0
  0
SOLID
  5
941
  8
UMCL2
  6
CONTINUOUS
 10
1127.122643273525
 20
997.48233466980389
 30
0.0
 11
1127.955976606858
 21
997.48233466980389
 31
0.0
 12
1127.5393099401911
 22
999.982334669804
 32
0.0
 13
1127.5393099401911
 23
999.982334669804
 33
0.0
  0
SOLID
  5
942
  8
UMCL2
  6
CONTINUOUS
 10
1127.122643273525
 20
980.48233466980378
 30
0.0
 11
1127.955976606858
 21
980.48233466980378
 31
0.0
 12
1127.5393099401911
 22
977.98233466980366
 32
0.0
 13
1127.5393099401911
 23
977.98233466980366
 33
0.0
  0
INSERT
  5
943
  8
0
  2
*U43
 10
0.0
 20
0.0
 30
0.0
  0
LINE
  5
944
  8
UMCL1
  6
HIDDEN
 62
     3
 10
1153.584239474015
 20
797.63630667728103
 30
0.0
 11
1153.584239474015
 21
799.03630667728112
 31
0.0
  0
LINE
  5
945
  8
UMCL1
  6
HIDDEN
 62
     3
 10
1153.584239474015
 20
799.03630667728112
 30
0.0
 11
1163.584239474015
 21
799.03630667728112
 31
0.0
  0
LINE
  5
946
  8
UMCL1
  6
HIDDEN
 62
     3
 10
1163.584239474015
 20
799.03630667728112
 30
0.0
 11
1163.584239474015
 21
797.63630667728103
 31
0.0
  0
LINE
  5
947
  8
UMCL1
  6
HIDDEN
 62
     3
 10
1156.084239474015
 20
799.03630667728112
 30
0.0
 11
1156.084239474015
 21
854.63630667728103
 31
0.0
  0
LINE
  5
948
  8
UMCL1
  6
HIDDEN
 62
     3
 10
1161.084239474015
 20
799.03630667728112
 30
0.0
 11
1161.084239474015
 21
854.63630667728103
 31
0.0
  0
LINE
  5
949
  8
UMCL1
  6
HIDDEN
 62
     3
 10
1175.584239474015
 20
797.63630667728103
 30
0.0
 11
1175.584239474015
 21
799.03630667728078
 31
0.0
  0
LINE
  5
94A
  8
UMCL1
  6
HIDDEN
 62
     3
 10
1175.584239474015
 20
799.03630667728078
 30
0.0
 11
1185.5842394740159
 21
799.03630667728078
 31
0.0
  0
LINE
  5
94B
  8
UMCL1
  6
HIDDEN
 62
     3
 10
1185.5842394740159
 20
799.03630667728078
 30
0.0
 11
1185.5842394740159
 21
797.63630667728103
 31
0.0
  0
LINE
  5
94C
  8
UMCL1
  6
HIDDEN
 62
     3
 10
1183.084239474015
 20
799.03630667728078
 30
0.0
 11
1183.084239474015
 21
816.6363066772808
 31
0.0
  0
LINE
  5
94D
  8
UMCL1
  6
HIDDEN
 62
     3
 10
1178.084239474015
 20
799.03630667728078
 30
0.0
 11
1178.084239474015
 21
816.6363066772808
 31
0.0
  0
POLYLINE
  5
94E
  8
UMCL1
  6
CONTINUOUS
 66
     1
 10
0.0
 20
0.0
 30
0.0
 70
     1
  0
VERTEX
  5
AE3
  8
UMCL1
  6
CONTINUOUS
 10
1181.4502648778
 20
818.13630667728103
 30
0.0
  0
VERTEX
  5
AE4
  8
UMCL1
  6
CONTINUOUS
 10
1179.7182140702309
 20
818.13630667728103
 30
0.0
  0
VERTEX
  5
AE5
  8
UMCL1
  6
CONTINUOUS
 10
1178.852188666446
 20
816.63630667728091
 30
0.0
  0
VERTEX
  5
AE6
  8
UMCL1
  6
CONTINUOUS
 10
1179.7182140702309
 20
815.13630667728114
 30
0.0
  0
VERTEX
  5
AE7
  8
UMCL1
  6
CONTINUOUS
 10
1181.4502648778
 20
815.13630667728114
 30
0.0
  0
VERTEX
  5
AE8
  8
UMCL1
  6
CONTINUOUS
 10
1182.3162902815841
 20
816.63630667728091
 30
0.0
  0
SEQEND
  5
AE9
  8
UMCL1
  6
CONTINUOUS
  0
POLYLINE
  5
94F
  8
UMCL1
  6
CONTINUOUS
 66
     1
 10
0.0
 20
0.0
 30
0.0
 70
     1
  0
VERTEX
  5
AEA
  8
UMCL1
  6
CONTINUOUS
 10
1159.4502648777991
 20
856.13630667728114
 30
0.0
  0
VERTEX
  5
AEB
  8
UMCL1
  6
CONTINUOUS
 10
1157.71821407023
 20
856.13630667728114
 30
0.0
  0
VERTEX
  5
AEC
  8
UMCL1
  6
CONTINUOUS
 10
1156.852188666446
 20
854.63630667728103
 30
0.0
  0
VERTEX
  5
AED
  8
UMCL1
  6
CONTINUOUS
 10
1157.71821407023
 20
853.13630667728103
 30
0.0
  0
VERTEX
  5
AEE
  8
UMCL1
  6
CONTINUOUS
 10
1159.4502648777991
 20
853.13630667728103
 30
0.0
  0
VERTEX
  5
AEF
  8
UMCL1
  6
CONTINUOUS
 10
1160.3162902815841
 20
854.63630667728103
 30
0.0
  0
SEQEND
  5
AF0
  8
UMCL1
  6
CONTINUOUS
  0
TEXT
  5
950
  8
UMCL1
  6
CONTINUOUS
 10
1083.3218441083111
 20
1033.009810570506
 30
0.0
 40
5.0
  1
MHCK-32-F
  0
TEXT
  5
951
  8
UMCL1
  6
CONTINUOUS
 10
1316.7994604466869
 20
1032.51425327637
 30
0.0
 40
5.0
  1
MHCK-32
  0
POINT
  5
952
  8
0
 10
6848.3424287742273
 20
-791.03236185564742
 30
-179.8317238765535
1001
GENIUS_GENOBJ-N-CRS_13
1002
{
1000
OWNER
1000
GEN
1002
}
1001
GENIUS_GENOLIS_13
1002
{
1000
ENT
1005
0
1005
0
1005
0
1005
7C8
1002
}
1001
GENIUS_GENOENT_13
1002
{
1000
MYREF
1005
952
1002
}
1002
{
1000
GRP
1005
0
1002
}
1001
GENIUS_GENODEF_13
1002
{
1000
HIER
1070
    10
1002
}
1002
{
1000
MANEDIT
1070
     1
1002
}
1002
{
1000
NOSEL
1070
     0
1002
}
1002
{
1000
BEHIND
1070
     0
1002
}
1002
{
1000
OTHER
1070
     0
1002
}
1002
{
1000
REACTOR
1002
}
  0
POINT
  5
953
  8
0
 10
6837.0178435513708
 20
-782.15677537701117
 30
-179.8317238765535
1001
GENIUS_GENOBJ-N-CRS_13
1002
{
1000
OWNER
1000
GEN
1002
}
1001
GENIUS_GENOLIS_13
1002
{
1000
ENT
1005
0
1005
0
1005
0
1005
7C7
1002
}
1001
GENIUS_GENOENT_13
1002
{
1000
MYREF
1005
953
1002
}
1002
{
1000
GRP
1005
0
1002
}
1001
GENIUS_GENODEF_13
1002
{
1000
HIER
1070
    10
1002
}
1002
{
1000
MANEDIT
1070
     1
1002
}
1002
{
1000
NOSEL
1070
     0
1002
}
1002
{
1000
BEHIND
1070
     0
1002
}
1002
{
1000
OTHER
1070
     0
1002
}
1002
{
1000
REACTOR
1002
}
  0
POINT
  5
954
  8
0
 10
6843.3765172492076
 20
-791.03236185564742
 30
-179.8317238765535
1001
GENIUS_GENOBJ-N-CRS_13
1002
{
1000
OWNER
1000
GEN
1002
}
1001
GENIUS_GENOLIS_13
1002
{
1000
ENT
1005
0
1005
0
1005
0
1005
7C6
1002
}
1001
GENIUS_GENOENT_13
1002
{
1000
MYREF
1005
954
1002
}
1002
{
1000
GRP
1005
0
1002
}
1001
GENIUS_GENODEF_13
1002
{
1000
HIER
1070
    10
1002
}
1002
{
1000
MANEDIT
1070
     1
1002
}
1002
{
1000
NOSEL
1070
     0
1002
}
1002
{
1000
BEHIND
1070
     0
1002
}
1002
{
1000
OTHER
1070
     0
1002
}
1002
{
1000
REACTOR
1002
}
  0
ENDSEC
  0
EOF
