  0
SECTION
  2
HEADER
  9
$ACADVER
  1
AC1009
  9
$INSBASE
 10
0.0
 20
0.0
 30
0.0
  9
$EXTMIN
 10
1193.2610691579021
 20
1018.642517310478
 30
-4262567.5545043955
  9
$EXTMAX
 10
1761.0327817689799
 20
1372.3029347108529
 30
178121.2746887207
  9
$LIMMIN
 10
0.0
 20
0.0
  9
$LIMMAX
 10
420.0
 20
297.0
  9
$ORTHOMODE
 70
     0
  9
$REGENMODE
 70
     1
  9
$FILLMODE
 70
     1
  9
$QTEXTMODE
 70
     0
  9
$MIRRTEXT
 70
     1
  9
$DRAGMODE
 70
     2
  9
$LTSCALE
 40
1.0
  9
$OSMODE
 70
    37
  9
$ATTMODE
 70
     1
  9
$TEXTSIZE
 40
1.0
  9
$TRACEWID
 40
1.0
  9
$TEXTSTYLE
  7
STANDARD
  9
$CLAYER
  8
0
  9
$CELTYPE
  6
BYLAYER
  9
$CECOLOR
 62
   256
  9
$DIMSCALE
 40
1.0
  9
$DIMASZ
 40
2.5
  9
$DIMEXO
 40
1.0
  9
$DIMDLI
 40
10.0
  9
$DIMRND
 40
0.0
  9
$DIMDLE
 40
0.0
  9
$DIMEXE
 40
1.0
  9
$DIMTP
 40
0.1
  9
$DIMTM
 40
0.1
  9
$DIMTXT
 40
3.5
  9
$DIMCEN
 40
0.0
  9
$DIMTSZ
 40
0.0
  9
$DIMTOL
 70
     0
  9
$DIMLIM
 70
     0
  9
$DIMTIH
 70
     0
  9
$DIMTOH
 70
     0
  9
$DIMSE1
 70
     0
  9
$DIMSE2
 70
     0
  9
$DIMTAD
 70
     1
  9
$DIMZIN
 70
     8
  9
$DIMBLK
  1

  9
$DIMASO
 70
     1
  9
$DIMSHO
 70
     1
  9
$DIMPOST
  1

  9
$DIMAPOST
  1
"
  9
$DIMALT
 70
     0
  9
$DIMALTD
 70
     2
  9
$DIMALTF
 40
0.0393701
  9
$DIMLFAC
 40
1.0
  9
$DIMTOFL
 70
     1
  9
$DIMTVP
 40
0.0
  9
$DIMTIX
 70
     0
  9
$DIMSOXD
 70
     0
  9
$DIMSAH
 70
     0
  9
$DIMBLK1
  1

  9
$DIMBLK2
  1

  9
$DIMSTYLE
  2
AM_ISO
  9
$DIMCLRD
 70
   256
  9
$DIMCLRE
 70
   256
  9
$DIMCLRT
 70
     2
  9
$DIMTFAC
 40
0.71
  9
$DIMGAP
 40
1.5
  9
$LUNITS
 70
     2
  9
$LUPREC
 70
     2
  9
$SKETCHINC
 40
1.0
  9
$FILLETRAD
 40
2.5
  9
$AUNITS
 70
     0
  9
$AUPREC
 70
     0
  9
$MENU
  1
.
  9
$ELEVATION
 40
0.0
  9
$PELEVATION
 40
0.0
  9
$THICKNESS
 40
0.0
  9
$LIMCHECK
 70
     0
  9
$BLIPMODE
 70
     0
  9
$CHAMFERA
 40
2.5
  9
$CHAMFERB
 40
2.5
  9
$SKPOLY
 70
     0
  9
$TDCREATE
 40
2454929.4405136001
  9
$TDUPDATE
 40
2454937.478567963
  9
$TDINDWG
 40
0.0094735185
  9
$TDUSRTIMER
 40
0.0090926505
  9
$USRTIMER
 70
     1
  9
$ANGBASE
 50
0.0
  9
$ANGDIR
 70
     0
  9
$PDMODE
 70
     0
  9
$PDSIZE
 40
0.0
  9
$PLINEWID
 40
0.0
  9
$COORDS
 70
     1
  9
$SPLFRAME
 70
     0
  9
$SPLINETYPE
 70
     6
  9
$SPLINESEGS
 70
     8
  9
$ATTDIA
 70
     1
  9
$ATTREQ
 70
     1
  9
$HANDLING
 70
     1
  9
$HANDSEED
  5
21A5
  9
$SURFTAB1
 70
     6
  9
$SURFTAB2
 70
     6
  9
$SURFTYPE
 70
     6
  9
$SURFU
 70
     6
  9
$SURFV
 70
     6
  9
$UCSNAME
  2

  9
$UCSORG
 10
0.0
 20
0.0
 30
0.0
  9
$UCSXDIR
 10
1.0
 20
0.0
 30
0.0
  9
$UCSYDIR
 10
0.0
 20
1.0
 30
0.0
  9
$PUCSNAME
  2

  9
$PUCSORG
 10
0.0
 20
0.0
 30
0.0
  9
$PUCSXDIR
 10
1.0
 20
0.0
 30
0.0
  9
$PUCSYDIR
 10
0.0
 20
1.0
 30
0.0
  9
$USERI1
 70
     0
  9
$USERI2
 70
     0
  9
$USERI3
 70
     0
  9
$USERI4
 70
     0
  9
$USERI5
 70
     0
  9
$USERR1
 40
0.0
  9
$USERR2
 40
0.0
  9
$USERR3
 40
0.0
  9
$USERR4
 40
0.0
  9
$USERR5
 40
0.0
  9
$WORLDVIEW
 70
     1
  9
$SHADEDGE
 70
     3
  9
$SHADEDIF
 70
    70
  9
$TILEMODE
 70
     1
  9
$MAXACTVP
 70
    64
  9
$PLIMCHECK
 70
     0
  9
$PEXTMIN
 10
1.0000000000000000E+020
 20
1.0000000000000000E+020
 30
1.0000000000000000E+020
  9
$PEXTMAX
 10
-1.0000000000000000E+020
 20
-1.0000000000000000E+020
 30
-1.0000000000000000E+020
  9
$PLIMMIN
 10
0.0
 20
0.0
  9
$PLIMMAX
 10
420.0
 20
297.0
  9
$UNITMODE
 70
     0
  9
$VISRETAIN
 70
     1
  9
$PLINEGEN
 70
     0
  9
$PSLTSCALE
 70
     1
  0
ENDSEC
  0
SECTION
  2
TABLES
  0
TABLE
  2
VPORT
 70
     4
  0
VPORT
  2
*ACTIVE
 70
     0
 10
0.0
 20
0.0
 11
1.0
 21
1.0
 12
1477.146925463441
 22
1195.4727260106649
 13
0.0
 23
0.0
 14
2.5
 24
2.5
 15
10.0
 25
10.0
 16
0.0
 26
0.0
 36
1.0
 17
0.0
 27
0.0
 37
0.0
 40
627.96092723195352
 41
0.9119579500657028
 42
50.0
 43
0.0
 44
0.0
 50
0.0
 51
0.0
 71
     0
 72
   100
 73
     1
 74
     3
 75
     0
 76
     0
 77
     0
 78
     0
  0
ENDTAB
  0
TABLE
  2
LTYPE
 70
    20
  0
LTYPE
  2
CONTINUOUS
 70
     0
  3
Solid line
 72
    65
 73
     0
 40
0.0
  0
LTYPE
  2
AM_ISO02W050
 70
     0
  3
__ __ __ __ __ __ __ __ __ __ __ __ __ __ __
 72
    65
 73
     2
 40
7.5
 49
6.0
 49
-1.5
  0
LTYPE
  2
AM_ISO08W050
 70
     0
  3
____ . ____ . ____ . ____ . ____ . ____ . ____
 72
    65
 73
     4
 40
18.0
 49
12.0
 49
-1.5
 49
3.0
 49
-1.5
  0
LTYPE
  2
AM_ISO09W050
 70
     0
  3
_____ . . _____ . . _____ . . ____ .. ____
 72
    65
 73
     6
 40
22.5
 49
12.0
 49
-1.5
 49
3.0
 49
-1.5
 49
3.0
 49
-1.5
  0
LTYPE
  2
AMCONSTR
 70
     0
  3
_______________________
 72
    65
 73
     2
 40
9999.0
 49
9999.0
 49
0.0
  0
LTYPE
  2
AM_ISO08W050X2
 70
     0
  3
__ . __ . __ . __ . __ . __
 72
    65
 73
     4
 40
9.0
 49
6.0
 49
-0.75
 49
1.5
 49
-0.75
  0
LTYPE
  2
AM_ISO02W050X2
 70
     0
  3
 _ _ _ _ _ _ _ _ _ _ _ _
 72
    65
 73
     2
 40
3.75
 49
3.0
 49
-0.75
  0
LTYPE
  2
AMZIGZAG
 70
     0
  3
/\/-/\/-/\/-/\/-/\/-/\/
 72
    65
 73
     2
 40
11.0001
 49
0.0001
 49
-11.0
  0
LTYPE
  2
ACISOWELD
 70
     0
  3
_ _ _ _ _
 72
    65
 73
     2
 40
2.0
 49
2.0
 49
-1.0
  0
LTYPE
  2
ACISOTGB
 70
     0
  3
__ . . __ . .
 72
    65
 73
     6
 40
9.0
 49
4.0
 49
-1.0
 49
1.0
 49
-1.0
 49
1.0
 49
-1.0
  0
LTYPE
  2
ACISOTGL
 70
     0
  3
_ _ _ _ _
 72
    65
 73
     2
 40
3.0
 49
2.0
 49
-1.0
  0
LTYPE
  2
CENTER
 70
     0
  3
__ . __
 72
    65
 73
     4
 40
7.0
 49
4.0
 49
-1.0
 49
1.0
 49
-1.0
  0
LTYPE
  2
HIDDEN
 70
     0
  3
Hidden __ __ __ __ __ __ __ __ __ __ __ __ __ _
 72
    65
 73
     2
 40
9.5249999999999986
 49
6.3499999999999988
 49
-3.1749999999999989
  0
LTYPE
  2
PHANTOM2
 70
     0
  3
Phantom (.5x) ___ _ _ ___ _ _ ___ _ _ ___ _ _
 72
    65
 73
     6
 40
31.75
 49
15.875
 49
-3.1749999999999989
 49
3.1749999999999989
 49
-3.1749999999999989
 49
3.1749999999999989
 49
-3.1749999999999989
  0
ENDTAB
  0
TABLE
  2
LAYER
 70
     5
  0
LAYER
  2
0
 70
     0
 62
     7
  6
CONTINUOUS
  0
LAYER
  2
UMCL1
 70
     0
 62
     7
  6
CONTINUOUS
  0
LAYER
  2
UMCL2
 70
     0
 62
     5
  6
CONTINUOUS
  0
LAYER
  2
LOGO
 70
     0
 62
     7
  6
CONTINUOUS
  0
ENDTAB
  0
TABLE
  2
STYLE
 70
    12
  0
STYLE
  2
STANDARD
 70
     0
 40
0.0
 41
1.0
 50
0.0
 71
     0
 42
1.0
  3
ISOCP.SHX
  4
CHINESET.SHX
  0
STYLE
  2

 70
     1
 40
0.0
 41
1.0
 50
0.0
 71
     0
 42
2.5
  3
ltypeshp.shx
  4

  0
STYLE
  2
ACISOTS
 70
     0
 40
1.0
 41
1.0
 50
0.0
 71
     0
 42
1.0
  3
isocp.shx
  4
chineset.shx
  0
STYLE
  2
ACISOGDT
 70
     0
 40
0.0
 41
1.0
 50
0.0
 71
     0
 42
2.5
  3
amgdt.shx
  4
chineset.shx
  0
STYLE
  2
ROMANS
 70
     0
 40
0.0
 41
1.0
 50
0.0
 71
     0
 42
3.0
  3
ROMANS.SHX
  4
LMP
  0
STYLE
  2
ROMANSS
 70
     0
 40
0.0
 41
1.0
 50
0.0
 71
     0
 42
3.0
  3
ROMANSS.SHX
  4
LMP
  0
STYLE
  2
CHINESET
 70
     0
 40
0.0
 41
1.0
 50
0.0
 71
     0
 42
5.0
  3
simplex.shx
  4
chineset.shx
  0
ENDTAB
  0
TABLE
  2
VIEW
 70
     0
  0
ENDTAB
  0
TABLE
  2
UCS
 70
     0
  0
ENDTAB
  0
TABLE
  2
APPID
 70
    15
  0
APPID
  2
ACAD
 70
     0
  0
APPID
  2
MCAD_NO_VIS
 70
     0
  0
APPID
  2
ACAD_TEMP_GRAPHIC
 70
     0
  0
APPID
  2
ACATTRIBSERVICES
 70
     0
  0
APPID
  2
AD_DRAW
 70
     0
  0
APPID
  2
DESIGNERASSEMBLIES
 70
     0
  0
APPID
  2
ACADM_DIM_EDIT
 70
     0
  0
APPID
  2
AMDT_DM_ADJ
 70
     0
  0
APPID
  2
GENIUS_GENODEF_13
 70
     0
  0
APPID
  2
GENIUS_GENREC_14
 70
     0
  0
APPID
  2
GENIUS_GENOBJ-N-REC_13
 70
     0
  0
APPID
  2
GENIUS_GENOLIS_13
 70
     0
  0
APPID
  2
GENIUS_GENOENT_13
 70
     0
  0
APPID
  2
GENIUS_GENOBJ-N-CRS_13
 70
     0
  0
APPID
  2
GENIUS_GENOREF_13
 70
     0
  0
ENDTAB
  0
TABLE
  2
DIMSTYLE
 70
    15
  0
DIMSTYLE
  2
AM_ISO
 70
     0
  3

  4
"
  5

  6

  7

 40
1.0
 41
2.5
 42
1.0
 43
10.0
 44
1.0
 45
0.0
 46
0.0
 47
0.1
 48
0.1
140
3.5
141
0.0
142
0.0
143
0.0393701
144
1.0
145
0.0
146
0.71
147
1.5
 71
     0
 72
     0
 73
     0
 74
     0
 75
     0
 76
     0
 77
     1
 78
     8
170
     0
171
     2
172
     1
173
     0
174
     0
175
     0
176
   256
177
   256
178
     2
  0
DIMSTYLE
  2
AM_ISO$3
 70
     0
  3

  4
"
  5

  6

  7

 40
1.0
 41
2.5
 42
1.0
 43
10.0
 44
1.0
 45
0.0
 46
0.0
 47
0.1
 48
0.1
140
3.5
141
0.0
142
0.0
143
0.0393701
144
1.0
145
0.0
146
0.71
147
1.5
 71
     0
 72
     0
 73
     0
 74
     1
 75
     0
 76
     0
 77
     1
 78
     8
170
     0
171
     2
172
     0
173
     0
174
     0
175
     0
176
   256
177
   256
178
     2
  0
DIMSTYLE
  2
AM_ISO$4
 70
     0
  3

  4
"
  5

  6

  7

 40
1.0
 41
2.5
 42
1.0
 43
10.0
 44
1.0
 45
0.0
 46
0.0
 47
0.1
 48
0.1
140
3.5
141
0.0
142
0.0
143
0.0393701
144
1.0
145
0.0
146
0.71
147
1.5
 71
     0
 72
     0
 73
     0
 74
     1
 75
     0
 76
     0
 77
     1
 78
     8
170
     0
171
     2
172
     0
173
     0
174
     0
175
     0
176
   256
177
   256
178
     2
  0
DIMSTYLE
  2
AM_ISO$6
 70
     0
  3

  4
"
  5

  6

  7

 40
1.0
 41
2.5
 42
1.0
 43
10.0
 44
1.0
 45
0.0
 46
0.0
 47
0.1
 48
0.1
140
3.5
141
0.0
142
0.0
143
0.0393701
144
1.0
145
0.0
146
0.71
147
1.5
 71
     0
 72
     0
 73
     0
 74
     0
 75
     0
 76
     0
 77
     0
 78
     8
170
     0
171
     2
172
     1
173
     0
174
     0
175
     0
176
   256
177
   256
178
     2
  0
DIMSTYLE
  2
AM_ISO$7
 70
     0
  3

  4
"
  5

  6

  7

 40
1.0
 41
2.5
 42
1.0
 43
10.0
 44
1.0
 45
0.0
 46
0.0
 47
0.1
 48
0.1
140
5.0
141
0.0
142
0.0
143
0.0393701
144
1.0
145
0.0
146
0.71
147
1.5
 71
     0
 72
     0
 73
     0
 74
     0
 75
     0
 76
     0
 77
     1
 78
     8
170
     0
171
     2
172
     1
173
     0
174
     0
175
     0
176
   256
177
   256
178
     2
  0
DIMSTYLE
  2
AM_ISO$SF
 70
     0
  3

  4
"
  5

  6

  7

 40
1.0
 41
2.5
 42
1.0
 43
10.0
 44
1.0
 45
0.0
 46
0.0
 47
0.1
 48
0.1
140
3.5
141
0.0
142
0.0
143
0.0393701
144
1.0
145
0.0
146
0.71
147
1.5
 71
     0
 72
     0
 73
     0
 74
     0
 75
     1
 76
     1
 77
     1
 78
     8
170
     0
171
     2
172
     1
173
     0
174
     0
175
     0
176
   256
177
   256
178
     2
  0
DIMSTYLE
  2
AM_ISO$SH
 70
     0
  3

  4
"
  5

  6
GENAXEH
  7

 40
1.0
 41
2.5
 42
1.0
 43
10.0
 44
1.0
 45
0.0
 46
0.0
 47
0.1
 48
0.1
140
3.5
141
0.0
142
0.0
143
0.0393701
144
2.0
145
0.0
146
0.71
147
1.5
 71
     0
 72
     0
 73
     0
 74
     0
 75
     1
 76
     1
 77
     1
 78
     8
170
     0
171
     2
172
     1
173
     1
174
     0
175
     0
176
   256
177
   256
178
     2
  0
DIMSTYLE
  2
STANDARD
 70
     0
  3

  4

  5

  6

  7

 40
1.0
 41
0.18
 42
0.0625
 43
0.38
 44
0.18
 45
0.0
 46
0.0
 47
0.0
 48
0.0
140
0.18
141
0.09
142
0.0
143
25.399999999999999
144
1.0
145
0.0
146
1.0
147
0.09
 71
     0
 72
     0
 73
     1
 74
     1
 75
     0
 76
     0
 77
     0
 78
     0
170
     0
171
     2
172
     0
173
     0
174
     0
175
     0
176
     0
177
     0
178
     0
  0
ENDTAB
  0
ENDSEC
  0
SECTION
  2
BLOCKS
  0
BLOCK
  8
0
  2
$MODEL_SPACE
 70
     0
 10
0.0
 20
0.0
 30
0.0
  3
$MODEL_SPACE
  1

  0
ENDBLK
  5
21
  8
0
  0
BLOCK
 67
     1
  8
0
  2
$PAPER_SPACE
 70
     0
 10
0.0
 20
0.0
 30
0.0
  3
$PAPER_SPACE
  1

  0
ENDBLK
  5
1D
 67
     1
  8
0
  0
BLOCK
  8
0
  2
GENAXEH
 70
     0
 10
0.0
 20
0.0
 30
0.0
  3
GENAXEH
  1

  0
LINE
  5
88
  8
0
 10
-1.0
 20
0.0
 30
0.0
 11
1.0
 21
0.0
 31
0.0
  0
ENDBLK
  5
8A
  8
0
  0
BLOCK
  8
0
  2
*U3
 70
     1
 10
0.0
 20
0.0
 30
0.0
  3
*U3
  1

  0
TEXT
  5
20DA
  8
UMCL2
 10
1667.5924762121911
 20
1311.382427818158
 30
0.0
 40
3.0
  1
13
 50
90.0
  0
ENDBLK
  5
20DC
  8
0
  0
BLOCK
  8
0
  2
*U4
 70
     1
 10
0.0
 20
0.0
 30
0.0
  3
*U4
  1

  0
TEXT
  5
20DE
  8
UMCL2
 10
1675.5924762121911
 20
1309.5925618210181
 30
0.0
 40
3.0
  1
22.2
 50
90.0
  0
ENDBLK
  5
20E0
  8
0
  0
BLOCK
  8
0
  2
*U5
 70
     1
 10
0.0
 20
0.0
 30
0.0
  3
*U5
  1

  0
TEXT
  5
20E2
  8
UMCL2
 10
1683.5924762121911
 20
1311.054471269837
 30
0.0
 40
3.0
  1
52
 50
90.0
  0
ENDBLK
  5
20E4
  8
0
  0
BLOCK
  8
0
  2
*U6
 70
     1
 10
0.0
 20
0.0
 30
0.0
  3
*U6
  1

  0
TEXT
  5
20E6
  8
UMCL2
 10
1691.5924762121911
 20
1311.1269334135391
 30
0.0
 40
3.0
  1
69
 50
90.0
  0
ENDBLK
  5
20E8
  8
0
  0
BLOCK
  8
0
  2
*U7
 70
     1
 10
0.0
 20
0.0
 30
0.0
  3
*U7
  1

  0
TEXT
  5
20EA
  8
UMCL2
 10
1592.4561573145529
 20
1269.0924466474989
 30
0.0
 40
3.0
  1
26
  0
ENDBLK
  5
20EC
  8
0
  0
BLOCK
  8
0
  2
*U8
 70
     1
 10
0.0
 20
0.0
 30
0.0
  3
*U8
  1

  0
TEXT
  5
20EE
  8
UMCL2
 10
1553.498126503122
 20
1311.4433787501521
 30
0.0
 40
3.0
  1
10
 50
90.0
  0
ENDBLK
  5
20F0
  8
0
  0
BLOCK
  8
0
  2
*U9
 70
     1
 10
0.0
 20
0.0
 30
0.0
  3
*U9
  1

  0
TEXT
  5
20F2
  8
UMCL2
 10
1635.3424762121911
 20
1242.625774396698
 30
0.0
 40
3.0
  1
34
  0
ENDBLK
  5
20F4
  8
0
  0
BLOCK
  8
0
  2
*U10
 70
     1
 10
0.0
 20
0.0
 30
0.0
  3
*U10
  1

  0
TEXT
  5
20F6
  8
UMCL2
 10
1605.4561573145529
 20
1242.625774396698
 30
0.0
 40
3.0
  1
26
  0
ENDBLK
  5
20F8
  8
0
  0
BLOCK
  8
0
  2
*U11
 70
     1
 10
0.0
 20
0.0
 30
0.0
  3
*U11
  1

  0
TEXT
  5
20FA
  8
UMCL2
 10
1625.5078305428999
 20
1250.625774396698
 30
0.0
 40
3.0
  1
66
  0
ENDBLK
  5
20FC
  8
0
  0
BLOCK
  8
0
  2
*U12
 70
     1
 10
0.0
 20
0.0
 30
0.0
  3
*U12
  1

  0
TEXT
  5
20FE
  8
UMCL2
 10
1619.9924762121909
 20
1258.625774396698
 30
0.0
 40
3.0
  1
77
  0
ENDBLK
  5
2100
  8
0
  0
BLOCK
  8
0
  2
*U13
 70
     1
 10
0.0
 20
0.0
 30
0.0
  3
*U13
  1

  0
TEXT
  5
2102
  8
UMCL2
 10
1637.937151683192
 20
1205.856474729376
 30
0.0
 40
3.0
  1
29
 50
90.0
  0
ENDBLK
  5
2104
  8
0
  0
BLOCK
  8
0
  2
*U14
 70
     1
 10
0.0
 20
0.0
 30
0.0
  3
*U14
  1

  0
TEXT
  5
2106
  8
UMCL2
 10
1643.491295109829
 20
1189.0152816995569
 30
0.0
 40
3.0
  1
30
  0
ENDBLK
  5
2108
  8
0
  0
BLOCK
  8
0
  2
*U15
 70
     1
 10
0.0
 20
0.0
 30
0.0
  3
*U15
  1

  0
TEXT
  5
210A
  8
UMCL2
 10
1653.103445171176
 20
1097.018384178195
 30
0.0
 40
3.0
  1
19
 50
90.0
  0
ENDBLK
  5
210C
  8
0
  0
BLOCK
  8
0
  2
*U16
 70
     1
 10
0.0
 20
0.0
 30
0.0
  3
*U16
  1

  0
TEXT
  5
210E
  8
UMCL2
 10
1653.103445171176
 20
1126.174593294335
 30
0.0
 40
3.0
  1
40
 50
90.0
  0
ENDBLK
  5
2110
  8
0
  0
BLOCK
  8
0
  2
*U17
 70
     1
 10
0.0
 20
0.0
 30
0.0
  3
*U17
  1

  0
TEXT
  5
2112
  8
UMCL2
 10
1667.5924762121911
 20
1132.3762423372091
 30
0.0
 40
3.0
  1
90
 50
90.0
  0
ENDBLK
  5
2114
  8
0
  0
BLOCK
  8
0
  2
*U18
 70
     1
 10
0.0
 20
0.0
 30
0.0
  3
*U18
  1

  0
TEXT
  5
2116
  8
UMCL2
 10
1667.5924762121911
 20
1216.0636423623421
 30
0.0
 40
3.0
  1
13
 50
90.0
  0
ENDBLK
  5
2118
  8
0
  0
BLOCK
  8
0
  2
*U19
 70
     1
 10
0.0
 20
0.0
 30
0.0
  3
*U19
  1

  0
TEXT
  5
211A
  8
UMCL2
 10
1675.5924762121911
 20
1147.4856858140211
 30
0.0
 40
3.0
  1
122
 50
90.0
  0
ENDBLK
  5
211C
  8
0
  0
BLOCK
  8
0
  2
*U20
 70
     1
 10
0.0
 20
0.0
 30
0.0
  3
*U20
  1

  0
TEXT
  5
211E
  8
UMCL2
 10
1675.5924762121911
 20
1218.8737763652009
 30
0.0
 40
3.0
  1
22.2
 50
90.0
  0
ENDBLK
  5
2120
  8
0
  0
BLOCK
  8
0
  2
*U21
 70
     1
 10
0.0
 20
0.0
 30
0.0
  3
*U21
  1

  0
TEXT
  5
2122
  8
UMCL2
 10
1657.8487289827569
 20
1294.465625433681
 30
0.0
 40
3.0
  1
15°
 50
70.637393391434202
  0
ENDBLK
  5
2124
  8
0
  0
BLOCK
  8
0
  2
*U22
 70
     1
 10
0.0
 20
0.0
 30
0.0
  3
*U22
  1

  0
TEXT
  5
2126
  8
UMCL2
 10
1683.5924762121911
 20
1156.785685814021
 30
0.0
 40
3.0
  1
144.2
 50
90.0
  0
ENDBLK
  5
2128
  8
0
  0
BLOCK
  8
0
  2
*U23
 70
     1
 10
0.0
 20
0.0
 30
0.0
  3
*U23
  1

  0
TEXT
  5
212A
  8
UMCL2
 10
1578.4393363250481
 20
1208.971125829215
 30
0.0
 40
3.0
  1
\U+220510
 50
43.42304075060008
  0
ENDBLK
  5
212C
  8
0
  0
BLOCK
  8
0
  2
*U24
 70
     1
 10
0.0
 20
0.0
 30
0.0
  3
*U24
  1

  0
TEXT
  5
212E
  8
UMCL2
 10
1571.49022585699
 20
1234.425774396698
 30
0.0
 40
3.0
  1
4
 50
90.0
  0
ENDBLK
  5
2130
  8
0
  0
BLOCK
  8
0
  2
*U25
 70
     1
 10
0.0
 20
0.0
 30
0.0
  3
*U25
  1

  0
TEXT
  5
213A
  8
UMCL2
 10
1382.80592643915
 20
1311.382427818158
 30
0.0
 40
3.0
  1
13
 50
90.0
  0
ENDBLK
  5
213C
  8
0
  0
BLOCK
  8
0
  2
*U26
 70
     1
 10
0.0
 20
0.0
 30
0.0
  3
*U26
  1

  0
TEXT
  5
213E
  8
UMCL2
 10
1390.8059264391491
 20
1309.5925618210181
 30
0.0
 40
3.0
  1
22.2
 50
90.0
  0
ENDBLK
  5
2140
  8
0
  0
BLOCK
  8
0
  2
*U27
 70
     1
 10
0.0
 20
0.0
 30
0.0
  3
*U27
  1

  0
TEXT
  5
2142
  8
UMCL2
 10
1398.8059264391491
 20
1311.054471269837
 30
0.0
 40
3.0
  1
52
 50
90.0
  0
ENDBLK
  5
2144
  8
0
  0
BLOCK
  8
0
  2
*U28
 70
     1
 10
0.0
 20
0.0
 30
0.0
  3
*U28
  1

  0
TEXT
  5
2146
  8
UMCL2
 10
1406.8059264391491
 20
1311.1269334135391
 30
0.0
 40
3.0
  1
69
 50
90.0
  0
ENDBLK
  5
2148
  8
0
  0
BLOCK
  8
0
  2
*U29
 70
     1
 10
0.0
 20
0.0
 30
0.0
  3
*U29
  1

  0
TEXT
  5
214A
  8
UMCL2
 10
1307.6696075415121
 20
1269.0924466474989
 30
0.0
 40
3.0
  1
26
  0
ENDBLK
  5
214C
  8
0
  0
BLOCK
  8
0
  2
*U30
 70
     1
 10
0.0
 20
0.0
 30
0.0
  3
*U30
  1

  0
TEXT
  5
214E
  8
UMCL2
 10
1268.71157673008
 20
1311.4433787501521
 30
0.0
 40
3.0
  1
10
 50
90.0
  0
ENDBLK
  5
2150
  8
0
  0
BLOCK
  8
0
  2
*U31
 70
     1
 10
0.0
 20
0.0
 30
0.0
  3
*U31
  1

  0
TEXT
  5
2152
  8
UMCL2
 10
1350.5559264391491
 20
1242.625774396698
 30
0.0
 40
3.0
  1
34
  0
ENDBLK
  5
2154
  8
0
  0
BLOCK
  8
0
  2
*U32
 70
     1
 10
0.0
 20
0.0
 30
0.0
  3
*U32
  1

  0
TEXT
  5
2156
  8
UMCL2
 10
1320.6696075415109
 20
1242.625774396698
 30
0.0
 40
3.0
  1
26
  0
ENDBLK
  5
2158
  8
0
  0
BLOCK
  8
0
  2
*U33
 70
     1
 10
0.0
 20
0.0
 30
0.0
  3
*U33
  1

  0
TEXT
  5
215A
  8
UMCL2
 10
1340.7212807698579
 20
1250.625774396698
 30
0.0
 40
3.0
  1
66
  0
ENDBLK
  5
215C
  8
0
  0
BLOCK
  8
0
  2
*U34
 70
     1
 10
0.0
 20
0.0
 30
0.0
  3
*U34
  1

  0
TEXT
  5
215E
  8
UMCL2
 10
1335.2059264391489
 20
1258.625774396698
 30
0.0
 40
3.0
  1
77
  0
ENDBLK
  5
2160
  8
0
  0
BLOCK
  8
0
  2
*U35
 70
     1
 10
0.0
 20
0.0
 30
0.0
  3
*U35
  1

  0
TEXT
  5
2162
  8
UMCL2
 10
1353.15060191015
 20
1205.856474729376
 30
0.0
 40
3.0
  1
29
 50
90.0
  0
ENDBLK
  5
2164
  8
0
  0
BLOCK
  8
0
  2
*U36
 70
     1
 10
0.0
 20
0.0
 30
0.0
  3
*U36
  1

  0
TEXT
  5
2166
  8
UMCL2
 10
1358.704745336787
 20
1189.0152816995569
 30
0.0
 40
3.0
  1
30
  0
ENDBLK
  5
2168
  8
0
  0
BLOCK
  8
0
  2
*U37
 70
     1
 10
0.0
 20
0.0
 30
0.0
  3
*U37
  1

  0
TEXT
  5
216A
  8
UMCL2
 10
1382.80592643915
 20
1132.3762423372091
 30
0.0
 40
3.0
  1
90
 50
90.0
  0
ENDBLK
  5
216C
  8
0
  0
BLOCK
  8
0
  2
*U38
 70
     1
 10
0.0
 20
0.0
 30
0.0
  3
*U38
  1

  0
TEXT
  5
216E
  8
UMCL2
 10
1382.80592643915
 20
1216.0636423623421
 30
0.0
 40
3.0
  1
13
 50
90.0
  0
ENDBLK
  5
2170
  8
0
  0
BLOCK
  8
0
  2
*U39
 70
     1
 10
0.0
 20
0.0
 30
0.0
  3
*U39
  1

  0
TEXT
  5
2172
  8
UMCL2
 10
1390.8059264391491
 20
1147.4856858140211
 30
0.0
 40
3.0
  1
122
 50
90.0
  0
ENDBLK
  5
2174
  8
0
  0
BLOCK
  8
0
  2
*U40
 70
     1
 10
0.0
 20
0.0
 30
0.0
  3
*U40
  1

  0
TEXT
  5
2176
  8
UMCL2
 10
1390.8059264391491
 20
1218.8737763652009
 30
0.0
 40
3.0
  1
22.2
 50
90.0
  0
ENDBLK
  5
2178
  8
0
  0
BLOCK
  8
0
  2
*U41
 70
     1
 10
0.0
 20
0.0
 30
0.0
  3
*U41
  1

  0
TEXT
  5
217A
  8
UMCL2
 10
1373.0621792097149
 20
1294.465625433681
 30
0.0
 40
3.0
  1
15°
 50
70.637393391434202
  0
ENDBLK
  5
217C
  8
0
  0
BLOCK
  8
0
  2
*U42
 70
     1
 10
0.0
 20
0.0
 30
0.0
  3
*U42
  1

  0
TEXT
  5
217E
  8
UMCL2
 10
1398.8059264391491
 20
1156.785685814021
 30
0.0
 40
3.0
  1
144.2
 50
90.0
  0
ENDBLK
  5
2180
  8
0
  0
BLOCK
  8
0
  2
*U43
 70
     1
 10
0.0
 20
0.0
 30
0.0
  3
*U43
  1

  0
TEXT
  5
2182
  8
UMCL2
 10
1293.652786552007
 20
1208.971125829215
 30
0.0
 40
3.0
  1
\U+220510
 50
43.42304075060008
  0
ENDBLK
  5
2184
  8
0
  0
BLOCK
  8
0
  2
*U44
 70
     1
 10
0.0
 20
0.0
 30
0.0
  3
*U44
  1

  0
TEXT
  5
2186
  8
UMCL2
 10
1286.7036760839489
 20
1234.425774396698
 30
0.0
 40
3.0
  1
4
 50
90.0
  0
ENDBLK
  5
2188
  8
0
  0
BLOCK
  8
0
  2
*U45
 70
     1
 10
0.0
 20
0.0
 30
0.0
  3
*U45
  1

  0
TEXT
  5
218A
  8
UMCL2
 10
1262.1178205742401
 20
1298.108240954876
 30
0.0
 40
3.0
  1
26
 50
90.0
  0
ENDBLK
  5
218C
  8
0
  0
ENDSEC
  0
SECTION
  2
ENTITIES
  0
CIRCLE
  5
1C58
  8
UMCL1
  6
CONTINUOUS
 10
1620.5924762121911
 20
1193.5257743966979
 30
0.0
 40
5.0
  0
CIRCLE
  5
1C59
  8
UMCL1
  6
CONTINUOUS
 10
1620.5924762121911
 20
1222.5257743966979
 30
0.0
 40
5.0
  0
POLYLINE
  5
1C5A
  8
UMCL1
  6
HIDDEN
 62
     3
 66
     1
 10
0.0
 20
0.0
 30
0.0
  0
VERTEX
  5
20D1
  8
UMCL1
  6
HIDDEN
 62
     3
 10
1608.5924762121911
 20
1233.5257743966979
 30
0.0
  0
VERTEX
  5
20D2
  8
UMCL1
  6
HIDDEN
 62
     3
 10
1608.5924762121911
 20
1211.5257743966979
 30
0.0
  0
SEQEND
  5
20D3
  8
UMCL1
  6
HIDDEN
 62
     3
  0
CIRCLE
  5
1C5B
  8
UMCL1
  6
CONTINUOUS
 10
1568.5924762121911
 20
1339.2445598525139
 30
0.0
 40
4.5
  0
CIRCLE
  5
1C5C
  8
UMCL1
  6
CONTINUOUS
 10
1568.5924762121911
 20
1339.2445598525139
 30
0.0
 40
7.0
  0
CIRCLE
  5
1C5D
  8
UMCL1
  6
CONTINUOUS
 10
1568.5924762121911
 20
1287.2445598525151
 30
0.0
 40
4.5
  0
CIRCLE
  5
1C5E
  8
UMCL1
  6
CONTINUOUS
 10
1568.5924762121911
 20
1287.2445598525151
 30
0.0
 40
7.0
  0
CIRCLE
  5
1C5F
  8
UMCL1
  6
CONTINUOUS
 10
1620.5924762121911
 20
1287.2445598525151
 30
0.0
 40
4.5
  0
CIRCLE
  5
1C60
  8
UMCL1
  6
CONTINUOUS
 10
1620.5924762121911
 20
1287.2445598525151
 30
0.0
 40
7.0
  0
CIRCLE
  5
1C61
  8
UMCL1
  6
CONTINUOUS
 10
1620.5924762121911
 20
1339.2445598525139
 30
0.0
 40
4.5
  0
CIRCLE
  5
1C62
  8
UMCL1
  6
CONTINUOUS
 10
1620.5924762121911
 20
1339.2445598525139
 30
0.0
 40
7.0
  0
LINE
  5
1C63
  8
UMCL1
  6
CONTINUOUS
 10
1608.5924762121911
 20
1318.2445598525139
 30
0.0
 11
1608.5924762121911
 21
1308.2445598525139
 31
0.0
  0
POLYLINE
  5
1C64
  8
UMCL1
  6
CONTINUOUS
 66
     1
 10
0.0
 20
0.0
 30
0.0
 70
     1
  0
VERTEX
  5
20D4
  8
UMCL1
  6
CONTINUOUS
 10
1630.5924762121911
 20
1193.5257743966979
 30
0.0
  0
VERTEX
  5
20D5
  8
UMCL1
  6
CONTINUOUS
 10
1630.5924762121911
 20
1222.5257743966979
 30
0.0
 42
1.000000000000002
  0
VERTEX
  5
20D6
  8
UMCL1
  6
CONTINUOUS
 10
1610.5924762121911
 20
1222.5257743966979
 30
0.0
  0
VERTEX
  5
20D7
  8
UMCL1
  6
CONTINUOUS
 10
1610.5924762121911
 20
1193.5257743966979
 30
0.0
 42
1.000000000000002
  0
SEQEND
  5
20D8
  8
UMCL1
  6
CONTINUOUS
  0
LINE
  5
1C65
  8
UMCL1
  6
CONTINUOUS
 10
1610.5924762121911
 20
1330.3445598525141
 30
0.0
 11
1630.5924762121911
 21
1330.344559852515
 31
0.0
  0
LINE
  5
1C66
  8
UMCL1
  6
CONTINUOUS
 10
1610.5924762121911
 20
1330.3445598525141
 30
0.0
 11
1610.5924762121911
 21
1324.3445598525141
 31
0.0
  0
LINE
  5
1C67
  8
UMCL1
  6
CONTINUOUS
 10
1630.5924762121911
 20
1330.344559852515
 30
0.0
 11
1630.5924762121911
 21
1324.3445598525141
 31
0.0
  0
LINE
  5
1C68
  8
UMCL1
  6
CONTINUOUS
 10
1610.5924762121911
 20
1296.144559852514
 30
0.0
 11
1630.5924762121911
 21
1296.144559852514
 31
0.0
  0
LINE
  5
1C69
  8
UMCL1
  6
CONTINUOUS
 10
1610.5924762121911
 20
1296.144559852514
 30
0.0
 11
1610.5924762121911
 21
1302.144559852514
 31
0.0
  0
LINE
  5
1C6A
  8
UMCL1
  6
CONTINUOUS
 10
1630.5924762121911
 20
1296.144559852514
 30
0.0
 11
1630.5924762121911
 21
1302.144559852514
 31
0.0
  0
LINE
  5
1C6B
  8
UMCL1
  6
HIDDEN
 62
     3
 10
1629.092476212192
 20
1330.3445598525141
 30
0.0
 11
1629.0924762121911
 21
1296.144559852514
 31
0.0
  0
LINE
  5
1C6C
  8
UMCL1
  6
CONTINUOUS
 10
1643.4250424973741
 20
1324.3445598525141
 30
0.0
 11
1643.425042497375
 21
1302.144559852514
 31
0.0
  0
LINE
  5
1C6D
  8
UMCL1
  6
CONTINUOUS
 10
1643.425042497375
 20
1302.144559852514
 30
0.0
 11
1660.592476212192
 21
1306.7445598525139
 31
0.0
  0
LINE
  5
1C6E
  8
UMCL1
  6
CONTINUOUS
 10
1660.592476212192
 20
1319.7445598525139
 30
0.0
 11
1643.4250424973741
 21
1324.3445598525141
 31
0.0
  0
LINE
  5
1C6F
  8
UMCL1
  6
CONTINUOUS
 10
1660.5924762121911
 20
1306.7445598525139
 30
0.0
 11
1660.592476212192
 21
1319.7445598525139
 31
0.0
  0
LINE
  5
1C70
  8
UMCL1
  6
HIDDEN
 62
     3
 10
1589.5924762121911
 20
1324.3445598525141
 30
0.0
 11
1589.5924762121911
 21
1302.144559852514
 31
0.0
  0
LINE
  5
1C71
  8
UMCL1
  6
HIDDEN
 62
     3
 10
1599.5924762121911
 20
1324.3445598525141
 30
0.0
 11
1599.5924762121911
 21
1302.144559852514
 31
0.0
  0
LINE
  5
1C72
  8
UMCL1
  6
HIDDEN
 62
     3
 10
1625.5924762121911
 20
1330.3445598525141
 30
0.0
 11
1625.5924762121911
 21
1296.144559852514
 31
0.0
  0
LINE
  5
1C73
  8
UMCL1
  6
HIDDEN
 62
     3
 10
1615.5924762121911
 20
1330.3445598525141
 30
0.0
 11
1615.5924762121911
 21
1296.144559852514
 31
0.0
  0
LINE
  5
1C74
  8
UMCL1
  6
CONTINUOUS
 10
1589.7924762121911
 20
1324.3445598525141
 30
0.0
 11
1589.7924762121911
 21
1325.4445598525151
 31
0.0
  0
LINE
  5
1C75
  8
UMCL1
  6
CONTINUOUS
 10
1599.392476212191
 20
1324.3445598525141
 30
0.0
 11
1599.392476212191
 21
1325.4445598525151
 31
0.0
  0
LINE
  5
1C76
  8
UMCL1
  6
CONTINUOUS
 10
1588.192476212191
 20
1324.3445598525141
 30
0.0
 11
1588.192476212191
 21
1325.444559852514
 31
0.0
  0
LINE
  5
1C77
  8
UMCL1
  6
CONTINUOUS
 10
1600.9924762121909
 20
1324.344559852515
 30
0.0
 11
1600.9924762121909
 21
1325.4445598525151
 31
0.0
  0
LINE
  5
1C78
  8
UMCL1
  6
CONTINUOUS
 10
1588.192476212191
 20
1325.444559852514
 30
0.0
 11
1600.9924762121909
 21
1325.4445598525151
 31
0.0
  0
LINE
  5
1C79
  8
UMCL1
  6
CONTINUOUS
 10
1610.5924762121911
 20
1198.5257743966979
 30
0.0
 11
1610.5924762121911
 21
1179.425774396698
 31
0.0
  0
LINE
  5
1C7A
  8
UMCL1
  6
CONTINUOUS
 10
1643.4250424973741
 20
1233.625774396698
 30
0.0
 11
1643.4250424973741
 21
1211.425774396698
 31
0.0
  0
LINE
  5
1C7B
  8
UMCL1
  6
CONTINUOUS
 10
1583.5924762121911
 20
1324.3445598525141
 30
0.0
 11
1583.5924762121911
 21
1318.2445598525139
 31
0.0
  0
LINE
  5
1C7C
  8
UMCL1
  6
CONTINUOUS
 10
1583.5924762121911
 20
1308.2445598525139
 30
0.0
 11
1583.5924762121911
 21
1302.144559852514
 31
0.0
  0
LINE
  5
1C7D
  8
UMCL1
  6
CONTINUOUS
 10
1583.5924762121911
 20
1324.3445598525141
 30
0.0
 11
1643.4250424973741
 21
1324.3445598525141
 31
0.0
  0
LINE
  5
1C7E
  8
UMCL1
  6
CONTINUOUS
 10
1583.5924762121911
 20
1318.2445598525139
 30
0.0
 11
1608.5924762121911
 21
1318.2445598525139
 31
0.0
  0
LINE
  5
1C7F
  8
UMCL1
  6
CONTINUOUS
 10
1583.5924762121911
 20
1308.2445598525139
 30
0.0
 11
1608.5924762121911
 21
1308.2445598525139
 31
0.0
  0
LINE
  5
1C80
  8
UMCL1
  6
CONTINUOUS
 10
1583.5924762121911
 20
1302.144559852514
 30
0.0
 11
1643.425042497375
 21
1302.144559852514
 31
0.0
  0
LINE
  5
1C81
  8
UMCL1
  6
CENTER
 62
     1
 10
1594.5924762121911
 20
1087.425774396698
 30
0.0
 11
1594.5924762121911
 21
1235.625774396698
 31
0.0
  0
LINE
  5
1C82
  8
UMCL1
  6
CONTINUOUS
 10
1584.0924762121911
 20
1209.125774396698
 30
0.0
 11
1583.392476212191
 21
1207.125774396698
 31
0.0
  0
LINE
  5
1C83
  8
UMCL1
  6
CONTINUOUS
 10
1605.7924762121911
 20
1207.125774396698
 30
0.0
 11
1605.0924762121911
 21
1209.125774396698
 31
0.0
  0
LINE
  5
1C84
  8
UMCL1
  6
HIDDEN
 62
     2
 10
1600.5924762121911
 20
1233.625774396698
 30
0.0
 11
1588.5924762121911
 21
1233.625774396698
 31
0.0
  0
LINE
  5
1C85
  8
UMCL1
  6
CONTINUOUS
 10
1605.0924762121911
 20
1209.125774396698
 30
0.0
 11
1584.0924762121911
 21
1209.125774396698
 31
0.0
  0
CIRCLE
  5
1C86
  8
UMCL1
  6
CONTINUOUS
 10
1594.5924762121911
 20
1222.5257743966979
 30
0.0
 40
5.0
  0
LINE
  5
1C87
  8
UMCL1
  6
HIDDEN
 62
     3
 10
1584.0924762121911
 20
1229.125774396698
 30
0.0
 11
1588.5924762121911
 21
1233.625774396698
 31
0.0
  0
LINE
  5
1C88
  8
UMCL1
  6
HIDDEN
 62
     3
 10
1600.5924762121911
 20
1233.625774396698
 30
0.0
 11
1605.0924762121911
 21
1229.125774396698
 31
0.0
  0
LINE
  5
1C89
  8
UMCL1
  6
CONTINUOUS
 10
1630.5924762121911
 20
1211.425774396698
 30
0.0
 11
1660.5924762121911
 21
1211.425774396698
 31
0.0
  0
LINE
  5
1C8A
  8
UMCL1
  6
CONTINUOUS
 10
1660.5924762121911
 20
1211.425774396698
 30
0.0
 11
1660.5924762121911
 21
1224.425774396698
 31
0.0
  0
LINE
  5
1C8B
  8
UMCL1
  6
CONTINUOUS
 10
1660.5924762121911
 20
1224.425774396698
 30
0.0
 11
1643.4250424973741
 21
1233.625774396698
 31
0.0
  0
LINE
  5
1C8C
  8
UMCL1
  6
CONTINUOUS
 10
1643.4250424973741
 20
1233.625774396698
 30
0.0
 11
1583.5924762121911
 21
1233.625774396698
 31
0.0
  0
LINE
  5
1C8D
  8
UMCL1
  6
CONTINUOUS
 10
1583.5924762121911
 20
1233.625774396698
 30
0.0
 11
1583.5924762121911
 21
1217.625774396698
 31
0.0
  0
LINE
  5
1C8E
  8
UMCL1
  6
CONTINUOUS
 10
1583.5924762121911
 20
1217.625774396698
 30
0.0
 11
1589.7924762121911
 21
1211.425774396698
 31
0.0
  0
LINE
  5
1C8F
  8
UMCL1
  6
CONTINUOUS
 10
1589.7924762121911
 20
1211.425774396698
 30
0.0
 11
1610.5924762121911
 21
1211.425774396698
 31
0.0
  0
LINE
  5
1C90
  8
UMCL1
  6
CONTINUOUS
 10
1610.5924762121911
 20
1179.425774396698
 30
0.0
 11
1630.5924762121911
 21
1179.425774396698
 31
0.0
  0
LINE
  5
1C91
  8
UMCL1
  6
CONTINUOUS
 10
1630.5924762121911
 20
1179.425774396698
 30
0.0
 11
1630.5924762121911
 21
1199.0257743966979
 31
0.0
  0
LINE
  5
1C92
  8
UMCL1
  6
HIDDEN
 62
     3
 10
1630.5924762121911
 20
1199.0257743966979
 30
0.0
 11
1626.0924762121911
 21
1203.5257743966979
 31
0.0
  0
LINE
  5
1C93
  8
UMCL1
  6
HIDDEN
 62
     3
 10
1626.0924762121911
 20
1203.5257743966979
 30
0.0
 11
1615.0924762121911
 21
1203.5257743966979
 31
0.0
  0
LINE
  5
1C94
  8
UMCL1
  6
HIDDEN
 62
     3
 10
1615.0924762121911
 20
1203.5257743966979
 30
0.0
 11
1610.5924762121911
 21
1199.0257743966979
 31
0.0
  0
LINE
  5
1C95
  8
UMCL1
  6
CONTINUOUS
 10
1610.5924762121911
 20
1199.0257743966979
 30
0.0
 11
1610.5924762121911
 21
1179.425774396698
 31
0.0
  0
LINE
  5
1C96
  8
UMCL1
  6
CONTINUOUS
 10
1590.0924762121911
 20
1326.7445598525139
 30
0.0
 11
1599.0924762121911
 21
1326.7445598525151
 31
0.0
  0
LINE
  5
1C97
  8
UMCL1
  6
CONTINUOUS
 10
1589.5924762121911
 20
1326.2445598525139
 30
0.0
 11
1589.5924762121911
 21
1325.444559852514
 31
0.0
  0
LINE
  5
1C98
  8
UMCL1
  6
CONTINUOUS
 10
1599.5924762121911
 20
1326.2445598525151
 30
0.0
 11
1599.5924762121911
 21
1325.444559852514
 31
0.0
  0
LINE
  5
1C99
  8
UMCL1
  6
CONTINUOUS
 10
1589.5924762121911
 20
1326.2445598525151
 30
0.0
 11
1599.5924762121911
 21
1326.2445598525151
 31
0.0
  0
LINE
  5
1C9A
  8
UMCL1
  6
CONTINUOUS
 10
1589.5924762121911
 20
1326.2445598525139
 30
0.0
 11
1590.0924762121911
 21
1326.7445598525139
 31
0.0
  0
LINE
  5
1C9B
  8
UMCL1
  6
CONTINUOUS
 10
1599.0924762121911
 20
1326.7445598525151
 30
0.0
 11
1599.5924762121911
 21
1326.2445598525151
 31
0.0
  0
LINE
  5
1C9C
  8
UMCL1
  6
CONTINUOUS
 10
1589.7924762121911
 20
1302.144559852514
 30
0.0
 11
1589.7924762121911
 21
1301.0445598525141
 31
0.0
  0
LINE
  5
1C9D
  8
UMCL1
  6
CONTINUOUS
 10
1599.392476212191
 20
1302.144559852514
 30
0.0
 11
1599.392476212191
 21
1301.0445598525141
 31
0.0
  0
LINE
  5
1C9E
  8
UMCL1
  6
CONTINUOUS
 10
1588.192476212191
 20
1302.144559852514
 30
0.0
 11
1588.192476212191
 21
1301.0445598525141
 31
0.0
  0
LINE
  5
1C9F
  8
UMCL1
  6
CONTINUOUS
 10
1600.9924762121909
 20
1302.144559852514
 30
0.0
 11
1600.9924762121909
 21
1301.0445598525141
 31
0.0
  0
LINE
  5
1CA0
  8
UMCL1
  6
CONTINUOUS
 10
1588.192476212191
 20
1301.0445598525141
 30
0.0
 11
1600.9924762121909
 21
1301.0445598525141
 31
0.0
  0
LINE
  5
1CA1
  8
UMCL1
  6
CONTINUOUS
 10
1590.0924762121911
 20
1299.7445598525151
 30
0.0
 11
1599.0924762121911
 21
1299.7445598525151
 31
0.0
  0
LINE
  5
1CA2
  8
UMCL1
  6
CONTINUOUS
 10
1589.5924762121911
 20
1300.2445598525139
 30
0.0
 11
1589.5924762121911
 21
1301.044559852515
 31
0.0
  0
LINE
  5
1CA3
  8
UMCL1
  6
CONTINUOUS
 10
1599.5924762121911
 20
1300.2445598525139
 30
0.0
 11
1599.5924762121911
 21
1301.0445598525141
 31
0.0
  0
LINE
  5
1CA4
  8
UMCL1
  6
CONTINUOUS
 10
1589.5924762121911
 20
1300.2445598525139
 30
0.0
 11
1599.5924762121911
 21
1300.2445598525139
 31
0.0
  0
LINE
  5
1CA5
  8
UMCL1
  6
CONTINUOUS
 10
1589.5924762121911
 20
1300.2445598525139
 30
0.0
 11
1590.0924762121911
 21
1299.7445598525151
 31
0.0
  0
LINE
  5
1CA6
  8
UMCL1
  6
CONTINUOUS
 10
1599.0924762121911
 20
1299.7445598525151
 30
0.0
 11
1599.5924762121911
 21
1300.2445598525139
 31
0.0
  0
LINE
  5
1CA7
  8
UMCL1
  6
CONTINUOUS
 10
1615.7924762121911
 20
1330.344559852515
 30
0.0
 11
1615.7924762121911
 21
1331.4445598525151
 31
0.0
  0
LINE
  5
1CA8
  8
UMCL1
  6
CONTINUOUS
 10
1625.392476212191
 20
1330.344559852515
 30
0.0
 11
1625.392476212191
 21
1331.4445598525151
 31
0.0
  0
LINE
  5
1CA9
  8
UMCL1
  6
CONTINUOUS
 10
1614.192476212191
 20
1330.344559852515
 30
0.0
 11
1614.192476212191
 21
1331.4445598525151
 31
0.0
  0
LINE
  5
1CAA
  8
UMCL1
  6
CONTINUOUS
 10
1626.9924762121921
 20
1330.344559852515
 30
0.0
 11
1626.9924762121921
 21
1331.4445598525151
 31
0.0
  0
LINE
  5
1CAB
  8
UMCL1
  6
CONTINUOUS
 10
1614.192476212191
 20
1331.4445598525151
 30
0.0
 11
1626.9924762121921
 21
1331.4445598525151
 31
0.0
  0
LINE
  5
1CAC
  8
UMCL1
  6
CONTINUOUS
 10
1616.092476212192
 20
1332.7445598525151
 30
0.0
 11
1625.092476212192
 21
1332.7445598525151
 31
0.0
  0
LINE
  5
1CAD
  8
UMCL1
  6
CONTINUOUS
 10
1615.5924762121911
 20
1332.2445598525151
 30
0.0
 11
1615.5924762121911
 21
1331.4445598525151
 31
0.0
  0
LINE
  5
1CAE
  8
UMCL1
  6
CONTINUOUS
 10
1625.592476212192
 20
1332.2445598525151
 30
0.0
 11
1625.592476212192
 21
1331.4445598525151
 31
0.0
  0
LINE
  5
1CAF
  8
UMCL1
  6
CONTINUOUS
 10
1615.5924762121911
 20
1332.2445598525151
 30
0.0
 11
1625.592476212192
 21
1332.2445598525151
 31
0.0
  0
LINE
  5
1CB0
  8
UMCL1
  6
CONTINUOUS
 10
1615.5924762121911
 20
1332.2445598525151
 30
0.0
 11
1616.092476212192
 21
1332.7445598525151
 31
0.0
  0
LINE
  5
1CB1
  8
UMCL1
  6
CONTINUOUS
 10
1625.092476212192
 20
1332.7445598525151
 30
0.0
 11
1625.592476212192
 21
1332.2445598525151
 31
0.0
  0
LINE
  5
1CB2
  8
UMCL1
  6
CONTINUOUS
 10
1615.7924762121911
 20
1296.144559852514
 30
0.0
 11
1615.7924762121911
 21
1295.0445598525141
 31
0.0
  0
LINE
  5
1CB3
  8
UMCL1
  6
CONTINUOUS
 10
1625.392476212191
 20
1296.144559852514
 30
0.0
 11
1625.392476212191
 21
1295.0445598525141
 31
0.0
  0
LINE
  5
1CB4
  8
UMCL1
  6
CONTINUOUS
 10
1614.192476212191
 20
1296.144559852514
 30
0.0
 11
1614.192476212191
 21
1295.0445598525141
 31
0.0
  0
LINE
  5
1CB5
  8
UMCL1
  6
CONTINUOUS
 10
1626.9924762121921
 20
1296.144559852514
 30
0.0
 11
1626.9924762121921
 21
1295.0445598525141
 31
0.0
  0
LINE
  5
1CB6
  8
UMCL1
  6
CONTINUOUS
 10
1614.192476212191
 20
1295.0445598525141
 30
0.0
 11
1626.9924762121921
 21
1295.0445598525141
 31
0.0
  0
LINE
  5
1CB7
  8
UMCL1
  6
CONTINUOUS
 10
1616.092476212192
 20
1293.7445598525151
 30
0.0
 11
1625.092476212192
 21
1293.7445598525139
 31
0.0
  0
LINE
  5
1CB8
  8
UMCL1
  6
CONTINUOUS
 10
1615.5924762121911
 20
1294.2445598525139
 30
0.0
 11
1615.5924762121911
 21
1295.0445598525141
 31
0.0
  0
LINE
  5
1CB9
  8
UMCL1
  6
CONTINUOUS
 10
1625.592476212192
 20
1294.2445598525139
 30
0.0
 11
1625.592476212192
 21
1295.0445598525141
 31
0.0
  0
LINE
  5
1CBA
  8
UMCL1
  6
CONTINUOUS
 10
1615.5924762121911
 20
1294.2445598525139
 30
0.0
 11
1625.592476212192
 21
1294.2445598525139
 31
0.0
  0
LINE
  5
1CBB
  8
UMCL1
  6
CONTINUOUS
 10
1615.5924762121911
 20
1294.2445598525139
 30
0.0
 11
1616.092476212192
 21
1293.7445598525151
 31
0.0
  0
LINE
  5
1CBC
  8
UMCL1
  6
CONTINUOUS
 10
1625.092476212192
 20
1293.7445598525139
 30
0.0
 11
1625.592476212192
 21
1294.2445598525139
 31
0.0
  0
ARC
  5
1CBD
  8
UMCL1
  6
CONTINUOUS
 10
1594.5924762121911
 20
1313.2445598525139
 30
0.0
 40
6.0
 50
123.557309761913
 51
236.4426902380761
  0
ARC
  5
1CBE
  8
UMCL1
  6
CONTINUOUS
 10
1594.5924762121911
 20
1313.2445598525139
 30
0.0
 40
10.5
 50
151.56310985114621
 51
208.43689014885379
  0
ARC
  5
1CBF
  8
UMCL1
  6
CONTINUOUS
 10
1594.5924762121911
 20
1313.2445598525139
 30
0.0
 40
10.5
 50
331.56310985114618
 51
28.43689014885376
  0
ARC
  5
1CC0
  8
UMCL1
  6
CONTINUOUS
 10
1594.5924762121911
 20
1313.2445598525139
 30
0.0
 40
6.0
 50
303.5573097619129
 51
56.442690238076139
  0
LINE
  5
1CC1
  8
UMCL1
  6
HIDDEN
 62
     3
 10
1584.0924762121911
 20
1229.125774396698
 30
0.0
 11
1585.3593835558811
 21
1229.125774396698
 31
0.0
  0
LINE
  5
1CC2
  8
UMCL1
  6
HIDDEN
 62
     3
 10
1605.0924762121911
 20
1229.125774396698
 30
0.0
 11
1603.825568868501
 21
1229.125774396698
 31
0.0
  0
LINE
  5
1CC3
  8
UMCL1
  6
CONTINUOUS
 10
1583.392476212191
 20
1207.125774396698
 30
0.0
 11
1583.392476212191
 21
1179.425774396698
 31
0.0
  0
LINE
  5
1CC4
  8
UMCL1
  6
CONTINUOUS
 10
1605.7924762121911
 20
1179.425774396698
 30
0.0
 11
1605.7924762121911
 21
1207.125774396698
 31
0.0
  0
ARC
  5
1CC5
  8
UMCL1
  6
CONTINUOUS
 10
1594.5924762121911
 20
1313.2445598525139
 30
0.0
 40
11.199999999999999
 50
333.48522536574279
 51
26.514774634257169
  0
ARC
  5
1CC6
  8
UMCL1
  6
CONTINUOUS
 10
1594.5924762121911
 20
1313.2445598525139
 30
0.0
 40
11.199999999999999
 50
153.48522536574279
 51
206.51477463425709
  0
LINE
  5
1CC7
  8
UMCL1
  6
CONTINUOUS
 10
1583.392476212191
 20
1207.125774396698
 30
0.0
 11
1605.7924762121911
 21
1207.125774396698
 31
0.0
  0
LINE
  5
1CC8
  8
UMCL1
  6
HIDDEN
 62
     3
 10
1610.5924762121911
 20
1211.425774396698
 30
0.0
 11
1630.5924762121911
 21
1211.425774396698
 31
0.0
  0
LINE
  5
1CC9
  8
UMCL1
  6
HIDDEN
 62
     3
 10
1630.5924762121911
 20
1324.3445598525141
 30
0.0
 11
1630.5924762121911
 21
1302.144559852514
 31
0.0
  0
LINE
  5
1CCA
  8
UMCL1
  6
CENTER
 62
     1
 10
1558.0924762121911
 20
1313.2445598525139
 30
0.0
 11
1662.5924762121911
 21
1313.244559852513
 31
0.0
  0
LINE
  5
1CCB
  8
UMCL1
  6
CENTER
 62
     1
 10
1594.5924762121911
 20
1349.7445598525151
 30
0.0
 11
1594.5924762121911
 21
1276.7445598525151
 31
0.0
  0
LINE
  5
1CCC
  8
UMCL1
  6
HIDDEN
 62
     3
 10
1605.0924762121911
 20
1229.125774396698
 30
0.0
 11
1605.0924762121911
 21
1211.425774396698
 31
0.0
  0
LINE
  5
1CCD
  8
UMCL1
  6
HIDDEN
 62
     3
 10
1603.825568868501
 20
1230.3926817403881
 30
0.0
 11
1603.825568868501
 21
1211.425774396698
 31
0.0
  0
LINE
  5
1CCE
  8
UMCL1
  6
HIDDEN
 62
     3
 10
1584.0924762121911
 20
1229.125774396698
 30
0.0
 11
1584.0924762121911
 21
1217.125774396698
 31
0.0
  0
LINE
  5
1CCF
  8
UMCL1
  6
HIDDEN
 62
     3
 10
1585.3593835558811
 20
1230.3926817403881
 30
0.0
 11
1585.3593835558811
 21
1215.858867053008
 31
0.0
  0
LINE
  5
1CD0
  8
UMCL1
  6
CONTINUOUS
 10
1584.0924762121911
 20
1217.125774396698
 30
0.0
 11
1584.0924762121911
 21
1209.125774396698
 31
0.0
  0
LINE
  5
1CD1
  8
UMCL1
  6
CONTINUOUS
 10
1585.3593835558811
 20
1215.858867053008
 30
0.0
 11
1585.3593835558811
 21
1209.125774396698
 31
0.0
  0
LINE
  5
1CD2
  8
UMCL1
  6
CONTINUOUS
 10
1603.825568868501
 20
1211.425774396698
 30
0.0
 11
1603.825568868501
 21
1209.125774396698
 31
0.0
  0
LINE
  5
1CD3
  8
UMCL1
  6
CONTINUOUS
 10
1605.0924762121911
 20
1209.125774396698
 30
0.0
 11
1605.0924762121911
 21
1211.425774396698
 31
0.0
  0
LINE
  5
1CD4
  8
UMCL1
  6
HIDDEN
 62
     3
 10
1561.5924762121911
 20
1179.425774396698
 30
0.0
 11
1561.5924762121911
 21
1170.425774396698
 31
0.0
  0
LINE
  5
1CD5
  8
UMCL1
  6
HIDDEN
 62
     3
 10
1561.5924762121911
 20
1170.425774396698
 30
0.0
 11
1575.5924762121911
 21
1170.425774396698
 31
0.0
  0
LINE
  5
1CD6
  8
UMCL1
  6
HIDDEN
 62
     3
 10
1575.5924762121911
 20
1170.425774396698
 30
0.0
 11
1575.5924762121911
 21
1179.425774396698
 31
0.0
  0
LINE
  5
1CD7
  8
UMCL1
  6
HIDDEN
 62
     3
 10
1573.0924762121911
 20
1089.425774396698
 30
0.0
 11
1573.0924762121911
 21
1170.425774396698
 31
0.0
  0
LINE
  5
1CD8
  8
UMCL1
  6
HIDDEN
 62
     3
 10
1564.0924762121911
 20
1089.425774396698
 30
0.0
 11
1564.0924762121911
 21
1170.425774396698
 31
0.0
  0
LINE
  5
1CD9
  8
UMCL1
  6
CENTER
 62
     1
 10
1568.5924762121911
 20
1087.925774396698
 30
0.0
 11
1568.5924762121911
 21
1180.925774396698
 31
0.0
  0
LINE
  5
1CDA
  8
UMCL1
  6
HIDDEN
 62
     3
 10
1613.5924762121911
 20
1179.425774396698
 30
0.0
 11
1613.5924762121911
 21
1170.4257743966971
 31
0.0
  0
LINE
  5
1CDB
  8
UMCL1
  6
HIDDEN
 62
     3
 10
1613.5924762121911
 20
1170.4257743966971
 30
0.0
 11
1627.5924762121911
 21
1170.4257743966971
 31
0.0
  0
LINE
  5
1CDC
  8
UMCL1
  6
HIDDEN
 62
     3
 10
1627.5924762121911
 20
1170.4257743966971
 30
0.0
 11
1627.5924762121911
 21
1179.425774396698
 31
0.0
  0
LINE
  5
1CDD
  8
UMCL1
  6
HIDDEN
 62
     3
 10
1625.0924762121911
 20
1089.4257743966971
 30
0.0
 11
1625.0924762121911
 21
1170.4257743966971
 31
0.0
  0
LINE
  5
1CDE
  8
UMCL1
  6
HIDDEN
 62
     3
 10
1616.0924762121911
 20
1089.425774396698
 30
0.0
 11
1616.0924762121911
 21
1170.4257743966971
 31
0.0
  0
LINE
  5
1CDF
  8
UMCL1
  6
CENTER
 62
     1
 10
1620.5924762121911
 20
1087.9257743966971
 30
0.0
 11
1620.5924762121911
 21
1180.925774396698
 31
0.0
  0
CIRCLE
  5
1CE0
  8
UMCL1
  6
CONTINUOUS
 10
1581.5924762121911
 20
1148.425774396698
 30
0.0
 40
5.75
  0
CIRCLE
  5
1CE1
  8
UMCL1
  6
CONTINUOUS
 10
1607.5924762121911
 20
1108.425774396698
 30
0.0
 40
5.75
  0
LINE
  5
1CE2
  8
UMCL1
  6
CENTER
 62
     1
 10
1620.5924762121911
 20
1333.7445598525151
 30
0.0
 11
1620.5924762121911
 21
1292.7445598525139
 31
0.0
  0
LINE
  5
1CE3
  8
UMCL1
  6
CENTER
 62
     1
 10
1560.2924762121911
 20
1339.2445598525139
 30
0.0
 11
1565.9924762121909
 21
1339.2445598525139
 31
0.0
  0
LINE
  5
1CE4
  8
UMCL1
  6
CENTER
 62
     1
 10
1567.2924762121911
 20
1339.2445598525139
 30
0.0
 11
1569.892476212191
 21
1339.2445598525139
 31
0.0
  0
LINE
  5
1CE5
  8
UMCL1
  6
CENTER
 62
     1
 10
1571.192476212191
 20
1339.2445598525139
 30
0.0
 11
1576.892476212191
 21
1339.2445598525139
 31
0.0
  0
LINE
  5
1CE6
  8
UMCL1
  6
CENTER
 62
     1
 10
1568.5924762121911
 20
1330.944559852514
 30
0.0
 11
1568.5924762121911
 21
1336.644559852514
 31
0.0
  0
LINE
  5
1CE7
  8
UMCL1
  6
CENTER
 62
     1
 10
1568.5924762121911
 20
1337.9445598525151
 30
0.0
 11
1568.5924762121911
 21
1340.5445598525141
 31
0.0
  0
LINE
  5
1CE8
  8
UMCL1
  6
CENTER
 62
     1
 10
1568.5924762121911
 20
1341.8445598525141
 30
0.0
 11
1568.5924762121911
 21
1347.5445598525141
 31
0.0
  0
LINE
  5
1CE9
  8
UMCL1
  6
CENTER
 62
     1
 10
1560.2924762121911
 20
1287.2445598525151
 30
0.0
 11
1565.9924762121909
 21
1287.2445598525151
 31
0.0
  0
LINE
  5
1CEA
  8
UMCL1
  6
CENTER
 62
     1
 10
1567.2924762121911
 20
1287.2445598525151
 30
0.0
 11
1569.892476212191
 21
1287.2445598525151
 31
0.0
  0
LINE
  5
1CEB
  8
UMCL1
  6
CENTER
 62
     1
 10
1571.192476212191
 20
1287.2445598525151
 30
0.0
 11
1576.892476212191
 21
1287.2445598525151
 31
0.0
  0
LINE
  5
1CEC
  8
UMCL1
  6
CENTER
 62
     1
 10
1568.5924762121911
 20
1278.944559852514
 30
0.0
 11
1568.5924762121911
 21
1284.644559852514
 31
0.0
  0
LINE
  5
1CED
  8
UMCL1
  6
CENTER
 62
     1
 10
1568.5924762121911
 20
1285.944559852514
 30
0.0
 11
1568.5924762121911
 21
1288.5445598525141
 31
0.0
  0
LINE
  5
1CEE
  8
UMCL1
  6
CENTER
 62
     1
 10
1568.5924762121911
 20
1289.8445598525141
 30
0.0
 11
1568.5924762121911
 21
1295.5445598525141
 31
0.0
  0
LINE
  5
1CEF
  8
UMCL1
  6
CENTER
 62
     1
 10
1612.2924762121911
 20
1339.2445598525139
 30
0.0
 11
1617.9924762121909
 21
1339.2445598525139
 31
0.0
  0
LINE
  5
1CF0
  8
UMCL1
  6
CENTER
 62
     1
 10
1619.2924762121911
 20
1339.2445598525139
 30
0.0
 11
1621.8924762121919
 21
1339.2445598525139
 31
0.0
  0
LINE
  5
1CF1
  8
UMCL1
  6
CENTER
 62
     1
 10
1623.1924762121921
 20
1339.2445598525139
 30
0.0
 11
1628.892476212191
 21
1339.2445598525139
 31
0.0
  0
LINE
  5
1CF2
  8
UMCL1
  6
CENTER
 62
     1
 10
1620.5924762121911
 20
1330.944559852514
 30
0.0
 11
1620.5924762121911
 21
1336.644559852514
 31
0.0
  0
LINE
  5
1CF3
  8
UMCL1
  6
CENTER
 62
     1
 10
1620.5924762121911
 20
1337.9445598525151
 30
0.0
 11
1620.5924762121911
 21
1340.5445598525141
 31
0.0
  0
LINE
  5
1CF4
  8
UMCL1
  6
CENTER
 62
     1
 10
1620.5924762121911
 20
1341.8445598525141
 30
0.0
 11
1620.5924762121911
 21
1347.5445598525141
 31
0.0
  0
LINE
  5
1CF5
  8
UMCL1
  6
CENTER
 62
     1
 10
1612.2924762121911
 20
1287.2445598525151
 30
0.0
 11
1617.9924762121909
 21
1287.2445598525151
 31
0.0
  0
LINE
  5
1CF6
  8
UMCL1
  6
CENTER
 62
     1
 10
1619.2924762121911
 20
1287.2445598525151
 30
0.0
 11
1621.8924762121919
 21
1287.2445598525151
 31
0.0
  0
LINE
  5
1CF7
  8
UMCL1
  6
CENTER
 62
     1
 10
1623.1924762121921
 20
1287.2445598525151
 30
0.0
 11
1628.892476212191
 21
1287.2445598525151
 31
0.0
  0
LINE
  5
1CF8
  8
UMCL1
  6
CENTER
 62
     1
 10
1620.5924762121911
 20
1278.944559852514
 30
0.0
 11
1620.5924762121911
 21
1284.644559852514
 31
0.0
  0
LINE
  5
1CF9
  8
UMCL1
  6
CENTER
 62
     1
 10
1620.5924762121911
 20
1285.944559852514
 30
0.0
 11
1620.5924762121911
 21
1288.5445598525141
 31
0.0
  0
LINE
  5
1CFA
  8
UMCL1
  6
CENTER
 62
     1
 10
1620.5924762121911
 20
1289.8445598525141
 30
0.0
 11
1620.5924762121911
 21
1295.5445598525141
 31
0.0
  0
LINE
  5
1CFB
  8
UMCL1
  6
CONTINUOUS
 10
1629.092476212192
 20
1330.3445598525141
 30
0.0
 11
1629.092476212192
 21
1341.3514984976241
 31
0.0
  0
ARC
  5
1CFC
  8
UMCL1
  6
CONTINUOUS
 10
1594.5924762121911
 20
1313.2445598525139
 30
0.0
 40
44.5
 50
39.169493221832468
 51
50.830506778172577
  0
LINE
  5
1CFD
  8
UMCL1
  6
CONTINUOUS
 10
1629.0924762121911
 20
1285.137621207404
 30
0.0
 11
1629.0924762121911
 21
1296.144559852514
 31
0.0
  0
ARC
  5
1CFE
  8
UMCL1
  6
CONTINUOUS
 10
1594.5924762121911
 20
1313.2445598525139
 30
0.0
 40
44.5
 50
309.16949322183751
 51
320.8305067781676
  0
LINE
  5
1CFF
  8
UMCL1
  6
CONTINUOUS
 10
1566.48553756708
 20
1278.7445598525151
 30
0.0
 11
1622.6994148573031
 21
1278.7445598525151
 31
0.0
  0
ARC
  5
1D00
  8
UMCL1
  6
CONTINUOUS
 10
1594.5924762121911
 20
1313.2445598525139
 30
0.0
 40
44.5
 50
219.16949322183251
 51
230.83050677816249
  0
ARC
  5
1D01
  8
UMCL1
  6
CONTINUOUS
 10
1594.5924762121911
 20
1313.2445598525139
 30
0.0
 40
44.5
 50
129.16949322182739
 51
140.83050677816749
  0
LINE
  5
1D02
  8
UMCL1
  6
CONTINUOUS
 10
1622.699414857301
 20
1347.7445598525151
 30
0.0
 11
1566.485537567082
 21
1347.7445598525151
 31
0.0
  0
LINE
  5
1D03
  8
UMCL1
  6
CONTINUOUS
 10
1560.0924762121911
 20
1341.3514984976241
 30
0.0
 11
1560.0924762121911
 21
1285.137621207404
 31
0.0
  0
LINE
  5
1D04
  8
UMCL1
  6
CENTER
 62
     1
 10
1614.2924762121911
 20
1222.5257743966979
 30
0.0
 11
1617.9924762121909
 21
1222.5257743966979
 31
0.0
  0
LINE
  5
1D05
  8
UMCL1
  6
CENTER
 62
     1
 10
1619.2924762121911
 20
1222.5257743966979
 30
0.0
 11
1621.892476212191
 21
1222.5257743966979
 31
0.0
  0
LINE
  5
1D06
  8
UMCL1
  6
CENTER
 62
     1
 10
1623.192476212191
 20
1222.5257743966979
 30
0.0
 11
1626.892476212191
 21
1222.5257743966979
 31
0.0
  0
LINE
  5
1D07
  8
UMCL1
  6
CENTER
 62
     1
 10
1620.5924762121911
 20
1216.2257743966979
 30
0.0
 11
1620.5924762121911
 21
1219.925774396698
 31
0.0
  0
LINE
  5
1D08
  8
UMCL1
  6
CENTER
 62
     1
 10
1620.5924762121911
 20
1221.2257743966979
 30
0.0
 11
1620.5924762121911
 21
1223.8257743966981
 31
0.0
  0
LINE
  5
1D09
  8
UMCL1
  6
CENTER
 62
     1
 10
1620.5924762121911
 20
1225.125774396698
 30
0.0
 11
1620.5924762121911
 21
1228.8257743966981
 31
0.0
  0
LINE
  5
1D0A
  8
UMCL1
  6
CENTER
 62
     1
 10
1614.2924762121911
 20
1193.5257743966979
 30
0.0
 11
1617.9924762121909
 21
1193.5257743966979
 31
0.0
  0
LINE
  5
1D0B
  8
UMCL1
  6
CENTER
 62
     1
 10
1619.2924762121911
 20
1193.5257743966979
 30
0.0
 11
1621.892476212191
 21
1193.5257743966979
 31
0.0
  0
LINE
  5
1D0C
  8
UMCL1
  6
CENTER
 62
     1
 10
1623.192476212191
 20
1193.5257743966979
 30
0.0
 11
1626.892476212191
 21
1193.5257743966979
 31
0.0
  0
LINE
  5
1D0D
  8
UMCL1
  6
CENTER
 62
     1
 10
1620.5924762121911
 20
1187.2257743966979
 30
0.0
 11
1620.5924762121911
 21
1190.925774396698
 31
0.0
  0
LINE
  5
1D0E
  8
UMCL1
  6
CENTER
 62
     1
 10
1620.5924762121911
 20
1192.2257743966979
 30
0.0
 11
1620.5924762121911
 21
1194.8257743966981
 31
0.0
  0
LINE
  5
1D0F
  8
UMCL1
  6
CENTER
 62
     1
 10
1620.5924762121911
 20
1196.125774396698
 30
0.0
 11
1620.5924762121911
 21
1199.8257743966981
 31
0.0
  0
LINE
  5
1D10
  8
UMCL1
  6
CENTER
 62
     1
 10
1588.2924762121911
 20
1222.5257743966979
 30
0.0
 11
1591.9924762121909
 21
1222.5257743966979
 31
0.0
  0
LINE
  5
1D11
  8
UMCL1
  6
CENTER
 62
     1
 10
1593.2924762121911
 20
1222.5257743966979
 30
0.0
 11
1595.892476212191
 21
1222.5257743966979
 31
0.0
  0
LINE
  5
1D12
  8
UMCL1
  6
CENTER
 62
     1
 10
1597.192476212191
 20
1222.5257743966979
 30
0.0
 11
1600.892476212191
 21
1222.5257743966979
 31
0.0
  0
LINE
  5
1D13
  8
UMCL1
  6
CENTER
 62
     1
 10
1620.5924762121911
 20
1216.2257743966979
 30
0.0
 11
1620.5924762121911
 21
1199.8257743966981
 31
0.0
  0
LINE
  5
1D14
  8
UMCL1
  6
CENTER
 62
     1
 10
1654.5924762121911
 20
1231.273875125826
 30
0.0
 11
1654.5924762121911
 21
1199.8257743966981
 31
0.0
  0
LINE
  5
1D15
  8
UMCL1
  6
CONTINUOUS
 10
1560.5924762121911
 20
1089.425774396698
 30
0.0
 11
1628.5924762121911
 21
1089.425774396698
 31
0.0
  0
LINE
  5
1D16
  8
UMCL1
  6
CONTINUOUS
 10
1629.0924762121899
 20
1089.925774396698
 30
0.0
 11
1629.0924762121899
 21
1178.925774396698
 31
0.0
  0
LINE
  5
1D17
  8
UMCL1
  6
CONTINUOUS
 10
1628.5924762121911
 20
1179.425774396698
 30
0.0
 11
1560.5924762121911
 21
1179.425774396698
 31
0.0
  0
LINE
  5
1D18
  8
UMCL1
  6
CONTINUOUS
 10
1560.0924762121911
 20
1178.925774396698
 30
0.0
 11
1560.0924762121911
 21
1089.925774396698
 31
0.0
  0
LINE
  5
1D19
  8
UMCL1
  6
CONTINUOUS
 10
1629.0924762121899
 20
1178.925774396698
 30
0.0
 11
1560.0924762121911
 21
1178.925774396698
 31
0.0
  0
LINE
  5
1D1A
  8
UMCL1
  6
CONTINUOUS
 10
1560.5924762121911
 20
1179.425774396698
 30
0.0
 11
1560.0924762121911
 21
1178.925774396698
 31
0.0
  0
LINE
  5
1D1B
  8
UMCL1
  6
CONTINUOUS
 10
1628.5924762121911
 20
1179.425774396698
 30
0.0
 11
1629.0924762121899
 21
1178.925774396698
 31
0.0
  0
LINE
  5
1D1C
  8
UMCL1
  6
CONTINUOUS
 10
1560.0924762121911
 20
1089.925774396698
 30
0.0
 11
1629.0924762121899
 21
1089.925774396698
 31
0.0
  0
LINE
  5
1D1D
  8
UMCL1
  6
CONTINUOUS
 10
1560.0924762121911
 20
1089.925774396698
 30
0.0
 11
1560.5924762121911
 21
1089.425774396698
 31
0.0
  0
LINE
  5
1D1E
  8
UMCL1
  6
CONTINUOUS
 10
1628.5924762121911
 20
1089.425774396698
 30
0.0
 11
1629.0924762121899
 21
1089.925774396698
 31
0.0
  0
TEXT
  5
1D1F
  8
UMCL2
  6
CONTINUOUS
 10
1606.159843866041
 20
1119.278674142354
 30
0.0
 40
3.0
  1
A
  7
ROMANS
  0
CIRCLE
  5
1D20
  8
UMCL2
  6
CONTINUOUS
 10
1607.5924762121911
 20
1120.5257743966979
 30
0.0
 40
2.5
  0
TEXT
  5
1D21
  8
UMCL2
  6
CONTINUOUS
 10
1580.2030658999749
 20
1159.0301906355789
 30
0.0
 40
3.0
  1
B
  7
ROMANS
  0
CIRCLE
  5
1D22
  8
UMCL2
  6
CONTINUOUS
 10
1581.5924762121911
 20
1160.5257743966979
 30
0.0
 40
2.5
  0
LINE
  5
1D23
  8
UMCL1
  6
HIDDEN
 62
     3
 10
1574.9924762121909
 20
1278.7445598525151
 30
0.0
 11
1575.3049762121909
 21
1288.7445598525151
 31
0.0
  0
LINE
  5
1D24
  8
UMCL1
  6
HIDDEN
 62
     3
 10
1575.8424762121911
 20
1278.7445598525151
 30
0.0
 11
1576.1549762121911
 21
1288.7445598525151
 31
0.0
  0
LINE
  5
1D25
  8
UMCL1
  6
HIDDEN
 62
     3
 10
1588.1924762121921
 20
1278.7445598525151
 30
0.0
 11
1587.8799762121921
 21
1288.7445598525151
 31
0.0
  0
LINE
  5
1D26
  8
UMCL1
  6
HIDDEN
 62
     3
 10
1587.342476212192
 20
1278.7445598525151
 30
0.0
 11
1587.029976212192
 21
1288.7445598525151
 31
0.0
  0
LINE
  5
1D27
  8
UMCL1
  6
CENTER
 62
     1
 10
1581.5924762121911
 20
1277.246559852515
 30
0.0
 11
1581.5924762121911
 21
1290.2445598525151
 31
0.0
  0
LINE
  5
1D28
  8
UMCL1
  6
HIDDEN
 62
     3
 10
1600.9924762121909
 20
1278.7445598525151
 30
0.0
 11
1601.3049762121909
 21
1288.7445598525151
 31
0.0
  0
LINE
  5
1D29
  8
UMCL1
  6
HIDDEN
 62
     3
 10
1601.8424762121911
 20
1278.7445598525151
 30
0.0
 11
1602.1549762121911
 21
1288.7445598525151
 31
0.0
  0
LINE
  5
1D2A
  8
UMCL1
  6
HIDDEN
 62
     3
 10
1614.1924762121921
 20
1278.7445598525151
 30
0.0
 11
1613.8799762121921
 21
1288.7445598525151
 31
0.0
  0
LINE
  5
1D2B
  8
UMCL1
  6
HIDDEN
 62
     3
 10
1613.342476212192
 20
1278.7445598525151
 30
0.0
 11
1613.029976212192
 21
1288.7445598525151
 31
0.0
  0
LINE
  5
1D2C
  8
UMCL1
  6
CENTER
 62
     1
 10
1607.5924762121911
 20
1277.246559852515
 30
0.0
 11
1607.5924762121911
 21
1290.2445598525151
 31
0.0
  0
LINE
  5
1D2D
  8
UMCL1
  6
HIDDEN
 62
     3
 10
1574.9924762121909
 20
1347.7445598525139
 30
0.0
 11
1575.3049762121909
 21
1337.7445598525139
 31
0.0
  0
LINE
  5
1D2E
  8
UMCL1
  6
HIDDEN
 62
     3
 10
1575.8424762121911
 20
1347.7445598525139
 30
0.0
 11
1576.1549762121911
 21
1337.7445598525139
 31
0.0
  0
LINE
  5
1D2F
  8
UMCL1
  6
HIDDEN
 62
     3
 10
1588.1924762121921
 20
1347.7445598525139
 30
0.0
 11
1587.8799762121921
 21
1337.7445598525139
 31
0.0
  0
LINE
  5
1D30
  8
UMCL1
  6
HIDDEN
 62
     3
 10
1587.342476212192
 20
1347.7445598525139
 30
0.0
 11
1587.029976212192
 21
1337.7445598525139
 31
0.0
  0
LINE
  5
1D31
  8
UMCL1
  6
CENTER
 62
     1
 10
1581.5924762121911
 20
1349.242559852514
 30
0.0
 11
1581.5924762121911
 21
1336.2445598525139
 31
0.0
  0
LINE
  5
1D32
  8
UMCL1
  6
HIDDEN
 62
     3
 10
1600.9924762121909
 20
1347.7445598525139
 30
0.0
 11
1601.3049762121909
 21
1337.7445598525139
 31
0.0
  0
LINE
  5
1D33
  8
UMCL1
  6
HIDDEN
 62
     3
 10
1601.8424762121911
 20
1347.7445598525139
 30
0.0
 11
1602.1549762121911
 21
1337.7445598525139
 31
0.0
  0
LINE
  5
1D34
  8
UMCL1
  6
HIDDEN
 62
     3
 10
1614.1924762121921
 20
1347.7445598525139
 30
0.0
 11
1613.8799762121921
 21
1337.7445598525139
 31
0.0
  0
LINE
  5
1D35
  8
UMCL1
  6
HIDDEN
 62
     3
 10
1613.342476212192
 20
1347.7445598525139
 30
0.0
 11
1613.029976212192
 21
1337.7445598525139
 31
0.0
  0
LINE
  5
1D36
  8
UMCL1
  6
CENTER
 62
     1
 10
1607.5924762121911
 20
1349.242559852514
 30
0.0
 11
1607.5924762121911
 21
1336.2445598525139
 31
0.0
  0
ARC
  5
1D37
  8
UMCL2
  6
CONTINUOUS
 62
     3
 10
1581.5924762121911
 20
1148.425774396698
 30
0.0
 40
6.5999999999999988
 50
344.99999999999932
 51
284.99999999999437
  0
ARC
  5
1D38
  8
UMCL2
  6
CONTINUOUS
 62
     3
 10
1607.5924762121911
 20
1108.425774396698
 30
0.0
 40
6.5999999999999988
 50
344.99999999999932
 51
284.99999999999437
  0
LINE
  5
1D39
  8
UMCL1
  6
CENTER
 62
     1
 10
1573.4924762121909
 20
1148.425774396698
 30
0.0
 11
1578.5924762121911
 21
1148.425774396698
 31
0.0
  0
LINE
  5
1D3A
  8
UMCL1
  6
CENTER
 62
     1
 10
1580.0924762121911
 20
1148.425774396698
 30
0.0
 11
1583.0924762121911
 21
1148.425774396698
 31
0.0
  0
LINE
  5
1D3B
  8
UMCL1
  6
CENTER
 62
     1
 10
1584.5924762121911
 20
1148.425774396698
 30
0.0
 11
1589.692476212191
 21
1148.425774396698
 31
0.0
  0
LINE
  5
1D3C
  8
UMCL1
  6
CENTER
 62
     1
 10
1581.5924762121911
 20
1140.3257743966981
 30
0.0
 11
1581.5924762121911
 21
1145.425774396698
 31
0.0
  0
LINE
  5
1D3D
  8
UMCL1
  6
CENTER
 62
     1
 10
1581.5924762121911
 20
1146.925774396698
 30
0.0
 11
1581.5924762121911
 21
1149.925774396698
 31
0.0
  0
LINE
  5
1D3E
  8
UMCL1
  6
CENTER
 62
     1
 10
1581.5924762121911
 20
1151.425774396698
 30
0.0
 11
1581.5924762121911
 21
1156.5257743966979
 31
0.0
  0
LINE
  5
1D3F
  8
UMCL1
  6
CENTER
 62
     1
 10
1599.4924762121909
 20
1108.425774396698
 30
0.0
 11
1604.5924762121911
 21
1108.425774396698
 31
0.0
  0
LINE
  5
1D40
  8
UMCL1
  6
CENTER
 62
     1
 10
1606.0924762121911
 20
1108.425774396698
 30
0.0
 11
1609.0924762121911
 21
1108.425774396698
 31
0.0
  0
LINE
  5
1D41
  8
UMCL1
  6
CENTER
 62
     1
 10
1610.5924762121911
 20
1108.425774396698
 30
0.0
 11
1615.692476212191
 21
1108.425774396698
 31
0.0
  0
LINE
  5
1D42
  8
UMCL1
  6
CENTER
 62
     1
 10
1607.5924762121911
 20
1100.3257743966981
 30
0.0
 11
1607.5924762121911
 21
1105.425774396698
 31
0.0
  0
LINE
  5
1D43
  8
UMCL1
  6
CENTER
 62
     1
 10
1607.5924762121911
 20
1106.925774396698
 30
0.0
 11
1607.5924762121911
 21
1109.925774396698
 31
0.0
  0
LINE
  5
1D44
  8
UMCL1
  6
CENTER
 62
     1
 10
1607.5924762121911
 20
1111.4257743966971
 30
0.0
 11
1607.5924762121911
 21
1116.5257743966979
 31
0.0
  0
LINE
  5
1D45
  8
UMCL2
  6
CONTINUOUS
 10
1661.592476212192
 20
1319.7445598525139
 30
0.0
 11
1669.5924762121911
 21
1319.7445598525139
 31
0.0
  0
LINE
  5
1D46
  8
UMCL2
  6
CONTINUOUS
 10
1661.592476212192
 20
1306.7445598525139
 30
0.0
 11
1669.5924762121911
 21
1306.7445598525139
 31
0.0
  0
LINE
  5
1D47
  8
UMCL2
  6
CONTINUOUS
 10
1668.5924762121911
 20
1317.2445598525139
 30
0.0
 11
1668.5924762121911
 21
1309.2445598525139
 31
0.0
  0
SOLID
  5
1D48
  8
UMCL2
  6
CONTINUOUS
 10
1668.175809545525
 20
1317.2445598525139
 30
0.0
 11
1669.009142878858
 21
1317.2445598525139
 31
0.0
 12
1668.5924762121911
 22
1319.7445598525139
 32
0.0
 13
1668.5924762121911
 23
1319.7445598525139
 33
0.0
  0
SOLID
  5
1D49
  8
UMCL2
  6
CONTINUOUS
 10
1668.175809545525
 20
1309.2445598525139
 30
0.0
 11
1669.009142878858
 21
1309.2445598525139
 31
0.0
 12
1668.5924762121911
 22
1306.7445598525139
 32
0.0
 13
1668.5924762121911
 23
1306.7445598525139
 33
0.0
  0
INSERT
  5
1D4A
  8
0
  2
*U3
 10
0.0
 20
0.0
 30
0.0
  0
LINE
  5
1D4B
  8
UMCL2
  6
CONTINUOUS
 10
1644.4250424973741
 20
1324.3445598525141
 30
0.0
 11
1677.5924762121911
 21
1324.3445598525141
 31
0.0
  0
LINE
  5
1D4C
  8
UMCL2
  6
CONTINUOUS
 10
1644.4250424973741
 20
1302.144559852514
 30
0.0
 11
1677.5924762121911
 21
1302.144559852514
 31
0.0
  0
LINE
  5
1D4D
  8
UMCL2
  6
CONTINUOUS
 10
1676.5924762121911
 20
1321.844559852515
 30
0.0
 11
1676.5924762121911
 21
1304.6445598525149
 31
0.0
  0
SOLID
  5
1D4E
  8
UMCL2
  6
CONTINUOUS
 10
1676.175809545525
 20
1321.844559852515
 30
0.0
 11
1677.009142878858
 21
1321.844559852515
 31
0.0
 12
1676.5924762121911
 22
1324.3445598525141
 32
0.0
 13
1676.5924762121911
 23
1324.3445598525141
 33
0.0
  0
SOLID
  5
1D4F
  8
UMCL2
  6
CONTINUOUS
 10
1676.175809545525
 20
1304.6445598525149
 30
0.0
 11
1677.009142878858
 21
1304.6445598525149
 31
0.0
 12
1676.5924762121911
 22
1302.144559852514
 32
0.0
 13
1676.5924762121911
 23
1302.144559852514
 33
0.0
  0
INSERT
  5
1D50
  8
0
  2
*U4
 10
0.0
 20
0.0
 30
0.0
  0
LINE
  5
1D51
  8
UMCL2
  6
CONTINUOUS
 10
1629.892476212191
 20
1287.2445598525151
 30
0.0
 11
1685.5924762121911
 21
1287.2445598525151
 31
0.0
  0
LINE
  5
1D52
  8
UMCL2
  6
CONTINUOUS
 10
1629.892476212191
 20
1339.2445598525139
 30
0.0
 11
1685.5924762121911
 21
1339.2445598525139
 31
0.0
  0
LINE
  5
1D53
  8
UMCL2
  6
CONTINUOUS
 10
1684.5924762121911
 20
1289.7445598525151
 30
0.0
 11
1684.5924762121911
 21
1336.7445598525139
 31
0.0
  0
SOLID
  5
1D54
  8
UMCL2
  6
CONTINUOUS
 10
1684.175809545525
 20
1289.7445598525151
 30
0.0
 11
1685.009142878858
 21
1289.7445598525151
 31
0.0
 12
1684.5924762121911
 22
1287.2445598525151
 32
0.0
 13
1684.5924762121911
 23
1287.2445598525151
 33
0.0
  0
SOLID
  5
1D55
  8
UMCL2
  6
CONTINUOUS
 10
1684.175809545525
 20
1336.7445598525139
 30
0.0
 11
1685.009142878858
 21
1336.7445598525139
 31
0.0
 12
1684.5924762121911
 22
1339.2445598525139
 32
0.0
 13
1684.5924762121911
 23
1339.2445598525139
 33
0.0
  0
INSERT
  5
1D56
  8
0
  2
*U5
 10
0.0
 20
0.0
 30
0.0
  0
LINE
  5
1D57
  8
UMCL2
  6
CONTINUOUS
 10
1623.6994148573019
 20
1278.7445598525139
 30
0.0
 11
1693.5924762121911
 21
1278.7445598525139
 31
0.0
  0
LINE
  5
1D58
  8
UMCL2
  6
CONTINUOUS
 10
1623.6994148573019
 20
1347.7445598525151
 30
0.0
 11
1693.5924762121911
 21
1347.7445598525151
 31
0.0
  0
LINE
  5
1D59
  8
UMCL2
  6
CONTINUOUS
 10
1692.5924762121911
 20
1281.2445598525139
 30
0.0
 11
1692.5924762121911
 21
1345.2445598525151
 31
0.0
  0
SOLID
  5
1D5A
  8
UMCL2
  6
CONTINUOUS
 10
1692.175809545525
 20
1281.2445598525139
 30
0.0
 11
1693.009142878858
 21
1281.2445598525139
 31
0.0
 12
1692.5924762121911
 22
1278.7445598525139
 32
0.0
 13
1692.5924762121911
 23
1278.7445598525139
 33
0.0
  0
SOLID
  5
1D5B
  8
UMCL2
  6
CONTINUOUS
 10
1692.175809545525
 20
1345.2445598525151
 30
0.0
 11
1693.009142878858
 21
1345.2445598525151
 31
0.0
 12
1692.5924762121911
 22
1347.7445598525151
 32
0.0
 13
1692.5924762121911
 23
1347.7445598525151
 33
0.0
  0
INSERT
  5
1D5C
  8
0
  2
*U6
 10
0.0
 20
0.0
 30
0.0
  0
LINE
  5
1D5D
  8
UMCL2
  6
CONTINUOUS
 10
1680.5969673055631
 20
1309.6736007671359
 30
0.0
 11
1683.2195129268709
 21
1309.6736007671359
 31
0.0
  0
LINE
  5
1D5E
  8
UMCL2
  6
CONTINUOUS
 10
1683.2195129268709
 20
1309.6736007671359
 30
0.0
 11
1683.2195129268709
 21
1307.263754289909
 31
0.0
  0
LINE
  5
1D5F
  8
UMCL2
  6
CONTINUOUS
 10
1683.2195129268709
 20
1307.263754289909
 30
0.0
 11
1680.5969673055631
 21
1307.263754289909
 31
0.0
  0
LINE
  5
1D60
  8
UMCL2
  6
CONTINUOUS
 10
1680.5969673055631
 20
1307.263754289909
 30
0.0
 11
1680.5969673055631
 21
1309.6736007671359
 31
0.0
  0
LINE
  5
1D61
  8
UMCL2
  6
CONTINUOUS
 10
1688.596967305564
 20
1309.6736007671359
 30
0.0
 11
1691.2195129268709
 21
1309.6736007671359
 31
0.0
  0
LINE
  5
1D62
  8
UMCL2
  6
CONTINUOUS
 10
1691.2195129268709
 20
1309.6736007671359
 30
0.0
 11
1691.2195129268709
 21
1307.263754289909
 31
0.0
  0
LINE
  5
1D63
  8
UMCL2
  6
CONTINUOUS
 10
1691.2195129268709
 20
1307.263754289909
 30
0.0
 11
1688.596967305564
 21
1307.263754289909
 31
0.0
  0
LINE
  5
1D64
  8
UMCL2
  6
CONTINUOUS
 10
1688.596967305564
 20
1307.263754289909
 30
0.0
 11
1688.596967305564
 21
1309.6736007671359
 31
0.0
  0
TEXT
  5
1D65
  8
UMCL2
  6
CONTINUOUS
 10
1652.148325782272
 20
1273.3952050114401
 30
0.0
 40
3.0
  1
4-%%C9 Through-hole 
  7
ROMANSS
 72
     2
 11
1700.576897210844
 21
1274.8952050114401
 31
0.0
 73
     2
  0
LINE
  5
1D66
  8
UMCL2
  6
CONTINUOUS
 10
1701.190569897353
 20
1271.6827827483689
 30
0.0
 11
1641.604114460132
 21
1271.6827827483689
 31
0.0
  0
TEXT
  5
1D67
  8
UMCL2
  6
CONTINUOUS
 10
1649.9978839060591
 20
1267.2318985226791
 30
0.0
 40
3.0
  1
Counter bore %%C14x9dp
  7
ROMANSS
 72
     2
 11
1700.4264553346311
 21
1268.7318985226791
 31
0.0
 73
     2
  0
LINE
  5
1D68
  8
UMCL2
 10
1641.604114460132
 20
1271.6827827483689
 30
0.0
 11
1624.811381895239
 21
1284.1199262999919
 31
0.0
  0
SOLID
  5
1D69
  8
UMCL2
  6
CONTINUOUS
 10
1627.5057838215839
 20
1282.709182432626
 30
0.0
 11
1626.9026019226351
 21
1281.9115787736689
 31
0.0
 12
1624.811381895239
 22
1284.1199262999919
 32
0.0
 13
1624.811381895239
 23
1284.1199262999919
 33
0.0
  0
LINE
  5
1D6A
  8
UMCL2
  6
CONTINUOUS
 10
1581.5924762121911
 20
1276.246559852515
 30
0.0
 11
1581.5924762121911
 21
1267.0924466474989
 31
0.0
  0
LINE
  5
1D6B
  8
UMCL2
  6
CONTINUOUS
 10
1607.5924762121911
 20
1276.246559852515
 30
0.0
 11
1607.5924762121911
 21
1267.0924466474989
 31
0.0
  0
LINE
  5
1D6C
  8
UMCL2
  6
CONTINUOUS
 10
1584.0924762121911
 20
1268.0924466474989
 30
0.0
 11
1605.0924762121911
 21
1268.0924466474989
 31
0.0
  0
SOLID
  5
1D6D
  8
UMCL2
  6
CONTINUOUS
 10
1584.0924762121911
 20
1268.5091133141659
 30
0.0
 11
1584.0924762121911
 21
1267.6757799808331
 31
0.0
 12
1581.5924762121911
 22
1268.0924466474989
 32
0.0
 13
1581.5924762121911
 23
1268.0924466474989
 33
0.0
  0
SOLID
  5
1D6E
  8
UMCL2
  6
CONTINUOUS
 10
1605.0924762121911
 20
1268.5091133141659
 30
0.0
 11
1605.0924762121911
 21
1267.6757799808331
 31
0.0
 12
1607.5924762121911
 22
1268.0924466474989
 32
0.0
 13
1607.5924762121911
 23
1268.0924466474989
 33
0.0
  0
INSERT
  5
1D6F
  8
0
  2
*U7
 10
0.0
 20
0.0
 30
0.0
  0
LINE
  5
1D70
  8
UMCL2
  6
CONTINUOUS
 10
1582.5924762121911
 20
1308.2445598525139
 30
0.0
 11
1553.498126503122
 21
1308.2445598525139
 31
0.0
  0
LINE
  5
1D71
  8
UMCL2
  6
CONTINUOUS
 10
1582.5924762121911
 20
1318.2445598525139
 30
0.0
 11
1553.498126503122
 21
1318.2445598525139
 31
0.0
  0
LINE
  5
1D72
  8
UMCL2
  6
CONTINUOUS
 10
1554.498126503122
 20
1310.7445598525139
 30
0.0
 11
1554.498126503122
 21
1315.7445598525151
 31
0.0
  0
SOLID
  5
1D73
  8
UMCL2
  6
CONTINUOUS
 10
1554.081459836455
 20
1310.7445598525139
 30
0.0
 11
1554.914793169788
 21
1310.7445598525139
 31
0.0
 12
1554.498126503122
 22
1308.2445598525139
 32
0.0
 13
1554.498126503122
 23
1308.2445598525139
 33
0.0
  0
SOLID
  5
1D74
  8
UMCL2
  6
CONTINUOUS
 10
1554.081459836455
 20
1315.7445598525151
 30
0.0
 11
1554.914793169788
 21
1315.7445598525151
 31
0.0
 12
1554.498126503122
 22
1318.2445598525139
 32
0.0
 13
1554.498126503122
 23
1318.2445598525139
 33
0.0
  0
INSERT
  5
1D75
  8
0
  2
*U8
 10
0.0
 20
0.0
 30
0.0
  0
LINE
  5
1D76
  8
UMCL2
  6
CONTINUOUS
 10
1620.5924762121911
 20
1229.8257743966981
 30
0.0
 11
1620.5924762121911
 21
1242.625774396698
 31
0.0
  0
LINE
  5
1D77
  8
UMCL2
  6
CONTINUOUS
 10
1654.5924762121911
 20
1232.273875125826
 30
0.0
 11
1654.5924762121911
 21
1242.625774396698
 31
0.0
  0
LINE
  5
1D78
  8
UMCL2
  6
CONTINUOUS
 10
1623.0924762121911
 20
1241.625774396698
 30
0.0
 11
1652.0924762121911
 21
1241.625774396698
 31
0.0
  0
SOLID
  5
1D79
  8
UMCL2
  6
CONTINUOUS
 10
1623.0924762121911
 20
1242.0424410633641
 30
0.0
 11
1623.0924762121911
 21
1241.2091077300311
 31
0.0
 12
1620.5924762121911
 22
1241.625774396698
 32
0.0
 13
1620.5924762121911
 23
1241.625774396698
 33
0.0
  0
SOLID
  5
1D7A
  8
UMCL2
  6
CONTINUOUS
 10
1652.0924762121911
 20
1242.0424410633641
 30
0.0
 11
1652.0924762121911
 21
1241.2091077300311
 31
0.0
 12
1654.5924762121911
 22
1241.625774396698
 32
0.0
 13
1654.5924762121911
 23
1241.625774396698
 33
0.0
  0
INSERT
  5
1D7B
  8
0
  2
*U9
 10
0.0
 20
0.0
 30
0.0
  0
LINE
  5
1D7C
  8
UMCL2
  6
CONTINUOUS
 10
1620.5924762121911
 20
1229.8257743966981
 30
0.0
 11
1620.5924762121911
 21
1242.625774396698
 31
0.0
  0
LINE
  5
1D7D
  8
UMCL2
  6
CONTINUOUS
 10
1594.5924762121911
 20
1236.625774396698
 30
0.0
 11
1594.5924762121911
 21
1242.625774396698
 31
0.0
  0
LINE
  5
1D7E
  8
UMCL2
  6
CONTINUOUS
 10
1618.0924762121911
 20
1241.625774396698
 30
0.0
 11
1597.0924762121911
 21
1241.625774396698
 31
0.0
  0
SOLID
  5
1D7F
  8
UMCL2
  6
CONTINUOUS
 10
1618.0924762121911
 20
1242.0424410633641
 30
0.0
 11
1618.0924762121911
 21
1241.2091077300311
 31
0.0
 12
1620.5924762121911
 22
1241.625774396698
 32
0.0
 13
1620.5924762121911
 23
1241.625774396698
 33
0.0
  0
SOLID
  5
1D80
  8
UMCL2
  6
CONTINUOUS
 10
1597.0924762121911
 20
1242.0424410633641
 30
0.0
 11
1597.0924762121911
 21
1241.2091077300311
 31
0.0
 12
1594.5924762121911
 22
1241.625774396698
 32
0.0
 13
1594.5924762121911
 23
1241.625774396698
 33
0.0
  0
INSERT
  5
1D81
  8
0
  2
*U10
 10
0.0
 20
0.0
 30
0.0
  0
LINE
  5
1D82
  8
UMCL2
  6
CONTINUOUS
 10
1594.5924762121911
 20
1236.625774396698
 30
0.0
 11
1594.5924762121911
 21
1250.625774396698
 31
0.0
  0
LINE
  5
1D83
  8
UMCL2
  6
CONTINUOUS
 10
1660.5924762121911
 20
1225.425774396698
 30
0.0
 11
1660.5924762121911
 21
1250.625774396698
 31
0.0
  0
LINE
  5
1D84
  8
UMCL2
  6
CONTINUOUS
 10
1597.0924762121911
 20
1249.625774396698
 30
0.0
 11
1658.0924762121911
 21
1249.625774396698
 31
0.0
  0
SOLID
  5
1D85
  8
UMCL2
  6
CONTINUOUS
 10
1597.0924762121911
 20
1250.0424410633641
 30
0.0
 11
1597.0924762121911
 21
1249.2091077300311
 31
0.0
 12
1594.5924762121911
 22
1249.625774396698
 32
0.0
 13
1594.5924762121911
 23
1249.625774396698
 33
0.0
  0
SOLID
  5
1D86
  8
UMCL2
  6
CONTINUOUS
 10
1658.0924762121911
 20
1250.0424410633641
 30
0.0
 11
1658.0924762121911
 21
1249.2091077300311
 31
0.0
 12
1660.5924762121911
 22
1249.625774396698
 32
0.0
 13
1660.5924762121911
 23
1249.625774396698
 33
0.0
  0
INSERT
  5
1D87
  8
0
  2
*U11
 10
0.0
 20
0.0
 30
0.0
  0
LINE
  5
1D88
  8
UMCL2
  6
CONTINUOUS
 10
1660.5924762121911
 20
1225.425774396698
 30
0.0
 11
1660.5924762121911
 21
1258.625774396698
 31
0.0
  0
LINE
  5
1D89
  8
UMCL2
  6
CONTINUOUS
 10
1583.5924762121911
 20
1234.625774396698
 30
0.0
 11
1583.5924762121911
 21
1258.625774396698
 31
0.0
  0
LINE
  5
1D8A
  8
UMCL2
  6
CONTINUOUS
 10
1658.0924762121911
 20
1257.625774396698
 30
0.0
 11
1586.0924762121911
 21
1257.625774396698
 31
0.0
  0
SOLID
  5
1D8B
  8
UMCL2
  6
CONTINUOUS
 10
1658.0924762121911
 20
1258.0424410633641
 30
0.0
 11
1658.0924762121911
 21
1257.2091077300311
 31
0.0
 12
1660.5924762121911
 22
1257.625774396698
 32
0.0
 13
1660.5924762121911
 23
1257.625774396698
 33
0.0
  0
SOLID
  5
1D8C
  8
UMCL2
  6
CONTINUOUS
 10
1586.0924762121911
 20
1258.0424410633641
 30
0.0
 11
1586.0924762121911
 21
1257.2091077300311
 31
0.0
 12
1583.5924762121911
 22
1257.625774396698
 32
0.0
 13
1583.5924762121911
 23
1257.625774396698
 33
0.0
  0
INSERT
  5
1D8D
  8
0
  2
*U12
 10
0.0
 20
0.0
 30
0.0
  0
LINE
  5
1D8E
  8
UMCL2
  6
CONTINUOUS
 10
1627.892476212191
 20
1222.5257743966979
 30
0.0
 11
1639.937151683192
 21
1222.5257743966979
 31
0.0
  0
LINE
  5
1D8F
  8
UMCL2
  6
CONTINUOUS
 10
1627.892476212191
 20
1193.5257743966979
 30
0.0
 11
1639.937151683192
 21
1193.5257743966979
 31
0.0
  0
LINE
  5
1D90
  8
UMCL2
  6
CONTINUOUS
 10
1638.937151683192
 20
1220.0257743966979
 30
0.0
 11
1638.937151683192
 21
1196.0257743966979
 31
0.0
  0
SOLID
  5
1D91
  8
UMCL2
  6
CONTINUOUS
 10
1638.5204850165251
 20
1220.0257743966979
 30
0.0
 11
1639.353818349859
 21
1220.0257743966979
 31
0.0
 12
1638.937151683192
 22
1222.5257743966979
 32
0.0
 13
1638.937151683192
 23
1222.5257743966979
 33
0.0
  0
SOLID
  5
1D92
  8
UMCL2
  6
CONTINUOUS
 10
1638.5204850165251
 20
1196.0257743966979
 30
0.0
 11
1639.353818349859
 21
1196.0257743966979
 31
0.0
 12
1638.937151683192
 22
1193.5257743966979
 32
0.0
 13
1638.937151683192
 23
1193.5257743966979
 33
0.0
  0
INSERT
  5
1D93
  8
0
  2
*U13
 10
0.0
 20
0.0
 30
0.0
  0
LINE
  5
1D94
  8
UMCL2
  6
CONTINUOUS
 10
1630.5924762121911
 20
1180.425774396698
 30
0.0
 11
1630.5924762121911
 21
1189.0152816995569
 31
0.0
  0
LINE
  5
1D95
  8
UMCL2
  6
CONTINUOUS
 10
1660.5924762121911
 20
1210.4257743966971
 30
0.0
 11
1660.5924762121911
 21
1187.0152816995569
 31
0.0
  0
LINE
  5
1D96
  8
UMCL2
  6
CONTINUOUS
 10
1633.0924762121911
 20
1188.0152816995569
 30
0.0
 11
1658.0924762121911
 21
1188.0152816995569
 31
0.0
  0
SOLID
  5
1D97
  8
UMCL2
  6
CONTINUOUS
 10
1633.0924762121911
 20
1188.4319483662241
 30
0.0
 11
1633.0924762121911
 21
1187.5986150328899
 31
0.0
 12
1630.5924762121911
 22
1188.0152816995569
 32
0.0
 13
1630.5924762121911
 23
1188.0152816995569
 33
0.0
  0
SOLID
  5
1D98
  8
UMCL2
  6
CONTINUOUS
 10
1658.0924762121911
 20
1188.4319483662241
 30
0.0
 11
1658.0924762121911
 21
1187.5986150328899
 31
0.0
 12
1660.5924762121911
 22
1188.0152816995569
 32
0.0
 13
1660.5924762121911
 23
1188.0152816995569
 33
0.0
  0
INSERT
  5
1D99
  8
0
  2
*U14
 10
0.0
 20
0.0
 30
0.0
  0
LINE
  5
1D9A
  8
UMCL2
  6
CONTINUOUS
 10
1629.5924762121911
 20
1089.425774396698
 30
0.0
 11
1655.103445171176
 21
1089.425774396698
 31
0.0
  0
LINE
  5
1D9B
  8
UMCL2
  6
CONTINUOUS
 10
1616.692476212191
 20
1108.425774396698
 30
0.0
 11
1655.103445171176
 21
1108.425774396698
 31
0.0
  0
LINE
  5
1D9C
  8
UMCL2
  6
CONTINUOUS
 10
1654.103445171176
 20
1091.925774396698
 30
0.0
 11
1654.103445171176
 21
1105.9257743966971
 31
0.0
  0
SOLID
  5
1D9D
  8
UMCL2
  6
CONTINUOUS
 10
1653.6867785045099
 20
1091.925774396698
 30
0.0
 11
1654.5201118378429
 21
1091.925774396698
 31
0.0
 12
1654.103445171176
 22
1089.425774396698
 32
0.0
 13
1654.103445171176
 23
1089.425774396698
 33
0.0
  0
SOLID
  5
1D9E
  8
UMCL2
  6
CONTINUOUS
 10
1653.6867785045099
 20
1105.9257743966971
 30
0.0
 11
1654.5201118378429
 21
1105.9257743966971
 31
0.0
 12
1654.103445171176
 22
1108.425774396698
 32
0.0
 13
1654.103445171176
 23
1108.425774396698
 33
0.0
  0
INSERT
  5
1D9F
  8
0
  2
*U15
 10
0.0
 20
0.0
 30
0.0
  0
LINE
  5
1DA0
  8
UMCL2
  6
CONTINUOUS
 10
1616.692476212191
 20
1108.425774396698
 30
0.0
 11
1655.103445171176
 21
1108.425774396698
 31
0.0
  0
LINE
  5
1DA1
  8
UMCL2
  6
CONTINUOUS
 10
1590.692476212191
 20
1148.425774396698
 30
0.0
 11
1655.103445171176
 21
1148.425774396698
 31
0.0
  0
LINE
  5
1DA2
  8
UMCL2
  6
CONTINUOUS
 10
1654.103445171176
 20
1110.925774396698
 30
0.0
 11
1654.103445171176
 21
1145.925774396698
 31
0.0
  0
SOLID
  5
1DA3
  8
UMCL2
  6
CONTINUOUS
 10
1653.6867785045099
 20
1110.925774396698
 30
0.0
 11
1654.5201118378429
 21
1110.925774396698
 31
0.0
 12
1654.103445171176
 22
1108.425774396698
 32
0.0
 13
1654.103445171176
 23
1108.425774396698
 33
0.0
  0
SOLID
  5
1DA4
  8
UMCL2
  6
CONTINUOUS
 10
1653.6867785045099
 20
1145.925774396698
 30
0.0
 11
1654.5201118378429
 21
1145.925774396698
 31
0.0
 12
1654.103445171176
 22
1148.425774396698
 32
0.0
 13
1654.103445171176
 23
1148.425774396698
 33
0.0
  0
INSERT
  5
1DA5
  8
0
  2
*U16
 10
0.0
 20
0.0
 30
0.0
  0
LINE
  5
1DA6
  8
UMCL2
  6
CONTINUOUS
 10
1629.5924762121911
 20
1089.425774396698
 30
0.0
 11
1669.5924762121911
 21
1089.425774396698
 31
0.0
  0
LINE
  5
1DA7
  8
UMCL2
  6
CONTINUOUS
 10
1631.5924762121911
 20
1179.425774396698
 30
0.0
 11
1669.5924762121911
 21
1179.425774396698
 31
0.0
  0
LINE
  5
1DA8
  8
UMCL2
  6
CONTINUOUS
 10
1668.5924762121911
 20
1091.925774396698
 30
0.0
 11
1668.5924762121911
 21
1176.925774396698
 31
0.0
  0
SOLID
  5
1DA9
  8
UMCL2
  6
CONTINUOUS
 10
1668.175809545525
 20
1091.925774396698
 30
0.0
 11
1669.009142878858
 21
1091.925774396698
 31
0.0
 12
1668.5924762121911
 22
1089.425774396698
 32
0.0
 13
1668.5924762121911
 23
1089.425774396698
 33
0.0
  0
SOLID
  5
1DAA
  8
UMCL2
  6
CONTINUOUS
 10
1668.175809545525
 20
1176.925774396698
 30
0.0
 11
1669.009142878858
 21
1176.925774396698
 31
0.0
 12
1668.5924762121911
 22
1179.425774396698
 32
0.0
 13
1668.5924762121911
 23
1179.425774396698
 33
0.0
  0
INSERT
  5
1DAB
  8
0
  2
*U17
 10
0.0
 20
0.0
 30
0.0
  0
LINE
  5
1DAC
  8
UMCL2
  6
CONTINUOUS
 10
1661.5924762121911
 20
1224.425774396698
 30
0.0
 11
1669.5924762121911
 21
1224.425774396698
 31
0.0
  0
LINE
  5
1DAD
  8
UMCL2
  6
CONTINUOUS
 10
1661.5924762121911
 20
1211.425774396698
 30
0.0
 11
1669.5924762121911
 21
1211.425774396698
 31
0.0
  0
LINE
  5
1DAE
  8
UMCL2
  6
CONTINUOUS
 10
1668.5924762121911
 20
1221.925774396698
 30
0.0
 11
1668.5924762121911
 21
1213.925774396698
 31
0.0
  0
SOLID
  5
1DAF
  8
UMCL2
  6
CONTINUOUS
 10
1668.175809545525
 20
1221.925774396698
 30
0.0
 11
1669.009142878858
 21
1221.925774396698
 31
0.0
 12
1668.5924762121911
 22
1224.425774396698
 32
0.0
 13
1668.5924762121911
 23
1224.425774396698
 33
0.0
  0
SOLID
  5
1DB0
  8
UMCL2
  6
CONTINUOUS
 10
1668.175809545525
 20
1213.925774396698
 30
0.0
 11
1669.009142878858
 21
1213.925774396698
 31
0.0
 12
1668.5924762121911
 22
1211.425774396698
 32
0.0
 13
1668.5924762121911
 23
1211.425774396698
 33
0.0
  0
INSERT
  5
1DB1
  8
0
  2
*U18
 10
0.0
 20
0.0
 30
0.0
  0
LINE
  5
1DB2
  8
UMCL2
  6
CONTINUOUS
 10
1629.5924762121911
 20
1089.425774396698
 30
0.0
 11
1677.5924762121911
 21
1089.425774396698
 31
0.0
  0
LINE
  5
1DB3
  8
UMCL2
  6
CONTINUOUS
 10
1661.5924762121911
 20
1211.425774396698
 30
0.0
 11
1677.5924762121911
 21
1211.425774396698
 31
0.0
  0
LINE
  5
1DB4
  8
UMCL2
  6
CONTINUOUS
 10
1676.5924762121911
 20
1091.925774396698
 30
0.0
 11
1676.5924762121911
 21
1208.925774396698
 31
0.0
  0
SOLID
  5
1DB5
  8
UMCL2
  6
CONTINUOUS
 10
1676.175809545525
 20
1091.925774396698
 30
0.0
 11
1677.009142878858
 21
1091.925774396698
 31
0.0
 12
1676.5924762121911
 22
1089.425774396698
 32
0.0
 13
1676.5924762121911
 23
1089.425774396698
 33
0.0
  0
SOLID
  5
1DB6
  8
UMCL2
  6
CONTINUOUS
 10
1676.175809545525
 20
1208.925774396698
 30
0.0
 11
1677.009142878858
 21
1208.925774396698
 31
0.0
 12
1676.5924762121911
 22
1211.425774396698
 32
0.0
 13
1676.5924762121911
 23
1211.425774396698
 33
0.0
  0
INSERT
  5
1DB7
  8
0
  2
*U19
 10
0.0
 20
0.0
 30
0.0
  0
LINE
  5
1DB8
  8
UMCL2
  6
CONTINUOUS
 10
1661.5924762121911
 20
1211.425774396698
 30
0.0
 11
1677.5924762121911
 21
1211.425774396698
 31
0.0
  0
LINE
  5
1DB9
  8
UMCL2
  6
CONTINUOUS
 10
1644.4250424973741
 20
1233.625774396698
 30
0.0
 11
1677.5924762121911
 21
1233.625774396698
 31
0.0
  0
LINE
  5
1DBA
  8
UMCL2
  6
CONTINUOUS
 10
1676.5924762121911
 20
1213.925774396698
 30
0.0
 11
1676.5924762121911
 21
1231.125774396698
 31
0.0
  0
SOLID
  5
1DBB
  8
UMCL2
  6
CONTINUOUS
 10
1676.175809545525
 20
1213.925774396698
 30
0.0
 11
1677.009142878858
 21
1213.925774396698
 31
0.0
 12
1676.5924762121911
 22
1211.425774396698
 32
0.0
 13
1676.5924762121911
 23
1211.425774396698
 33
0.0
  0
SOLID
  5
1DBC
  8
UMCL2
  6
CONTINUOUS
 10
1676.175809545525
 20
1231.125774396698
 30
0.0
 11
1677.009142878858
 21
1231.125774396698
 31
0.0
 12
1676.5924762121911
 22
1233.625774396698
 32
0.0
 13
1676.5924762121911
 23
1233.625774396698
 33
0.0
  0
INSERT
  5
1DBD
  8
0
  2
*U20
 10
0.0
 20
0.0
 30
0.0
  0
ARC
  5
1DBE
  8
UMCL2
  6
CONTINUOUS
 10
1643.425042497375
 20
1302.144559852514
 30
0.0
 40
11.14590015724513
 50
334.2431886995127
 51
347.12159434975638
  0
ARC
  5
1DBF
  8
UMCL2
  6
CONTINUOUS
 10
1643.425042497375
 20
1302.144559852514
 30
0.0
 40
11.14590015724513
 50
27.878405650248009
 51
40.756811300493567
  0
ARC
  5
1DC0
  8
UMCL2
  6
CONTINUOUS
 10
1643.425042497375
 20
1302.144559852514
 30
0.0
 40
11.14590015724513
 50
0.0
 51
15.000000000000741
  0
SOLID
  5
1DC1
  8
UMCL2
  6
CONTINUOUS
 10
1653.876532413185
 20
1299.707060000678
 30
0.0
 11
1654.704608594398
 21
1299.6136026170691
 31
0.0
 12
1654.5709426546191
 22
1302.144559852514
 32
0.0
 13
1654.5709426546191
 23
1302.144559852514
 33
0.0
  0
SOLID
  5
1DC2
  8
UMCL2
  6
CONTINUOUS
 10
1653.6652067649511
 20
1307.5086433378669
 30
0.0
 11
1652.8895351461649
 21
1307.204048550888
 31
0.0
 12
1654.1911553164971
 22
1305.0293310880199
 32
0.0
 13
1654.1911553164971
 23
1305.0293310880199
 33
0.0
  0
INSERT
  5
1DC3
  8
0
  2
*U21
 10
0.0
 20
0.0
 30
0.0
  0
LINE
  5
1DC4
  8
UMCL2
  6
CONTINUOUS
 10
1629.5924762121911
 20
1089.425774396698
 30
0.0
 11
1685.5924762121911
 21
1089.425774396698
 31
0.0
  0
LINE
  5
1DC5
  8
UMCL2
  6
CONTINUOUS
 10
1644.4250424973741
 20
1233.625774396698
 30
0.0
 11
1685.5924762121911
 21
1233.625774396698
 31
0.0
  0
LINE
  5
1DC6
  8
UMCL2
  6
CONTINUOUS
 10
1684.5924762121911
 20
1091.925774396698
 30
0.0
 11
1684.5924762121911
 21
1231.125774396698
 31
0.0
  0
SOLID
  5
1DC7
  8
UMCL2
  6
CONTINUOUS
 10
1684.175809545525
 20
1091.925774396698
 30
0.0
 11
1685.009142878858
 21
1091.925774396698
 31
0.0
 12
1684.5924762121911
 22
1089.425774396698
 32
0.0
 13
1684.5924762121911
 23
1089.425774396698
 33
0.0
  0
SOLID
  5
1DC8
  8
UMCL2
  6
CONTINUOUS
 10
1684.175809545525
 20
1231.125774396698
 30
0.0
 11
1685.009142878858
 21
1231.125774396698
 31
0.0
 12
1684.5924762121911
 22
1233.625774396698
 32
0.0
 13
1684.5924762121911
 23
1233.625774396698
 33
0.0
  0
INSERT
  5
1DC9
  8
0
  2
*U22
 10
0.0
 20
0.0
 30
0.0
  0
LINE
  5
1DCA
  8
UMCL2
  6
CONTINUOUS
 10
1543.197468895474
 20
1267.5935531379171
 30
0.0
 11
1569.306485722012
 21
1267.5935531379171
 31
0.0
  0
TEXT
  5
1DCB
  8
UMCL2
  6
CONTINUOUS
 10
1543.6208987482701
 20
1269.0935531379171
 30
0.0
 40
3.0
  1
2x2-PT1/4
  7
ROMANSS
 72
     2
 11
1568.6208987482689
 21
1270.5935531379171
 31
0.0
 73
     2
  0
LINE
  5
1DCC
  8
UMCL2
 10
1569.306485722012
 20
1267.5935531379171
 30
0.0
 11
1581.604868109757
 21
1278.755806982575
 31
0.0
  0
SOLID
  5
1DCD
  8
UMCL2
  6
CONTINUOUS
 10
1579.0286813772791
 20
1277.138840027518
 30
0.0
 11
1579.6915821432569
 21
1276.3901327586441
 31
0.0
 12
1581.6062535668921
 22
1278.7531886910151
 32
0.0
 13
1581.6062535668921
 23
1278.7531886910151
 33
0.0
  0
LINE
  5
1DCE
  8
UMCL2
  6
CONTINUOUS
 10
1596.4082219845579
 20
1224.244223491123
 30
0.0
 11
1592.776730439824
 21
1220.8073253022731
 31
0.0
  0
INSERT
  5
1DCF
  8
0
  2
*U23
 10
0.0
 20
0.0
 30
0.0
  0
SOLID
  5
1DD0
  8
UMCL2
  6
CONTINUOUS
 10
1596.1218138021529
 20
1224.5468477865179
 30
0.0
 11
1596.694630166962
 21
1223.9415991957289
 31
0.0
 12
1598.223967756925
 22
1225.9626725855489
 32
0.0
 13
1598.223967756925
 23
1225.9626725855489
 33
0.0
  0
SOLID
  5
1DD1
  8
UMCL2
  6
CONTINUOUS
 10
1592.4903222574201
 20
1221.1099495976671
 30
0.0
 11
1593.0631386222281
 21
1220.5047010068779
 31
0.0
 12
1590.9609846674571
 22
1219.0888762078471
 32
0.0
 13
1590.9609846674571
 23
1219.0888762078471
 33
0.0
  0
LINE
  5
1DD2
  8
UMCL2
  6
CONTINUOUS
 10
1598.223967756925
 20
1225.9626725855489
 30
0.0
 11
1579.2163110593319
 21
1208.0145322814519
 31
0.0
  0
LINE
  5
1DD3
  8
UMCL1
  6
HIDDEN
 62
     6
 10
1600.5924762121911
 20
1237.625774396698
 30
0.0
 11
1588.5924762121911
 21
1237.625774396698
 31
0.0
  0
LINE
  5
1DD4
  8
UMCL1
  6
HIDDEN
 62
     6
 10
1584.5924762121911
 20
1233.625774396698
 30
0.0
 11
1588.5924762121911
 21
1237.625774396698
 31
0.0
  0
LINE
  5
1DD5
  8
UMCL1
  6
HIDDEN
 62
     6
 10
1600.5924762121911
 20
1237.625774396698
 30
0.0
 11
1604.5924762121911
 21
1233.625774396698
 31
0.0
  0
LINE
  5
1DD6
  8
UMCL2
  6
CONTINUOUS
 10
1582.5924762121911
 20
1233.625774396698
 30
0.0
 11
1572.99022585699
 21
1233.625774396698
 31
0.0
  0
LINE
  5
1DD7
  8
UMCL2
  6
CONTINUOUS
 10
1587.5924762121911
 20
1237.625774396698
 30
0.0
 11
1572.99022585699
 21
1237.625774396698
 31
0.0
  0
LINE
  5
1DD8
  8
UMCL2
  6
CONTINUOUS
 10
1573.99022585699
 20
1231.125774396698
 30
0.0
 11
1573.99022585699
 21
1228.625774396698
 31
0.0
  0
LINE
  5
1DD9
  8
UMCL2
  6
CONTINUOUS
 10
1573.99022585699
 20
1240.125774396698
 30
0.0
 11
1573.99022585699
 21
1242.625774396698
 31
0.0
  0
INSERT
  5
1DDA
  8
0
  2
*U24
 10
0.0
 20
0.0
 30
0.0
  0
LINE
  5
1DDB
  8
UMCL2
  6
CONTINUOUS
 10
1573.99022585699
 20
1233.625774396698
 30
0.0
 11
1573.99022585699
 21
1237.625774396698
 31
0.0
  0
SOLID
  5
1DDC
  8
UMCL2
  6
CONTINUOUS
 10
1573.573559190324
 20
1231.125774396698
 30
0.0
 11
1574.406892523657
 21
1231.125774396698
 31
0.0
 12
1573.99022585699
 22
1233.625774396698
 32
0.0
 13
1573.99022585699
 23
1233.625774396698
 33
0.0
  0
SOLID
  5
1DDD
  8
UMCL2
  6
CONTINUOUS
 10
1573.573559190324
 20
1240.125774396698
 30
0.0
 11
1574.406892523657
 21
1240.125774396698
 31
0.0
 12
1573.99022585699
 22
1237.625774396698
 32
0.0
 13
1573.99022585699
 23
1237.625774396698
 33
0.0
  0
TEXT
  5
1DDE
  8
UMCL2
 10
1565.135690605716
 20
1218.7686315395549
 30
0.0
 40
3.0
  1
Raise clearnce
 50
90.0
  0
LINE
  5
1DDF
  8
UMCL2
 10
1565.6643845749179
 20
1218.9100397606501
 30
0.0
 11
1565.6643845749179
 21
1252.0413944672291
 31
0.0
  0
LINE
  5
1DE0
  8
UMCL2
 10
1566.6643845749179
 20
1218.9100397606501
 30
0.0
 11
1566.6643845749179
 21
1252.0413944672291
 31
0.0
  0
TEXT
  5
1DE1
  8
UMCL2
  6
CONTINUOUS
 10
1697.5010828568791
 20
1100.512625725404
 30
0.0
 40
3.0
  1
A
  7
ROMANS
  0
CIRCLE
  5
1DE2
  8
UMCL2
  6
CONTINUOUS
 10
1698.9337152030289
 20
1101.7597259797481
 30
0.0
 40
2.5
  0
TEXT
  5
1DE3
  8
UMCL2
  6
CONTINUOUS
 10
1697.5010828568791
 20
1093.8471848198219
 30
0.0
 40
3.0
  1
B
  7
ROMANS
  0
CIRCLE
  5
1DE4
  8
UMCL2
  6
CONTINUOUS
 10
1698.9337152030289
 20
1095.0942850741651
 30
0.0
 40
2.5
  0
TEXT
  5
1DE5
  8
UMCL2
  6
CONTINUOUS
 10
1704.4669688109791
 20
1101.1430877032419
 30
0.0
 40
3.0
  1
Clamping port
  7
ROMANSS
 72
     2
 11
1736.038397382408
 21
1102.6430877032419
 31
0.0
 73
     2
  0
TEXT
  5
1DE6
  8
UMCL2
  6
CONTINUOUS
 10
1704.324278680024
 20
1093.5777833283821
 30
0.0
 40
3.0
  1
Unclamping port
  7
ROMANSS
 72
     2
 11
1741.324278680024
 21
1095.0777833283821
 31
0.0
 73
     2
  0
LINE
  5
1DE7
  8
UMCL2
 10
1694.561524065037
 20
1106.463397731957
 30
0.0
 11
1743.5670261267651
 21
1106.463397731957
 31
0.0
  0
LINE
  5
1DE8
  8
UMCL2
 10
1743.5670261267651
 20
1106.463397731957
 30
0.0
 11
1743.5670261267651
 21
1090.662513545816
 31
0.0
  0
LINE
  5
1DE9
  8
UMCL2
 10
1743.5670261267651
 20
1090.662513545816
 30
0.0
 11
1694.561524065037
 21
1090.662513545816
 31
0.0
  0
LINE
  5
1DEA
  8
UMCL2
 10
1694.561524065037
 20
1090.662513545816
 30
0.0
 11
1694.561524065037
 21
1106.463397731957
 31
0.0
  0
CIRCLE
  5
1DEB
  8
UMCL1
  6
CONTINUOUS
 10
1335.8059264391491
 20
1193.5257743966979
 30
0.0
 40
5.0
  0
CIRCLE
  5
1DEC
  8
UMCL1
  6
CONTINUOUS
 10
1335.8059264391491
 20
1222.5257743966979
 30
0.0
 40
5.0
  0
POLYLINE
  5
1DED
  8
UMCL1
  6
HIDDEN
 62
     3
 66
     1
 10
0.0
 20
0.0
 30
0.0
  0
VERTEX
  5
2131
  8
UMCL1
  6
HIDDEN
 62
     3
 10
1323.8059264391491
 20
1233.5257743966979
 30
0.0
  0
VERTEX
  5
2132
  8
UMCL1
  6
HIDDEN
 62
     3
 10
1323.8059264391491
 20
1211.5257743966979
 30
0.0
  0
SEQEND
  5
2133
  8
UMCL1
  6
HIDDEN
 62
     3
  0
CIRCLE
  5
1DEE
  8
UMCL1
  6
CONTINUOUS
 10
1283.8059264391491
 20
1339.2445598525139
 30
0.0
 40
4.5
  0
CIRCLE
  5
1DEF
  8
UMCL1
  6
CONTINUOUS
 10
1283.8059264391491
 20
1339.2445598525139
 30
0.0
 40
7.0
  0
CIRCLE
  5
1DF0
  8
UMCL1
  6
CONTINUOUS
 10
1283.8059264391491
 20
1287.2445598525151
 30
0.0
 40
4.5
  0
CIRCLE
  5
1DF1
  8
UMCL1
  6
CONTINUOUS
 10
1283.8059264391491
 20
1287.2445598525151
 30
0.0
 40
7.0
  0
CIRCLE
  5
1DF2
  8
UMCL1
  6
CONTINUOUS
 10
1335.80592643915
 20
1287.2445598525151
 30
0.0
 40
4.5
  0
CIRCLE
  5
1DF3
  8
UMCL1
  6
CONTINUOUS
 10
1335.80592643915
 20
1287.2445598525151
 30
0.0
 40
7.0
  0
CIRCLE
  5
1DF4
  8
UMCL1
  6
CONTINUOUS
 10
1335.80592643915
 20
1339.2445598525139
 30
0.0
 40
4.5
  0
CIRCLE
  5
1DF5
  8
UMCL1
  6
CONTINUOUS
 10
1335.80592643915
 20
1339.2445598525139
 30
0.0
 40
7.0
  0
LINE
  5
1DF6
  8
UMCL1
  6
CONTINUOUS
 10
1323.8059264391491
 20
1318.2445598525139
 30
0.0
 11
1323.8059264391491
 21
1308.2445598525139
 31
0.0
  0
POLYLINE
  5
1DF7
  8
UMCL1
  6
CONTINUOUS
 66
     1
 10
0.0
 20
0.0
 30
0.0
 70
     1
  0
VERTEX
  5
2134
  8
UMCL1
  6
CONTINUOUS
 10
1345.8059264391491
 20
1193.5257743966979
 30
0.0
  0
VERTEX
  5
2135
  8
UMCL1
  6
CONTINUOUS
 10
1345.8059264391491
 20
1222.5257743966979
 30
0.0
 42
1.000000000000002
  0
VERTEX
  5
2136
  8
UMCL1
  6
CONTINUOUS
 10
1325.8059264391491
 20
1222.5257743966979
 30
0.0
  0
VERTEX
  5
2137
  8
UMCL1
  6
CONTINUOUS
 10
1325.8059264391491
 20
1193.5257743966979
 30
0.0
 42
1.000000000000002
  0
SEQEND
  5
2138
  8
UMCL1
  6
CONTINUOUS
  0
LINE
  5
1DF8
  8
UMCL1
  6
CONTINUOUS
 10
1325.80592643915
 20
1330.3445598525141
 30
0.0
 11
1345.8059264391491
 21
1330.344559852515
 31
0.0
  0
LINE
  5
1DF9
  8
UMCL1
  6
CONTINUOUS
 10
1325.80592643915
 20
1330.3445598525141
 30
0.0
 11
1325.8059264391491
 21
1324.3445598525141
 31
0.0
  0
LINE
  5
1DFA
  8
UMCL1
  6
CONTINUOUS
 10
1345.8059264391491
 20
1330.344559852515
 30
0.0
 11
1345.8059264391491
 21
1324.3445598525141
 31
0.0
  0
LINE
  5
1DFB
  8
UMCL1
  6
CONTINUOUS
 10
1325.80592643915
 20
1296.144559852514
 30
0.0
 11
1345.8059264391491
 21
1296.144559852514
 31
0.0
  0
LINE
  5
1DFC
  8
UMCL1
  6
CONTINUOUS
 10
1325.80592643915
 20
1296.144559852514
 30
0.0
 11
1325.8059264391491
 21
1302.144559852514
 31
0.0
  0
LINE
  5
1DFD
  8
UMCL1
  6
CONTINUOUS
 10
1345.8059264391491
 20
1296.144559852514
 30
0.0
 11
1345.8059264391491
 21
1302.144559852514
 31
0.0
  0
LINE
  5
1DFE
  8
UMCL1
  6
HIDDEN
 62
     3
 10
1344.30592643915
 20
1330.3445598525141
 30
0.0
 11
1344.3059264391491
 21
1296.144559852514
 31
0.0
  0
LINE
  5
1DFF
  8
UMCL1
  6
CONTINUOUS
 10
1358.638492724333
 20
1324.3445598525141
 30
0.0
 11
1358.638492724333
 21
1302.144559852514
 31
0.0
  0
LINE
  5
1E00
  8
UMCL1
  6
CONTINUOUS
 10
1358.638492724333
 20
1302.144559852514
 30
0.0
 11
1375.80592643915
 21
1306.7445598525139
 31
0.0
  0
LINE
  5
1E01
  8
UMCL1
  6
CONTINUOUS
 10
1375.80592643915
 20
1319.7445598525139
 30
0.0
 11
1358.638492724333
 21
1324.3445598525141
 31
0.0
  0
LINE
  5
1E02
  8
UMCL1
  6
CONTINUOUS
 10
1375.80592643915
 20
1306.7445598525139
 30
0.0
 11
1375.80592643915
 21
1319.7445598525139
 31
0.0
  0
LINE
  5
1E03
  8
UMCL1
  6
HIDDEN
 62
     3
 10
1304.8059264391491
 20
1324.3445598525141
 30
0.0
 11
1304.80592643915
 21
1302.144559852514
 31
0.0
  0
LINE
  5
1E04
  8
UMCL1
  6
HIDDEN
 62
     3
 10
1314.80592643915
 20
1324.3445598525141
 30
0.0
 11
1314.8059264391491
 21
1302.144559852514
 31
0.0
  0
LINE
  5
1E05
  8
UMCL1
  6
HIDDEN
 62
     3
 10
1340.80592643915
 20
1330.3445598525141
 30
0.0
 11
1340.8059264391491
 21
1296.144559852514
 31
0.0
  0
LINE
  5
1E06
  8
UMCL1
  6
HIDDEN
 62
     3
 10
1330.80592643915
 20
1330.3445598525141
 30
0.0
 11
1330.8059264391491
 21
1296.144559852514
 31
0.0
  0
LINE
  5
1E07
  8
UMCL1
  6
CONTINUOUS
 10
1305.00592643915
 20
1324.3445598525141
 30
0.0
 11
1305.00592643915
 21
1325.4445598525151
 31
0.0
  0
LINE
  5
1E08
  8
UMCL1
  6
CONTINUOUS
 10
1314.605926439149
 20
1324.3445598525141
 30
0.0
 11
1314.605926439149
 21
1325.4445598525151
 31
0.0
  0
LINE
  5
1E09
  8
UMCL1
  6
CONTINUOUS
 10
1303.405926439149
 20
1324.3445598525141
 30
0.0
 11
1303.405926439149
 21
1325.444559852514
 31
0.0
  0
LINE
  5
1E0A
  8
UMCL1
  6
CONTINUOUS
 10
1316.2059264391489
 20
1324.344559852515
 30
0.0
 11
1316.2059264391489
 21
1325.4445598525151
 31
0.0
  0
LINE
  5
1E0B
  8
UMCL1
  6
CONTINUOUS
 10
1303.405926439149
 20
1325.444559852514
 30
0.0
 11
1316.2059264391489
 21
1325.4445598525151
 31
0.0
  0
LINE
  5
1E0C
  8
UMCL1
  6
CONTINUOUS
 10
1325.8059264391491
 20
1198.5257743966979
 30
0.0
 11
1325.8059264391491
 21
1179.425774396698
 31
0.0
  0
LINE
  5
1E0D
  8
UMCL1
  6
CONTINUOUS
 10
1358.638492724333
 20
1233.625774396698
 30
0.0
 11
1358.638492724333
 21
1211.425774396698
 31
0.0
  0
LINE
  5
1E0E
  8
UMCL1
  6
CONTINUOUS
 10
1298.8059264391491
 20
1324.3445598525141
 30
0.0
 11
1298.8059264391491
 21
1318.2445598525139
 31
0.0
  0
LINE
  5
1E0F
  8
UMCL1
  6
CONTINUOUS
 10
1298.8059264391491
 20
1308.2445598525139
 30
0.0
 11
1298.8059264391491
 21
1302.144559852514
 31
0.0
  0
LINE
  5
1E10
  8
UMCL1
  6
CONTINUOUS
 10
1298.8059264391491
 20
1324.3445598525141
 30
0.0
 11
1358.638492724333
 21
1324.3445598525141
 31
0.0
  0
LINE
  5
1E11
  8
UMCL1
  6
CONTINUOUS
 10
1298.8059264391491
 20
1318.2445598525139
 30
0.0
 11
1323.8059264391491
 21
1318.2445598525139
 31
0.0
  0
LINE
  5
1E12
  8
UMCL1
  6
CONTINUOUS
 10
1298.8059264391491
 20
1308.2445598525139
 30
0.0
 11
1323.8059264391491
 21
1308.2445598525139
 31
0.0
  0
LINE
  5
1E13
  8
UMCL1
  6
CONTINUOUS
 10
1298.8059264391491
 20
1302.144559852514
 30
0.0
 11
1358.638492724333
 21
1302.144559852514
 31
0.0
  0
LINE
  5
1E14
  8
UMCL1
  6
CENTER
 62
     1
 10
1309.8059264391491
 20
1087.425774396698
 30
0.0
 11
1309.8059264391491
 21
1235.625774396698
 31
0.0
  0
LINE
  5
1E15
  8
UMCL1
  6
CONTINUOUS
 10
1299.3059264391491
 20
1209.125774396698
 30
0.0
 11
1298.605926439149
 21
1207.125774396698
 31
0.0
  0
LINE
  5
1E16
  8
UMCL1
  6
CONTINUOUS
 10
1321.0059264391491
 20
1207.125774396698
 30
0.0
 11
1320.3059264391491
 21
1209.125774396698
 31
0.0
  0
LINE
  5
1E17
  8
UMCL1
  6
HIDDEN
 62
     3
 10
1315.8059264391491
 20
1233.625774396698
 30
0.0
 11
1303.8059264391491
 21
1233.625774396698
 31
0.0
  0
LINE
  5
1E18
  8
UMCL1
  6
CONTINUOUS
 10
1320.3059264391491
 20
1209.125774396698
 30
0.0
 11
1299.3059264391491
 21
1209.125774396698
 31
0.0
  0
CIRCLE
  5
1E19
  8
UMCL1
  6
CONTINUOUS
 10
1309.8059264391491
 20
1222.5257743966979
 30
0.0
 40
5.0
  0
LINE
  5
1E1A
  8
UMCL1
  6
HIDDEN
 62
     3
 10
1299.3059264391491
 20
1229.125774396698
 30
0.0
 11
1303.8059264391491
 21
1233.625774396698
 31
0.0
  0
LINE
  5
1E1B
  8
UMCL1
  6
HIDDEN
 62
     3
 10
1315.8059264391491
 20
1233.625774396698
 30
0.0
 11
1320.3059264391491
 21
1229.125774396698
 31
0.0
  0
LINE
  5
1E1C
  8
UMCL1
  6
CONTINUOUS
 10
1345.8059264391491
 20
1211.425774396698
 30
0.0
 11
1375.8059264391491
 21
1211.425774396698
 31
0.0
  0
LINE
  5
1E1D
  8
UMCL1
  6
CONTINUOUS
 10
1375.8059264391491
 20
1211.425774396698
 30
0.0
 11
1375.8059264391491
 21
1224.425774396698
 31
0.0
  0
LINE
  5
1E1E
  8
UMCL1
  6
CONTINUOUS
 10
1375.8059264391491
 20
1224.425774396698
 30
0.0
 11
1358.638492724333
 21
1233.625774396698
 31
0.0
  0
LINE
  5
1E1F
  8
UMCL1
  6
CONTINUOUS
 10
1358.638492724333
 20
1233.625774396698
 30
0.0
 11
1298.8059264391491
 21
1233.625774396698
 31
0.0
  0
LINE
  5
1E20
  8
UMCL1
  6
CONTINUOUS
 10
1298.8059264391491
 20
1233.625774396698
 30
0.0
 11
1298.8059264391491
 21
1217.625774396698
 31
0.0
  0
LINE
  5
1E21
  8
UMCL1
  6
CONTINUOUS
 10
1298.8059264391491
 20
1217.625774396698
 30
0.0
 11
1305.0059264391491
 21
1211.425774396698
 31
0.0
  0
LINE
  5
1E22
  8
UMCL1
  6
CONTINUOUS
 10
1305.0059264391491
 20
1211.425774396698
 30
0.0
 11
1325.8059264391491
 21
1211.425774396698
 31
0.0
  0
LINE
  5
1E23
  8
UMCL1
  6
CONTINUOUS
 10
1325.8059264391491
 20
1179.425774396698
 30
0.0
 11
1345.8059264391491
 21
1179.425774396698
 31
0.0
  0
LINE
  5
1E24
  8
UMCL1
  6
CONTINUOUS
 10
1345.8059264391491
 20
1179.425774396698
 30
0.0
 11
1345.8059264391491
 21
1199.0257743966979
 31
0.0
  0
LINE
  5
1E25
  8
UMCL1
  6
HIDDEN
 62
     3
 10
1345.8059264391491
 20
1199.0257743966979
 30
0.0
 11
1341.3059264391491
 21
1203.5257743966979
 31
0.0
  0
LINE
  5
1E26
  8
UMCL1
  6
HIDDEN
 62
     3
 10
1341.3059264391491
 20
1203.5257743966979
 30
0.0
 11
1330.3059264391491
 21
1203.5257743966979
 31
0.0
  0
LINE
  5
1E27
  8
UMCL1
  6
HIDDEN
 62
     3
 10
1330.3059264391491
 20
1203.5257743966979
 30
0.0
 11
1325.8059264391491
 21
1199.0257743966979
 31
0.0
  0
LINE
  5
1E28
  8
UMCL1
  6
CONTINUOUS
 10
1325.8059264391491
 20
1199.0257743966979
 30
0.0
 11
1325.8059264391491
 21
1179.425774396698
 31
0.0
  0
LINE
  5
1E29
  8
UMCL1
  6
CONTINUOUS
 10
1305.30592643915
 20
1326.7445598525139
 30
0.0
 11
1314.3059264391491
 21
1326.7445598525151
 31
0.0
  0
LINE
  5
1E2A
  8
UMCL1
  6
CONTINUOUS
 10
1304.80592643915
 20
1326.2445598525139
 30
0.0
 11
1304.80592643915
 21
1325.444559852514
 31
0.0
  0
LINE
  5
1E2B
  8
UMCL1
  6
CONTINUOUS
 10
1314.8059264391491
 20
1326.2445598525151
 30
0.0
 11
1314.8059264391491
 21
1325.444559852514
 31
0.0
  0
LINE
  5
1E2C
  8
UMCL1
  6
CONTINUOUS
 10
1304.80592643915
 20
1326.2445598525151
 30
0.0
 11
1314.8059264391491
 21
1326.2445598525151
 31
0.0
  0
LINE
  5
1E2D
  8
UMCL1
  6
CONTINUOUS
 10
1304.80592643915
 20
1326.2445598525139
 30
0.0
 11
1305.30592643915
 21
1326.7445598525139
 31
0.0
  0
LINE
  5
1E2E
  8
UMCL1
  6
CONTINUOUS
 10
1314.3059264391491
 20
1326.7445598525151
 30
0.0
 11
1314.8059264391491
 21
1326.2445598525151
 31
0.0
  0
LINE
  5
1E2F
  8
UMCL1
  6
CONTINUOUS
 10
1305.00592643915
 20
1302.144559852514
 30
0.0
 11
1305.00592643915
 21
1301.0445598525141
 31
0.0
  0
LINE
  5
1E30
  8
UMCL1
  6
CONTINUOUS
 10
1314.605926439149
 20
1302.144559852514
 30
0.0
 11
1314.605926439149
 21
1301.0445598525141
 31
0.0
  0
LINE
  5
1E31
  8
UMCL1
  6
CONTINUOUS
 10
1303.405926439149
 20
1302.144559852514
 30
0.0
 11
1303.405926439149
 21
1301.0445598525141
 31
0.0
  0
LINE
  5
1E32
  8
UMCL1
  6
CONTINUOUS
 10
1316.2059264391489
 20
1302.144559852514
 30
0.0
 11
1316.2059264391489
 21
1301.0445598525141
 31
0.0
  0
LINE
  5
1E33
  8
UMCL1
  6
CONTINUOUS
 10
1303.405926439149
 20
1301.0445598525141
 30
0.0
 11
1316.2059264391489
 21
1301.0445598525141
 31
0.0
  0
LINE
  5
1E34
  8
UMCL1
  6
CONTINUOUS
 10
1305.30592643915
 20
1299.7445598525151
 30
0.0
 11
1314.3059264391491
 21
1299.7445598525151
 31
0.0
  0
LINE
  5
1E35
  8
UMCL1
  6
CONTINUOUS
 10
1304.80592643915
 20
1300.2445598525139
 30
0.0
 11
1304.80592643915
 21
1301.044559852515
 31
0.0
  0
LINE
  5
1E36
  8
UMCL1
  6
CONTINUOUS
 10
1314.8059264391491
 20
1300.2445598525139
 30
0.0
 11
1314.8059264391491
 21
1301.0445598525141
 31
0.0
  0
LINE
  5
1E37
  8
UMCL1
  6
CONTINUOUS
 10
1304.80592643915
 20
1300.2445598525139
 30
0.0
 11
1314.8059264391491
 21
1300.2445598525139
 31
0.0
  0
LINE
  5
1E38
  8
UMCL1
  6
CONTINUOUS
 10
1304.80592643915
 20
1300.2445598525139
 30
0.0
 11
1305.30592643915
 21
1299.7445598525151
 31
0.0
  0
LINE
  5
1E39
  8
UMCL1
  6
CONTINUOUS
 10
1314.3059264391491
 20
1299.7445598525151
 30
0.0
 11
1314.8059264391491
 21
1300.2445598525139
 31
0.0
  0
LINE
  5
1E3A
  8
UMCL1
  6
CONTINUOUS
 10
1331.00592643915
 20
1330.344559852515
 30
0.0
 11
1331.00592643915
 21
1331.4445598525151
 31
0.0
  0
LINE
  5
1E3B
  8
UMCL1
  6
CONTINUOUS
 10
1340.6059264391499
 20
1330.344559852515
 30
0.0
 11
1340.6059264391499
 21
1331.4445598525151
 31
0.0
  0
LINE
  5
1E3C
  8
UMCL1
  6
CONTINUOUS
 10
1329.4059264391501
 20
1330.344559852515
 30
0.0
 11
1329.4059264391501
 21
1331.4445598525151
 31
0.0
  0
LINE
  5
1E3D
  8
UMCL1
  6
CONTINUOUS
 10
1342.2059264391501
 20
1330.344559852515
 30
0.0
 11
1342.2059264391501
 21
1331.4445598525151
 31
0.0
  0
LINE
  5
1E3E
  8
UMCL1
  6
CONTINUOUS
 10
1329.4059264391501
 20
1331.4445598525151
 30
0.0
 11
1342.2059264391501
 21
1331.4445598525151
 31
0.0
  0
LINE
  5
1E3F
  8
UMCL1
  6
CONTINUOUS
 10
1331.30592643915
 20
1332.7445598525151
 30
0.0
 11
1340.30592643915
 21
1332.7445598525151
 31
0.0
  0
LINE
  5
1E40
  8
UMCL1
  6
CONTINUOUS
 10
1330.80592643915
 20
1332.2445598525151
 30
0.0
 11
1330.80592643915
 21
1331.4445598525151
 31
0.0
  0
LINE
  5
1E41
  8
UMCL1
  6
CONTINUOUS
 10
1340.80592643915
 20
1332.2445598525151
 30
0.0
 11
1340.80592643915
 21
1331.4445598525151
 31
0.0
  0
LINE
  5
1E42
  8
UMCL1
  6
CONTINUOUS
 10
1330.80592643915
 20
1332.2445598525151
 30
0.0
 11
1340.80592643915
 21
1332.2445598525151
 31
0.0
  0
LINE
  5
1E43
  8
UMCL1
  6
CONTINUOUS
 10
1330.80592643915
 20
1332.2445598525151
 30
0.0
 11
1331.30592643915
 21
1332.7445598525151
 31
0.0
  0
LINE
  5
1E44
  8
UMCL1
  6
CONTINUOUS
 10
1340.30592643915
 20
1332.7445598525151
 30
0.0
 11
1340.80592643915
 21
1332.2445598525151
 31
0.0
  0
LINE
  5
1E45
  8
UMCL1
  6
CONTINUOUS
 10
1331.00592643915
 20
1296.144559852514
 30
0.0
 11
1331.00592643915
 21
1295.0445598525141
 31
0.0
  0
LINE
  5
1E46
  8
UMCL1
  6
CONTINUOUS
 10
1340.6059264391499
 20
1296.144559852514
 30
0.0
 11
1340.6059264391499
 21
1295.0445598525141
 31
0.0
  0
LINE
  5
1E47
  8
UMCL1
  6
CONTINUOUS
 10
1329.4059264391501
 20
1296.144559852514
 30
0.0
 11
1329.4059264391501
 21
1295.0445598525141
 31
0.0
  0
LINE
  5
1E48
  8
UMCL1
  6
CONTINUOUS
 10
1342.2059264391501
 20
1296.144559852514
 30
0.0
 11
1342.2059264391501
 21
1295.0445598525141
 31
0.0
  0
LINE
  5
1E49
  8
UMCL1
  6
CONTINUOUS
 10
1329.4059264391501
 20
1295.0445598525141
 30
0.0
 11
1342.2059264391501
 21
1295.0445598525141
 31
0.0
  0
LINE
  5
1E4A
  8
UMCL1
  6
CONTINUOUS
 10
1331.30592643915
 20
1293.7445598525151
 30
0.0
 11
1340.30592643915
 21
1293.7445598525139
 31
0.0
  0
LINE
  5
1E4B
  8
UMCL1
  6
CONTINUOUS
 10
1330.80592643915
 20
1294.2445598525139
 30
0.0
 11
1330.80592643915
 21
1295.0445598525141
 31
0.0
  0
LINE
  5
1E4C
  8
UMCL1
  6
CONTINUOUS
 10
1340.80592643915
 20
1294.2445598525139
 30
0.0
 11
1340.80592643915
 21
1295.0445598525141
 31
0.0
  0
LINE
  5
1E4D
  8
UMCL1
  6
CONTINUOUS
 10
1330.80592643915
 20
1294.2445598525139
 30
0.0
 11
1340.80592643915
 21
1294.2445598525139
 31
0.0
  0
LINE
  5
1E4E
  8
UMCL1
  6
CONTINUOUS
 10
1330.80592643915
 20
1294.2445598525139
 30
0.0
 11
1331.30592643915
 21
1293.7445598525151
 31
0.0
  0
LINE
  5
1E4F
  8
UMCL1
  6
CONTINUOUS
 10
1340.30592643915
 20
1293.7445598525139
 30
0.0
 11
1340.80592643915
 21
1294.2445598525139
 31
0.0
  0
ARC
  5
1E50
  8
UMCL1
  6
CONTINUOUS
 10
1309.8059264391491
 20
1313.2445598525139
 30
0.0
 40
6.0
 50
123.5573097619238
 51
236.4426902380761
  0
ARC
  5
1E51
  8
UMCL1
  6
CONTINUOUS
 10
1309.8059264391491
 20
1313.2445598525139
 30
0.0
 40
10.5
 50
151.56310985114621
 51
208.43689014885379
  0
ARC
  5
1E52
  8
UMCL1
  6
CONTINUOUS
 10
1309.8059264391491
 20
1313.2445598525139
 30
0.0
 40
10.5
 50
331.56310985114618
 51
28.43689014885376
  0
ARC
  5
1E53
  8
UMCL1
  6
CONTINUOUS
 10
1309.8059264391491
 20
1313.2445598525139
 30
0.0
 40
6.0
 50
303.55730976192388
 51
56.442690238076139
  0
LINE
  5
1E54
  8
UMCL1
  6
HIDDEN
 62
     3
 10
1299.3059264391491
 20
1229.125774396698
 30
0.0
 11
1300.57283378284
 21
1229.125774396698
 31
0.0
  0
LINE
  5
1E55
  8
UMCL1
  6
HIDDEN
 62
     3
 10
1320.3059264391491
 20
1229.125774396698
 30
0.0
 11
1319.039019095459
 21
1229.125774396698
 31
0.0
  0
LINE
  5
1E56
  8
UMCL1
  6
CONTINUOUS
 10
1298.605926439149
 20
1207.125774396698
 30
0.0
 11
1298.605926439149
 21
1179.425774396698
 31
0.0
  0
LINE
  5
1E57
  8
UMCL1
  6
CONTINUOUS
 10
1321.0059264391491
 20
1179.425774396698
 30
0.0
 11
1321.0059264391491
 21
1207.125774396698
 31
0.0
  0
ARC
  5
1E58
  8
UMCL1
  6
CONTINUOUS
 10
1309.8059264391491
 20
1313.2445598525139
 30
0.0
 40
11.199999999999999
 50
333.48522536574279
 51
26.514774634257169
  0
ARC
  5
1E59
  8
UMCL1
  6
CONTINUOUS
 10
1309.8059264391491
 20
1313.2445598525139
 30
0.0
 40
11.199999999999999
 50
153.48522536574279
 51
206.51477463425709
  0
LINE
  5
1E5A
  8
UMCL1
  6
CONTINUOUS
 10
1298.605926439149
 20
1207.125774396698
 30
0.0
 11
1321.0059264391491
 21
1207.125774396698
 31
0.0
  0
LINE
  5
1E5B
  8
UMCL1
  6
HIDDEN
 62
     3
 10
1325.8059264391491
 20
1211.425774396698
 30
0.0
 11
1345.8059264391491
 21
1211.425774396698
 31
0.0
  0
LINE
  5
1E5C
  8
UMCL1
  6
HIDDEN
 62
     3
 10
1345.8059264391491
 20
1324.3445598525141
 30
0.0
 11
1345.8059264391491
 21
1302.144559852514
 31
0.0
  0
LINE
  5
1E5D
  8
UMCL1
  6
CENTER
 62
     1
 10
1273.3059264391491
 20
1313.2445598525139
 30
0.0
 11
1377.80592643915
 21
1313.244559852513
 31
0.0
  0
LINE
  5
1E5E
  8
UMCL1
  6
CENTER
 62
     1
 10
1309.8059264391491
 20
1349.7445598525151
 30
0.0
 11
1309.8059264391491
 21
1276.7445598525151
 31
0.0
  0
LINE
  5
1E5F
  8
UMCL1
  6
HIDDEN
 62
     3
 10
1320.3059264391491
 20
1229.125774396698
 30
0.0
 11
1320.3059264391491
 21
1211.425774396698
 31
0.0
  0
LINE
  5
1E60
  8
UMCL1
  6
HIDDEN
 62
     3
 10
1319.039019095459
 20
1230.3926817403881
 30
0.0
 11
1319.039019095459
 21
1211.425774396698
 31
0.0
  0
LINE
  5
1E61
  8
UMCL1
  6
HIDDEN
 62
     3
 10
1299.3059264391491
 20
1229.125774396698
 30
0.0
 11
1299.3059264391491
 21
1217.125774396698
 31
0.0
  0
LINE
  5
1E62
  8
UMCL1
  6
HIDDEN
 62
     3
 10
1300.5728337828391
 20
1230.3926817403881
 30
0.0
 11
1300.5728337828391
 21
1215.858867053008
 31
0.0
  0
LINE
  5
1E63
  8
UMCL1
  6
CONTINUOUS
 10
1299.3059264391491
 20
1217.125774396698
 30
0.0
 11
1299.3059264391491
 21
1209.125774396698
 31
0.0
  0
LINE
  5
1E64
  8
UMCL1
  6
CONTINUOUS
 10
1300.5728337828391
 20
1215.858867053008
 30
0.0
 11
1300.5728337828391
 21
1209.125774396698
 31
0.0
  0
LINE
  5
1E65
  8
UMCL1
  6
CONTINUOUS
 10
1319.039019095459
 20
1211.425774396698
 30
0.0
 11
1319.039019095459
 21
1209.125774396698
 31
0.0
  0
LINE
  5
1E66
  8
UMCL1
  6
CONTINUOUS
 10
1320.3059264391491
 20
1209.125774396698
 30
0.0
 11
1320.3059264391491
 21
1211.425774396698
 31
0.0
  0
LINE
  5
1E67
  8
UMCL1
  6
HIDDEN
 62
     3
 10
1276.8059264391491
 20
1179.425774396698
 30
0.0
 11
1276.8059264391491
 21
1170.425774396698
 31
0.0
  0
LINE
  5
1E68
  8
UMCL1
  6
HIDDEN
 62
     3
 10
1276.8059264391491
 20
1170.425774396698
 30
0.0
 11
1290.8059264391491
 21
1170.425774396698
 31
0.0
  0
LINE
  5
1E69
  8
UMCL1
  6
HIDDEN
 62
     3
 10
1290.8059264391491
 20
1170.425774396698
 30
0.0
 11
1290.8059264391491
 21
1179.425774396698
 31
0.0
  0
LINE
  5
1E6A
  8
UMCL1
  6
HIDDEN
 62
     3
 10
1288.3059264391491
 20
1089.425774396698
 30
0.0
 11
1288.3059264391491
 21
1170.425774396698
 31
0.0
  0
LINE
  5
1E6B
  8
UMCL1
  6
HIDDEN
 62
     3
 10
1279.3059264391491
 20
1089.425774396698
 30
0.0
 11
1279.3059264391491
 21
1170.425774396698
 31
0.0
  0
LINE
  5
1E6C
  8
UMCL1
  6
CENTER
 62
     1
 10
1283.8059264391491
 20
1087.925774396698
 30
0.0
 11
1283.8059264391491
 21
1180.925774396698
 31
0.0
  0
LINE
  5
1E6D
  8
UMCL1
  6
HIDDEN
 62
     3
 10
1328.8059264391491
 20
1179.425774396698
 30
0.0
 11
1328.8059264391491
 21
1170.4257743966971
 31
0.0
  0
LINE
  5
1E6E
  8
UMCL1
  6
HIDDEN
 62
     3
 10
1328.8059264391491
 20
1170.4257743966971
 30
0.0
 11
1342.8059264391491
 21
1170.4257743966971
 31
0.0
  0
LINE
  5
1E6F
  8
UMCL1
  6
HIDDEN
 62
     3
 10
1342.8059264391491
 20
1170.4257743966971
 30
0.0
 11
1342.8059264391491
 21
1179.425774396698
 31
0.0
  0
LINE
  5
1E70
  8
UMCL1
  6
HIDDEN
 62
     3
 10
1340.3059264391491
 20
1089.4257743966971
 30
0.0
 11
1340.3059264391491
 21
1170.4257743966971
 31
0.0
  0
LINE
  5
1E71
  8
UMCL1
  6
HIDDEN
 62
     3
 10
1331.3059264391491
 20
1089.425774396698
 30
0.0
 11
1331.3059264391491
 21
1170.4257743966971
 31
0.0
  0
LINE
  5
1E72
  8
UMCL1
  6
CENTER
 62
     1
 10
1335.8059264391491
 20
1087.9257743966971
 30
0.0
 11
1335.8059264391491
 21
1180.925774396698
 31
0.0
  0
CIRCLE
  5
1E73
  8
UMCL1
  6
CONTINUOUS
 10
1296.8059264391491
 20
1148.425774396698
 30
0.0
 40
5.75
  0
CIRCLE
  5
1E74
  8
UMCL1
  6
CONTINUOUS
 10
1322.8059264391491
 20
1108.425774396698
 30
0.0
 40
5.75
  0
LINE
  5
1E75
  8
UMCL1
  6
CENTER
 62
     1
 10
1335.80592643915
 20
1333.7445598525151
 30
0.0
 11
1335.80592643915
 21
1292.7445598525139
 31
0.0
  0
LINE
  5
1E76
  8
UMCL1
  6
CENTER
 62
     1
 10
1275.50592643915
 20
1339.2445598525139
 30
0.0
 11
1281.2059264391489
 21
1339.2445598525139
 31
0.0
  0
LINE
  5
1E77
  8
UMCL1
  6
CENTER
 62
     1
 10
1282.50592643915
 20
1339.2445598525139
 30
0.0
 11
1285.1059264391499
 21
1339.2445598525139
 31
0.0
  0
LINE
  5
1E78
  8
UMCL1
  6
CENTER
 62
     1
 10
1286.405926439149
 20
1339.2445598525139
 30
0.0
 11
1292.105926439149
 21
1339.2445598525139
 31
0.0
  0
LINE
  5
1E79
  8
UMCL1
  6
CENTER
 62
     1
 10
1283.8059264391491
 20
1330.944559852514
 30
0.0
 11
1283.8059264391491
 21
1336.644559852514
 31
0.0
  0
LINE
  5
1E7A
  8
UMCL1
  6
CENTER
 62
     1
 10
1283.8059264391491
 20
1337.9445598525151
 30
0.0
 11
1283.8059264391491
 21
1340.5445598525141
 31
0.0
  0
LINE
  5
1E7B
  8
UMCL1
  6
CENTER
 62
     1
 10
1283.8059264391491
 20
1341.8445598525141
 30
0.0
 11
1283.8059264391491
 21
1347.5445598525141
 31
0.0
  0
LINE
  5
1E7C
  8
UMCL1
  6
CENTER
 62
     1
 10
1275.50592643915
 20
1287.2445598525151
 30
0.0
 11
1281.2059264391489
 21
1287.2445598525151
 31
0.0
  0
LINE
  5
1E7D
  8
UMCL1
  6
CENTER
 62
     1
 10
1282.50592643915
 20
1287.2445598525151
 30
0.0
 11
1285.1059264391499
 21
1287.2445598525151
 31
0.0
  0
LINE
  5
1E7E
  8
UMCL1
  6
CENTER
 62
     1
 10
1286.405926439149
 20
1287.2445598525151
 30
0.0
 11
1292.105926439149
 21
1287.2445598525151
 31
0.0
  0
LINE
  5
1E7F
  8
UMCL1
  6
CENTER
 62
     1
 10
1283.8059264391491
 20
1278.944559852514
 30
0.0
 11
1283.8059264391491
 21
1284.644559852514
 31
0.0
  0
LINE
  5
1E80
  8
UMCL1
  6
CENTER
 62
     1
 10
1283.8059264391491
 20
1285.944559852514
 30
0.0
 11
1283.8059264391491
 21
1288.5445598525141
 31
0.0
  0
LINE
  5
1E81
  8
UMCL1
  6
CENTER
 62
     1
 10
1283.8059264391491
 20
1289.8445598525141
 30
0.0
 11
1283.8059264391491
 21
1295.5445598525141
 31
0.0
  0
LINE
  5
1E82
  8
UMCL1
  6
CENTER
 62
     1
 10
1327.50592643915
 20
1339.2445598525139
 30
0.0
 11
1333.2059264391501
 21
1339.2445598525139
 31
0.0
  0
LINE
  5
1E83
  8
UMCL1
  6
CENTER
 62
     1
 10
1334.50592643915
 20
1339.2445598525139
 30
0.0
 11
1337.1059264391499
 21
1339.2445598525139
 31
0.0
  0
LINE
  5
1E84
  8
UMCL1
  6
CENTER
 62
     1
 10
1338.4059264391501
 20
1339.2445598525139
 30
0.0
 11
1344.1059264391499
 21
1339.2445598525139
 31
0.0
  0
LINE
  5
1E85
  8
UMCL1
  6
CENTER
 62
     1
 10
1335.80592643915
 20
1330.944559852514
 30
0.0
 11
1335.80592643915
 21
1336.644559852514
 31
0.0
  0
LINE
  5
1E86
  8
UMCL1
  6
CENTER
 62
     1
 10
1335.80592643915
 20
1337.9445598525151
 30
0.0
 11
1335.80592643915
 21
1340.5445598525141
 31
0.0
  0
LINE
  5
1E87
  8
UMCL1
  6
CENTER
 62
     1
 10
1335.80592643915
 20
1341.8445598525141
 30
0.0
 11
1335.80592643915
 21
1347.5445598525141
 31
0.0
  0
LINE
  5
1E88
  8
UMCL1
  6
CENTER
 62
     1
 10
1327.50592643915
 20
1287.2445598525151
 30
0.0
 11
1333.2059264391501
 21
1287.2445598525151
 31
0.0
  0
LINE
  5
1E89
  8
UMCL1
  6
CENTER
 62
     1
 10
1334.50592643915
 20
1287.2445598525151
 30
0.0
 11
1337.1059264391499
 21
1287.2445598525151
 31
0.0
  0
LINE
  5
1E8A
  8
UMCL1
  6
CENTER
 62
     1
 10
1338.4059264391501
 20
1287.2445598525151
 30
0.0
 11
1344.1059264391499
 21
1287.2445598525151
 31
0.0
  0
LINE
  5
1E8B
  8
UMCL1
  6
CENTER
 62
     1
 10
1335.80592643915
 20
1278.944559852514
 30
0.0
 11
1335.80592643915
 21
1284.644559852514
 31
0.0
  0
LINE
  5
1E8C
  8
UMCL1
  6
CENTER
 62
     1
 10
1335.80592643915
 20
1285.944559852514
 30
0.0
 11
1335.80592643915
 21
1288.5445598525141
 31
0.0
  0
LINE
  5
1E8D
  8
UMCL1
  6
CENTER
 62
     1
 10
1335.80592643915
 20
1289.8445598525141
 30
0.0
 11
1335.80592643915
 21
1295.5445598525141
 31
0.0
  0
LINE
  5
1E8E
  8
UMCL1
  6
CONTINUOUS
 10
1344.30592643915
 20
1330.3445598525141
 30
0.0
 11
1344.30592643915
 21
1341.3514984976241
 31
0.0
  0
ARC
  5
1E8F
  8
UMCL1
  6
CONTINUOUS
 10
1309.8059264391491
 20
1313.2445598525139
 30
0.0
 40
44.5
 50
39.169493221832468
 51
50.830506778162487
  0
LINE
  5
1E90
  8
UMCL1
  6
CONTINUOUS
 10
1344.3059264391491
 20
1285.137621207404
 30
0.0
 11
1344.3059264391491
 21
1296.144559852514
 31
0.0
  0
ARC
  5
1E91
  8
UMCL1
  6
CONTINUOUS
 10
1309.8059264391491
 20
1313.2445598525139
 30
0.0
 40
44.5
 50
309.16949322182739
 51
320.8305067781676
  0
LINE
  5
1E92
  8
UMCL1
  6
CONTINUOUS
 10
1281.698987794038
 20
1278.7445598525151
 30
0.0
 11
1337.9128650842611
 21
1278.7445598525151
 31
0.0
  0
ARC
  5
1E93
  8
UMCL1
  6
CONTINUOUS
 10
1309.8059264391491
 20
1313.2445598525139
 30
0.0
 40
44.5
 50
219.16949322183251
 51
230.83050677816249
  0
ARC
  5
1E94
  8
UMCL1
  6
CONTINUOUS
 10
1309.8059264391491
 20
1313.2445598525139
 30
0.0
 40
44.5
 50
129.16949322183751
 51
140.83050677816749
  0
LINE
  5
1E95
  8
UMCL1
  6
CONTINUOUS
 10
1337.912865084259
 20
1347.7445598525151
 30
0.0
 11
1281.69898779404
 21
1347.7445598525151
 31
0.0
  0
LINE
  5
1E96
  8
UMCL1
  6
CONTINUOUS
 10
1275.3059264391491
 20
1341.3514984976241
 30
0.0
 11
1275.3059264391491
 21
1285.137621207404
 31
0.0
  0
LINE
  5
1E97
  8
UMCL1
  6
CENTER
 62
     1
 10
1329.5059264391491
 20
1222.5257743966979
 30
0.0
 11
1333.2059264391501
 21
1222.5257743966979
 31
0.0
  0
LINE
  5
1E98
  8
UMCL1
  6
CENTER
 62
     1
 10
1334.5059264391491
 20
1222.5257743966979
 30
0.0
 11
1337.105926439149
 21
1222.5257743966979
 31
0.0
  0
LINE
  5
1E99
  8
UMCL1
  6
CENTER
 62
     1
 10
1338.405926439149
 20
1222.5257743966979
 30
0.0
 11
1342.105926439149
 21
1222.5257743966979
 31
0.0
  0
LINE
  5
1E9A
  8
UMCL1
  6
CENTER
 62
     1
 10
1335.8059264391491
 20
1216.2257743966979
 30
0.0
 11
1335.8059264391491
 21
1219.925774396698
 31
0.0
  0
LINE
  5
1E9B
  8
UMCL1
  6
CENTER
 62
     1
 10
1335.8059264391491
 20
1221.2257743966979
 30
0.0
 11
1335.8059264391491
 21
1223.8257743966981
 31
0.0
  0
LINE
  5
1E9C
  8
UMCL1
  6
CENTER
 62
     1
 10
1335.8059264391491
 20
1225.125774396698
 30
0.0
 11
1335.8059264391491
 21
1228.8257743966981
 31
0.0
  0
LINE
  5
1E9D
  8
UMCL1
  6
CENTER
 62
     1
 10
1329.5059264391491
 20
1193.5257743966979
 30
0.0
 11
1333.2059264391501
 21
1193.5257743966979
 31
0.0
  0
LINE
  5
1E9E
  8
UMCL1
  6
CENTER
 62
     1
 10
1334.5059264391491
 20
1193.5257743966979
 30
0.0
 11
1337.105926439149
 21
1193.5257743966979
 31
0.0
  0
LINE
  5
1E9F
  8
UMCL1
  6
CENTER
 62
     1
 10
1338.405926439149
 20
1193.5257743966979
 30
0.0
 11
1342.105926439149
 21
1193.5257743966979
 31
0.0
  0
LINE
  5
1EA0
  8
UMCL1
  6
CENTER
 62
     1
 10
1335.8059264391491
 20
1187.2257743966979
 30
0.0
 11
1335.8059264391491
 21
1190.925774396698
 31
0.0
  0
LINE
  5
1EA1
  8
UMCL1
  6
CENTER
 62
     1
 10
1335.8059264391491
 20
1192.2257743966979
 30
0.0
 11
1335.8059264391491
 21
1194.8257743966981
 31
0.0
  0
LINE
  5
1EA2
  8
UMCL1
  6
CENTER
 62
     1
 10
1335.8059264391491
 20
1196.125774396698
 30
0.0
 11
1335.8059264391491
 21
1199.8257743966981
 31
0.0
  0
LINE
  5
1EA3
  8
UMCL1
  6
CENTER
 62
     1
 10
1303.5059264391491
 20
1222.5257743966979
 30
0.0
 11
1307.2059264391489
 21
1222.5257743966979
 31
0.0
  0
LINE
  5
1EA4
  8
UMCL1
  6
CENTER
 62
     1
 10
1308.5059264391491
 20
1222.5257743966979
 30
0.0
 11
1311.105926439149
 21
1222.5257743966979
 31
0.0
  0
LINE
  5
1EA5
  8
UMCL1
  6
CENTER
 62
     1
 10
1312.405926439149
 20
1222.5257743966979
 30
0.0
 11
1316.105926439149
 21
1222.5257743966979
 31
0.0
  0
LINE
  5
1EA6
  8
UMCL1
  6
CENTER
 62
     1
 10
1335.8059264391491
 20
1216.2257743966979
 30
0.0
 11
1335.8059264391491
 21
1199.8257743966981
 31
0.0
  0
LINE
  5
1EA7
  8
UMCL1
  6
CENTER
 62
     1
 10
1369.80592643915
 20
1231.273875125826
 30
0.0
 11
1369.80592643915
 21
1199.8257743966981
 31
0.0
  0
LINE
  5
1EA8
  8
UMCL1
  6
CONTINUOUS
 10
1275.8059264391491
 20
1089.425774396698
 30
0.0
 11
1343.8059264391491
 21
1089.425774396698
 31
0.0
  0
LINE
  5
1EA9
  8
UMCL1
  6
CONTINUOUS
 10
1344.3059264391491
 20
1089.925774396698
 30
0.0
 11
1344.3059264391491
 21
1178.925774396698
 31
0.0
  0
LINE
  5
1EAA
  8
UMCL1
  6
CONTINUOUS
 10
1343.8059264391491
 20
1179.425774396698
 30
0.0
 11
1275.8059264391491
 21
1179.425774396698
 31
0.0
  0
LINE
  5
1EAB
  8
UMCL1
  6
CONTINUOUS
 10
1275.3059264391491
 20
1178.925774396698
 30
0.0
 11
1275.3059264391491
 21
1089.925774396698
 31
0.0
  0
LINE
  5
1EAC
  8
UMCL1
  6
CONTINUOUS
 10
1344.3059264391491
 20
1178.925774396698
 30
0.0
 11
1275.3059264391491
 21
1178.925774396698
 31
0.0
  0
LINE
  5
1EAD
  8
UMCL1
  6
CONTINUOUS
 10
1275.8059264391491
 20
1179.425774396698
 30
0.0
 11
1275.3059264391491
 21
1178.925774396698
 31
0.0
  0
LINE
  5
1EAE
  8
UMCL1
  6
CONTINUOUS
 10
1343.8059264391491
 20
1179.425774396698
 30
0.0
 11
1344.3059264391491
 21
1178.925774396698
 31
0.0
  0
LINE
  5
1EAF
  8
UMCL1
  6
CONTINUOUS
 10
1275.3059264391491
 20
1089.925774396698
 30
0.0
 11
1344.3059264391491
 21
1089.925774396698
 31
0.0
  0
LINE
  5
1EB0
  8
UMCL1
  6
CONTINUOUS
 10
1275.3059264391491
 20
1089.925774396698
 30
0.0
 11
1275.8059264391491
 21
1089.425774396698
 31
0.0
  0
LINE
  5
1EB1
  8
UMCL1
  6
CONTINUOUS
 10
1343.8059264391491
 20
1089.425774396698
 30
0.0
 11
1344.3059264391491
 21
1089.925774396698
 31
0.0
  0
TEXT
  5
1EB2
  8
UMCL2
  6
CONTINUOUS
 10
1326.2969703726969
 20
1272.3137187706709
 30
0.0
 40
3.0
  1
A
  7
ROMANS
  0
CIRCLE
  5
1EB3
  8
UMCL2
  6
CONTINUOUS
 10
1327.729602718847
 20
1273.5608190250141
 30
0.0
 40
2.5
  0
TEXT
  5
1EB4
  8
UMCL2
  6
CONTINUOUS
 10
1291.5225126013111
 20
1272.1739116172571
 30
0.0
 40
3.0
  1
B
  7
ROMANS
  0
CIRCLE
  5
1EB5
  8
UMCL2
  6
CONTINUOUS
 10
1292.911922913527
 20
1273.669495378376
 30
0.0
 40
2.5
  0
ARC
  5
1EB6
  8
UMCL2
  6
CONTINUOUS
 62
     3
 10
1296.8059264391491
 20
1148.425774396698
 30
0.0
 40
6.5999999999999988
 50
344.99999999999932
 51
284.99999999999437
  0
ARC
  5
1EB7
  8
UMCL2
  6
CONTINUOUS
 62
     3
 10
1322.8059264391491
 20
1108.425774396698
 30
0.0
 40
6.5999999999999988
 50
344.99999999999932
 51
284.99999999999437
  0
LINE
  5
1EB8
  8
UMCL1
  6
CENTER
 62
     1
 10
1288.7059264391489
 20
1148.425774396698
 30
0.0
 11
1293.8059264391491
 21
1148.425774396698
 31
0.0
  0
LINE
  5
1EB9
  8
UMCL1
  6
CENTER
 62
     1
 10
1295.3059264391491
 20
1148.425774396698
 30
0.0
 11
1298.3059264391491
 21
1148.425774396698
 31
0.0
  0
LINE
  5
1EBA
  8
UMCL1
  6
CENTER
 62
     1
 10
1299.8059264391491
 20
1148.425774396698
 30
0.0
 11
1304.905926439149
 21
1148.425774396698
 31
0.0
  0
LINE
  5
1EBB
  8
UMCL1
  6
CENTER
 62
     1
 10
1296.8059264391491
 20
1140.3257743966981
 30
0.0
 11
1296.8059264391491
 21
1145.425774396698
 31
0.0
  0
LINE
  5
1EBC
  8
UMCL1
  6
CENTER
 62
     1
 10
1296.8059264391491
 20
1146.925774396698
 30
0.0
 11
1296.8059264391491
 21
1149.925774396698
 31
0.0
  0
LINE
  5
1EBD
  8
UMCL1
  6
CENTER
 62
     1
 10
1296.8059264391491
 20
1151.425774396698
 30
0.0
 11
1296.8059264391491
 21
1156.5257743966979
 31
0.0
  0
LINE
  5
1EBE
  8
UMCL1
  6
CENTER
 62
     1
 10
1314.7059264391489
 20
1108.425774396698
 30
0.0
 11
1319.8059264391491
 21
1108.425774396698
 31
0.0
  0
LINE
  5
1EBF
  8
UMCL1
  6
CENTER
 62
     1
 10
1321.3059264391491
 20
1108.425774396698
 30
0.0
 11
1324.3059264391491
 21
1108.425774396698
 31
0.0
  0
LINE
  5
1EC0
  8
UMCL1
  6
CENTER
 62
     1
 10
1325.8059264391491
 20
1108.425774396698
 30
0.0
 11
1330.905926439149
 21
1108.425774396698
 31
0.0
  0
LINE
  5
1EC1
  8
UMCL1
  6
CENTER
 62
     1
 10
1322.8059264391491
 20
1100.3257743966981
 30
0.0
 11
1322.8059264391491
 21
1105.425774396698
 31
0.0
  0
LINE
  5
1EC2
  8
UMCL1
  6
CENTER
 62
     1
 10
1322.8059264391491
 20
1106.925774396698
 30
0.0
 11
1322.8059264391491
 21
1109.925774396698
 31
0.0
  0
LINE
  5
1EC3
  8
UMCL1
  6
CENTER
 62
     1
 10
1322.8059264391491
 20
1111.4257743966971
 30
0.0
 11
1322.8059264391491
 21
1116.5257743966979
 31
0.0
  0
LINE
  5
1EC4
  8
UMCL2
  6
CONTINUOUS
 10
1376.80592643915
 20
1319.7445598525139
 30
0.0
 11
1384.80592643915
 21
1319.7445598525139
 31
0.0
  0
LINE
  5
1EC5
  8
UMCL2
  6
CONTINUOUS
 10
1376.80592643915
 20
1306.7445598525139
 30
0.0
 11
1384.80592643915
 21
1306.7445598525139
 31
0.0
  0
LINE
  5
1EC6
  8
UMCL2
  6
CONTINUOUS
 10
1383.80592643915
 20
1317.2445598525139
 30
0.0
 11
1383.80592643915
 21
1309.2445598525139
 31
0.0
  0
SOLID
  5
1EC7
  8
UMCL2
  6
CONTINUOUS
 10
1383.389259772483
 20
1317.2445598525139
 30
0.0
 11
1384.222593105816
 21
1317.2445598525139
 31
0.0
 12
1383.80592643915
 22
1319.7445598525139
 32
0.0
 13
1383.80592643915
 23
1319.7445598525139
 33
0.0
  0
SOLID
  5
1EC8
  8
UMCL2
  6
CONTINUOUS
 10
1383.389259772483
 20
1309.2445598525139
 30
0.0
 11
1384.222593105816
 21
1309.2445598525139
 31
0.0
 12
1383.80592643915
 22
1306.7445598525139
 32
0.0
 13
1383.80592643915
 23
1306.7445598525139
 33
0.0
  0
INSERT
  5
1EC9
  8
0
  2
*U25
 10
0.0
 20
0.0
 30
0.0
  0
LINE
  5
1ECA
  8
UMCL2
  6
CONTINUOUS
 10
1359.638492724333
 20
1324.3445598525141
 30
0.0
 11
1392.80592643915
 21
1324.3445598525141
 31
0.0
  0
LINE
  5
1ECB
  8
UMCL2
  6
CONTINUOUS
 10
1359.638492724333
 20
1302.144559852514
 30
0.0
 11
1392.80592643915
 21
1302.144559852514
 31
0.0
  0
LINE
  5
1ECC
  8
UMCL2
  6
CONTINUOUS
 10
1391.80592643915
 20
1321.844559852515
 30
0.0
 11
1391.80592643915
 21
1304.6445598525149
 31
0.0
  0
SOLID
  5
1ECD
  8
UMCL2
  6
CONTINUOUS
 10
1391.389259772483
 20
1321.844559852515
 30
0.0
 11
1392.222593105816
 21
1321.844559852515
 31
0.0
 12
1391.80592643915
 22
1324.3445598525141
 32
0.0
 13
1391.80592643915
 23
1324.3445598525141
 33
0.0
  0
SOLID
  5
1ECE
  8
UMCL2
  6
CONTINUOUS
 10
1391.389259772483
 20
1304.6445598525149
 30
0.0
 11
1392.222593105816
 21
1304.6445598525149
 31
0.0
 12
1391.80592643915
 22
1302.144559852514
 32
0.0
 13
1391.80592643915
 23
1302.144559852514
 33
0.0
  0
INSERT
  5
1ECF
  8
0
  2
*U26
 10
0.0
 20
0.0
 30
0.0
  0
LINE
  5
1ED0
  8
UMCL2
  6
CONTINUOUS
 10
1345.1059264391499
 20
1287.2445598525151
 30
0.0
 11
1400.80592643915
 21
1287.2445598525151
 31
0.0
  0
LINE
  5
1ED1
  8
UMCL2
  6
CONTINUOUS
 10
1345.1059264391499
 20
1339.2445598525139
 30
0.0
 11
1400.80592643915
 21
1339.2445598525139
 31
0.0
  0
LINE
  5
1ED2
  8
UMCL2
  6
CONTINUOUS
 10
1399.80592643915
 20
1289.7445598525151
 30
0.0
 11
1399.80592643915
 21
1336.7445598525139
 31
0.0
  0
SOLID
  5
1ED3
  8
UMCL2
  6
CONTINUOUS
 10
1399.389259772483
 20
1289.7445598525151
 30
0.0
 11
1400.222593105816
 21
1289.7445598525151
 31
0.0
 12
1399.80592643915
 22
1287.2445598525151
 32
0.0
 13
1399.80592643915
 23
1287.2445598525151
 33
0.0
  0
SOLID
  5
1ED4
  8
UMCL2
  6
CONTINUOUS
 10
1399.389259772483
 20
1336.7445598525139
 30
0.0
 11
1400.222593105816
 21
1336.7445598525139
 31
0.0
 12
1399.80592643915
 22
1339.2445598525139
 32
0.0
 13
1399.80592643915
 23
1339.2445598525139
 33
0.0
  0
INSERT
  5
1ED5
  8
0
  2
*U27
 10
0.0
 20
0.0
 30
0.0
  0
LINE
  5
1ED6
  8
UMCL2
  6
CONTINUOUS
 10
1338.9128650842599
 20
1278.7445598525139
 30
0.0
 11
1408.80592643915
 21
1278.7445598525139
 31
0.0
  0
LINE
  5
1ED7
  8
UMCL2
  6
CONTINUOUS
 10
1338.9128650842599
 20
1347.7445598525151
 30
0.0
 11
1408.80592643915
 21
1347.7445598525151
 31
0.0
  0
LINE
  5
1ED8
  8
UMCL2
  6
CONTINUOUS
 10
1407.80592643915
 20
1281.2445598525139
 30
0.0
 11
1407.80592643915
 21
1345.2445598525151
 31
0.0
  0
SOLID
  5
1ED9
  8
UMCL2
  6
CONTINUOUS
 10
1407.389259772483
 20
1281.2445598525139
 30
0.0
 11
1408.222593105816
 21
1281.2445598525139
 31
0.0
 12
1407.80592643915
 22
1278.7445598525139
 32
0.0
 13
1407.80592643915
 23
1278.7445598525139
 33
0.0
  0
SOLID
  5
1EDA
  8
UMCL2
  6
CONTINUOUS
 10
1407.389259772483
 20
1345.2445598525151
 30
0.0
 11
1408.222593105816
 21
1345.2445598525151
 31
0.0
 12
1407.80592643915
 22
1347.7445598525151
 32
0.0
 13
1407.80592643915
 23
1347.7445598525151
 33
0.0
  0
INSERT
  5
1EDB
  8
0
  2
*U28
 10
0.0
 20
0.0
 30
0.0
  0
LINE
  5
1EDC
  8
UMCL2
  6
CONTINUOUS
 10
1395.810417532522
 20
1309.6736007671359
 30
0.0
 11
1398.432963153829
 21
1309.6736007671359
 31
0.0
  0
LINE
  5
1EDD
  8
UMCL2
  6
CONTINUOUS
 10
1398.432963153829
 20
1309.6736007671359
 30
0.0
 11
1398.432963153829
 21
1307.263754289909
 31
0.0
  0
LINE
  5
1EDE
  8
UMCL2
  6
CONTINUOUS
 10
1398.432963153829
 20
1307.263754289909
 30
0.0
 11
1395.810417532522
 21
1307.263754289909
 31
0.0
  0
LINE
  5
1EDF
  8
UMCL2
  6
CONTINUOUS
 10
1395.810417532522
 20
1307.263754289909
 30
0.0
 11
1395.810417532522
 21
1309.6736007671359
 31
0.0
  0
LINE
  5
1EE0
  8
UMCL2
  6
CONTINUOUS
 10
1403.810417532522
 20
1309.6736007671359
 30
0.0
 11
1406.432963153829
 21
1309.6736007671359
 31
0.0
  0
LINE
  5
1EE1
  8
UMCL2
  6
CONTINUOUS
 10
1406.432963153829
 20
1309.6736007671359
 30
0.0
 11
1406.432963153829
 21
1307.263754289909
 31
0.0
  0
LINE
  5
1EE2
  8
UMCL2
  6
CONTINUOUS
 10
1406.432963153829
 20
1307.263754289909
 30
0.0
 11
1403.810417532522
 21
1307.263754289909
 31
0.0
  0
LINE
  5
1EE3
  8
UMCL2
  6
CONTINUOUS
 10
1403.810417532522
 20
1307.263754289909
 30
0.0
 11
1403.810417532522
 21
1309.6736007671359
 31
0.0
  0
TEXT
  5
1EE4
  8
UMCL2
  6
CONTINUOUS
 10
1367.3617760092311
 20
1273.3952050114401
 30
0.0
 40
3.0
  1
4-%%C9 Through-hole 
  7
ROMANSS
 72
     2
 11
1415.790347437802
 21
1274.8952050114401
 31
0.0
 73
     2
  0
LINE
  5
1EE5
  8
UMCL2
  6
CONTINUOUS
 10
1416.404020124311
 20
1271.6827827483689
 30
0.0
 11
1356.81756468709
 21
1271.6827827483689
 31
0.0
  0
TEXT
  5
1EE6
  8
UMCL2
  6
CONTINUOUS
 10
1365.211334133018
 20
1267.2318985226791
 30
0.0
 40
3.0
  1
Counter bore %%C14x9dp
  7
ROMANSS
 72
     2
 11
1415.6399055615891
 21
1268.7318985226791
 31
0.0
 73
     2
  0
LINE
  5
1EE7
  8
UMCL2
 10
1356.81756468709
 20
1271.6827827483689
 30
0.0
 11
1340.024832122197
 21
1284.119926299991
 31
0.0
  0
SOLID
  5
1EE8
  8
UMCL2
  6
CONTINUOUS
 10
1342.7192340485419
 20
1282.709182432626
 30
0.0
 11
1342.1160521495931
 21
1281.9115787736689
 31
0.0
 12
1340.024832122197
 22
1284.119926299991
 32
0.0
 13
1340.024832122197
 23
1284.119926299991
 33
0.0
  0
LINE
  5
1EE9
  8
UMCL2
  6
CONTINUOUS
 10
1296.8059264391491
 20
1279.9445598525151
 30
0.0
 11
1296.80592643915
 21
1267.0924466474989
 31
0.0
  0
LINE
  5
1EEA
  8
UMCL2
  6
CONTINUOUS
 10
1322.8059264391491
 20
1279.9445598525151
 30
0.0
 11
1322.80592643915
 21
1267.0924466474989
 31
0.0
  0
LINE
  5
1EEB
  8
UMCL2
  6
CONTINUOUS
 10
1299.3059264391491
 20
1268.0924466474989
 30
0.0
 11
1320.30592643915
 21
1268.0924466474989
 31
0.0
  0
SOLID
  5
1EEC
  8
UMCL2
  6
CONTINUOUS
 10
1299.3059264391491
 20
1268.5091133141659
 30
0.0
 11
1299.3059264391491
 21
1267.6757799808331
 31
0.0
 12
1296.80592643915
 22
1268.0924466474989
 32
0.0
 13
1296.80592643915
 23
1268.0924466474989
 33
0.0
  0
SOLID
  5
1EED
  8
UMCL2
  6
CONTINUOUS
 10
1320.30592643915
 20
1268.5091133141659
 30
0.0
 11
1320.30592643915
 21
1267.6757799808331
 31
0.0
 12
1322.80592643915
 22
1268.0924466474989
 32
0.0
 13
1322.80592643915
 23
1268.0924466474989
 33
0.0
  0
INSERT
  5
1EEE
  8
0
  2
*U29
 10
0.0
 20
0.0
 30
0.0
  0
LINE
  5
1EEF
  8
UMCL2
  6
CONTINUOUS
 10
1297.8059264391491
 20
1308.2445598525139
 30
0.0
 11
1268.71157673008
 21
1308.2445598525139
 31
0.0
  0
LINE
  5
1EF0
  8
UMCL2
  6
CONTINUOUS
 10
1297.8059264391491
 20
1318.2445598525139
 30
0.0
 11
1268.71157673008
 21
1318.2445598525139
 31
0.0
  0
LINE
  5
1EF1
  8
UMCL2
  6
CONTINUOUS
 10
1269.71157673008
 20
1310.7445598525139
 30
0.0
 11
1269.71157673008
 21
1315.7445598525151
 31
0.0
  0
SOLID
  5
1EF2
  8
UMCL2
  6
CONTINUOUS
 10
1269.294910063413
 20
1310.7445598525139
 30
0.0
 11
1270.1282433967469
 21
1310.7445598525139
 31
0.0
 12
1269.71157673008
 22
1308.2445598525139
 32
0.0
 13
1269.71157673008
 23
1308.2445598525139
 33
0.0
  0
SOLID
  5
1EF3
  8
UMCL2
  6
CONTINUOUS
 10
1269.294910063413
 20
1315.7445598525151
 30
0.0
 11
1270.1282433967469
 21
1315.7445598525151
 31
0.0
 12
1269.71157673008
 22
1318.2445598525139
 32
0.0
 13
1269.71157673008
 23
1318.2445598525139
 33
0.0
  0
INSERT
  5
1EF4
  8
0
  2
*U30
 10
0.0
 20
0.0
 30
0.0
  0
LINE
  5
1EF5
  8
UMCL2
  6
CONTINUOUS
 10
1335.8059264391491
 20
1229.8257743966981
 30
0.0
 11
1335.8059264391491
 21
1242.625774396698
 31
0.0
  0
LINE
  5
1EF6
  8
UMCL2
  6
CONTINUOUS
 10
1369.80592643915
 20
1232.273875125826
 30
0.0
 11
1369.80592643915
 21
1242.625774396698
 31
0.0
  0
LINE
  5
1EF7
  8
UMCL2
  6
CONTINUOUS
 10
1338.3059264391491
 20
1241.625774396698
 30
0.0
 11
1367.3059264391491
 21
1241.625774396698
 31
0.0
  0
SOLID
  5
1EF8
  8
UMCL2
  6
CONTINUOUS
 10
1338.3059264391491
 20
1242.0424410633641
 30
0.0
 11
1338.3059264391491
 21
1241.2091077300311
 31
0.0
 12
1335.8059264391491
 22
1241.625774396698
 32
0.0
 13
1335.8059264391491
 23
1241.625774396698
 33
0.0
  0
SOLID
  5
1EF9
  8
UMCL2
  6
CONTINUOUS
 10
1367.3059264391491
 20
1242.0424410633641
 30
0.0
 11
1367.3059264391491
 21
1241.2091077300311
 31
0.0
 12
1369.80592643915
 22
1241.625774396698
 32
0.0
 13
1369.80592643915
 23
1241.625774396698
 33
0.0
  0
INSERT
  5
1EFA
  8
0
  2
*U31
 10
0.0
 20
0.0
 30
0.0
  0
LINE
  5
1EFB
  8
UMCL2
  6
CONTINUOUS
 10
1335.8059264391491
 20
1229.8257743966981
 30
0.0
 11
1335.8059264391491
 21
1242.625774396698
 31
0.0
  0
LINE
  5
1EFC
  8
UMCL2
  6
CONTINUOUS
 10
1309.8059264391491
 20
1236.625774396698
 30
0.0
 11
1309.8059264391491
 21
1242.625774396698
 31
0.0
  0
LINE
  5
1EFD
  8
UMCL2
  6
CONTINUOUS
 10
1333.3059264391491
 20
1241.625774396698
 30
0.0
 11
1312.3059264391491
 21
1241.625774396698
 31
0.0
  0
SOLID
  5
1EFE
  8
UMCL2
  6
CONTINUOUS
 10
1333.3059264391491
 20
1242.0424410633641
 30
0.0
 11
1333.3059264391491
 21
1241.2091077300311
 31
0.0
 12
1335.8059264391491
 22
1241.625774396698
 32
0.0
 13
1335.8059264391491
 23
1241.625774396698
 33
0.0
  0
SOLID
  5
1EFF
  8
UMCL2
  6
CONTINUOUS
 10
1312.3059264391491
 20
1242.0424410633641
 30
0.0
 11
1312.3059264391491
 21
1241.2091077300311
 31
0.0
 12
1309.8059264391491
 22
1241.625774396698
 32
0.0
 13
1309.8059264391491
 23
1241.625774396698
 33
0.0
  0
INSERT
  5
1F00
  8
0
  2
*U32
 10
0.0
 20
0.0
 30
0.0
  0
LINE
  5
1F01
  8
UMCL2
  6
CONTINUOUS
 10
1309.8059264391491
 20
1236.625774396698
 30
0.0
 11
1309.8059264391491
 21
1250.625774396698
 31
0.0
  0
LINE
  5
1F02
  8
UMCL2
  6
CONTINUOUS
 10
1375.8059264391491
 20
1225.425774396698
 30
0.0
 11
1375.8059264391491
 21
1250.625774396698
 31
0.0
  0
LINE
  5
1F03
  8
UMCL2
  6
CONTINUOUS
 10
1312.3059264391491
 20
1249.625774396698
 30
0.0
 11
1373.3059264391491
 21
1249.625774396698
 31
0.0
  0
SOLID
  5
1F04
  8
UMCL2
  6
CONTINUOUS
 10
1312.3059264391491
 20
1250.0424410633641
 30
0.0
 11
1312.3059264391491
 21
1249.2091077300311
 31
0.0
 12
1309.8059264391491
 22
1249.625774396698
 32
0.0
 13
1309.8059264391491
 23
1249.625774396698
 33
0.0
  0
SOLID
  5
1F05
  8
UMCL2
  6
CONTINUOUS
 10
1373.3059264391491
 20
1250.0424410633641
 30
0.0
 11
1373.3059264391491
 21
1249.2091077300311
 31
0.0
 12
1375.8059264391491
 22
1249.625774396698
 32
0.0
 13
1375.8059264391491
 23
1249.625774396698
 33
0.0
  0
INSERT
  5
1F06
  8
0
  2
*U33
 10
0.0
 20
0.0
 30
0.0
  0
LINE
  5
1F07
  8
UMCL2
  6
CONTINUOUS
 10
1375.8059264391491
 20
1225.425774396698
 30
0.0
 11
1375.8059264391491
 21
1258.625774396698
 31
0.0
  0
LINE
  5
1F08
  8
UMCL2
  6
CONTINUOUS
 10
1298.8059264391491
 20
1234.625774396698
 30
0.0
 11
1298.8059264391491
 21
1258.625774396698
 31
0.0
  0
LINE
  5
1F09
  8
UMCL2
  6
CONTINUOUS
 10
1373.3059264391491
 20
1257.625774396698
 30
0.0
 11
1301.3059264391491
 21
1257.625774396698
 31
0.0
  0
SOLID
  5
1F0A
  8
UMCL2
  6
CONTINUOUS
 10
1373.3059264391491
 20
1258.0424410633641
 30
0.0
 11
1373.3059264391491
 21
1257.2091077300311
 31
0.0
 12
1375.8059264391491
 22
1257.625774396698
 32
0.0
 13
1375.8059264391491
 23
1257.625774396698
 33
0.0
  0
SOLID
  5
1F0B
  8
UMCL2
  6
CONTINUOUS
 10
1301.3059264391491
 20
1258.0424410633641
 30
0.0
 11
1301.3059264391491
 21
1257.2091077300311
 31
0.0
 12
1298.8059264391491
 22
1257.625774396698
 32
0.0
 13
1298.8059264391491
 23
1257.625774396698
 33
0.0
  0
INSERT
  5
1F0C
  8
0
  2
*U34
 10
0.0
 20
0.0
 30
0.0
  0
LINE
  5
1F0D
  8
UMCL2
  6
CONTINUOUS
 10
1343.105926439149
 20
1222.5257743966979
 30
0.0
 11
1355.15060191015
 21
1222.5257743966979
 31
0.0
  0
LINE
  5
1F0E
  8
UMCL2
  6
CONTINUOUS
 10
1343.105926439149
 20
1193.5257743966979
 30
0.0
 11
1355.15060191015
 21
1193.5257743966979
 31
0.0
  0
LINE
  5
1F0F
  8
UMCL2
  6
CONTINUOUS
 10
1354.15060191015
 20
1220.0257743966979
 30
0.0
 11
1354.15060191015
 21
1196.0257743966979
 31
0.0
  0
SOLID
  5
1F10
  8
UMCL2
  6
CONTINUOUS
 10
1353.733935243484
 20
1220.0257743966979
 30
0.0
 11
1354.567268576817
 21
1220.0257743966979
 31
0.0
 12
1354.15060191015
 22
1222.5257743966979
 32
0.0
 13
1354.15060191015
 23
1222.5257743966979
 33
0.0
  0
SOLID
  5
1F11
  8
UMCL2
  6
CONTINUOUS
 10
1353.733935243484
 20
1196.0257743966979
 30
0.0
 11
1354.567268576817
 21
1196.0257743966979
 31
0.0
 12
1354.15060191015
 22
1193.5257743966979
 32
0.0
 13
1354.15060191015
 23
1193.5257743966979
 33
0.0
  0
INSERT
  5
1F12
  8
0
  2
*U35
 10
0.0
 20
0.0
 30
0.0
  0
LINE
  5
1F13
  8
UMCL2
  6
CONTINUOUS
 10
1345.8059264391491
 20
1180.425774396698
 30
0.0
 11
1345.8059264391491
 21
1189.0152816995569
 31
0.0
  0
LINE
  5
1F14
  8
UMCL2
  6
CONTINUOUS
 10
1375.8059264391491
 20
1210.4257743966971
 30
0.0
 11
1375.8059264391491
 21
1187.0152816995569
 31
0.0
  0
LINE
  5
1F15
  8
UMCL2
  6
CONTINUOUS
 10
1348.3059264391491
 20
1188.0152816995569
 30
0.0
 11
1373.3059264391491
 21
1188.0152816995569
 31
0.0
  0
SOLID
  5
1F16
  8
UMCL2
  6
CONTINUOUS
 10
1348.3059264391491
 20
1188.4319483662241
 30
0.0
 11
1348.3059264391491
 21
1187.5986150328899
 31
0.0
 12
1345.8059264391491
 22
1188.0152816995569
 32
0.0
 13
1345.8059264391491
 23
1188.0152816995569
 33
0.0
  0
SOLID
  5
1F17
  8
UMCL2
  6
CONTINUOUS
 10
1373.3059264391491
 20
1188.4319483662241
 30
0.0
 11
1373.3059264391491
 21
1187.5986150328899
 31
0.0
 12
1375.8059264391491
 22
1188.0152816995569
 32
0.0
 13
1375.8059264391491
 23
1188.0152816995569
 33
0.0
  0
INSERT
  5
1F18
  8
0
  2
*U36
 10
0.0
 20
0.0
 30
0.0
  0
LINE
  5
1F19
  8
UMCL2
  6
CONTINUOUS
 10
1344.8059264391491
 20
1089.425774396698
 30
0.0
 11
1384.80592643915
 21
1089.425774396698
 31
0.0
  0
LINE
  5
1F1A
  8
UMCL2
  6
CONTINUOUS
 10
1346.8059264391491
 20
1179.425774396698
 30
0.0
 11
1384.80592643915
 21
1179.425774396698
 31
0.0
  0
LINE
  5
1F1B
  8
UMCL2
  6
CONTINUOUS
 10
1383.80592643915
 20
1091.925774396698
 30
0.0
 11
1383.80592643915
 21
1176.925774396698
 31
0.0
  0
SOLID
  5
1F1C
  8
UMCL2
  6
CONTINUOUS
 10
1383.389259772483
 20
1091.925774396698
 30
0.0
 11
1384.222593105816
 21
1091.925774396698
 31
0.0
 12
1383.80592643915
 22
1089.425774396698
 32
0.0
 13
1383.80592643915
 23
1089.425774396698
 33
0.0
  0
SOLID
  5
1F1D
  8
UMCL2
  6
CONTINUOUS
 10
1383.389259772483
 20
1176.925774396698
 30
0.0
 11
1384.222593105816
 21
1176.925774396698
 31
0.0
 12
1383.80592643915
 22
1179.425774396698
 32
0.0
 13
1383.80592643915
 23
1179.425774396698
 33
0.0
  0
INSERT
  5
1F1E
  8
0
  2
*U37
 10
0.0
 20
0.0
 30
0.0
  0
LINE
  5
1F1F
  8
UMCL2
  6
CONTINUOUS
 10
1376.8059264391491
 20
1224.425774396698
 30
0.0
 11
1384.80592643915
 21
1224.425774396698
 31
0.0
  0
LINE
  5
1F20
  8
UMCL2
  6
CONTINUOUS
 10
1376.8059264391491
 20
1211.425774396698
 30
0.0
 11
1384.80592643915
 21
1211.425774396698
 31
0.0
  0
LINE
  5
1F21
  8
UMCL2
  6
CONTINUOUS
 10
1383.80592643915
 20
1221.925774396698
 30
0.0
 11
1383.80592643915
 21
1213.925774396698
 31
0.0
  0
SOLID
  5
1F22
  8
UMCL2
  6
CONTINUOUS
 10
1383.389259772483
 20
1221.925774396698
 30
0.0
 11
1384.222593105816
 21
1221.925774396698
 31
0.0
 12
1383.80592643915
 22
1224.425774396698
 32
0.0
 13
1383.80592643915
 23
1224.425774396698
 33
0.0
  0
SOLID
  5
1F23
  8
UMCL2
  6
CONTINUOUS
 10
1383.389259772483
 20
1213.925774396698
 30
0.0
 11
1384.222593105816
 21
1213.925774396698
 31
0.0
 12
1383.80592643915
 22
1211.425774396698
 32
0.0
 13
1383.80592643915
 23
1211.425774396698
 33
0.0
  0
INSERT
  5
1F24
  8
0
  2
*U38
 10
0.0
 20
0.0
 30
0.0
  0
LINE
  5
1F25
  8
UMCL2
  6
CONTINUOUS
 10
1344.8059264391491
 20
1089.425774396698
 30
0.0
 11
1392.80592643915
 21
1089.425774396698
 31
0.0
  0
LINE
  5
1F26
  8
UMCL2
  6
CONTINUOUS
 10
1376.8059264391491
 20
1211.425774396698
 30
0.0
 11
1392.80592643915
 21
1211.425774396698
 31
0.0
  0
LINE
  5
1F27
  8
UMCL2
  6
CONTINUOUS
 10
1391.80592643915
 20
1091.925774396698
 30
0.0
 11
1391.80592643915
 21
1208.925774396698
 31
0.0
  0
SOLID
  5
1F28
  8
UMCL2
  6
CONTINUOUS
 10
1391.389259772483
 20
1091.925774396698
 30
0.0
 11
1392.222593105816
 21
1091.925774396698
 31
0.0
 12
1391.80592643915
 22
1089.425774396698
 32
0.0
 13
1391.80592643915
 23
1089.425774396698
 33
0.0
  0
SOLID
  5
1F29
  8
UMCL2
  6
CONTINUOUS
 10
1391.389259772483
 20
1208.925774396698
 30
0.0
 11
1392.222593105816
 21
1208.925774396698
 31
0.0
 12
1391.80592643915
 22
1211.425774396698
 32
0.0
 13
1391.80592643915
 23
1211.425774396698
 33
0.0
  0
INSERT
  5
1F2A
  8
0
  2
*U39
 10
0.0
 20
0.0
 30
0.0
  0
LINE
  5
1F2B
  8
UMCL2
  6
CONTINUOUS
 10
1376.8059264391491
 20
1211.425774396698
 30
0.0
 11
1392.80592643915
 21
1211.425774396698
 31
0.0
  0
LINE
  5
1F2C
  8
UMCL2
  6
CONTINUOUS
 10
1359.638492724333
 20
1233.625774396698
 30
0.0
 11
1392.80592643915
 21
1233.625774396698
 31
0.0
  0
LINE
  5
1F2D
  8
UMCL2
  6
CONTINUOUS
 10
1391.80592643915
 20
1213.925774396698
 30
0.0
 11
1391.80592643915
 21
1231.125774396698
 31
0.0
  0
SOLID
  5
1F2E
  8
UMCL2
  6
CONTINUOUS
 10
1391.389259772483
 20
1213.925774396698
 30
0.0
 11
1392.222593105816
 21
1213.925774396698
 31
0.0
 12
1391.80592643915
 22
1211.425774396698
 32
0.0
 13
1391.80592643915
 23
1211.425774396698
 33
0.0
  0
SOLID
  5
1F2F
  8
UMCL2
  6
CONTINUOUS
 10
1391.389259772483
 20
1231.125774396698
 30
0.0
 11
1392.222593105816
 21
1231.125774396698
 31
0.0
 12
1391.80592643915
 22
1233.625774396698
 32
0.0
 13
1391.80592643915
 23
1233.625774396698
 33
0.0
  0
INSERT
  5
1F30
  8
0
  2
*U40
 10
0.0
 20
0.0
 30
0.0
  0
ARC
  5
1F31
  8
UMCL2
  6
CONTINUOUS
 10
1358.638492724333
 20
1302.144559852514
 30
0.0
 40
11.14590015724513
 50
334.2431886995127
 51
347.12159434975638
  0
ARC
  5
1F32
  8
UMCL2
  6
CONTINUOUS
 10
1358.638492724333
 20
1302.144559852514
 30
0.0
 40
11.14590015724513
 50
27.878405650248009
 51
40.756811300493567
  0
ARC
  5
1F33
  8
UMCL2
  6
CONTINUOUS
 10
1358.638492724333
 20
1302.144559852514
 30
0.0
 40
11.14590015724513
 50
0.0
 51
15.000000000000741
  0
SOLID
  5
1F34
  8
UMCL2
  6
CONTINUOUS
 10
1369.089982640143
 20
1299.707060000678
 30
0.0
 11
1369.9180588213569
 21
1299.6136026170691
 31
0.0
 12
1369.784392881578
 22
1302.144559852514
 32
0.0
 13
1369.784392881578
 23
1302.144559852514
 33
0.0
  0
SOLID
  5
1F35
  8
UMCL2
  6
CONTINUOUS
 10
1368.8786569919091
 20
1307.5086433378669
 30
0.0
 11
1368.1029853731241
 21
1307.204048550888
 31
0.0
 12
1369.4046055434551
 22
1305.0293310880199
 32
0.0
 13
1369.4046055434551
 23
1305.0293310880199
 33
0.0
  0
INSERT
  5
1F36
  8
0
  2
*U41
 10
0.0
 20
0.0
 30
0.0
  0
LINE
  5
1F37
  8
UMCL2
  6
CONTINUOUS
 10
1344.8059264391491
 20
1089.425774396698
 30
0.0
 11
1400.80592643915
 21
1089.425774396698
 31
0.0
  0
LINE
  5
1F38
  8
UMCL2
  6
CONTINUOUS
 10
1359.638492724333
 20
1233.625774396698
 30
0.0
 11
1400.80592643915
 21
1233.625774396698
 31
0.0
  0
LINE
  5
1F39
  8
UMCL2
  6
CONTINUOUS
 10
1399.80592643915
 20
1091.925774396698
 30
0.0
 11
1399.80592643915
 21
1231.125774396698
 31
0.0
  0
SOLID
  5
1F3A
  8
UMCL2
  6
CONTINUOUS
 10
1399.389259772483
 20
1091.925774396698
 30
0.0
 11
1400.222593105816
 21
1091.925774396698
 31
0.0
 12
1399.80592643915
 22
1089.425774396698
 32
0.0
 13
1399.80592643915
 23
1089.425774396698
 33
0.0
  0
SOLID
  5
1F3B
  8
UMCL2
  6
CONTINUOUS
 10
1399.389259772483
 20
1231.125774396698
 30
0.0
 11
1400.222593105816
 21
1231.125774396698
 31
0.0
 12
1399.80592643915
 22
1233.625774396698
 32
0.0
 13
1399.80592643915
 23
1233.625774396698
 33
0.0
  0
INSERT
  5
1F3C
  8
0
  2
*U42
 10
0.0
 20
0.0
 30
0.0
  0
LINE
  5
1F3D
  8
UMCL2
  6
CONTINUOUS
 10
1258.410919122432
 20
1267.5935531379171
 30
0.0
 11
1284.51993594897
 21
1267.5935531379171
 31
0.0
  0
TEXT
  5
1F3E
  8
UMCL2
  6
CONTINUOUS
 10
1266.103186945857
 20
1268.7858078338861
 30
0.0
 40
3.0
  1
P-08
  7
ROMANSS
 72
     2
 11
1277.6746155172859
 21
1270.2858078338861
 31
0.0
 73
     2
  0
LINE
  5
1F3F
  8
UMCL2
 10
1284.51993594897
 20
1267.5935531379171
 30
0.0
 11
1293.8902306844991
 21
1282.58100774427
 31
0.0
  0
SOLID
  5
1F40
  8
UMCL2
  6
CONTINUOUS
 10
1291.8477100308071
 20
1280.3709262015459
 30
0.0
 11
1292.6836967405591
 21
1279.8221765125991
 31
0.0
 12
1293.9119524525249
 22
1282.6045114863259
 32
0.0
 13
1293.9119524525249
 23
1282.6045114863259
 33
0.0
  0
LINE
  5
1F41
  8
UMCL2
  6
CONTINUOUS
 10
1311.6216722115159
 20
1224.244223491123
 30
0.0
 11
1307.990180666782
 21
1220.8073253022731
 31
0.0
  0
INSERT
  5
1F42
  8
0
  2
*U43
 10
0.0
 20
0.0
 30
0.0
  0
SOLID
  5
1F43
  8
UMCL2
  6
CONTINUOUS
 10
1311.3352640291121
 20
1224.5468477865179
 30
0.0
 11
1311.90808039392
 21
1223.9415991957289
 31
0.0
 12
1313.4374179838831
 22
1225.9626725855489
 32
0.0
 13
1313.4374179838831
 23
1225.9626725855489
 33
0.0
  0
SOLID
  5
1F44
  8
UMCL2
  6
CONTINUOUS
 10
1307.7037724843781
 20
1221.1099495976671
 30
0.0
 11
1308.2765888491861
 21
1220.5047010068779
 31
0.0
 12
1306.1744348944151
 22
1219.0888762078471
 32
0.0
 13
1306.1744348944151
 23
1219.0888762078471
 33
0.0
  0
LINE
  5
1F45
  8
UMCL2
  6
CONTINUOUS
 10
1313.4374179838831
 20
1225.9626725855489
 30
0.0
 11
1294.4297612862911
 21
1208.0145322814519
 31
0.0
  0
LINE
  5
1F46
  8
UMCL1
  6
HIDDEN
 62
     6
 10
1315.8059264391491
 20
1237.625774396698
 30
0.0
 11
1303.8059264391491
 21
1237.625774396698
 31
0.0
  0
LINE
  5
1F47
  8
UMCL1
  6
HIDDEN
 62
     6
 10
1299.8059264391491
 20
1233.625774396698
 30
0.0
 11
1303.8059264391491
 21
1237.625774396698
 31
0.0
  0
LINE
  5
1F48
  8
UMCL1
  6
HIDDEN
 62
     6
 10
1315.8059264391491
 20
1237.625774396698
 30
0.0
 11
1319.8059264391491
 21
1233.625774396698
 31
0.0
  0
LINE
  5
1F49
  8
UMCL2
  6
CONTINUOUS
 10
1297.8059264391491
 20
1233.625774396698
 30
0.0
 11
1288.2036760839489
 21
1233.625774396698
 31
0.0
  0
LINE
  5
1F4A
  8
UMCL2
  6
CONTINUOUS
 10
1302.8059264391491
 20
1237.625774396698
 30
0.0
 11
1288.2036760839489
 21
1237.625774396698
 31
0.0
  0
LINE
  5
1F4B
  8
UMCL2
  6
CONTINUOUS
 10
1289.2036760839489
 20
1231.125774396698
 30
0.0
 11
1289.2036760839489
 21
1228.625774396698
 31
0.0
  0
LINE
  5
1F4C
  8
UMCL2
  6
CONTINUOUS
 10
1289.2036760839489
 20
1240.125774396698
 30
0.0
 11
1289.2036760839489
 21
1242.625774396698
 31
0.0
  0
INSERT
  5
1F4D
  8
0
  2
*U44
 10
0.0
 20
0.0
 30
0.0
  0
LINE
  5
1F4E
  8
UMCL2
  6
CONTINUOUS
 10
1289.2036760839489
 20
1233.625774396698
 30
0.0
 11
1289.2036760839489
 21
1237.625774396698
 31
0.0
  0
SOLID
  5
1F4F
  8
UMCL2
  6
CONTINUOUS
 10
1288.787009417282
 20
1231.125774396698
 30
0.0
 11
1289.620342750615
 21
1231.125774396698
 31
0.0
 12
1289.2036760839489
 22
1233.625774396698
 32
0.0
 13
1289.2036760839489
 23
1233.625774396698
 33
0.0
  0
SOLID
  5
1F50
  8
UMCL2
  6
CONTINUOUS
 10
1288.787009417282
 20
1240.125774396698
 30
0.0
 11
1289.620342750615
 21
1240.125774396698
 31
0.0
 12
1289.2036760839489
 22
1237.625774396698
 32
0.0
 13
1289.2036760839489
 23
1237.625774396698
 33
0.0
  0
TEXT
  5
1F51
  8
UMCL2
 10
1280.349140832674
 20
1218.7686315395549
 30
0.0
 40
3.0
  1
Raise clearnce
 50
90.0
  0
LINE
  5
1F52
  8
UMCL2
 10
1280.8778348018759
 20
1218.9100397606501
 30
0.0
 11
1280.8778348018759
 21
1252.0413944672291
 31
0.0
  0
LINE
  5
1F53
  8
UMCL2
 10
1281.8778348018759
 20
1218.9100397606501
 30
0.0
 11
1281.8778348018759
 21
1252.0413944672291
 31
0.0
  0
TEXT
  5
1F54
  8
UMCL2
  6
CONTINUOUS
 10
1412.7145330838371
 20
1100.512625725404
 30
0.0
 40
3.0
  1
A
  7
ROMANS
  0
CIRCLE
  5
1F55
  8
UMCL2
  6
CONTINUOUS
 10
1414.147165429988
 20
1101.7597259797481
 30
0.0
 40
2.5
  0
TEXT
  5
1F56
  8
UMCL2
  6
CONTINUOUS
 10
1412.7145330838371
 20
1093.8471848198219
 30
0.0
 40
3.0
  1
B
  7
ROMANS
  0
CIRCLE
  5
1F57
  8
UMCL2
  6
CONTINUOUS
 10
1414.147165429988
 20
1095.0942850741651
 30
0.0
 40
2.5
  0
TEXT
  5
1F58
  8
UMCL2
  6
CONTINUOUS
 10
1419.6804190379371
 20
1101.1430877032419
 30
0.0
 40
3.0
  1
Clamping port
  7
ROMANSS
 72
     2
 11
1451.251847609366
 21
1102.6430877032419
 31
0.0
 73
     2
  0
TEXT
  5
1F59
  8
UMCL2
  6
CONTINUOUS
 10
1419.5377289069829
 20
1093.5777833283821
 30
0.0
 40
3.0
  1
Unclamping port
  7
ROMANSS
 72
     2
 11
1456.5377289069829
 21
1095.0777833283821
 31
0.0
 73
     2
  0
LINE
  5
1F5A
  8
UMCL2
 10
1409.774974291995
 20
1106.463397731957
 30
0.0
 11
1458.7804763537231
 21
1106.463397731957
 31
0.0
  0
LINE
  5
1F5B
  8
UMCL2
 10
1458.7804763537231
 20
1106.463397731957
 30
0.0
 11
1458.7804763537231
 21
1090.662513545816
 31
0.0
  0
LINE
  5
1F5C
  8
UMCL2
 10
1458.7804763537231
 20
1090.662513545816
 30
0.0
 11
1409.774974291995
 21
1090.662513545816
 31
0.0
  0
LINE
  5
1F5D
  8
UMCL2
 10
1409.774974291995
 20
1090.662513545816
 30
0.0
 11
1409.774974291995
 21
1106.463397731957
 31
0.0
  0
CIRCLE
  5
1F5E
  8
UMCL1
  6
HIDDEN
 62
     3
 10
1296.8059264391491
 20
1287.2445598525151
 30
0.0
 40
2.5
  0
CIRCLE
  5
1F5F
  8
UMCL1
  6
HIDDEN
 62
     3
 10
1296.8059264391491
 20
1287.2445598525151
 30
0.0
 40
5.5
  0
CIRCLE
  5
1F60
  8
UMCL1
  6
HIDDEN
 62
     3
 10
1322.8059264391491
 20
1287.2445598525151
 30
0.0
 40
2.5
  0
CIRCLE
  5
1F61
  8
UMCL1
  6
HIDDEN
 62
     3
 10
1322.8059264391491
 20
1287.2445598525151
 30
0.0
 40
5.5
  0
LINE
  5
1F62
  8
UMCL1
  6
CENTER
 62
     1
 10
1316.5059264391491
 20
1287.2445598525151
 30
0.0
 11
1321.2059264391501
 21
1287.2445598525151
 31
0.0
  0
LINE
  5
1F63
  8
UMCL1
  6
CENTER
 62
     1
 10
1322.0059264391491
 20
1287.2445598525151
 30
0.0
 11
1323.605926439149
 21
1287.2445598525151
 31
0.0
  0
LINE
  5
1F64
  8
UMCL1
  6
CENTER
 62
     1
 10
1324.405926439149
 20
1287.2445598525151
 30
0.0
 11
1329.105926439149
 21
1287.2445598525151
 31
0.0
  0
LINE
  5
1F65
  8
UMCL1
  6
CENTER
 62
     1
 10
1322.8059264391491
 20
1280.9445598525151
 30
0.0
 11
1322.8059264391491
 21
1285.6445598525149
 31
0.0
  0
LINE
  5
1F66
  8
UMCL1
  6
CENTER
 62
     1
 10
1322.8059264391491
 20
1286.4445598525151
 30
0.0
 11
1322.8059264391491
 21
1288.0445598525141
 31
0.0
  0
LINE
  5
1F67
  8
UMCL1
  6
CENTER
 62
     1
 10
1322.8059264391491
 20
1288.844559852515
 30
0.0
 11
1322.8059264391491
 21
1293.544559852515
 31
0.0
  0
LINE
  5
1F68
  8
UMCL1
  6
CENTER
 62
     1
 10
1290.50592643915
 20
1287.2445598525151
 30
0.0
 11
1295.2059264391489
 21
1287.2445598525151
 31
0.0
  0
LINE
  5
1F69
  8
UMCL1
  6
CENTER
 62
     1
 10
1296.00592643915
 20
1287.2445598525151
 30
0.0
 11
1297.605926439149
 21
1287.2445598525151
 31
0.0
  0
LINE
  5
1F6A
  8
UMCL1
  6
CENTER
 62
     1
 10
1298.405926439149
 20
1287.2445598525151
 30
0.0
 11
1303.1059264391499
 21
1287.2445598525151
 31
0.0
  0
LINE
  5
1F6B
  8
UMCL1
  6
CENTER
 62
     1
 10
1296.8059264391491
 20
1280.9445598525151
 30
0.0
 11
1296.8059264391491
 21
1285.6445598525149
 31
0.0
  0
LINE
  5
1F6C
  8
UMCL1
  6
CENTER
 62
     1
 10
1296.8059264391491
 20
1286.4445598525151
 30
0.0
 11
1296.8059264391491
 21
1288.044559852515
 31
0.0
  0
LINE
  5
1F6D
  8
UMCL1
  6
CENTER
 62
     1
 10
1296.8059264391491
 20
1288.844559852515
 30
0.0
 11
1296.8059264391491
 21
1293.544559852515
 31
0.0
  0
LINE
  5
1F6E
  8
UMCL2
  6
CONTINUOUS
 10
1272.3059264391491
 20
1313.2445598525139
 30
0.0
 11
1270.933678778302
 21
1313.2445598525139
 31
0.0
  0
LINE
  5
1F6F
  8
UMCL2
  6
CONTINUOUS
 10
1265.1595636822351
 20
1313.2445598525139
 30
0.0
 11
1262.1178205742401
 21
1313.2445598525139
 31
0.0
  0
LINE
  5
1F70
  8
UMCL2
  6
CONTINUOUS
 10
1274.50592643915
 20
1287.2445598525151
 30
0.0
 11
1262.1178205742401
 21
1287.2445598525151
 31
0.0
  0
LINE
  5
1F71
  8
UMCL2
  6
CONTINUOUS
 10
1263.1178205742401
 20
1310.7445598525139
 30
0.0
 11
1263.1178205742401
 21
1289.7445598525151
 31
0.0
  0
SOLID
  5
1F72
  8
UMCL2
  6
CONTINUOUS
 10
1262.7011539075729
 20
1310.7445598525139
 30
0.0
 11
1263.5344872409059
 21
1310.7445598525139
 31
0.0
 12
1263.1178205742401
 22
1313.2445598525139
 32
0.0
 13
1263.1178205742401
 23
1313.2445598525139
 33
0.0
  0
SOLID
  5
1F73
  8
UMCL2
  6
CONTINUOUS
 10
1262.7011539075729
 20
1289.7445598525151
 30
0.0
 11
1263.5344872409059
 21
1289.7445598525151
 31
0.0
 12
1263.1178205742401
 22
1287.2445598525151
 32
0.0
 13
1263.1178205742401
 23
1287.2445598525151
 33
0.0
  0
INSERT
  5
1F74
  8
0
  2
*U45
 10
0.0
 20
0.0
 30
0.0
  0
TEXT
  5
1F75
  8
UMCL2
  6
CONTINUOUS
 10
1263.4041906511441
 20
1263.4080485679469
 30
0.0
 40
3.0
  1
O-Ring
  7
ROMANSS
 72
     2
 11
1278.8327620797149
 21
1264.9080485679469
 31
0.0
 73
     2
  0
LINE
  5
1F76
  8
UMCL1
  6
HIDDEN
 62
     3
 10
1291.3059264391491
 20
1089.425774396698
 30
0.0
 11
1291.3059264391491
 21
1090.8257743966981
 31
0.0
  0
LINE
  5
1F77
  8
UMCL1
  6
HIDDEN
 62
     3
 10
1291.3059264391491
 20
1090.8257743966981
 30
0.0
 11
1302.3059264391491
 21
1090.8257743966981
 31
0.0
  0
LINE
  5
1F78
  8
UMCL1
  6
HIDDEN
 62
     3
 10
1302.3059264391491
 20
1090.8257743966981
 30
0.0
 11
1302.3059264391491
 21
1089.425774396698
 31
0.0
  0
LINE
  5
1F79
  8
UMCL1
  6
HIDDEN
 62
     3
 10
1317.3059264391491
 20
1089.425774396698
 30
0.0
 11
1317.3059264391491
 21
1090.8257743966981
 31
0.0
  0
LINE
  5
1F7A
  8
UMCL1
  6
HIDDEN
 62
     3
 10
1317.3059264391491
 20
1090.8257743966981
 30
0.0
 11
1328.3059264391491
 21
1090.8257743966981
 31
0.0
  0
LINE
  5
1F7B
  8
UMCL1
  6
HIDDEN
 62
     3
 10
1328.3059264391491
 20
1090.8257743966981
 30
0.0
 11
1328.3059264391491
 21
1089.425774396698
 31
0.0
  0
LINE
  5
1F7C
  8
UMCL1
  6
HIDDEN
 62
     3
 10
1320.3059264391491
 20
1090.8257743966981
 30
0.0
 11
1320.3059264391491
 21
1108.425774396698
 31
0.0
  0
LINE
  5
1F7D
  8
UMCL1
  6
HIDDEN
 62
     3
 10
1325.3059264391491
 20
1090.8257743966981
 30
0.0
 11
1325.3059264391491
 21
1108.425774396698
 31
0.0
  0
LINE
  5
1F7E
  8
UMCL1
  6
HIDDEN
 62
     3
 10
1294.3059264391491
 20
1090.8257743966981
 30
0.0
 11
1294.3059264391491
 21
1148.425774396698
 31
0.0
  0
LINE
  5
1F7F
  8
UMCL1
  6
HIDDEN
 62
     3
 10
1299.3059264391491
 20
1090.8257743966981
 30
0.0
 11
1299.3059264391491
 21
1148.425774396698
 31
0.0
  0
POLYLINE
  5
1F80
  8
UMCL1
  6
CONTINUOUS
 66
     1
 10
0.0
 20
0.0
 30
0.0
 70
     1
  0
VERTEX
  5
218D
  8
UMCL1
  6
CONTINUOUS
 10
1298.5379772467179
 20
1151.425774396698
 30
0.0
  0
VERTEX
  5
218E
  8
UMCL1
  6
CONTINUOUS
 10
1295.07387563158
 20
1151.425774396698
 30
0.0
  0
VERTEX
  5
218F
  8
UMCL1
  6
CONTINUOUS
 10
1293.3418248240121
 20
1148.425774396698
 30
0.0
  0
VERTEX
  5
2190
  8
UMCL1
  6
CONTINUOUS
 10
1295.07387563158
 20
1145.425774396698
 30
0.0
  0
VERTEX
  5
2191
  8
UMCL1
  6
CONTINUOUS
 10
1298.5379772467179
 20
1145.425774396698
 30
0.0
  0
VERTEX
  5
2192
  8
UMCL1
  6
CONTINUOUS
 10
1300.270028054287
 20
1148.425774396698
 30
0.0
  0
SEQEND
  5
2193
  8
UMCL1
  6
CONTINUOUS
  0
POLYLINE
  5
1F81
  8
UMCL1
  6
CONTINUOUS
 66
     1
 10
0.0
 20
0.0
 30
0.0
 70
     1
  0
VERTEX
  5
2194
  8
UMCL1
  6
CONTINUOUS
 10
1324.5379772467179
 20
1111.4257743966971
 30
0.0
  0
VERTEX
  5
2195
  8
UMCL1
  6
CONTINUOUS
 10
1321.07387563158
 20
1111.4257743966971
 30
0.0
  0
VERTEX
  5
2196
  8
UMCL1
  6
CONTINUOUS
 10
1319.3418248240121
 20
1108.425774396698
 30
0.0
  0
VERTEX
  5
2197
  8
UMCL1
  6
CONTINUOUS
 10
1321.07387563158
 20
1105.425774396698
 30
0.0
  0
VERTEX
  5
2198
  8
UMCL1
  6
CONTINUOUS
 10
1324.5379772467179
 20
1105.425774396698
 30
0.0
  0
VERTEX
  5
2199
  8
UMCL1
  6
CONTINUOUS
 10
1326.270028054287
 20
1108.425774396698
 30
0.0
  0
SEQEND
  5
219A
  8
UMCL1
  6
CONTINUOUS
  0
TEXT
  5
1F82
  8
LOGO
 62
     7
 10
1280.7477061773111
 20
1040.4309465454601
 30
0.0
 40
5.159825459012068
  1
Order example:
 41
0.8
  7
CHINESET
  0
TEXT
  5
1F83
  8
LOGO
 62
     7
 10
1281.6734215346789
 20
1047.6949124362559
 30
0.0
 40
7.7397381885181034
  1
訂購代號：
  7
CHINESET
  0
LINE
  5
1F84
  8
LOGO
 62
     4
 10
1278.505744514249
 20
1018.685493590322
 30
0.0
 11
1278.505744514249
 21
1057.384184532913
 31
0.0
  0
TEXT
  5
1F85
  8
LOGO
  6
CONTINUOUS
 10
1207.269368181109
 20
1026.287793024577
 30
0.0
 40
5.8048036413885793
  1
金器工業股份有限公司
  7
CHINESET
  0
TEXT
  5
1F86
  8
LOGO
  6
CONTINUOUS
 10
1196.6070923156451
 20
1020.481852096789
 30
0.0
 40
3.8698690942590508
  1
MINDMAN INDUSTRIAL CO., LTD.
 41
0.85
  7
CHINESET
  0
LINE
  5
1F87
  8
LOGO
 62
     4
 10
1278.505744514249
 20
1049.644446344395
 30
0.0
 11
1221.7476644651149
 21
1049.644446344395
 31
0.0
  0
LINE
  5
1F88
  8
LOGO
 62
     4
 10
1278.505744514249
 20
1041.9047081558761
 30
0.0
 11
1221.7476644651149
 21
1041.9047081558761
 31
0.0
  0
LINE
  5
1F89
  8
LOGO
 62
     4
 10
1278.505744514249
 20
1034.164969967359
 30
0.0
 11
1193.368624440549
 21
1034.164969967359
 31
0.0
  0
LINE
  5
1F8A
  8
LOGO
 62
     4
 10
1221.7476644651149
 20
1034.164969967359
 30
0.0
 11
1221.7476644651149
 21
1057.384184532913
 31
0.0
  0
TEXT
  5
1F8B
  8
LOGO
 10
1260.539133238125
 20
1036.0999045144879
 30
0.0
 40
3.8698690942590508
  1
mm
  7
CHINESET
 72
     1
 11
1265.3303997357791
 21
1038.034839061617
 31
0.0
 73
     2
  0
TEXT
  5
1F8C
  8
LOGO
 10
1258.512058950656
 20
1051.5793808915239
 30
0.0
 40
3.8698690942590508
  1
1 : 1
  7
CHINESET
 72
     1
 11
1265.3303997357791
 21
1053.5143154386531
 31
0.0
 73
     2
  0
LINE
  5
1F8D
  8
LOGO
 62
     4
 10
1252.706617219188
 20
1034.164969967359
 30
0.0
 11
1252.706617219188
 21
1057.384184532913
 31
0.0
  0
TEXT
  5
1F8E
  8
LOGO
 10
1224.938578847748
 20
1051.5812853546611
 30
253.62484520083379
 40
3.8698690942590508
  1
比例 Scale:
 41
0.9
  7
CHINESET
 72
     4
 11
1237.227140842152
 21
1053.5143154386531
 31
253.62484520083379
  0
TEXT
  5
1F8F
  8
LOGO
 10
1224.7157158508021
 20
1043.8940786076701
 30
253.62484520083379
 40
3.8698690942590508
  1
投影  View:
 41
0.9
  7
CHINESET
 72
     4
 11
1237.227140842152
 21
1045.774577250136
 31
253.62484520083379
  0
TEXT
  5
1F90
  8
LOGO
 10
1225.0940646595709
 20
1036.0999045144879
 30
253.62484520083379
 40
3.8698690942590508
  1
單位  Unit:
 41
0.9
  7
CHINESET
 72
     4
 11
1237.227140842152
 21
1038.034839061617
 31
253.62484520083379
  0
POLYLINE
  5
1F91
  8
LOGO
 62
     4
 66
     1
 10
0.0
 20
0.0
 30
0.0
 70
     1
1001
GENIUS_GENREC_14
1002
{
1000
PYDIR
1011
1193.368624440549
1021
0.0
1031
0.0
1021
1372.236759119927
1031
0.0
1002
}
1002
{
1000
PXDIR
1011
1760.961926630489
1021
0.0
1031
0.0
1021
1057.384184532913
1031
0.0
1002
}
1002
{
1000
PORI
1011
1193.368624440549
1021
0.0
1031
0.0
1021
1057.384184532913
1031
0.0
1002
}
1002
{
1000
PINS
1011
1193.368624440549
1021
0.0
1031
0.0
1021
1057.384184532913
1031
0.0
1002
}
1002
{
1000
PINS2
1011
1760.961926630489
1021
0.0
1031
0.0
1021
1372.236759119927
1031
0.0
1002
}
1002
{
1000
C
1070
     1
1002
}
1001
GENIUS_GENODEF_13
1002
{
1000
HIER
1070
     0
1002
}
1002
{
1000
MANEDIT
1070
     0
1002
}
1002
{
1000
NOSEL
1070
     0
1002
}
1002
{
1000
BEHIND
1070
     0
1002
}
1002
{
1000
OTHER
1070
     0
1002
}
1002
{
1000
REACTOR
1002
}
1001
GENIUS_GENOBJ-N-REC_13
1002
{
1000
OWNER
1000
GEN
1002
}
  0
VERTEX
  5
219B
  8
LOGO
 62
     4
 10
1193.368624440549
 20
1057.384184532913
 30
0.0
  0
VERTEX
  5
219C
  8
LOGO
 62
     4
 10
1760.961926630489
 20
1057.384184532913
 30
0.0
  0
VERTEX
  5
219D
  8
LOGO
 62
     4
 10
1760.961926630489
 20
1372.236759119927
 30
0.0
  0
VERTEX
  5
219E
  8
LOGO
 62
     4
 10
1193.368624440549
 20
1372.236759119927
 30
0.0
  0
SEQEND
  5
219F
  8
LOGO
 62
     4
  0
SOLID
  5
1F92
  8
LOGO
 62
     5
 10
1197.383675732518
 20
1040.598076504074
 30
0.0
 11
1199.0569055835099
 21
1040.598076504074
 31
0.0
 12
1206.038312892824
 22
1056.46491129797
 32
0.0
 13
1207.711542743818
 23
1056.4649112979689
 33
0.0
  0
SOLID
  5
1F93
  8
LOGO
 62
     5
 10
1199.749276556337
 20
1040.598076504074
 30
0.0
 11
1201.4225064073289
 21
1040.598076504074
 31
0.0
 12
1207.711542743818
 22
1055.1955645144569
 32
0.0
 13
1206.038312892824
 23
1049.060388394151
 33
0.0
  0
SOLID
  5
1F94
  8
LOGO
 62
     2
 10
1199.0569055835099
 20
1040.598076504074
 30
0.0
 11
1199.749276556337
 21
1040.598076504074
 31
0.0
 12
1207.711542743818
 22
1056.4649112979689
 32
0.0
 13
1208.403913716643
 23
1056.4649112979689
 33
0.0
  0
SOLID
  5
1F95
  8
LOGO
 62
     5
 10
1194.7010779551549
 20
1034.8283183972039
 30
0.0
 11
1195.278053765843
 21
1034.8283183972039
 31
0.0
 12
1196.902862556946
 22
1037.713197450639
 32
0.0
 13
1197.4798383676321
 23
1037.713197450639
 33
0.0
  0
SOLID
  5
1F96
  8
LOGO
 62
     5
 10
1196.902862556946
 20
1037.713197450639
 30
0.0
 11
1197.4798383676321
 21
1037.713197450639
 31
0.0
 12
1196.902862556946
 22
1034.8283183972039
 32
0.0
 13
1197.4798383676321
 23
1034.8283183972039
 33
0.0
  0
SOLID
  5
1F97
  8
LOGO
 62
     5
 10
1196.902862556946
 20
1034.8283183972039
 30
0.0
 11
1197.4798383676321
 21
1034.8283183972039
 31
0.0
 12
1199.104647158737
 22
1037.713197450639
 32
0.0
 13
1199.6816229694241
 23
1037.713197450639
 33
0.0
  0
SOLID
  5
1F98
  8
LOGO
 62
     5
 10
1199.104647158737
 20
1037.713197450639
 30
0.0
 11
1199.6816229694241
 21
1037.713197450639
 31
0.0
 12
1199.104647158737
 22
1034.8283183972039
 32
0.0
 13
1199.6816229694241
 23
1034.8283183972039
 33
0.0
  0
POLYLINE
  5
1F99
  8
LOGO
 62
     5
 66
     1
 10
0.0
 20
0.0
 30
0.0
 40
0.5779004514093519
 41
0.5779004514093519
  0
VERTEX
  5
1F9A
  8
LOGO
 62
     5
 10
1218.444679783682
 20
1036.5592458292649
 30
0.0
 42
1.0
  0
VERTEX
  5
1F9B
  8
LOGO
 62
     5
 10
1216.710978429453
 20
1036.5592458292649
 30
0.0
 42
1.0
  0
SEQEND
  5
1F9C
  8
LOGO
 62
     5
  0
POLYLINE
  5
1F9D
  8
LOGO
 62
     5
 66
     1
 10
0.0
 20
0.0
 30
0.0
 70
     1
  0
VERTEX
  5
1F9E
  8
LOGO
 62
     5
 10
1213.442874261696
 20
1036.2707579239211
 30
0.0
 42
1.0000000573306349
  0
VERTEX
  5
1F9F
  8
LOGO
 62
     5
 10
1215.1738016937579
 20
1036.2707579239211
 30
0.0
 42
1.0000000573306349
  0
SEQEND
  5
1FA0
  8
LOGO
 62
     5
  0
CIRCLE
  5
1FA1
  8
LOGO
 62
     5
 10
1214.3083379777279
 20
1036.2707579239211
 30
0.0
 40
0.8654637160306457
  0
POLYLINE
  5
1FA2
  8
LOGO
 62
     5
 66
     1
 10
0.0
 20
0.0
 30
0.0
 70
     1
 40
0.5779004514093519
 41
0.5779004514093519
  0
VERTEX
  5
1FA3
  8
LOGO
 62
     5
 10
1213.152537074908
 20
1036.2707579239211
 30
0.0
 42
1.0
  0
VERTEX
  5
1FA4
  8
LOGO
 62
     5
 10
1215.464138880546
 20
1036.2707579239211
 30
0.0
 42
1.0
  0
SEQEND
  5
1FA5
  8
LOGO
 62
     5
  0
LINE
  5
1FA6
  8
LOGO
 10
1218.731780727941
 20
1034.8283183972039
 30
0.0
 11
1218.731780727941
 21
1036.5592458292649
 31
0.0
  0
SOLID
  5
1FA7
  8
LOGO
 62
     5
 10
1215.1737439961789
 20
1037.713197450639
 30
0.0
 11
1215.7507198068649
 21
1037.713197450639
 31
0.0
 12
1215.1737439961789
 22
1034.8283183972039
 32
0.0
 13
1215.7507198068649
 23
1034.8283183972039
 33
0.0
  0
SOLID
  5
1FA8
  8
LOGO
 62
     5
 10
1216.4238774851931
 20
1034.8283183972039
 30
0.0
 11
1217.00085329588
 21
1034.8283183972039
 31
0.0
 12
1216.4238774851931
 22
1037.713197450639
 32
0.0
 13
1217.00085329588
 23
1037.713197450639
 33
0.0
  0
SOLID
  5
1FA9
  8
LOGO
 62
     5
 10
1218.154804917255
 20
1036.5592458292649
 30
0.0
 11
1218.731780727941
 21
1036.5592458292649
 31
0.0
 12
1218.154804917255
 22
1034.8283183972039
 32
0.0
 13
1218.731780727941
 23
1034.8283183972039
 33
0.0
  0
SOLID
  5
1FAA
  8
LOGO
 62
     5
 10
1216.366179904124
 20
1055.1955645144569
 30
0.0
 11
1214.6929500531321
 21
1049.060388394151
 31
0.0
 12
1216.366179904124
 22
1040.598076504074
 32
0.0
 13
1214.6929500531321
 23
1040.598076504074
 33
0.0
  0
SOLID
  5
1FAB
  8
LOGO
 62
     5
 10
1217.0585508769491
 20
1040.598076504074
 30
0.0
 11
1218.731780727941
 21
1040.598076504074
 31
0.0
 12
1217.0585508769491
 22
1056.4649112979689
 32
0.0
 13
1218.731780727941
 23
1056.46491129797
 33
0.0
  0
SOLID
  5
1FAC
  8
LOGO
 62
     2
 10
1216.366179904124
 20
1056.46491129797
 30
0.0
 11
1217.0585508769491
 21
1056.4649112979689
 31
0.0
 12
1216.366179904124
 22
1040.598076504074
 32
0.0
 13
1217.0585508769491
 23
1040.598076504074
 33
0.0
  0
POLYLINE
  5
1FAD
  8
LOGO
 62
     5
 66
     1
 10
0.0
 20
0.0
 30
0.0
 40
0.5779004514093519
 41
0.5779004514093519
  0
VERTEX
  5
1FAE
  8
LOGO
 62
     5
 10
1210.1746546987799
 20
1036.5592458292649
 30
0.0
 42
1.0
  0
VERTEX
  5
1FAF
  8
LOGO
 62
     5
 10
1208.440953344551
 20
1036.5592458292649
 30
0.0
 42
1.0
  0
SEQEND
  5
1FB0
  8
LOGO
 62
     5
  0
POLYLINE
  5
1FB1
  8
LOGO
 62
     5
 66
     1
 10
0.0
 20
0.0
 30
0.0
 40
0.5779004514093519
 41
0.5779004514093519
  0
VERTEX
  5
1FB2
  8
LOGO
 62
     5
 10
1211.9055821308391
 20
1036.5592458292649
 30
0.0
 42
1.0
  0
VERTEX
  5
1FB3
  8
LOGO
 62
     5
 10
1210.171880776611
 20
1036.5592458292649
 30
0.0
 42
1.0
  0
SEQEND
  5
1FB4
  8
LOGO
 62
     5
  0
POLYLINE
  5
1FB5
  8
LOGO
 62
     5
 66
     1
 10
0.0
 20
0.0
 30
0.0
 40
0.5779004514093519
 41
0.5779004514093519
  0
VERTEX
  5
1FB6
  8
LOGO
 62
     5
 10
1203.635557045937
 20
1036.5592458292649
 30
0.0
 42
1.0
  0
VERTEX
  5
1FB7
  8
LOGO
 62
     5
 10
1201.9018556917099
 20
1036.5592458292649
 30
0.0
 42
1.0
  0
SEQEND
  5
1FB8
  8
LOGO
 62
     5
  0
SOLID
  5
1FB9
  8
LOGO
 62
     5
 10
1201.61475474745
 20
1037.713197450639
 30
0.0
 11
1202.1917305581351
 21
1037.713197450639
 31
0.0
 12
1201.61475474745
 22
1034.8283183972039
 32
0.0
 13
1202.1917305581351
 23
1034.8283183972039
 33
0.0
  0
SOLID
  5
1FBA
  8
LOGO
 62
     5
 10
1203.345682179511
 20
1036.5592458292649
 30
0.0
 11
1203.9226579901981
 21
1036.5592458292649
 31
0.0
 12
1203.345682179511
 22
1034.8283183972039
 32
0.0
 13
1203.9226579901981
 23
1034.8283183972039
 33
0.0
  0
POLYLINE
  5
1FBB
  8
LOGO
 62
     5
 66
     1
 10
0.0
 20
0.0
 30
0.0
 70
     1
 40
0.5779004514093519
 41
0.5779004514093519
  0
VERTEX
  5
1FBC
  8
LOGO
 62
     5
 10
1204.882511990005
 20
1036.2707579239211
 30
0.0
 42
1.0
  0
VERTEX
  5
1FBD
  8
LOGO
 62
     5
 10
1207.1941137956439
 20
1036.2707579239211
 30
0.0
 42
1.0
  0
SEQEND
  5
1FBE
  8
LOGO
 62
     5
  0
SOLID
  5
1FBF
  8
LOGO
 62
     5
 10
1206.9037189112751
 20
1038.5786611666699
 30
0.0
 11
1207.480694721962
 21
1038.5786611666699
 31
0.0
 12
1206.9037189112751
 22
1034.8283183972039
 32
0.0
 13
1207.480694721962
 23
1034.8283183972039
 33
0.0
  0
SOLID
  5
1FC0
  8
LOGO
 62
     5
 10
1208.153852400292
 20
1037.713197450639
 30
0.0
 11
1208.730828210978
 21
1037.713197450639
 31
0.0
 12
1208.153852400292
 22
1034.8283183972039
 32
0.0
 13
1208.730828210978
 23
1034.8283183972039
 33
0.0
  0
SOLID
  5
1FC1
  8
LOGO
 62
     5
 10
1209.8847798323509
 20
1036.5592458292649
 30
0.0
 11
1210.4617556430389
 21
1036.5592458292649
 31
0.0
 12
1209.8847798323509
 22
1034.8283183972039
 32
0.0
 13
1210.4617556430389
 23
1034.8283183972039
 33
0.0
  0
SOLID
  5
1FC2
  8
LOGO
 62
     5
 10
1211.615707264413
 20
1036.5592458292649
 30
0.0
 11
1212.1926830750999
 21
1036.5592458292649
 31
0.0
 12
1211.615707264413
 22
1034.828318397203
 32
0.0
 13
1212.1926830750999
 23
1034.828318397203
 33
0.0
  0
SOLID
  5
1FC3
  8
LOGO
 62
     5
 10
1200.3646212584331
 20
1038.11708051812
 30
0.0
 11
1200.9415970691221
 21
1038.11708051812
 31
0.0
 12
1200.3646212584331
 22
1038.5786611666699
 32
0.0
 13
1200.9415970691221
 23
1038.5786611666699
 33
0.0
  0
SOLID
  5
1FC4
  8
LOGO
 62
     5
 10
1200.3646212584331
 20
1037.713197450639
 30
0.0
 11
1200.9415970691221
 21
1037.713197450639
 31
0.0
 12
1200.3646212584331
 22
1034.828318397203
 32
0.0
 13
1200.9415970691221
 23
1034.8283183972039
 33
0.0
  0
SOLID
  5
1FC5
  8
LOGO
 62
     5
 10
1206.038312892824
 20
1040.598076504074
 30
0.0
 11
1207.711542743818
 21
1040.598076504074
 31
0.0
 12
1206.038312892824
 22
1049.060388394151
 32
0.0
 13
1207.711542743818
 23
1055.1955645144569
 33
0.0
  0
SOLID
  5
1FC6
  8
LOGO
 62
     5
 10
1208.403913716643
 20
1056.4649112979689
 30
0.0
 11
1210.0771435676349
 21
1056.46491129797
 31
0.0
 12
1208.403913716643
 22
1041.867423287586
 32
0.0
 13
1210.0771435676349
 23
1048.0025994078919
 33
0.0
  0
SOLID
  5
1FC7
  8
LOGO
 62
     2
 10
1207.711542743818
 20
1056.4649112979689
 30
0.0
 11
1208.403913716643
 21
1056.4649112979689
 31
0.0
 12
1207.711542743818
 22
1040.598076504074
 32
0.0
 13
1208.403913716643
 23
1040.598076504074
 33
0.0
  0
SOLID
  5
1FC8
  8
LOGO
 62
     5
 10
1208.403913716643
 20
1041.867423287586
 30
0.0
 11
1210.0771435676349
 21
1048.0025994078919
 31
0.0
 12
1216.366179904124
 22
1056.46491129797
 32
0.0
 13
1214.6929500531321
 23
1056.46491129797
 33
0.0
  0
SOLID
  5
1FC9
  8
LOGO
 62
     5
 10
1208.403913716643
 20
1040.598076504074
 30
0.0
 11
1210.0771435676349
 21
1040.598076504074
 31
0.0
 12
1216.366179904124
 22
1055.1955645144569
 32
0.0
 13
1214.6929500531321
 23
1049.060388394151
 33
0.0
  0
SOLID
  5
1FCA
  8
LOGO
 62
     2
 10
1207.711542743818
 20
1040.598076504074
 30
0.0
 11
1208.403913716643
 21
1040.598076504074
 31
0.0
 12
1216.366179904124
 22
1056.46491129797
 32
0.0
 13
1217.0585508769491
 23
1056.4649112979689
 33
0.0
  0
POLYLINE
  5
1FCB
  8
LOGO
 62
     4
 66
     1
 10
0.0
 20
0.0
 30
0.0
 70
     1
1001
GENIUS_GENREC_14
1002
{
1000
PYDIR
1011
1193.368624440549
1021
0.0
1031
0.0
1021
1018.685493590322
1031
0.0
1002
}
1002
{
1000
PXDIR
1011
1760.961926630489
1021
0.0
1031
0.0
1021
1057.384184532913
1031
0.0
1002
}
1002
{
1000
PORI
1011
1193.368624440549
1021
0.0
1031
0.0
1021
1057.384184532913
1031
0.0
1002
}
1002
{
1000
PINS
1011
1193.368624440549
1021
0.0
1031
0.0
1021
1057.384184532913
1031
0.0
1002
}
1002
{
1000
PINS2
1011
1760.961926630489
1021
0.0
1031
0.0
1021
1018.685493590322
1031
0.0
1002
}
1002
{
1000
C
1070
     1
1002
}
1001
GENIUS_GENOBJ-N-REC_13
1002
{
1000
OWNER
1000
GEN
1002
}
1001
GENIUS_GENODEF_13
1002
{
1000
HIER
1070
     0
1002
}
1002
{
1000
MANEDIT
1070
     0
1002
}
1002
{
1000
NOSEL
1070
     0
1002
}
1002
{
1000
BEHIND
1070
     0
1002
}
1002
{
1000
OTHER
1070
     0
1002
}
1002
{
1000
REACTOR
1002
}
  0
VERTEX
  5
21A0
  8
LOGO
 62
     4
 10
1193.368624440549
 20
1057.384184532913
 30
0.0
  0
VERTEX
  5
21A1
  8
LOGO
 62
     4
 10
1760.961926630489
 20
1057.384184532913
 30
0.0
  0
VERTEX
  5
21A2
  8
LOGO
 62
     4
 10
1760.961926630489
 20
1018.685493590322
 30
0.0
  0
VERTEX
  5
21A3
  8
LOGO
 62
     4
 10
1193.368624440549
 20
1018.685493590322
 30
0.0
  0
SEQEND
  5
21A4
  8
LOGO
 62
     4
  0
LINE
  5
1FCC
  8
LOGO
 62
     4
 10
1357.533203665748
 20
1036.099904514489
 30
0.0
 11
1357.533203665748
 21
1021.910384502205
 31
0.0
  0
LINE
  5
1FCD
  8
LOGO
 62
     4
 10
1331.734076370687
 20
1036.099904514489
 30
0.0
 11
1331.734076370687
 21
1021.910384502205
 31
0.0
  0
LINE
  5
1FCE
  8
LOGO
 62
     4
 10
1357.533203665748
 20
1021.910384502205
 30
0.0
 11
1331.734076370687
 21
1021.910384502205
 31
0.0
  0
LINE
  5
1FCF
  8
LOGO
 62
     4
 10
1362.1605513264731
 20
1053.5143154386531
 30
0.0
 11
1331.734076370687
 21
1053.5143154386531
 31
0.0
  0
LINE
  5
1FD0
  8
LOGO
 62
     4
 10
1362.1605513264731
 20
1041.9047081558761
 30
0.0
 11
1331.734076370687
 21
1041.9047081558761
 31
0.0
  0
LINE
  5
1FD1
  8
LOGO
 62
     4
 10
1331.734076370687
 20
1053.5143154386531
 30
0.0
 11
1331.734076370687
 21
1041.9047081558761
 31
0.0
  0
LINE
  5
1FD2
  8
LOGO
 62
     4
 10
1362.1605513264731
 20
1053.5143154386531
 30
0.0
 11
1362.1605513264731
 21
1041.9047081558761
 31
0.0
  0
LINE
  5
1FD3
  8
LOGO
 62
     4
 10
1345.9797064689701
 20
1041.9047081558761
 30
0.0
 11
1345.9797064689701
 21
1036.099904514489
 31
0.0
  0
TEXT
  5
1FD4
  8
LOGO
  6
CONTINUOUS
 10
1333.796921762083
 20
1044.328196702912
 30
0.0
 40
6.7732516572747556
  1
MHCK
  7
CHINESET
  0
LINE
  5
1FD5
  8
LOGO
 62
     4
 10
1357.533203665748
 20
1036.099904514489
 30
0.0
 11
1331.734076370687
 21
1036.099904514489
 31
0.0
  0
TEXT
  5
1FD6
  8
LOGO
  6
CONTINUOUS
 10
1340.012934640878
 20
1023.913205162362
 30
253.62484520083379
 40
2.9028221388320379
  1
Model
 41
0.8
  7
CHINESET
  0
TEXT
  5
1FD7
  8
LOGO
 10
1339.240297752465
 20
1029.2944118049361
 30
253.62484520083379
 40
4.8380368980533976
  1
型號
  7
CHINESET
  0
LINE
  5
1FD8
  8
LOGO
  6
CONTINUOUS
 10
1365.069401045118
 20
1047.668388733518
 30
0.0
 11
1370.1957800054461
 21
1047.668388733518
 31
0.0
  0
LINE
  5
1FD9
  8
LOGO
 62
     4
 10
1390.985446705891
 20
1036.099904514489
 30
0.0
 11
1390.985446705891
 21
1021.910384502205
 31
0.0
  0
LINE
  5
1FDA
  8
LOGO
 62
     4
 10
1365.18631941083
 20
1036.099904514489
 30
0.0
 11
1365.18631941083
 21
1021.910384502205
 31
0.0
  0
LINE
  5
1FDB
  8
LOGO
 62
     4
 10
1390.985446705891
 20
1021.910384502205
 30
0.0
 11
1365.18631941083
 21
1021.910384502205
 31
0.0
  0
LINE
  5
1FDC
  8
LOGO
 62
     4
 10
1391.650758354129
 20
1053.5143154386531
 30
0.0
 11
1371.812882339867
 21
1053.5143154386531
 31
0.0
  0
LINE
  5
1FDD
  8
LOGO
 62
     4
 10
1391.650758354129
 20
1041.9047081558761
 30
0.0
 11
1371.812882339867
 21
1041.9047081558761
 31
0.0
  0
LINE
  5
1FDE
  8
LOGO
 62
     4
 10
1371.812882339867
 20
1053.5143154386531
 30
0.0
 11
1371.812882339867
 21
1041.9047081558761
 31
0.0
  0
LINE
  5
1FDF
  8
LOGO
 62
     4
 10
1391.650758354129
 20
1053.5143154386531
 30
0.0
 11
1391.650758354129
 21
1041.9047081558761
 31
0.0
  0
LINE
  5
1FE0
  8
LOGO
 62
     4
 10
1381.7318203469979
 20
1041.9047081558761
 30
0.0
 11
1381.7318203469979
 21
1036.099904514489
 31
0.0
  0
TEXT
  5
1FE1
  8
LOGO
  6
CONTINUOUS
 10
1376.0708047977321
 20
1044.0990742535789
 30
0.0
 40
6.7732516572747556
  1
40
  7
CHINESET
  0
LINE
  5
1FE2
  8
LOGO
 62
     4
 10
1390.985446705891
 20
1036.099904514489
 30
0.0
 11
1365.18631941083
 21
1036.099904514489
 31
0.0
  0
LINE
  5
1FE3
  8
LOGO
  6
CONTINUOUS
 10
1393.3021557488571
 20
1047.668388733518
 30
0.0
 11
1398.4285347091859
 21
1047.668388733518
 31
0.0
  0
LINE
  5
1FE4
  8
LOGO
 62
     4
 10
1424.1393778543641
 20
1036.099904514489
 30
0.0
 11
1424.1393778543641
 21
1021.910384502205
 31
0.0
  0
LINE
  5
1FE5
  8
LOGO
 62
     4
 10
1394.0784567179051
 20
1036.099904514489
 30
0.0
 11
1394.0784567179051
 21
1021.910384502205
 31
0.0
  0
LINE
  5
1FE6
  8
LOGO
 62
     4
 10
1424.1393778543641
 20
1021.910384502205
 30
0.0
 11
1394.0784567179051
 21
1021.910384502205
 31
0.0
  0
LINE
  5
1FE7
  8
LOGO
 62
     4
 10
1412.3979367959871
 20
1053.5143154386531
 30
0.0
 11
1400.0456370436079
 21
1053.5143154386531
 31
0.0
  0
LINE
  5
1FE8
  8
LOGO
 62
     4
 10
1412.3979367959871
 20
1041.9047081558761
 30
0.0
 11
1400.0456370436079
 21
1041.9047081558761
 31
0.0
  0
LINE
  5
1FE9
  8
LOGO
 62
     4
 10
1400.0456370436079
 20
1053.5143154386531
 30
0.0
 11
1400.0456370436079
 21
1041.9047081558761
 31
0.0
  0
LINE
  5
1FEA
  8
LOGO
 62
     4
 10
1412.3979367959871
 20
1053.5143154386531
 30
0.0
 11
1412.3979367959871
 21
1041.9047081558761
 31
0.0
  0
LINE
  5
1FEB
  8
LOGO
 62
     4
 10
1406.3069726912679
 20
1041.9047081558761
 30
0.0
 11
1406.3069726912679
 21
1036.099904514489
 31
0.0
  0
TEXT
  5
1FEC
  8
LOGO
  6
CONTINUOUS
 10
1404.2089516136241
 20
1044.328196702912
 30
0.0
 40
6.7732516572747556
  1
*
  7
CHINESET
  0
LINE
  5
1FED
  8
LOGO
 62
     4
 10
1424.1393778543641
 20
1036.099904514489
 30
0.0
 11
1394.0784567179051
 21
1036.099904514489
 31
0.0
  0
TEXT
  5
1FEE
  8
LOGO
  6
CONTINUOUS
 10
1370.590182140771
 20
1023.913205162362
 30
253.62484520083379
 40
2.9028221388320379
  1
Tube I.D.
 41
0.8
  7
CHINESET
  0
TEXT
  5
1FEF
  8
LOGO
 10
1372.4997458977471
 20
1029.2944118049361
 30
253.62484520083379
 40
4.8380368980533976
  1
內徑
  7
CHINESET
  0
TEXT
  5
1FF0
  8
LOGO
  6
CONTINUOUS
 10
1397.1090269761601
 20
1023.913205162362
 30
253.62484520083379
 40
2.9028221388320379
  1
Manifold type
 41
0.8
  7
CHINESET
  0
TEXT
  5
1FF1
  8
LOGO
 10
1399.416363715168
 20
1029.2944118049361
 30
253.62484520083379
 40
4.8380368980533976
  1
油口型式
  7
CHINESET
  0
TEXT
  5
1FF2
  8
LOGO
 10
1279.7827325962301
 20
1020.74424867434
 30
0.0
 40
3.8704295184427191
  1
00904070
 41
0.7
  7
CHINESET
 72
     1
 11
1289.7168350269001
 21
1020.74424867434
 31
0.0
  0
LINE
  5
1FF3
  8
LOGO
 62
     4
 10
1301.7283216249029
 20
1026.4252317788421
 30
0.0
 11
1301.728321624905
 21
1018.6854935903229
 31
0.0
  0
LINE
  5
1FF4
  8
LOGO
 62
     4
 10
1301.7283216249029
 20
1026.4252317788421
 30
0.0
 11
1278.505744514249
 21
1026.4252317788421
 31
0.0
  0
CIRCLE
  5
1FF5
  8
LOGO
  6
CONTINUOUS
 10
1259.8721638827831
 20
1045.7828549284479
 30
0.0
 40
2.2469370825774342
  0
CIRCLE
  5
1FF6
  8
LOGO
  6
CONTINUOUS
 10
1259.8721638827831
 20
1045.7828549284479
 30
0.0
 40
1.3165062203045199
  0
LINE
  5
1FF7
  8
LOGO
 10
1273.992177233253
 20
1043.53591784587
 30
0.0
 11
1273.992177233253
 21
1048.0297920110249
 31
0.0
  0
LINE
  5
1FF8
  8
LOGO
 10
1266.948158459717
 20
1044.466348708143
 30
0.0
 11
1266.948158459717
 21
1047.099361148752
 31
0.0
  0
LINE
  5
1FF9
  8
LOGO
  6
CONTINUOUS
 10
1266.948158459717
 20
1047.099361148752
 30
0.0
 11
1273.992177233253
 21
1048.0297920110249
 31
0.0
  0
LINE
  5
1FFA
  8
LOGO
  6
CONTINUOUS
 10
1266.948158459717
 20
1044.466348708143
 30
0.0
 11
1273.992177233253
 21
1043.53591784587
 31
0.0
  0
LINE
  5
1FFB
  8
LOGO
  6
AM_ISO08W050X2
 10
1256.7747274692169
 20
1045.7828549284479
 30
0.0
 11
1262.9696002963501
 21
1045.7828549284479
 31
0.0
1001
GENIUS_GENOREF_13
1005
2003
  0
LINE
  5
1FFC
  8
LOGO
  6
AM_ISO08W050X2
 10
1259.8721638827831
 20
1042.6854185148809
 30
0.0
 11
1259.8721638827831
 21
1048.8802913420141
 31
0.0
1001
GENIUS_GENOREF_13
1005
2002
  0
LINE
  5
1FFD
  8
LOGO
  6
CENTER
 10
1266.3848327454191
 20
1045.7828549284479
 30
0.0
 11
1274.701487121084
 21
1045.7828549284479
 31
0.0
1001
GENIUS_GENOREF_13
1005
2001
  0
LINE
  5
1FFE
  8
LOGO
 62
     4
 10
1477.1652755355201
 20
1372.236759119927
 30
0.0
 11
1477.1652755355201
 21
1057.384184532913
 31
0.0
  0
TEXT
  5
1FFF
  8
UMCL1
  6
CONTINUOUS
 10
1200.1830322396661
 20
1359.9768695726109
 30
0.0
 40
6.0
  1
MHCK-40-F
  0
TEXT
  5
2000
  8
UMCL1
  6
CONTINUOUS
 10
1488.525448264905
 20
1358.742333885252
 30
0.0
 40
6.0
  1
MHCK-40
  0
POINT
  5
2001
  8
0
 10
7580.950788105024
 20
-491.32905589264601
 30
-179.8317238765535
1001
GENIUS_GENOBJ-N-CRS_13
1002
{
1000
OWNER
1000
GEN
1002
}
1001
GENIUS_GENOLIS_13
1002
{
1000
ENT
1005
0
1005
0
1005
0
1005
1FFD
1002
}
1001
GENIUS_GENOENT_13
1002
{
1000
MYREF
1005
2001
1002
}
1002
{
1000
GRP
1005
0
1002
}
1001
GENIUS_GENODEF_13
1002
{
1000
HIER
1070
    10
1002
}
1002
{
1000
MANEDIT
1070
     1
1002
}
1002
{
1000
NOSEL
1070
     0
1002
}
1002
{
1000
BEHIND
1070
     0
1002
}
1002
{
1000
OTHER
1070
     0
1002
}
1002
{
1000
REACTOR
1002
}
  0
POINT
  5
2002
  8
0
 10
7569.6262028821684
 20
-482.4534694140097
 30
-179.8317238765535
1001
GENIUS_GENOBJ-N-CRS_13
1002
{
1000
OWNER
1000
GEN
1002
}
1001
GENIUS_GENOLIS_13
1002
{
1000
ENT
1005
0
1005
0
1005
0
1005
1FFC
1002
}
1001
GENIUS_GENOENT_13
1002
{
1000
MYREF
1005
2002
1002
}
1002
{
1000
GRP
1005
0
1002
}
1001
GENIUS_GENODEF_13
1002
{
1000
HIER
1070
    10
1002
}
1002
{
1000
MANEDIT
1070
     1
1002
}
1002
{
1000
NOSEL
1070
     0
1002
}
1002
{
1000
BEHIND
1070
     0
1002
}
1002
{
1000
OTHER
1070
     0
1002
}
1002
{
1000
REACTOR
1002
}
  0
POINT
  5
2003
  8
0
 10
7575.9848765800052
 20
-491.32905589264601
 30
-179.8317238765535
1001
GENIUS_GENOBJ-N-CRS_13
1002
{
1000
OWNER
1000
GEN
1002
}
1001
GENIUS_GENOLIS_13
1002
{
1000
ENT
1005
0
1005
0
1005
0
1005
1FFB
1002
}
1001
GENIUS_GENOENT_13
1002
{
1000
MYREF
1005
2003
1002
}
1002
{
1000
GRP
1005
0
1002
}
1001
GENIUS_GENODEF_13
1002
{
1000
HIER
1070
    10
1002
}
1002
{
1000
MANEDIT
1070
     1
1002
}
1002
{
1000
NOSEL
1070
     0
1002
}
1002
{
1000
BEHIND
1070
     0
1002
}
1002
{
1000
OTHER
1070
     0
1002
}
1002
{
1000
REACTOR
1002
}
  0
ENDSEC
  0
EOF
