  0
SECTION
  2
HEADER
  9
$ACADVER
  1
AC1009
  9
$INSBASE
 10
0.0
 20
0.0
 30
0.0
  9
$EXTMIN
 10
1189.6024779183731
 20
963.57195255320687
 30
0.0
  9
$EXTMAX
 10
1757.1957801083131
 20
1317.1232180828119
 30
2.5673651826636118E+099
  9
$LIMMIN
 10
0.0
 20
0.0
  9
$LIMMAX
 10
420.0
 20
297.0
  9
$ORTHOMODE
 70
     0
  9
$REGENMODE
 70
     1
  9
$FILLMODE
 70
     1
  9
$QTEXTMODE
 70
     0
  9
$MIRRTEXT
 70
     1
  9
$DRAGMODE
 70
     2
  9
$LTSCALE
 40
1.0
  9
$OSMODE
 70
    37
  9
$ATTMODE
 70
     1
  9
$TEXTSIZE
 40
1.0
  9
$TRACEWID
 40
1.0
  9
$TEXTSTYLE
  7
STANDARD
  9
$CLAYER
  8
0
  9
$CELTYPE
  6
BYLAYER
  9
$CECOLOR
 62
   256
  9
$DIMSCALE
 40
1.0
  9
$DIMASZ
 40
2.5
  9
$DIMEXO
 40
1.0
  9
$DIMDLI
 40
10.0
  9
$DIMRND
 40
0.0
  9
$DIMDLE
 40
0.0
  9
$DIMEXE
 40
1.0
  9
$DIMTP
 40
0.1
  9
$DIMTM
 40
0.1
  9
$DIMTXT
 40
3.5
  9
$DIMCEN
 40
0.0
  9
$DIMTSZ
 40
0.0
  9
$DIMTOL
 70
     0
  9
$DIMLIM
 70
     0
  9
$DIMTIH
 70
     0
  9
$DIMTOH
 70
     0
  9
$DIMSE1
 70
     0
  9
$DIMSE2
 70
     0
  9
$DIMTAD
 70
     1
  9
$DIMZIN
 70
     8
  9
$DIMBLK
  1

  9
$DIMASO
 70
     1
  9
$DIMSHO
 70
     1
  9
$DIMPOST
  1

  9
$DIMAPOST
  1
"
  9
$DIMALT
 70
     0
  9
$DIMALTD
 70
     2
  9
$DIMALTF
 40
0.0393701
  9
$DIMLFAC
 40
1.0
  9
$DIMTOFL
 70
     1
  9
$DIMTVP
 40
0.0
  9
$DIMTIX
 70
     0
  9
$DIMSOXD
 70
     0
  9
$DIMSAH
 70
     0
  9
$DIMBLK1
  1

  9
$DIMBLK2
  1

  9
$DIMSTYLE
  2
AM_ISO
  9
$DIMCLRD
 70
   256
  9
$DIMCLRE
 70
   256
  9
$DIMCLRT
 70
     2
  9
$DIMTFAC
 40
0.71
  9
$DIMGAP
 40
1.5
  9
$LUNITS
 70
     2
  9
$LUPREC
 70
     2
  9
$SKETCHINC
 40
1.0
  9
$FILLETRAD
 40
2.5
  9
$AUNITS
 70
     0
  9
$AUPREC
 70
     0
  9
$MENU
  1
.
  9
$ELEVATION
 40
0.0
  9
$PELEVATION
 40
0.0
  9
$THICKNESS
 40
0.0
  9
$LIMCHECK
 70
     0
  9
$BLIPMODE
 70
     0
  9
$CHAMFERA
 40
2.5
  9
$CHAMFERB
 40
2.5
  9
$SKPOLY
 70
     0
  9
$TDCREATE
 40
2454929.4405136001
  9
$TDUPDATE
 40
2454937.4793059491
  9
$TDINDWG
 40
0.0070862037
  9
$TDUSRTIMER
 40
0.0067053356
  9
$USRTIMER
 70
     1
  9
$ANGBASE
 50
0.0
  9
$ANGDIR
 70
     0
  9
$PDMODE
 70
     0
  9
$PDSIZE
 40
0.0
  9
$PLINEWID
 40
0.0
  9
$COORDS
 70
     1
  9
$SPLFRAME
 70
     0
  9
$SPLINETYPE
 70
     6
  9
$SPLINESEGS
 70
     8
  9
$ATTDIA
 70
     1
  9
$ATTREQ
 70
     1
  9
$HANDLING
 70
     1
  9
$HANDSEED
  5
12F7
  9
$SURFTAB1
 70
     6
  9
$SURFTAB2
 70
     6
  9
$SURFTYPE
 70
     6
  9
$SURFU
 70
     6
  9
$SURFV
 70
     6
  9
$UCSNAME
  2

  9
$UCSORG
 10
0.0
 20
0.0
 30
0.0
  9
$UCSXDIR
 10
1.0
 20
0.0
 30
0.0
  9
$UCSYDIR
 10
0.0
 20
1.0
 30
0.0
  9
$PUCSNAME
  2

  9
$PUCSORG
 10
0.0
 20
0.0
 30
0.0
  9
$PUCSXDIR
 10
1.0
 20
0.0
 30
0.0
  9
$PUCSYDIR
 10
0.0
 20
1.0
 30
0.0
  9
$USERI1
 70
     0
  9
$USERI2
 70
     0
  9
$USERI3
 70
     0
  9
$USERI4
 70
     0
  9
$USERI5
 70
     0
  9
$USERR1
 40
0.0
  9
$USERR2
 40
0.0
  9
$USERR3
 40
0.0
  9
$USERR4
 40
0.0
  9
$USERR5
 40
0.0
  9
$WORLDVIEW
 70
     1
  9
$SHADEDGE
 70
     3
  9
$SHADEDIF
 70
    70
  9
$TILEMODE
 70
     1
  9
$MAXACTVP
 70
    64
  9
$PLIMCHECK
 70
     0
  9
$PEXTMIN
 10
1.0000000000000000E+020
 20
1.0000000000000000E+020
 30
1.0000000000000000E+020
  9
$PEXTMAX
 10
-1.0000000000000000E+020
 20
-1.0000000000000000E+020
 30
-1.0000000000000000E+020
  9
$PLIMMIN
 10
0.0
 20
0.0
  9
$PLIMMAX
 10
420.0
 20
297.0
  9
$UNITMODE
 70
     0
  9
$VISRETAIN
 70
     1
  9
$PLINEGEN
 70
     0
  9
$PSLTSCALE
 70
     1
  0
ENDSEC
  0
SECTION
  2
TABLES
  0
TABLE
  2
VPORT
 70
     5
  0
VPORT
  2
*ACTIVE
 70
     0
 10
0.0
 20
0.0
 11
1.0
 21
1.0
 12
1473.3991290133431
 22
1140.3475853180089
 13
0.0
 23
0.0
 14
2.5
 24
2.5
 15
10.0
 25
10.0
 16
0.0
 26
0.0
 36
1.0
 17
0.0
 27
0.0
 37
0.0
 40
627.76360360522517
 41
0.911957950065703
 42
50.0
 43
0.0
 44
0.0
 50
0.0
 51
0.0
 71
     0
 72
   100
 73
     1
 74
     3
 75
     0
 76
     0
 77
     0
 78
     0
  0
ENDTAB
  0
TABLE
  2
LTYPE
 70
    20
  0
LTYPE
  2
CONTINUOUS
 70
     0
  3
Solid line
 72
    65
 73
     0
 40
0.0
  0
LTYPE
  2
AM_ISO02W050
 70
     0
  3
__ __ __ __ __ __ __ __ __ __ __ __ __ __ __
 72
    65
 73
     2
 40
7.5
 49
6.0
 49
-1.5
  0
LTYPE
  2
AM_ISO08W050
 70
     0
  3
____ . ____ . ____ . ____ . ____ . ____ . ____
 72
    65
 73
     4
 40
18.0
 49
12.0
 49
-1.5
 49
3.0
 49
-1.5
  0
LTYPE
  2
AM_ISO09W050
 70
     0
  3
_____ . . _____ . . _____ . . ____ .. ____
 72
    65
 73
     6
 40
22.5
 49
12.0
 49
-1.5
 49
3.0
 49
-1.5
 49
3.0
 49
-1.5
  0
LTYPE
  2
AMCONSTR
 70
     0
  3
_______________________
 72
    65
 73
     2
 40
9999.0
 49
9999.0
 49
0.0
  0
LTYPE
  2
AM_ISO08W050X2
 70
     0
  3
__ . __ . __ . __ . __ . __
 72
    65
 73
     4
 40
9.0
 49
6.0
 49
-0.75
 49
1.5
 49
-0.75
  0
LTYPE
  2
AM_ISO02W050X2
 70
     0
  3
 _ _ _ _ _ _ _ _ _ _ _ _
 72
    65
 73
     2
 40
3.75
 49
3.0
 49
-0.75
  0
LTYPE
  2
AMZIGZAG
 70
     0
  3
/\/-/\/-/\/-/\/-/\/-/\/
 72
    65
 73
     2
 40
11.0001
 49
0.0001
 49
-11.0
  0
LTYPE
  2
ACISOWELD
 70
     0
  3
_ _ _ _ _
 72
    65
 73
     2
 40
2.0
 49
2.0
 49
-1.0
  0
LTYPE
  2
ACISOTGB
 70
     0
  3
__ . . __ . .
 72
    65
 73
     6
 40
9.0
 49
4.0
 49
-1.0
 49
1.0
 49
-1.0
 49
1.0
 49
-1.0
  0
LTYPE
  2
ACISOTGL
 70
     0
  3
_ _ _ _ _
 72
    65
 73
     2
 40
3.0
 49
2.0
 49
-1.0
  0
LTYPE
  2
CENTER
 70
     0
  3
__ . __
 72
    65
 73
     4
 40
7.0
 49
4.0
 49
-1.0
 49
1.0
 49
-1.0
  0
LTYPE
  2
HIDDEN
 70
     0
  3
Hidden __ __ __ __ __ __ __ __ __ __ __ __ __ _
 72
    65
 73
     2
 40
9.5249999999999986
 49
6.3499999999999988
 49
-3.1749999999999989
  0
LTYPE
  2
PHANTOM2
 70
     0
  3
Phantom (.5x) ___ _ _ ___ _ _ ___ _ _ ___ _ _
 72
    65
 73
     6
 40
31.75
 49
15.875
 49
-3.1749999999999989
 49
3.1749999999999989
 49
-3.1749999999999989
 49
3.1749999999999989
 49
-3.1749999999999989
  0
ENDTAB
  0
TABLE
  2
LAYER
 70
     5
  0
LAYER
  2
0
 70
     0
 62
     7
  6
CONTINUOUS
  0
LAYER
  2
UMCL1
 70
     0
 62
     7
  6
CONTINUOUS
  0
LAYER
  2
UMCL2
 70
     0
 62
     5
  6
CONTINUOUS
  0
LAYER
  2
LOGO
 70
     0
 62
     7
  6
CONTINUOUS
  0
ENDTAB
  0
TABLE
  2
STYLE
 70
    12
  0
STYLE
  2
STANDARD
 70
     0
 40
0.0
 41
1.0
 50
0.0
 71
     0
 42
1.0
  3
ISOCP.SHX
  4
CHINESET.SHX
  0
STYLE
  2

 70
     1
 40
0.0
 41
1.0
 50
0.0
 71
     0
 42
2.5
  3
ltypeshp.shx
  4

  0
STYLE
  2
ACISOTS
 70
     0
 40
1.0
 41
1.0
 50
0.0
 71
     0
 42
1.0
  3
isocp.shx
  4
chineset.shx
  0
STYLE
  2
ACISOGDT
 70
     0
 40
0.0
 41
1.0
 50
0.0
 71
     0
 42
2.5
  3
amgdt.shx
  4
chineset.shx
  0
STYLE
  2
ROMANS
 70
     0
 40
0.0
 41
1.0
 50
0.0
 71
     0
 42
3.0
  3
ROMANS.SHX
  4
LMP
  0
STYLE
  2
ROMANSS
 70
     0
 40
0.0
 41
1.0
 50
0.0
 71
     0
 42
3.0
  3
ROMANSS.SHX
  4
LMP
  0
STYLE
  2
CHINESET
 70
     0
 40
0.0
 41
1.0
 50
0.0
 71
     0
 42
5.0
  3
simplex.shx
  4
chineset.shx
  0
ENDTAB
  0
TABLE
  2
VIEW
 70
     0
  0
ENDTAB
  0
TABLE
  2
UCS
 70
     0
  0
ENDTAB
  0
TABLE
  2
APPID
 70
    15
  0
APPID
  2
ACAD
 70
     0
  0
APPID
  2
MCAD_NO_VIS
 70
     0
  0
APPID
  2
ACAD_TEMP_GRAPHIC
 70
     0
  0
APPID
  2
ACATTRIBSERVICES
 70
     0
  0
APPID
  2
AD_DRAW
 70
     0
  0
APPID
  2
DESIGNERASSEMBLIES
 70
     0
  0
APPID
  2
ACADM_DIM_EDIT
 70
     0
  0
APPID
  2
AMDT_DM_ADJ
 70
     0
  0
APPID
  2
GENIUS_GENODEF_13
 70
     0
  0
APPID
  2
GENIUS_GENREC_14
 70
     0
  0
APPID
  2
GENIUS_GENOBJ-N-REC_13
 70
     0
  0
APPID
  2
GENIUS_GENOLIS_13
 70
     0
  0
APPID
  2
GENIUS_GENOENT_13
 70
     0
  0
APPID
  2
GENIUS_GENOBJ-N-CRS_13
 70
     0
  0
APPID
  2
GENIUS_GENOREF_13
 70
     0
  0
ENDTAB
  0
TABLE
  2
DIMSTYLE
 70
    15
  0
DIMSTYLE
  2
AM_ISO
 70
     0
  3

  4
"
  5

  6

  7

 40
1.0
 41
2.5
 42
1.0
 43
10.0
 44
1.0
 45
0.0
 46
0.0
 47
0.1
 48
0.1
140
3.5
141
0.0
142
0.0
143
0.0393701
144
1.0
145
0.0
146
0.71
147
1.5
 71
     0
 72
     0
 73
     0
 74
     0
 75
     0
 76
     0
 77
     1
 78
     8
170
     0
171
     2
172
     1
173
     0
174
     0
175
     0
176
   256
177
   256
178
     2
  0
DIMSTYLE
  2
AM_ISO$3
 70
     0
  3

  4
"
  5

  6

  7

 40
1.0
 41
2.5
 42
1.0
 43
10.0
 44
1.0
 45
0.0
 46
0.0
 47
0.1
 48
0.1
140
3.5
141
0.0
142
0.0
143
0.0393701
144
1.0
145
0.0
146
0.71
147
1.5
 71
     0
 72
     0
 73
     0
 74
     1
 75
     0
 76
     0
 77
     1
 78
     8
170
     0
171
     2
172
     0
173
     0
174
     0
175
     0
176
   256
177
   256
178
     2
  0
DIMSTYLE
  2
AM_ISO$4
 70
     0
  3

  4
"
  5

  6

  7

 40
1.0
 41
2.5
 42
1.0
 43
10.0
 44
1.0
 45
0.0
 46
0.0
 47
0.1
 48
0.1
140
3.5
141
0.0
142
0.0
143
0.0393701
144
1.0
145
0.0
146
0.71
147
1.5
 71
     0
 72
     0
 73
     0
 74
     1
 75
     0
 76
     0
 77
     1
 78
     8
170
     0
171
     2
172
     0
173
     0
174
     0
175
     0
176
   256
177
   256
178
     2
  0
DIMSTYLE
  2
AM_ISO$6
 70
     0
  3

  4
"
  5

  6

  7

 40
1.0
 41
2.5
 42
1.0
 43
10.0
 44
1.0
 45
0.0
 46
0.0
 47
0.1
 48
0.1
140
3.5
141
0.0
142
0.0
143
0.0393701
144
1.0
145
0.0
146
0.71
147
1.5
 71
     0
 72
     0
 73
     0
 74
     0
 75
     0
 76
     0
 77
     0
 78
     8
170
     0
171
     2
172
     1
173
     0
174
     0
175
     0
176
   256
177
   256
178
     2
  0
DIMSTYLE
  2
AM_ISO$7
 70
     0
  3

  4
"
  5

  6

  7

 40
1.0
 41
2.5
 42
1.0
 43
10.0
 44
1.0
 45
0.0
 46
0.0
 47
0.1
 48
0.1
140
5.0
141
0.0
142
0.0
143
0.0393701
144
1.0
145
0.0
146
0.71
147
1.5
 71
     0
 72
     0
 73
     0
 74
     0
 75
     0
 76
     0
 77
     1
 78
     8
170
     0
171
     2
172
     1
173
     0
174
     0
175
     0
176
   256
177
   256
178
     2
  0
DIMSTYLE
  2
AM_ISO$SF
 70
     0
  3

  4
"
  5

  6

  7

 40
1.0
 41
2.5
 42
1.0
 43
10.0
 44
1.0
 45
0.0
 46
0.0
 47
0.1
 48
0.1
140
3.5
141
0.0
142
0.0
143
0.0393701
144
1.0
145
0.0
146
0.71
147
1.5
 71
     0
 72
     0
 73
     0
 74
     0
 75
     1
 76
     1
 77
     1
 78
     8
170
     0
171
     2
172
     1
173
     0
174
     0
175
     0
176
   256
177
   256
178
     2
  0
DIMSTYLE
  2
AM_ISO$SH
 70
     0
  3

  4
"
  5

  6
GENAXEH
  7

 40
1.0
 41
2.5
 42
1.0
 43
10.0
 44
1.0
 45
0.0
 46
0.0
 47
0.1
 48
0.1
140
3.5
141
0.0
142
0.0
143
0.0393701
144
2.0
145
0.0
146
0.71
147
1.5
 71
     0
 72
     0
 73
     0
 74
     0
 75
     1
 76
     1
 77
     1
 78
     8
170
     0
171
     2
172
     1
173
     1
174
     0
175
     0
176
   256
177
   256
178
     2
  0
DIMSTYLE
  2
STANDARD
 70
     0
  3

  4

  5

  6

  7

 40
1.0
 41
0.18
 42
0.0625
 43
0.38
 44
0.18
 45
0.0
 46
0.0
 47
0.0
 48
0.0
140
0.18
141
0.09
142
0.0
143
25.399999999999999
144
1.0
145
0.0
146
1.0
147
0.09
 71
     0
 72
     0
 73
     1
 74
     1
 75
     0
 76
     0
 77
     0
 78
     0
170
     0
171
     2
172
     0
173
     0
174
     0
175
     0
176
     0
177
     0
178
     0
  0
ENDTAB
  0
ENDSEC
  0
SECTION
  2
BLOCKS
  0
BLOCK
  8
0
  2
$MODEL_SPACE
 70
     0
 10
0.0
 20
0.0
 30
0.0
  3
$MODEL_SPACE
  1

  0
ENDBLK
  5
21
  8
0
  0
BLOCK
 67
     1
  8
0
  2
$PAPER_SPACE
 70
     0
 10
0.0
 20
0.0
 30
0.0
  3
$PAPER_SPACE
  1

  0
ENDBLK
  5
1D
 67
     1
  8
0
  0
BLOCK
  8
0
  2
GENAXEH
 70
     0
 10
0.0
 20
0.0
 30
0.0
  3
GENAXEH
  1

  0
LINE
  5
88
  8
0
 10
-1.0
 20
0.0
 30
0.0
 11
1.0
 21
0.0
 31
0.0
  0
ENDBLK
  5
8A
  8
0
  0
BLOCK
  8
0
  2
*U3
 70
     1
 10
0.0
 20
0.0
 30
0.0
  3
*U3
  1

  0
TEXT
  5
122E
  8
UMCL2
 10
1662.5113530800629
 20
1259.642470125199
 30
0.0
 40
3.0
  1
15
 50
90.0
  0
ENDBLK
  5
1230
  8
0
  0
BLOCK
  8
0
  2
*U4
 70
     1
 10
0.0
 20
0.0
 30
0.0
  3
*U4
  1

  0
TEXT
  5
1232
  8
UMCL2
 10
1670.5113530800629
 20
1257.792692710736
 30
0.0
 40
3.0
  1
25.4
 50
90.0
  0
ENDBLK
  5
1234
  8
0
  0
BLOCK
  8
0
  2
*U5
 70
     1
 10
0.0
 20
0.0
 30
0.0
  3
*U5
  1

  0
TEXT
  5
1236
  8
UMCL2
 10
1678.5113530800629
 20
1259.404602159555
 30
0.0
 40
3.0
  1
58
 50
90.0
  0
ENDBLK
  5
1238
  8
0
  0
BLOCK
  8
0
  2
*U6
 70
     1
 10
0.0
 20
0.0
 30
0.0
  3
*U6
  1

  0
TEXT
  5
123A
  8
UMCL2
 10
1686.5113530800629
 20
1259.342470125199
 30
0.0
 40
3.0
  1
75
 50
90.0
  0
ENDBLK
  5
123C
  8
0
  0
BLOCK
  8
0
  2
*U7
 70
     1
 10
0.0
 20
0.0
 30
0.0
  3
*U7
  1

  0
TEXT
  5
123E
  8
UMCL2
 10
1534.1969767327339
 20
1260.0046021595549
 30
0.0
 40
3.0
  1
11
 50
90.0
  0
ENDBLK
  5
1240
  8
0
  0
BLOCK
  8
0
  2
*U8
 70
     1
 10
0.0
 20
0.0
 30
0.0
  3
*U8
  1

  0
TEXT
  5
1242
  8
UMCL2
 10
1576.321264497386
 20
1215.6841493165491
 30
0.0
 40
3.0
  1
32
  0
ENDBLK
  5
1244
  8
0
  0
BLOCK
  8
0
  2
*U9
 70
     1
 10
0.0
 20
0.0
 30
0.0
  3
*U9
  1

  0
TEXT
  5
1246
  8
UMCL2
 10
1625.80396286156
 20
1189.779239165626
 30
0.0
 40
3.0
  1
39
  0
ENDBLK
  5
1248
  8
0
  0
BLOCK
  8
0
  2
*U10
 70
     1
 10
0.0
 20
0.0
 30
0.0
  3
*U10
  1

  0
TEXT
  5
124A
  8
UMCL2
 10
1591.4101719777011
 20
1189.779239165626
 30
0.0
 40
3.0
  1
30
  0
ENDBLK
  5
124C
  8
0
  0
BLOCK
  8
0
  2
*U11
 70
     1
 10
0.0
 20
0.0
 30
0.0
  3
*U11
  1

  0
TEXT
  5
124E
  8
UMCL2
 10
1614.911353080063
 20
1197.779239165626
 30
0.0
 40
3.0
  1
77
  0
ENDBLK
  5
1250
  8
0
  0
BLOCK
  8
0
  2
*U12
 70
     1
 10
0.0
 20
0.0
 30
0.0
  3
*U12
  1

  0
TEXT
  5
1252
  8
UMCL2
 10
1608.461821020574
 20
1205.779239165626
 30
0.0
 40
3.0
  1
90
  0
ENDBLK
  5
1254
  8
0
  0
BLOCK
  8
0
  2
*U13
 70
     1
 10
0.0
 20
0.0
 30
0.0
  3
*U13
  1

  0
TEXT
  5
1256
  8
UMCL2
 10
1557.0352813344371
 20
1160.252828668413
 30
0.0
 40
3.0
  1
\U+220512
 50
25.47532752795977
  0
ENDBLK
  5
1258
  8
0
  0
BLOCK
  8
0
  2
*U14
 70
     1
 10
0.0
 20
0.0
 30
0.0
  3
*U14
  1

  0
TEXT
  5
125A
  8
UMCL2
 10
1626.3947752642359
 20
1149.416081727486
 30
0.0
 40
3.0
  1
33
 50
90.0
  0
ENDBLK
  5
125C
  8
0
  0
BLOCK
  8
0
  2
*U15
 70
     1
 10
0.0
 20
0.0
 30
0.0
  3
*U15
  1

  0
TEXT
  5
125E
  8
UMCL2
 10
1634.0992210457071
 20
1126.7266547192301
 30
0.0
 40
3.0
  1
35.5
  0
ENDBLK
  5
1260
  8
0
  0
BLOCK
  8
0
  2
*U16
 70
     1
 10
0.0
 20
0.0
 30
0.0
  3
*U16
  1

  0
TEXT
  5
1262
  8
UMCL2
 10
1653.138141834319
 20
1025.803146874882
 30
0.0
 40
3.0
  1
21.5
 50
90.0
  0
ENDBLK
  5
1264
  8
0
  0
BLOCK
  8
0
  2
*U17
 70
     1
 10
0.0
 20
0.0
 30
0.0
  3
*U17
  1

  0
TEXT
  5
1266
  8
UMCL2
 10
1653.138141834319
 20
1060.0650563237009
 30
0.0
 40
3.0
  1
45
 50
90.0
  0
ENDBLK
  5
1268
  8
0
  0
BLOCK
  8
0
  2
*U18
 70
     1
 10
0.0
 20
0.0
 30
0.0
  3
*U18
  1

  0
TEXT
  5
126A
  8
UMCL2
 10
1662.5113530800629
 20
1065.526007255695
 30
0.0
 40
3.0
  1
100
 50
90.0
  0
ENDBLK
  5
126C
  8
0
  0
BLOCK
  8
0
  2
*U19
 70
     1
 10
0.0
 20
0.0
 30
0.0
  3
*U19
  1

  0
TEXT
  5
126E
  8
UMCL2
 10
1662.5113530800629
 20
1161.0171071312709
 30
0.0
 40
3.0
  1
15
 50
90.0
  0
ENDBLK
  5
1270
  8
0
  0
BLOCK
  8
0
  2
*U20
 70
     1
 10
0.0
 20
0.0
 30
0.0
  3
*U20
  1

  0
TEXT
  5
1272
  8
UMCL2
 10
1670.5113530800629
 20
1084.0282137618419
 30
0.0
 40
3.0
  1
137
 50
90.0
  0
ENDBLK
  5
1274
  8
0
  0
BLOCK
  8
0
  2
*U21
 70
     1
 10
0.0
 20
0.0
 30
0.0
  3
*U21
  1

  0
TEXT
  5
1276
  8
UMCL2
 10
1670.5113530800629
 20
1164.3673297168079
 30
0.0
 40
3.0
  1
25.4
 50
90.0
  0
ENDBLK
  5
1278
  8
0
  0
BLOCK
  8
0
  2
*U22
 70
     1
 10
0.0
 20
0.0
 30
0.0
  3
*U22
  1

  0
TEXT
  5
127A
  8
UMCL2
 10
1678.5113530800629
 20
1095.0782137618421
 30
0.0
 40
3.0
  1
162.4
 50
90.0
  0
ENDBLK
  5
127C
  8
0
  0
BLOCK
  8
0
  2
*U23
 70
     1
 10
0.0
 20
0.0
 30
0.0
  3
*U23
  1

  0
TEXT
  5
127E
  8
UMCL2
 10
1547.85517667473
 20
1181.5792391656271
 30
0.0
 40
3.0
  1
4
 50
90.0
  0
ENDBLK
  5
1280
  8
0
  0
BLOCK
  8
0
  2
*U24
 70
     1
 10
0.0
 20
0.0
 30
0.0
  3
*U24
  1

  0
TEXT
  5
1282
  8
UMCL2
 10
1653.624822945734
 20
1242.1307913683329
 30
0.0
 40
3.0
  1
15°
 50
76.694421909107731
  0
ENDBLK
  5
1284
  8
0
  0
BLOCK
  8
0
  2
*U25
 70
     1
 10
0.0
 20
0.0
 30
0.0
  3
*U25
  1

  0
TEXT
  5
128C
  8
UMCL2
 10
1365.098647758171
 20
1260.2731952138961
 30
0.0
 40
3.0
  1
15
 50
90.0
  0
ENDBLK
  5
128E
  8
0
  0
BLOCK
  8
0
  2
*U26
 70
     1
 10
0.0
 20
0.0
 30
0.0
  3
*U26
  1

  0
TEXT
  5
1290
  8
UMCL2
 10
1373.098647758171
 20
1258.423417799434
 30
0.0
 40
3.0
  1
25.4
 50
90.0
  0
ENDBLK
  5
1292
  8
0
  0
BLOCK
  8
0
  2
*U27
 70
     1
 10
0.0
 20
0.0
 30
0.0
  3
*U27
  1

  0
TEXT
  5
1294
  8
UMCL2
 10
1381.098647758171
 20
1260.0353272482521
 30
0.0
 40
3.0
  1
58
 50
90.0
  0
ENDBLK
  5
1296
  8
0
  0
BLOCK
  8
0
  2
*U28
 70
     1
 10
0.0
 20
0.0
 30
0.0
  3
*U28
  1

  0
TEXT
  5
1298
  8
UMCL2
 10
1389.0986477581721
 20
1259.9731952138959
 30
0.0
 40
3.0
  1
75
 50
90.0
  0
ENDBLK
  5
129A
  8
0
  0
BLOCK
  8
0
  2
*U29
 70
     1
 10
0.0
 20
0.0
 30
0.0
  3
*U29
  1

  0
TEXT
  5
129C
  8
UMCL2
 10
1236.7842714108419
 20
1260.635327248252
 30
0.0
 40
3.0
  1
11
 50
90.0
  0
ENDBLK
  5
129E
  8
0
  0
BLOCK
  8
0
  2
*U30
 70
     1
 10
0.0
 20
0.0
 30
0.0
  3
*U30
  1

  0
TEXT
  5
12A0
  8
UMCL2
 10
1278.908559175494
 20
1216.314874405246
 30
0.0
 40
3.0
  1
32
  0
ENDBLK
  5
12A2
  8
0
  0
BLOCK
  8
0
  2
*U31
 70
     1
 10
0.0
 20
0.0
 30
0.0
  3
*U31
  1

  0
TEXT
  5
12A4
  8
UMCL2
 10
1328.3912575396689
 20
1190.409964254324
 30
0.0
 40
3.0
  1
39
  0
ENDBLK
  5
12A6
  8
0
  0
BLOCK
  8
0
  2
*U32
 70
     1
 10
0.0
 20
0.0
 30
0.0
  3
*U32
  1

  0
TEXT
  5
12A8
  8
UMCL2
 10
1293.9974666558089
 20
1190.409964254324
 30
0.0
 40
3.0
  1
30
  0
ENDBLK
  5
12AA
  8
0
  0
BLOCK
  8
0
  2
*U33
 70
     1
 10
0.0
 20
0.0
 30
0.0
  3
*U33
  1

  0
TEXT
  5
12AC
  8
UMCL2
 10
1317.498647758171
 20
1198.409964254324
 30
0.0
 40
3.0
  1
77
  0
ENDBLK
  5
12AE
  8
0
  0
BLOCK
  8
0
  2
*U34
 70
     1
 10
0.0
 20
0.0
 30
0.0
  3
*U34
  1

  0
TEXT
  5
12B0
  8
UMCL2
 10
1311.049115698682
 20
1206.409964254324
 30
0.0
 40
3.0
  1
90
  0
ENDBLK
  5
12B2
  8
0
  0
BLOCK
  8
0
  2
*U35
 70
     1
 10
0.0
 20
0.0
 30
0.0
  3
*U35
  1

  0
TEXT
  5
12B4
  8
UMCL2
 10
1259.6225760125451
 20
1160.883553757111
 30
0.0
 40
3.0
  1
\U+220512
 50
25.47532752795977
  0
ENDBLK
  5
12B6
  8
0
  0
BLOCK
  8
0
  2
*U36
 70
     1
 10
0.0
 20
0.0
 30
0.0
  3
*U36
  1

  0
TEXT
  5
12B8
  8
UMCL2
 10
1328.9820699423451
 20
1150.0468068161831
 30
0.0
 40
3.0
  1
33
 50
90.0
  0
ENDBLK
  5
12BA
  8
0
  0
BLOCK
  8
0
  2
*U37
 70
     1
 10
0.0
 20
0.0
 30
0.0
  3
*U37
  1

  0
TEXT
  5
12BC
  8
UMCL2
 10
1336.6865157238151
 20
1127.3573798079269
 30
0.0
 40
3.0
  1
35.5
  0
ENDBLK
  5
12BE
  8
0
  0
BLOCK
  8
0
  2
*U38
 70
     1
 10
0.0
 20
0.0
 30
0.0
  3
*U38
  1

  0
TEXT
  5
12C0
  8
UMCL2
 10
1365.098647758171
 20
1066.1567323443919
 30
0.0
 40
3.0
  1
100
 50
90.0
  0
ENDBLK
  5
12C2
  8
0
  0
BLOCK
  8
0
  2
*U39
 70
     1
 10
0.0
 20
0.0
 30
0.0
  3
*U39
  1

  0
TEXT
  5
12C4
  8
UMCL2
 10
1365.098647758171
 20
1161.647832219968
 30
0.0
 40
3.0
  1
15
 50
90.0
  0
ENDBLK
  5
12C6
  8
0
  0
BLOCK
  8
0
  2
*U40
 70
     1
 10
0.0
 20
0.0
 30
0.0
  3
*U40
  1

  0
TEXT
  5
12C8
  8
UMCL2
 10
1373.098647758171
 20
1084.658938850539
 30
0.0
 40
3.0
  1
137
 50
90.0
  0
ENDBLK
  5
12CA
  8
0
  0
BLOCK
  8
0
  2
*U41
 70
     1
 10
0.0
 20
0.0
 30
0.0
  3
*U41
  1

  0
TEXT
  5
12CC
  8
UMCL2
 10
1373.098647758171
 20
1164.998054805505
 30
0.0
 40
3.0
  1
25.4
 50
90.0
  0
ENDBLK
  5
12CE
  8
0
  0
BLOCK
  8
0
  2
*U42
 70
     1
 10
0.0
 20
0.0
 30
0.0
  3
*U42
  1

  0
TEXT
  5
12D0
  8
UMCL2
 10
1381.098647758171
 20
1095.708938850539
 30
0.0
 40
3.0
  1
162.4
 50
90.0
  0
ENDBLK
  5
12D2
  8
0
  0
BLOCK
  8
0
  2
*U43
 70
     1
 10
0.0
 20
0.0
 30
0.0
  3
*U43
  1

  0
TEXT
  5
12D4
  8
UMCL2
 10
1250.442471352839
 20
1182.2099642543239
 30
0.0
 40
3.0
  1
4
 50
90.0
  0
ENDBLK
  5
12D6
  8
0
  0
BLOCK
  8
0
  2
*U44
 70
     1
 10
0.0
 20
0.0
 30
0.0
  3
*U44
  1

  0
TEXT
  5
12D8
  8
UMCL2
 10
1356.2121176238429
 20
1242.76151645703
 30
0.0
 40
3.0
  1
15°
 50
76.694421909107731
  0
ENDBLK
  5
12DA
  8
0
  0
BLOCK
  8
0
  2
*U45
 70
     1
 10
0.0
 20
0.0
 30
0.0
  3
*U45
  1

  0
TEXT
  5
12EA
  8
UMCL2
 10
1228.6442800489669
 20
1245.03414614589
 30
0.0
 40
3.0
  1
30
 50
90.0
  0
ENDBLK
  5
12EC
  8
0
  0
ENDSEC
  0
SECTION
  2
ENTITIES
  0
TEXT
  5
DC8
  8
UMCL2
  6
CONTINUOUS
 10
1592.7921942646819
 20
1050.980668052845
 30
0.0
 40
3.0
  1
A
  7
ROMANS
  0
CIRCLE
  5
DC9
  8
UMCL2
  6
CONTINUOUS
 10
1594.511353080062
 20
1052.477188358057
 30
0.0
 40
3.0
  0
TEXT
  5
DCA
  8
UMCL2
  6
CONTINUOUS
 10
1560.844060705404
 20
1095.6824878447151
 30
0.0
 40
3.0
  1
B
  7
ROMANS
  0
CIRCLE
  5
DCB
  8
UMCL2
  6
CONTINUOUS
 10
1562.5113530800629
 20
1097.477188358057
 30
0.0
 40
3.0
  0
CIRCLE
  5
DCC
  8
UMCL1
  6
CONTINUOUS
 10
1608.5113530800629
 20
1135.0771883580569
 30
0.0
 40
6.0
  0
LINE
  5
DCD
  8
UMCL1
  6
HIDDEN
 62
     3
 10
1595.0113530800629
 20
1180.779239165626
 30
0.0
 11
1595.0113530800629
 21
1155.3792391656259
 31
0.0
  0
CIRCLE
  5
DCE
  8
UMCL1
  6
CONTINUOUS
 10
1608.5113530800629
 20
1168.0792391656259
 30
0.0
 40
6.0
  0
CIRCLE
  5
DCF
  8
UMCL1
  6
CONTINUOUS
 10
1607.5113530800629
 20
1290.504602159554
 30
0.0
 40
4.5
  0
ARC
  5
DD0
  8
UMCL1
  6
CONTINUOUS
 10
1607.5113530800629
 20
1290.504602159554
 30
0.0
 40
7.0
 50
304.77194403194369
 51
235.22805596805631
  0
LINE
  5
DD1
  8
UMCL1
  6
CONTINUOUS
 10
1610.82234192287
 20
1299.0046021595549
 30
0.0
 11
1546.2003642372561
 21
1299.0046021595549
 31
0.0
  0
ARC
  5
DD2
  8
UMCL1
  6
CONTINUOUS
 10
1578.5113530800629
 20
1261.5046021595549
 30
0.0
 40
49.5
 50
130.74905437747159
 51
139.25094562252841
  0
LINE
  5
DD3
  8
UMCL1
  6
CONTINUOUS
 10
1541.0113530800629
 20
1293.815591002362
 30
0.0
 11
1541.0113530800629
 21
1229.193613316748
 31
0.0
  0
ARC
  5
DD4
  8
UMCL1
  6
CONTINUOUS
 10
1578.5113530800629
 20
1261.5046021595549
 30
0.0
 40
49.5
 50
220.74905437747159
 51
229.25094562252841
  0
LINE
  5
DD5
  8
UMCL1
  6
CONTINUOUS
 10
1546.2003642372561
 20
1224.0046021595549
 30
0.0
 11
1610.82234192287
 21
1224.0046021595549
 31
0.0
  0
ARC
  5
DD6
  8
UMCL1
  6
CONTINUOUS
 10
1578.5113530800629
 20
1261.5046021595549
 30
0.0
 40
49.5
 50
310.74905437747162
 51
319.25094562252838
  0
ARC
  5
DD7
  8
UMCL1
  6
CONTINUOUS
 10
1578.5113530800629
 20
1261.5046021595549
 30
0.0
 40
49.5
 50
40.749054377471602
 51
49.250945622528398
  0
CIRCLE
  5
DD8
  8
UMCL1
  6
CONTINUOUS
 10
1549.5113530800629
 20
1290.5046021595549
 30
0.0
 40
4.5
  0
CIRCLE
  5
DD9
  8
UMCL1
  6
CONTINUOUS
 10
1549.5113530800629
 20
1290.5046021595549
 30
0.0
 40
7.0
  0
CIRCLE
  5
DDA
  8
UMCL1
  6
CONTINUOUS
 10
1549.5113530800629
 20
1232.504602159556
 30
0.0
 40
4.5
  0
CIRCLE
  5
DDB
  8
UMCL1
  6
CONTINUOUS
 10
1549.5113530800629
 20
1232.504602159556
 30
0.0
 40
7.0
  0
CIRCLE
  5
DDC
  8
UMCL1
  6
CONTINUOUS
 10
1607.5113530800629
 20
1232.5046021595549
 30
0.0
 40
4.5
  0
ARC
  5
DDD
  8
UMCL1
  6
CONTINUOUS
 10
1607.5113530800629
 20
1232.5046021595549
 30
0.0
 40
7.0
 50
124.7719440319437
 51
55.228055968056331
  0
LINE
  5
DDE
  8
UMCL1
  6
CONTINUOUS
 10
1565.5113530800629
 20
1267.0046021595549
 30
0.0
 11
1594.5113530800629
 21
1267.0046021595549
 31
0.0
  0
LINE
  5
DDF
  8
UMCL1
  6
CONTINUOUS
 10
1594.5113530800629
 20
1256.0046021595549
 30
0.0
 11
1565.5113530800629
 21
1256.0046021595549
 31
0.0
  0
LINE
  5
DE0
  8
UMCL1
  6
CONTINUOUS
 10
1565.5113530800629
 20
1274.204602159555
 30
0.0
 11
1565.5113530800629
 21
1267.0046021595549
 31
0.0
  0
LINE
  5
DE1
  8
UMCL1
  6
CONTINUOUS
 10
1565.5113530800629
 20
1256.0046021595549
 30
0.0
 11
1565.5113530800629
 21
1248.8046021595551
 31
0.0
  0
LINE
  5
DE2
  8
UMCL1
  6
CONTINUOUS
 10
1594.5113530800629
 20
1267.0046021595549
 30
0.0
 11
1594.5113530800629
 21
1256.0046021595549
 31
0.0
  0
LINE
  5
DE3
  8
UMCL1
  6
CONTINUOUS
 10
1616.0113530800629
 20
1281.204602159555
 30
0.0
 11
1616.0113530800629
 21
1293.815591002362
 31
0.0
  0
LINE
  5
DE4
  8
UMCL1
  6
CONTINUOUS
 10
1616.0113530800629
 20
1229.193613316748
 30
0.0
 11
1616.0113530800629
 21
1241.8046021595551
 31
0.0
  0
LINE
  5
DE5
  8
UMCL1
  6
CONTINUOUS
 10
1655.5113530800629
 20
1269.0046021595549
 30
0.0
 11
1636.104688880705
 21
1274.204602159555
 31
0.0
  0
LINE
  5
DE6
  8
UMCL1
  6
CONTINUOUS
 10
1636.104688880705
 20
1274.204602159555
 30
0.0
 11
1636.104688880705
 21
1248.8046021595551
 31
0.0
  0
LINE
  5
DE7
  8
UMCL1
  6
CONTINUOUS
 10
1636.104688880705
 20
1248.8046021595551
 30
0.0
 11
1655.5113530800629
 21
1254.0046021595549
 31
0.0
  0
LINE
  5
DE8
  8
UMCL1
  6
HIDDEN
 62
     3
 10
1584.5113530800629
 20
1274.204602159555
 30
0.0
 11
1584.5113530800629
 21
1248.8046021595551
 31
0.0
  0
LINE
  5
DE9
  8
UMCL1
  6
HIDDEN
 62
     3
 10
1572.511353080062
 20
1274.204602159555
 30
0.0
 11
1572.511353080062
 21
1248.8046021595551
 31
0.0
  0
ARC
  5
DEA
  8
UMCL1
  6
CONTINUOUS
 10
1578.511353080062
 20
1261.5046021595549
 30
0.0
 40
13.0
 50
154.97100051238641
 51
205.0289994876135
  0
ARC
  5
DEB
  8
UMCL1
  6
CONTINUOUS
 10
1578.511353080062
 20
1261.5046021595549
 30
0.0
 40
13.0
 50
334.97100051238641
 51
25.028999487613579
  0
ARC
  5
DEC
  8
UMCL1
  6
CONTINUOUS
 10
1578.511353080062
 20
1261.5046021595549
 30
0.0
 40
7.0
 50
308.21321070173627
 51
51.786789298263777
  0
ARC
  5
DED
  8
UMCL1
  6
CONTINUOUS
 10
1578.511353080062
 20
1261.5046021595549
 30
0.0
 40
7.0
 50
128.21321070173619
 51
231.78678929825361
  0
LINE
  5
DEE
  8
UMCL1
  6
CONTINUOUS
 10
1636.1046888807041
 20
1180.779239165626
 30
0.0
 11
1636.1046888807041
 21
1155.3792391656259
 31
0.0
  0
LINE
  5
DEF
  8
UMCL1
  6
CONTINUOUS
 10
1565.5113530800629
 20
1152.779239165626
 30
0.0
 11
1564.511353080062
 21
1150.779239165626
 31
0.0
  0
LINE
  5
DF0
  8
UMCL1
  6
CONTINUOUS
 10
1564.511353080062
 20
1150.779239165626
 30
0.0
 11
1592.5113530800629
 21
1150.779239165626
 31
0.0
  0
LINE
  5
DF1
  8
UMCL1
  6
CONTINUOUS
 10
1592.5113530800629
 20
1150.779239165626
 30
0.0
 11
1591.511353080062
 21
1152.779239165626
 31
0.0
  0
LINE
  5
DF2
  8
UMCL1
  6
CONTINUOUS
 10
1591.511353080062
 20
1152.779239165626
 30
0.0
 11
1565.5113530800629
 21
1152.779239165626
 31
0.0
  0
LINE
  5
DF3
  8
UMCL1
  6
HIDDEN
 62
     2
 10
1585.5113530800629
 20
1180.7792391656269
 30
0.0
 11
1571.5113530800629
 21
1180.7792391656269
 31
0.0
  0
CIRCLE
  5
DF4
  8
UMCL1
  6
CONTINUOUS
 10
1578.511353080062
 20
1168.0792391656259
 30
0.0
 40
6.0
  0
LINE
  5
DF5
  8
UMCL1
  6
HIDDEN
 62
     3
 10
1571.5113530800629
 20
1180.7792391656269
 30
0.0
 11
1565.5113530800629
 21
1174.779239165626
 31
0.0
  0
LINE
  5
DF6
  8
UMCL1
  6
HIDDEN
 62
     3
 10
1585.5113530800629
 20
1180.7792391656269
 30
0.0
 11
1591.511353080062
 21
1174.779239165626
 31
0.0
  0
LINE
  5
DF7
  8
UMCL1
  6
CENTER
 62
     1
 10
1578.511353080062
 20
1016.377188358057
 30
0.0
 11
1578.5113530800629
 21
1182.779239165626
 31
0.0
  0
LINE
  5
DF8
  8
UMCL1
  6
HIDDEN
 62
     3
 10
1615.0113530800629
 20
1146.5771883580569
 30
0.0
 11
1602.0113530800629
 21
1146.5771883580569
 31
0.0
  0
LINE
  5
DF9
  8
UMCL1
  6
HIDDEN
 62
     3
 10
1602.0113530800629
 20
1146.5771883580569
 30
0.0
 11
1597.0113530800629
 21
1141.5771883580569
 31
0.0
  0
LINE
  5
DFA
  8
UMCL1
  6
CONTINUOUS
 10
1597.0113530800629
 20
1141.5771883580569
 30
0.0
 11
1597.0113530800629
 21
1118.3771883580571
 31
0.0
  0
LINE
  5
DFB
  8
UMCL1
  6
CONTINUOUS
 10
1597.0113530800629
 20
1118.3771883580571
 30
0.0
 11
1620.0113530800629
 21
1118.3771883580571
 31
0.0
  0
LINE
  5
DFC
  8
UMCL1
  6
CONTINUOUS
 10
1620.0113530800629
 20
1118.3771883580571
 30
0.0
 11
1620.0113530800629
 21
1141.5771883580569
 31
0.0
  0
LINE
  5
DFD
  8
UMCL1
  6
HIDDEN
 62
     3
 10
1620.0113530800629
 20
1141.5771883580569
 30
0.0
 11
1615.0113530800629
 21
1146.5771883580569
 31
0.0
  0
POLYLINE
  5
DFE
  8
UMCL1
  6
CONTINUOUS
 66
     1
 10
0.0
 20
0.0
 30
0.0
  0
VERTEX
  5
1227
  8
UMCL1
  6
CONTINUOUS
 10
1620.0113530800629
 20
1135.0771883580569
 30
0.0
  0
VERTEX
  5
1228
  8
UMCL1
  6
CONTINUOUS
 10
1620.0113530800629
 20
1168.0792381189169
 30
0.0
 42
1.0000000568863789
  0
VERTEX
  5
1229
  8
UMCL1
  6
CONTINUOUS
 10
1597.0113530800629
 20
1168.0792391656259
 30
0.0
  0
VERTEX
  5
122A
  8
UMCL1
  6
CONTINUOUS
 10
1597.0113530800629
 20
1135.0771894047671
 30
0.0
 42
1.0000000910182081
  0
VERTEX
  5
122B
  8
UMCL1
  6
CONTINUOUS
 10
1620.0113530800629
 20
1135.0771894047671
 30
0.0
  0
SEQEND
  5
122C
  8
UMCL1
  6
CONTINUOUS
  0
LINE
  5
DFF
  8
UMCL1
  6
CONTINUOUS
 10
1655.5113530800629
 20
1170.3792391656259
 30
0.0
 11
1636.1046888807041
 21
1180.779239165626
 31
0.0
  0
LINE
  5
E00
  8
UMCL1
  6
CONTINUOUS
 10
1565.5113530800629
 20
1162.779239165626
 30
0.0
 11
1572.911353080063
 21
1155.3792391656259
 31
0.0
  0
ARC
  5
E01
  8
UMCL1
  6
CONTINUOUS
 10
1578.511353080062
 20
1261.5046021595549
 30
0.0
 40
14.0
 50
336.86760360070389
 51
23.132396399296098
  0
LINE
  5
E02
  8
UMCL1
  6
HIDDEN
 62
     3
 10
1565.5113530800629
 20
1174.779239165626
 30
0.0
 11
1566.7321340906719
 21
1174.779239165626
 31
0.0
  0
LINE
  5
E03
  8
UMCL1
  6
HIDDEN
 62
     3
 10
1591.511353080062
 20
1174.779239165626
 30
0.0
 11
1590.290572069453
 21
1174.779239165626
 31
0.0
  0
LINE
  5
E04
  8
UMCL1
  6
CONTINUOUS
 10
1592.5113530800629
 20
1118.3771883580571
 30
0.0
 11
1592.5113530800629
 21
1150.7771883580569
 31
0.0
  0
LINE
  5
E05
  8
UMCL1
  6
CONTINUOUS
 10
1564.5113530800629
 20
1150.7771883580569
 30
0.0
 11
1564.5113530800629
 21
1118.3771883580571
 31
0.0
  0
LINE
  5
E06
  8
UMCL1
  6
CONTINUOUS
 10
1655.5113530800629
 20
1155.3792391656259
 30
0.0
 11
1655.5113530800629
 21
1170.3792391656259
 31
0.0
  0
LINE
  5
E07
  8
UMCL1
  6
CONTINUOUS
 10
1565.5113530800629
 20
1180.779239165626
 30
0.0
 11
1565.5113530800629
 21
1162.779239165626
 31
0.0
  0
LINE
  5
E08
  8
UMCL1
  6
CONTINUOUS
 10
1565.5113530800629
 20
1180.779239165626
 30
0.0
 11
1636.1046888807041
 21
1180.779239165626
 31
0.0
  0
LINE
  5
E09
  8
UMCL1
  6
CONTINUOUS
 10
1572.911353080063
 20
1155.3792391656259
 30
0.0
 11
1597.0113530800629
 21
1155.3792391656259
 31
0.0
  0
LINE
  5
E0A
  8
UMCL1
  6
HIDDEN
 62
     3
 10
1597.0113530800629
 20
1155.3792391656259
 30
0.0
 11
1620.0113530800629
 21
1155.3792391656259
 31
0.0
  0
LINE
  5
E0B
  8
UMCL1
  6
CONTINUOUS
 10
1620.0113530800629
 20
1155.3792391656259
 30
0.0
 11
1655.5113530800629
 21
1155.3792391656259
 31
0.0
  0
LINE
  5
E0C
  8
UMCL1
  6
CONTINUOUS
 10
1655.5113530800629
 20
1254.0046021595549
 30
0.0
 11
1655.5113530800629
 21
1269.0046021595549
 31
0.0
  0
ARC
  5
E0D
  8
UMCL1
  6
CONTINUOUS
 10
1578.511353080062
 20
1261.5046021595549
 30
0.0
 40
14.0
 50
156.86760360070389
 51
203.13239639929611
  0
LINE
  5
E0E
  8
UMCL1
  6
CONTINUOUS
 10
1565.5113530800629
 20
1274.204602159555
 30
0.0
 11
1636.104688880705
 21
1274.204602159555
 31
0.0
  0
LINE
  5
E0F
  8
UMCL1
  6
CONTINUOUS
 10
1565.5113530800629
 20
1248.8046021595551
 30
0.0
 11
1636.104688880705
 21
1248.8046021595551
 31
0.0
  0
LINE
  5
E10
  8
UMCL1
  6
HIDDEN
 62
     3
 10
1620.0113530800629
 20
1274.204602159555
 30
0.0
 11
1620.0113530800629
 21
1248.8046021595551
 31
0.0
  0
LINE
  5
E11
  8
UMCL1
  6
CENTER
 62
     1
 10
1578.5113530800629
 20
1301.0046021595549
 30
0.0
 11
1578.5113530800629
 21
1222.0046021595549
 31
0.0
  0
LINE
  5
E12
  8
UMCL1
  6
CENTER
 62
     1
 10
1539.0113530800629
 20
1261.5046021595549
 30
0.0
 11
1657.5113530800629
 21
1261.5046021595549
 31
0.0
  0
LINE
  5
E13
  8
UMCL1
  6
HIDDEN
 62
     3
 10
1591.511353080062
 20
1174.779239165626
 30
0.0
 11
1591.511353080062
 21
1155.3792391656259
 31
0.0
  0
LINE
  5
E14
  8
UMCL1
  6
HIDDEN
 62
     3
 10
1590.290572069453
 20
1176.0000201762359
 30
0.0
 11
1590.290572069453
 21
1155.3792391656259
 31
0.0
  0
LINE
  5
E15
  8
UMCL1
  6
HIDDEN
 62
     3
 10
1565.5113530800629
 20
1174.779239165626
 30
0.0
 11
1565.5113530800629
 21
1162.7792391656269
 31
0.0
  0
LINE
  5
E16
  8
UMCL1
  6
HIDDEN
 62
     3
 10
1566.7321340906719
 20
1176.0000201762359
 30
0.0
 11
1566.7321340906719
 21
1161.558458155017
 31
0.0
  0
LINE
  5
E17
  8
UMCL1
  6
CONTINUOUS
 10
1565.5113530800629
 20
1162.7792391656269
 30
0.0
 11
1565.5113530800629
 21
1152.779239165626
 31
0.0
  0
LINE
  5
E18
  8
UMCL1
  6
CONTINUOUS
 10
1566.7321340906719
 20
1161.558458155017
 30
0.0
 11
1566.7321340906719
 21
1152.779239165626
 31
0.0
  0
LINE
  5
E19
  8
UMCL1
  6
CONTINUOUS
 10
1590.290572069453
 20
1155.3792391656259
 30
0.0
 11
1590.290572069453
 21
1152.779239165626
 31
0.0
  0
LINE
  5
E1A
  8
UMCL1
  6
CONTINUOUS
 10
1591.511353080062
 20
1155.3792391656259
 30
0.0
 11
1591.511353080062
 21
1152.779239165626
 31
0.0
  0
LINE
  5
E1B
  8
UMCL1
  6
HIDDEN
 62
     3
 10
1542.5113530800629
 20
1118.3771883580571
 30
0.0
 11
1542.5113530800629
 21
1109.3771883580571
 31
0.0
  0
LINE
  5
E1C
  8
UMCL1
  6
HIDDEN
 62
     3
 10
1542.5113530800629
 20
1109.3771883580571
 30
0.0
 11
1556.511353080062
 21
1109.3771883580571
 31
0.0
  0
LINE
  5
E1D
  8
UMCL1
  6
HIDDEN
 62
     3
 10
1556.511353080062
 20
1109.3771883580571
 30
0.0
 11
1556.511353080062
 21
1118.3771883580571
 31
0.0
  0
LINE
  5
E1E
  8
UMCL1
  6
HIDDEN
 62
     3
 10
1554.0113530800629
 20
1018.377188358058
 30
0.0
 11
1554.011353080062
 21
1109.3771883580571
 31
0.0
  0
LINE
  5
E1F
  8
UMCL1
  6
CENTER
 62
     1
 10
1549.5113530800629
 20
1016.877188358058
 30
0.0
 11
1549.5113530800629
 21
1119.8771883580571
 31
0.0
  0
LINE
  5
E20
  8
UMCL1
  6
HIDDEN
 62
     3
 10
1545.0113530800629
 20
1018.377188358058
 30
0.0
 11
1545.011353080062
 21
1109.3771883580571
 31
0.0
  0
LINE
  5
E21
  8
UMCL1
  6
HIDDEN
 62
     3
 10
1600.5113530800629
 20
1118.3771883580571
 30
0.0
 11
1600.5113530800629
 21
1109.3771883580571
 31
0.0
  0
LINE
  5
E22
  8
UMCL1
  6
HIDDEN
 62
     3
 10
1600.5113530800629
 20
1109.3771883580571
 30
0.0
 11
1614.5113530800629
 21
1109.3771883580571
 31
0.0
  0
LINE
  5
E23
  8
UMCL1
  6
HIDDEN
 62
     3
 10
1614.5113530800629
 20
1109.3771883580571
 30
0.0
 11
1614.5113530800629
 21
1118.3771883580571
 31
0.0
  0
LINE
  5
E24
  8
UMCL1
  6
HIDDEN
 62
     3
 10
1612.0113530800629
 20
1018.377188358057
 30
0.0
 11
1612.0113530800629
 21
1109.3771883580571
 31
0.0
  0
LINE
  5
E25
  8
UMCL1
  6
CENTER
 62
     1
 10
1607.5113530800629
 20
1016.877188358057
 30
0.0
 11
1607.5113530800629
 21
1119.8771883580571
 31
0.0
  0
LINE
  5
E26
  8
UMCL1
  6
HIDDEN
 62
     3
 10
1603.011353080062
 20
1018.377188358057
 30
0.0
 11
1603.011353080062
 21
1109.3771883580571
 31
0.0
  0
CIRCLE
  5
E27
  8
UMCL1
  6
CONTINUOUS
 10
1562.5113530800629
 20
1084.8771883580571
 30
0.0
 40
5.75
  0
CIRCLE
  5
E28
  8
UMCL1
  6
CONTINUOUS
 10
1594.511353080062
 20
1039.8771883580571
 30
0.0
 40
5.75
  0
LINE
  5
E29
  8
UMCL1
  6
CENTER
 62
     1
 10
1599.211353080063
 20
1290.504602159554
 30
0.0
 11
1604.911353080063
 21
1290.504602159554
 31
0.0
  0
LINE
  5
E2A
  8
UMCL1
  6
CENTER
 62
     1
 10
1606.211353080063
 20
1290.504602159554
 30
0.0
 11
1608.8113530800631
 21
1290.504602159554
 31
0.0
  0
LINE
  5
E2B
  8
UMCL1
  6
CENTER
 62
     1
 10
1610.1113530800631
 20
1290.504602159554
 30
0.0
 11
1615.8113530800631
 21
1290.504602159554
 31
0.0
  0
LINE
  5
E2C
  8
UMCL1
  6
CENTER
 62
     1
 10
1607.5113530800629
 20
1282.204602159555
 30
0.0
 11
1607.5113530800629
 21
1287.904602159555
 31
0.0
  0
LINE
  5
E2D
  8
UMCL1
  6
CENTER
 62
     1
 10
1607.5113530800629
 20
1289.204602159555
 30
0.0
 11
1607.5113530800629
 21
1291.8046021595551
 31
0.0
  0
LINE
  5
E2E
  8
UMCL1
  6
CENTER
 62
     1
 10
1607.5113530800629
 20
1293.1046021595539
 30
0.0
 11
1607.5113530800629
 21
1298.804602159554
 31
0.0
  0
LINE
  5
E2F
  8
UMCL1
  6
CENTER
 62
     1
 10
1599.2113530800621
 20
1232.5046021595549
 30
0.0
 11
1604.9113530800621
 21
1232.5046021595549
 31
0.0
  0
LINE
  5
E30
  8
UMCL1
  6
CENTER
 62
     1
 10
1606.211353080063
 20
1232.5046021595549
 30
0.0
 11
1608.8113530800631
 21
1232.5046021595549
 31
0.0
  0
LINE
  5
E31
  8
UMCL1
  6
CENTER
 62
     1
 10
1610.1113530800619
 20
1232.5046021595549
 30
0.0
 11
1615.8113530800631
 21
1232.5046021595549
 31
0.0
  0
LINE
  5
E32
  8
UMCL1
  6
CENTER
 62
     1
 10
1607.5113530800629
 20
1224.204602159555
 30
0.0
 11
1607.5113530800629
 21
1229.904602159555
 31
0.0
  0
LINE
  5
E33
  8
UMCL1
  6
CENTER
 62
     1
 10
1607.5113530800629
 20
1231.204602159555
 30
0.0
 11
1607.5113530800629
 21
1233.8046021595551
 31
0.0
  0
LINE
  5
E34
  8
UMCL1
  6
CENTER
 62
     1
 10
1607.5113530800629
 20
1235.104602159555
 30
0.0
 11
1607.5113530800629
 21
1240.8046021595551
 31
0.0
  0
LINE
  5
E35
  8
UMCL1
  6
CENTER
 62
     1
 10
1541.211353080063
 20
1232.504602159556
 30
0.0
 11
1546.911353080063
 21
1232.504602159556
 31
0.0
  0
LINE
  5
E36
  8
UMCL1
  6
CENTER
 62
     1
 10
1548.211353080063
 20
1232.504602159556
 30
0.0
 11
1550.8113530800631
 21
1232.504602159556
 31
0.0
  0
LINE
  5
E37
  8
UMCL1
  6
CENTER
 62
     1
 10
1552.1113530800631
 20
1232.504602159556
 30
0.0
 11
1557.8113530800631
 21
1232.504602159556
 31
0.0
  0
LINE
  5
E38
  8
UMCL1
  6
CENTER
 62
     1
 10
1549.5113530800629
 20
1224.2046021595561
 30
0.0
 11
1549.5113530800629
 21
1229.9046021595559
 31
0.0
  0
LINE
  5
E39
  8
UMCL1
  6
CENTER
 62
     1
 10
1549.5113530800629
 20
1231.2046021595561
 30
0.0
 11
1549.5113530800629
 21
1233.804602159556
 31
0.0
  0
LINE
  5
E3A
  8
UMCL1
  6
CENTER
 62
     1
 10
1549.5113530800629
 20
1235.104602159555
 30
0.0
 11
1549.5113530800629
 21
1240.804602159556
 31
0.0
  0
LINE
  5
E3B
  8
UMCL1
  6
CENTER
 62
     1
 10
1541.211353080063
 20
1290.5046021595549
 30
0.0
 11
1546.911353080063
 21
1290.5046021595549
 31
0.0
  0
LINE
  5
E3C
  8
UMCL1
  6
CENTER
 62
     1
 10
1548.2113530800641
 20
1290.5046021595549
 30
0.0
 11
1550.811353080064
 21
1290.5046021595549
 31
0.0
  0
LINE
  5
E3D
  8
UMCL1
  6
CENTER
 62
     1
 10
1552.111353080064
 20
1290.5046021595549
 30
0.0
 11
1557.811353080064
 21
1290.5046021595549
 31
0.0
  0
LINE
  5
E3E
  8
UMCL1
  6
CENTER
 62
     1
 10
1549.5113530800629
 20
1282.204602159555
 30
0.0
 11
1549.5113530800629
 21
1287.904602159555
 31
0.0
  0
LINE
  5
E3F
  8
UMCL1
  6
CENTER
 62
     1
 10
1549.5113530800629
 20
1289.204602159555
 30
0.0
 11
1549.5113530800629
 21
1291.8046021595551
 31
0.0
  0
LINE
  5
E40
  8
UMCL1
  6
CENTER
 62
     1
 10
1549.5113530800629
 20
1293.104602159555
 30
0.0
 11
1549.5113530800629
 21
1298.8046021595551
 31
0.0
  0
LINE
  5
E41
  8
UMCL1
  6
CENTER
 62
     1
 10
1601.0113530800629
 20
1168.0792391656259
 30
0.0
 11
1605.5113530800629
 21
1168.0792391656259
 31
0.0
  0
LINE
  5
E42
  8
UMCL1
  6
CENTER
 62
     1
 10
1607.0113530800629
 20
1168.0792391656259
 30
0.0
 11
1610.0113530800629
 21
1168.0792391656259
 31
0.0
  0
LINE
  5
E43
  8
UMCL1
  6
CENTER
 62
     1
 10
1611.5113530800629
 20
1168.0792391656259
 30
0.0
 11
1616.0113530800629
 21
1168.0792391656259
 31
0.0
  0
LINE
  5
E44
  8
UMCL1
  6
CENTER
 62
     1
 10
1608.5113530800629
 20
1160.5792391656259
 30
0.0
 11
1608.5113530800629
 21
1165.0792391656259
 31
0.0
  0
LINE
  5
E45
  8
UMCL1
  6
CENTER
 62
     1
 10
1608.5113530800629
 20
1166.5792391656259
 30
0.0
 11
1608.5113530800629
 21
1169.5792391656271
 31
0.0
  0
LINE
  5
E46
  8
UMCL1
  6
CENTER
 62
     1
 10
1608.5113530800629
 20
1171.0792391656259
 30
0.0
 11
1608.5113530800629
 21
1175.5792391656259
 31
0.0
  0
LINE
  5
E47
  8
UMCL1
  6
CENTER
 62
     1
 10
1601.0113530800629
 20
1135.0771883580569
 30
0.0
 11
1605.5113530800629
 21
1135.0771883580569
 31
0.0
  0
LINE
  5
E48
  8
UMCL1
  6
CENTER
 62
     1
 10
1607.0113530800629
 20
1135.0771883580569
 30
0.0
 11
1610.0113530800629
 21
1135.0771883580569
 31
0.0
  0
LINE
  5
E49
  8
UMCL1
  6
CENTER
 62
     1
 10
1611.5113530800629
 20
1135.0771883580569
 30
0.0
 11
1616.0113530800629
 21
1135.0771883580569
 31
0.0
  0
LINE
  5
E4A
  8
UMCL1
  6
CENTER
 62
     1
 10
1608.5113530800629
 20
1127.5771883580569
 30
0.0
 11
1608.5113530800629
 21
1132.0771883580569
 31
0.0
  0
LINE
  5
E4B
  8
UMCL1
  6
CENTER
 62
     1
 10
1608.5113530800629
 20
1133.5771883580569
 30
0.0
 11
1608.5113530800629
 21
1136.5771883580569
 31
0.0
  0
LINE
  5
E4C
  8
UMCL1
  6
CENTER
 62
     1
 10
1608.5113530800629
 20
1138.077188358058
 30
0.0
 11
1608.5113530800629
 21
1142.5771883580569
 31
0.0
  0
LINE
  5
E4D
  8
UMCL1
  6
CENTER
 62
     1
 10
1571.0113530800629
 20
1168.0792391656259
 30
0.0
 11
1575.5113530800629
 21
1168.0792391656259
 31
0.0
  0
LINE
  5
E4E
  8
UMCL1
  6
CENTER
 62
     1
 10
1577.011353080062
 20
1168.0792391656259
 30
0.0
 11
1580.011353080062
 21
1168.0792391656259
 31
0.0
  0
LINE
  5
E4F
  8
UMCL1
  6
CENTER
 62
     1
 10
1581.5113530800629
 20
1168.0792391656259
 30
0.0
 11
1586.0113530800629
 21
1168.0792391656259
 31
0.0
  0
LINE
  5
E50
  8
UMCL1
  6
CENTER
 62
     1
 10
1608.5113530800629
 20
1160.5792391656259
 30
0.0
 11
1608.5113530800629
 21
1142.5771883580569
 31
0.0
  0
LINE
  5
E51
  8
UMCL1
  6
CENTER
 62
     1
 10
1647.5113530800629
 20
1180.5192093629739
 30
0.0
 11
1647.5113530800629
 21
1142.5771883580569
 31
0.0
  0
LINE
  5
E52
  8
UMCL1
  6
CONTINUOUS
 10
1541.8113530800631
 20
1018.377188358058
 30
0.0
 11
1615.211353080063
 21
1018.377188358057
 31
0.0
  0
LINE
  5
E53
  8
UMCL1
  6
CONTINUOUS
 10
1616.011353080062
 20
1019.177188358057
 30
0.0
 11
1616.011353080062
 21
1117.577188358058
 31
0.0
  0
LINE
  5
E54
  8
UMCL1
  6
CONTINUOUS
 10
1615.211353080063
 20
1118.3771883580571
 30
0.0
 11
1541.8113530800631
 21
1118.3771883580571
 31
0.0
  0
LINE
  5
E55
  8
UMCL1
  6
CONTINUOUS
 10
1541.0113530800629
 20
1117.5771883580569
 30
0.0
 11
1541.0113530800629
 21
1019.1771883580579
 31
0.0
  0
LINE
  5
E56
  8
UMCL1
  6
CONTINUOUS
 10
1616.011353080062
 20
1117.5771883580569
 30
0.0
 11
1541.0113530800629
 21
1117.5771883580569
 31
0.0
  0
LINE
  5
E57
  8
UMCL1
  6
CONTINUOUS
 10
1541.0113530800629
 20
1019.1771883580579
 30
0.0
 11
1616.011353080062
 21
1019.1771883580579
 31
0.0
  0
LINE
  5
E58
  8
UMCL1
  6
CONTINUOUS
 10
1615.211353080063
 20
1118.3771883580571
 30
0.0
 11
1616.011353080062
 21
1117.577188358058
 31
0.0
  0
LINE
  5
E59
  8
UMCL1
  6
CONTINUOUS
 10
1541.8113530800631
 20
1118.3771883580571
 30
0.0
 11
1541.0113530800629
 21
1117.5771883580569
 31
0.0
  0
LINE
  5
E5A
  8
UMCL1
  6
CONTINUOUS
 10
1541.0113530800629
 20
1019.1771883580579
 30
0.0
 11
1541.8113530800631
 21
1018.377188358058
 31
0.0
  0
LINE
  5
E5B
  8
UMCL1
  6
CONTINUOUS
 10
1615.211353080063
 20
1018.377188358057
 30
0.0
 11
1616.011353080062
 21
1019.177188358057
 31
0.0
  0
LINE
  5
E5C
  8
UMCL1
  6
CONTINUOUS
 10
1570.961353080063
 20
1274.204602159554
 30
0.0
 11
1570.961353080063
 21
1275.3046021595551
 31
0.0
  0
LINE
  5
E5D
  8
UMCL1
  6
CONTINUOUS
 10
1570.961353080063
 20
1275.3046021595551
 30
0.0
 11
1586.0613530800631
 21
1275.3046021595551
 31
0.0
  0
LINE
  5
E5E
  8
UMCL1
  6
CONTINUOUS
 10
1586.0613530800631
 20
1275.3046021595551
 30
0.0
 11
1586.0613530800631
 21
1274.204602159554
 31
0.0
  0
LINE
  5
E5F
  8
UMCL1
  6
CONTINUOUS
 10
1572.7613530800629
 20
1275.3046021595551
 30
0.0
 11
1572.7613530800629
 21
1274.204602159554
 31
0.0
  0
LINE
  5
E60
  8
UMCL1
  6
CONTINUOUS
 10
1584.2613530800629
 20
1275.3046021595551
 30
0.0
 11
1584.2613530800629
 21
1274.204602159554
 31
0.0
  0
LINE
  5
E61
  8
UMCL1
  6
HIDDEN
 62
     3
 10
1614.5113530800629
 20
1282.204602159555
 30
0.0
 11
1614.5113530800629
 21
1240.8046021595551
 31
0.0
  0
LINE
  5
E62
  8
UMCL1
  6
HIDDEN
 62
     3
 10
1602.5113530800629
 20
1282.204602159555
 30
0.0
 11
1602.5113530800629
 21
1240.8046021595551
 31
0.0
  0
LINE
  5
E63
  8
UMCL1
  6
CONTINUOUS
 10
1573.0113530800629
 20
1276.7546021595549
 30
0.0
 11
1584.0113530800629
 21
1276.7546021595549
 31
0.0
  0
LINE
  5
E64
  8
UMCL1
  6
CONTINUOUS
 10
1572.5113530800629
 20
1276.2546021595549
 30
0.0
 11
1584.5113530800629
 21
1276.2546021595549
 31
0.0
  0
LINE
  5
E65
  8
UMCL1
  6
CONTINUOUS
 10
1572.5113530800629
 20
1276.2546021595549
 30
0.0
 11
1573.0113530800629
 21
1276.7546021595549
 31
0.0
  0
LINE
  5
E66
  8
UMCL1
  6
CONTINUOUS
 10
1584.0113530800629
 20
1276.7546021595549
 30
0.0
 11
1584.5113530800629
 21
1276.2546021595549
 31
0.0
  0
LINE
  5
E67
  8
UMCL1
  6
CONTINUOUS
 10
1570.961353080063
 20
1248.8046021595551
 30
0.0
 11
1570.961353080063
 21
1247.704602159555
 31
0.0
  0
LINE
  5
E68
  8
UMCL1
  6
CONTINUOUS
 10
1570.961353080063
 20
1247.704602159555
 30
0.0
 11
1586.0613530800631
 21
1247.704602159555
 31
0.0
  0
LINE
  5
E69
  8
UMCL1
  6
CONTINUOUS
 10
1586.0613530800631
 20
1247.704602159555
 30
0.0
 11
1586.0613530800631
 21
1248.8046021595551
 31
0.0
  0
LINE
  5
E6A
  8
UMCL1
  6
CONTINUOUS
 10
1572.7613530800629
 20
1247.704602159555
 30
0.0
 11
1572.7613530800629
 21
1248.8046021595551
 31
0.0
  0
LINE
  5
E6B
  8
UMCL1
  6
CONTINUOUS
 10
1584.2613530800629
 20
1247.704602159555
 30
0.0
 11
1584.2613530800629
 21
1248.8046021595551
 31
0.0
  0
LINE
  5
E6C
  8
UMCL1
  6
CONTINUOUS
 10
1597.0113530800629
 20
1282.204602159555
 30
0.0
 11
1597.0113530800629
 21
1274.204602159555
 31
0.0
  0
LINE
  5
E6D
  8
UMCL1
  6
CONTINUOUS
 10
1620.0113530800629
 20
1282.204602159555
 30
0.0
 11
1620.0113530800629
 21
1274.204602159555
 31
0.0
  0
LINE
  5
E6E
  8
UMCL1
  6
CONTINUOUS
 10
1597.0113530800629
 20
1240.8046021595551
 30
0.0
 11
1597.0113530800629
 21
1248.8046021595551
 31
0.0
  0
LINE
  5
E6F
  8
UMCL1
  6
CONTINUOUS
 10
1620.0113530800629
 20
1240.8046021595551
 30
0.0
 11
1620.0113530800629
 21
1248.8046021595551
 31
0.0
  0
LINE
  5
E70
  8
UMCL1
  6
CONTINUOUS
 10
1584.5113530800629
 20
1276.2546021595549
 30
0.0
 11
1584.5113530800629
 21
1275.3046021595551
 31
0.0
  0
LINE
  5
E71
  8
UMCL1
  6
CONTINUOUS
 10
1572.5113530800629
 20
1276.2546021595549
 30
0.0
 11
1572.5113530800629
 21
1275.3046021595551
 31
0.0
  0
LINE
  5
E72
  8
UMCL1
  6
CONTINUOUS
 10
1573.0113530800629
 20
1246.254602159554
 30
0.0
 11
1584.0113530800629
 21
1246.254602159554
 31
0.0
  0
LINE
  5
E73
  8
UMCL1
  6
CONTINUOUS
 10
1572.5113530800629
 20
1246.7546021595549
 30
0.0
 11
1584.5113530800629
 21
1246.7546021595549
 31
0.0
  0
LINE
  5
E74
  8
UMCL1
  6
CONTINUOUS
 10
1572.5113530800629
 20
1246.7546021595549
 30
0.0
 11
1573.0113530800629
 21
1246.254602159554
 31
0.0
  0
LINE
  5
E75
  8
UMCL1
  6
CONTINUOUS
 10
1584.0113530800629
 20
1246.254602159554
 30
0.0
 11
1584.5113530800629
 21
1246.7546021595549
 31
0.0
  0
LINE
  5
E76
  8
UMCL1
  6
CONTINUOUS
 10
1584.5113530800629
 20
1246.7546021595549
 30
0.0
 11
1584.5113530800629
 21
1247.704602159555
 31
0.0
  0
LINE
  5
E77
  8
UMCL1
  6
CONTINUOUS
 10
1572.5113530800629
 20
1246.7546021595549
 30
0.0
 11
1572.5113530800629
 21
1247.704602159555
 31
0.0
  0
LINE
  5
E78
  8
UMCL1
  6
CONTINUOUS
 10
1597.0113530800629
 20
1282.204602159555
 30
0.0
 11
1620.0113530800629
 21
1282.204602159555
 31
0.0
  0
LINE
  5
E79
  8
UMCL1
  6
CONTINUOUS
 10
1597.0113530800629
 20
1240.8046021595551
 30
0.0
 11
1620.0113530800629
 21
1240.8046021595551
 31
0.0
  0
LINE
  5
E7A
  8
UMCL1
  6
CONTINUOUS
 10
1600.9613530800621
 20
1282.204602159554
 30
0.0
 11
1600.9613530800621
 21
1283.304602159554
 31
0.0
  0
LINE
  5
E7B
  8
UMCL1
  6
CONTINUOUS
 10
1600.9613530800621
 20
1283.304602159554
 30
0.0
 11
1616.0613530800631
 21
1283.304602159554
 31
0.0
  0
LINE
  5
E7C
  8
UMCL1
  6
CONTINUOUS
 10
1616.0613530800631
 20
1283.304602159554
 30
0.0
 11
1616.0613530800631
 21
1282.204602159554
 31
0.0
  0
LINE
  5
E7D
  8
UMCL1
  6
CONTINUOUS
 10
1602.7613530800629
 20
1283.304602159554
 30
0.0
 11
1602.7613530800629
 21
1282.204602159554
 31
0.0
  0
LINE
  5
E7E
  8
UMCL1
  6
CONTINUOUS
 10
1614.2613530800629
 20
1283.304602159554
 30
0.0
 11
1614.2613530800629
 21
1282.204602159554
 31
0.0
  0
LINE
  5
E7F
  8
UMCL1
  6
CONTINUOUS
 10
1603.0113530800629
 20
1284.7546021595549
 30
0.0
 11
1614.0113530800629
 21
1284.7546021595549
 31
0.0
  0
LINE
  5
E80
  8
UMCL1
  6
CONTINUOUS
 10
1602.5113530800629
 20
1284.2546021595549
 30
0.0
 11
1614.5113530800629
 21
1284.2546021595549
 31
0.0
  0
LINE
  5
E81
  8
UMCL1
  6
CONTINUOUS
 10
1602.5113530800629
 20
1284.2546021595549
 30
0.0
 11
1603.0113530800629
 21
1284.7546021595549
 31
0.0
  0
LINE
  5
E82
  8
UMCL1
  6
CONTINUOUS
 10
1614.0113530800629
 20
1284.7546021595549
 30
0.0
 11
1614.5113530800629
 21
1284.2546021595549
 31
0.0
  0
LINE
  5
E83
  8
UMCL1
  6
CONTINUOUS
 10
1614.5113530800629
 20
1284.2546021595549
 30
0.0
 11
1614.5113530800629
 21
1283.304602159554
 31
0.0
  0
LINE
  5
E84
  8
UMCL1
  6
CONTINUOUS
 10
1602.5113530800629
 20
1284.2546021595549
 30
0.0
 11
1602.5113530800629
 21
1283.304602159554
 31
0.0
  0
LINE
  5
E85
  8
UMCL1
  6
CONTINUOUS
 10
1600.9613530800621
 20
1240.804602159556
 30
0.0
 11
1600.9613530800621
 21
1239.704602159555
 31
0.0
  0
LINE
  5
E86
  8
UMCL1
  6
CONTINUOUS
 10
1600.9613530800621
 20
1239.704602159555
 30
0.0
 11
1616.0613530800631
 21
1239.704602159555
 31
0.0
  0
LINE
  5
E87
  8
UMCL1
  6
CONTINUOUS
 10
1616.0613530800631
 20
1239.704602159555
 30
0.0
 11
1616.0613530800631
 21
1240.804602159556
 31
0.0
  0
LINE
  5
E88
  8
UMCL1
  6
CONTINUOUS
 10
1602.7613530800629
 20
1239.704602159555
 30
0.0
 11
1602.7613530800629
 21
1240.804602159556
 31
0.0
  0
LINE
  5
E89
  8
UMCL1
  6
CONTINUOUS
 10
1614.2613530800629
 20
1239.704602159555
 30
0.0
 11
1614.2613530800629
 21
1240.804602159556
 31
0.0
  0
LINE
  5
E8A
  8
UMCL1
  6
CONTINUOUS
 10
1603.0113530800629
 20
1238.2546021595549
 30
0.0
 11
1614.0113530800629
 21
1238.2546021595549
 31
0.0
  0
LINE
  5
E8B
  8
UMCL1
  6
CONTINUOUS
 10
1602.5113530800629
 20
1238.7546021595549
 30
0.0
 11
1614.5113530800629
 21
1238.7546021595549
 31
0.0
  0
LINE
  5
E8C
  8
UMCL1
  6
CONTINUOUS
 10
1602.5113530800629
 20
1238.7546021595549
 30
0.0
 11
1603.0113530800629
 21
1238.2546021595549
 31
0.0
  0
LINE
  5
E8D
  8
UMCL1
  6
CONTINUOUS
 10
1614.0113530800629
 20
1238.2546021595549
 30
0.0
 11
1614.5113530800629
 21
1238.7546021595549
 31
0.0
  0
LINE
  5
E8E
  8
UMCL1
  6
CONTINUOUS
 10
1614.5113530800629
 20
1238.7546021595549
 30
0.0
 11
1614.5113530800629
 21
1239.704602159555
 31
0.0
  0
LINE
  5
E8F
  8
UMCL1
  6
CONTINUOUS
 10
1602.5113530800629
 20
1238.7546021595549
 30
0.0
 11
1602.5113530800629
 21
1239.704602159555
 31
0.0
  0
LINE
  5
E90
  8
UMCL1
  6
HIDDEN
 62
     3
 10
1616.0113530800629
 20
1240.8046021595551
 30
0.0
 11
1616.0113530800629
 21
1282.204602159555
 31
0.0
  0
LINE
  5
E91
  8
UMCL1
  6
CENTER
 62
     1
 10
1608.5113530800629
 20
1285.7546021595549
 30
0.0
 11
1608.5113530800629
 21
1237.2546021595549
 31
0.0
  0
LINE
  5
E92
  8
UMCL1
  6
HIDDEN
 62
     3
 10
1555.911353080063
 20
1224.0046021595549
 30
0.0
 11
1556.223853080063
 21
1234.0046021595549
 31
0.0
  0
LINE
  5
E93
  8
UMCL1
  6
HIDDEN
 62
     3
 10
1556.7613530800629
 20
1224.0046021595549
 30
0.0
 11
1557.0738530800629
 21
1234.0046021595549
 31
0.0
  0
LINE
  5
E94
  8
UMCL1
  6
HIDDEN
 62
     3
 10
1569.111353080064
 20
1224.0046021595549
 30
0.0
 11
1568.7988530800631
 21
1234.0046021595549
 31
0.0
  0
LINE
  5
E95
  8
UMCL1
  6
HIDDEN
 62
     3
 10
1568.2613530800641
 20
1224.0046021595549
 30
0.0
 11
1567.9488530800629
 21
1234.0046021595549
 31
0.0
  0
LINE
  5
E96
  8
UMCL1
  6
CENTER
 62
     1
 10
1562.5113530800629
 20
1222.5066021595551
 30
0.0
 11
1562.5113530800629
 21
1235.5046021595549
 31
0.0
  0
LINE
  5
E97
  8
UMCL1
  6
HIDDEN
 62
     3
 10
1587.911353080063
 20
1224.0046021595549
 30
0.0
 11
1588.223853080063
 21
1234.0046021595549
 31
0.0
  0
LINE
  5
E98
  8
UMCL1
  6
HIDDEN
 62
     3
 10
1588.7613530800629
 20
1224.0046021595549
 30
0.0
 11
1589.0738530800629
 21
1234.0046021595549
 31
0.0
  0
LINE
  5
E99
  8
UMCL1
  6
HIDDEN
 62
     3
 10
1601.111353080064
 20
1224.0046021595549
 30
0.0
 11
1600.7988530800631
 21
1234.0046021595549
 31
0.0
  0
LINE
  5
E9A
  8
UMCL1
  6
HIDDEN
 62
     3
 10
1600.2613530800641
 20
1224.0046021595549
 30
0.0
 11
1599.9488530800641
 21
1234.0046021595549
 31
0.0
  0
LINE
  5
E9B
  8
UMCL1
  6
CENTER
 62
     1
 10
1594.5113530800629
 20
1222.5066021595551
 30
0.0
 11
1594.5113530800629
 21
1235.5046021595549
 31
0.0
  0
LINE
  5
E9C
  8
UMCL1
  6
HIDDEN
 62
     3
 10
1555.911353080063
 20
1299.0046021595549
 30
0.0
 11
1556.223853080063
 21
1289.0046021595549
 31
0.0
  0
LINE
  5
E9D
  8
UMCL1
  6
HIDDEN
 62
     3
 10
1556.7613530800629
 20
1299.0046021595549
 30
0.0
 11
1557.0738530800629
 21
1289.0046021595549
 31
0.0
  0
LINE
  5
E9E
  8
UMCL1
  6
HIDDEN
 62
     3
 10
1569.111353080064
 20
1299.0046021595549
 30
0.0
 11
1568.7988530800631
 21
1289.0046021595549
 31
0.0
  0
LINE
  5
E9F
  8
UMCL1
  6
HIDDEN
 62
     3
 10
1568.2613530800641
 20
1299.0046021595549
 30
0.0
 11
1567.9488530800629
 21
1289.0046021595549
 31
0.0
  0
LINE
  5
EA0
  8
UMCL1
  6
CENTER
 62
     1
 10
1562.5113530800629
 20
1300.502602159555
 30
0.0
 11
1562.5113530800629
 21
1287.5046021595549
 31
0.0
  0
LINE
  5
EA1
  8
UMCL1
  6
HIDDEN
 62
     3
 10
1587.911353080063
 20
1299.0046021595549
 30
0.0
 11
1588.223853080063
 21
1289.0046021595549
 31
0.0
  0
LINE
  5
EA2
  8
UMCL1
  6
HIDDEN
 62
     3
 10
1588.7613530800629
 20
1299.0046021595549
 30
0.0
 11
1589.0738530800629
 21
1289.0046021595549
 31
0.0
  0
LINE
  5
EA3
  8
UMCL1
  6
HIDDEN
 62
     3
 10
1601.111353080064
 20
1299.0046021595549
 30
0.0
 11
1600.7988530800631
 21
1289.0046021595549
 31
0.0
  0
LINE
  5
EA4
  8
UMCL1
  6
HIDDEN
 62
     3
 10
1600.2613530800641
 20
1299.0046021595549
 30
0.0
 11
1599.9488530800641
 21
1289.0046021595549
 31
0.0
  0
LINE
  5
EA5
  8
UMCL1
  6
CENTER
 62
     1
 10
1594.5113530800629
 20
1300.502602159555
 30
0.0
 11
1594.5113530800629
 21
1287.5046021595549
 31
0.0
  0
ARC
  5
EA6
  8
UMCL1
  6
CONTINUOUS
 62
     3
 10
1562.5113530800629
 20
1084.8771883580571
 30
0.0
 40
6.5999999999999988
 50
344.99999999999932
 51
284.99999999999437
  0
LINE
  5
EA7
  8
UMCL1
  6
CENTER
 62
     1
 10
1554.411353080063
 20
1084.8771883580571
 30
0.0
 11
1559.5113530800629
 21
1084.8771883580571
 31
0.0
  0
LINE
  5
EA8
  8
UMCL1
  6
CENTER
 62
     1
 10
1561.0113530800629
 20
1084.8771883580571
 30
0.0
 11
1564.0113530800629
 21
1084.8771883580571
 31
0.0
  0
LINE
  5
EA9
  8
UMCL1
  6
CENTER
 62
     1
 10
1565.5113530800629
 20
1084.8771883580571
 30
0.0
 11
1570.6113530800631
 21
1084.8771883580571
 31
0.0
  0
LINE
  5
EAA
  8
UMCL1
  6
CENTER
 62
     1
 10
1562.5113530800629
 20
1076.7771883580569
 30
0.0
 11
1562.5113530800629
 21
1081.8771883580571
 31
0.0
  0
LINE
  5
EAB
  8
UMCL1
  6
CENTER
 62
     1
 10
1562.5113530800629
 20
1083.3771883580571
 30
0.0
 11
1562.5113530800629
 21
1086.3771883580571
 31
0.0
  0
LINE
  5
EAC
  8
UMCL1
  6
CENTER
 62
     1
 10
1562.5113530800629
 20
1087.8771883580571
 30
0.0
 11
1562.5113530800629
 21
1092.977188358057
 31
0.0
  0
ARC
  5
EAD
  8
UMCL1
  6
CONTINUOUS
 62
     3
 10
1594.511353080062
 20
1039.8771883580571
 30
0.0
 40
6.5999999999999988
 50
344.99999999999932
 51
284.99999999999437
  0
LINE
  5
EAE
  8
UMCL1
  6
CENTER
 62
     1
 10
1586.411353080063
 20
1039.8771883580571
 30
0.0
 11
1591.511353080062
 21
1039.8771883580571
 31
0.0
  0
LINE
  5
EAF
  8
UMCL1
  6
CENTER
 62
     1
 10
1593.011353080062
 20
1039.8771883580571
 30
0.0
 11
1596.011353080062
 21
1039.8771883580571
 31
0.0
  0
LINE
  5
EB0
  8
UMCL1
  6
CENTER
 62
     1
 10
1597.5113530800629
 20
1039.8771883580571
 30
0.0
 11
1602.6113530800631
 21
1039.8771883580571
 31
0.0
  0
LINE
  5
EB1
  8
UMCL1
  6
CENTER
 62
     1
 10
1594.511353080062
 20
1031.7771883580569
 30
0.0
 11
1594.511353080062
 21
1036.8771883580571
 31
0.0
  0
LINE
  5
EB2
  8
UMCL1
  6
CENTER
 62
     1
 10
1594.511353080062
 20
1038.3771883580571
 30
0.0
 11
1594.511353080062
 21
1041.3771883580571
 31
0.0
  0
LINE
  5
EB3
  8
UMCL1
  6
CENTER
 62
     1
 10
1594.511353080062
 20
1042.8771883580571
 30
0.0
 11
1594.511353080062
 21
1047.977188358057
 31
0.0
  0
POINT
  5
EB4
  8
0
 10
1562.5113530800629
 20
1093.3971883580571
 30
2.5673651826636118E+099
  0
LINE
  5
EB5
  8
UMCL2
  6
CONTINUOUS
 10
1656.5113530800629
 20
1254.0046021595549
 30
0.0
 11
1664.5113530800629
 21
1254.0046021595549
 31
0.0
  0
LINE
  5
EB6
  8
UMCL2
  6
CONTINUOUS
 10
1656.5113530800629
 20
1269.0046021595549
 30
0.0
 11
1664.5113530800629
 21
1269.0046021595549
 31
0.0
  0
LINE
  5
EB7
  8
UMCL2
  6
CONTINUOUS
 10
1663.5113530800629
 20
1256.5046021595549
 30
0.0
 11
1663.5113530800629
 21
1266.5046021595549
 31
0.0
  0
SOLID
  5
EB8
  8
UMCL2
  6
CONTINUOUS
 10
1663.0946864133971
 20
1256.5046021595549
 30
0.0
 11
1663.9280197467299
 21
1256.5046021595549
 31
0.0
 12
1663.5113530800629
 22
1254.0046021595549
 32
0.0
 13
1663.5113530800629
 23
1254.0046021595549
 33
0.0
  0
SOLID
  5
EB9
  8
UMCL2
  6
CONTINUOUS
 10
1663.0946864133971
 20
1266.5046021595549
 30
0.0
 11
1663.9280197467299
 21
1266.5046021595549
 31
0.0
 12
1663.5113530800629
 22
1269.0046021595549
 32
0.0
 13
1663.5113530800629
 23
1269.0046021595549
 33
0.0
  0
INSERT
  5
EBA
  8
0
  2
*U3
 10
0.0
 20
0.0
 30
0.0
  0
LINE
  5
EBB
  8
UMCL2
  6
CONTINUOUS
 10
1637.104688880705
 20
1248.8046021595551
 30
0.0
 11
1672.5113530800629
 21
1248.8046021595551
 31
0.0
  0
LINE
  5
EBC
  8
UMCL2
  6
CONTINUOUS
 10
1637.104688880705
 20
1274.204602159555
 30
0.0
 11
1672.5113530800629
 21
1274.204602159555
 31
0.0
  0
LINE
  5
EBD
  8
UMCL2
  6
CONTINUOUS
 10
1671.5113530800629
 20
1251.3046021595551
 30
0.0
 11
1671.5113530800629
 21
1271.704602159555
 31
0.0
  0
SOLID
  5
EBE
  8
UMCL2
  6
CONTINUOUS
 10
1671.0946864133959
 20
1251.3046021595551
 30
0.0
 11
1671.9280197467299
 21
1251.3046021595551
 31
0.0
 12
1671.5113530800629
 22
1248.8046021595551
 32
0.0
 13
1671.5113530800629
 23
1248.8046021595551
 33
0.0
  0
SOLID
  5
EBF
  8
UMCL2
  6
CONTINUOUS
 10
1671.0946864133959
 20
1271.704602159555
 30
0.0
 11
1671.9280197467299
 21
1271.704602159555
 31
0.0
 12
1671.5113530800629
 22
1274.204602159555
 32
0.0
 13
1671.5113530800629
 23
1274.204602159555
 33
0.0
  0
INSERT
  5
EC0
  8
0
  2
*U4
 10
0.0
 20
0.0
 30
0.0
  0
LINE
  5
EC1
  8
UMCL2
  6
CONTINUOUS
 10
1616.8113530800631
 20
1232.5046021595549
 30
0.0
 11
1680.5113530800629
 21
1232.5046021595549
 31
0.0
  0
LINE
  5
EC2
  8
UMCL2
  6
CONTINUOUS
 10
1616.8113530800631
 20
1290.504602159554
 30
0.0
 11
1680.5113530800629
 21
1290.504602159554
 31
0.0
  0
LINE
  5
EC3
  8
UMCL2
  6
CONTINUOUS
 10
1679.5113530800629
 20
1235.0046021595549
 30
0.0
 11
1679.5113530800629
 21
1288.0046021595549
 31
0.0
  0
SOLID
  5
EC4
  8
UMCL2
  6
CONTINUOUS
 10
1679.0946864133971
 20
1235.0046021595549
 30
0.0
 11
1679.9280197467299
 21
1235.0046021595549
 31
0.0
 12
1679.5113530800629
 22
1232.5046021595549
 32
0.0
 13
1679.5113530800629
 23
1232.5046021595549
 33
0.0
  0
SOLID
  5
EC5
  8
UMCL2
  6
CONTINUOUS
 10
1679.0946864133971
 20
1288.0046021595549
 30
0.0
 11
1679.9280197467299
 21
1288.0046021595549
 31
0.0
 12
1679.5113530800629
 22
1290.504602159554
 32
0.0
 13
1679.5113530800629
 23
1290.504602159554
 33
0.0
  0
INSERT
  5
EC6
  8
0
  2
*U5
 10
0.0
 20
0.0
 30
0.0
  0
LINE
  5
EC7
  8
UMCL2
  6
CONTINUOUS
 10
1611.82234192287
 20
1224.0046021595549
 30
0.0
 11
1688.5113530800629
 21
1224.0046021595549
 31
0.0
  0
LINE
  5
EC8
  8
UMCL2
  6
CONTINUOUS
 10
1611.82234192287
 20
1299.0046021595549
 30
0.0
 11
1688.5113530800641
 21
1299.0046021595549
 31
0.0
  0
LINE
  5
EC9
  8
UMCL2
  6
CONTINUOUS
 10
1687.5113530800629
 20
1226.5046021595549
 30
0.0
 11
1687.5113530800629
 21
1296.5046021595549
 31
0.0
  0
SOLID
  5
ECA
  8
UMCL2
  6
CONTINUOUS
 10
1687.0946864133959
 20
1226.5046021595549
 30
0.0
 11
1687.9280197467299
 21
1226.5046021595549
 31
0.0
 12
1687.5113530800629
 22
1224.0046021595549
 32
0.0
 13
1687.5113530800629
 23
1224.0046021595549
 33
0.0
  0
SOLID
  5
ECB
  8
UMCL2
  6
CONTINUOUS
 10
1687.0946864133971
 20
1296.5046021595549
 30
0.0
 11
1687.9280197467299
 21
1296.5046021595549
 31
0.0
 12
1687.5113530800629
 22
1299.0046021595549
 32
0.0
 13
1687.5113530800629
 23
1299.0046021595549
 33
0.0
  0
INSERT
  5
ECC
  8
0
  2
*U6
 10
0.0
 20
0.0
 30
0.0
  0
LINE
  5
ECD
  8
UMCL2
  6
CONTINUOUS
 10
1564.5113530800629
 20
1256.0046021595549
 30
0.0
 11
1534.1969767327339
 21
1256.0046021595549
 31
0.0
  0
LINE
  5
ECE
  8
UMCL2
  6
CONTINUOUS
 10
1564.5113530800629
 20
1267.0046021595549
 30
0.0
 11
1534.1969767327339
 21
1267.0046021595549
 31
0.0
  0
LINE
  5
ECF
  8
UMCL2
  6
CONTINUOUS
 10
1535.1969767327339
 20
1258.5046021595549
 30
0.0
 11
1535.1969767327339
 21
1264.5046021595549
 31
0.0
  0
SOLID
  5
ED0
  8
UMCL2
  6
CONTINUOUS
 10
1534.7803100660669
 20
1258.5046021595549
 30
0.0
 11
1535.6136433994011
 21
1258.5046021595549
 31
0.0
 12
1535.1969767327339
 22
1256.0046021595549
 32
0.0
 13
1535.1969767327339
 23
1256.0046021595549
 33
0.0
  0
SOLID
  5
ED1
  8
UMCL2
  6
CONTINUOUS
 10
1534.7803100660669
 20
1264.5046021595549
 30
0.0
 11
1535.6136433994011
 21
1264.5046021595549
 31
0.0
 12
1535.1969767327339
 22
1267.0046021595549
 32
0.0
 13
1535.1969767327339
 23
1267.0046021595549
 33
0.0
  0
INSERT
  5
ED2
  8
0
  2
*U7
 10
0.0
 20
0.0
 30
0.0
  0
LINE
  5
ED3
  8
UMCL2
  6
CONTINUOUS
 10
1562.5113530800629
 20
1221.5066021595551
 30
0.0
 11
1562.5113530800629
 21
1213.6841493165491
 31
0.0
  0
LINE
  5
ED4
  8
UMCL2
  6
CONTINUOUS
 10
1594.5113530800629
 20
1221.5066021595551
 30
0.0
 11
1594.5113530800629
 21
1213.6841493165491
 31
0.0
  0
LINE
  5
ED5
  8
UMCL2
  6
CONTINUOUS
 10
1565.0113530800629
 20
1214.6841493165491
 30
0.0
 11
1592.0113530800629
 21
1214.6841493165491
 31
0.0
  0
SOLID
  5
ED6
  8
UMCL2
  6
CONTINUOUS
 10
1565.0113530800629
 20
1215.1008159832161
 30
0.0
 11
1565.0113530800629
 21
1214.2674826498819
 31
0.0
 12
1562.5113530800629
 22
1214.6841493165491
 32
0.0
 13
1562.5113530800629
 23
1214.6841493165491
 33
0.0
  0
SOLID
  5
ED7
  8
UMCL2
  6
CONTINUOUS
 10
1592.0113530800629
 20
1215.1008159832161
 30
0.0
 11
1592.0113530800629
 21
1214.2674826498819
 31
0.0
 12
1594.5113530800629
 22
1214.6841493165491
 32
0.0
 13
1594.5113530800629
 23
1214.6841493165491
 33
0.0
  0
INSERT
  5
ED8
  8
0
  2
*U8
 10
0.0
 20
0.0
 30
0.0
  0
LINE
  5
ED9
  8
UMCL2
  6
CONTINUOUS
 10
1524.1163457633461
 20
1212.8535954449569
 30
0.0
 11
1550.2253625898829
 21
1212.8535954449569
 31
0.0
  0
TEXT
  5
EDA
  8
UMCL2
  6
CONTINUOUS
 10
1524.539775616141
 20
1214.3535954449569
 30
0.0
 40
3.0
  1
2x2-PT1/4
  7
ROMANSS
 72
     2
 11
1549.539775616141
 21
1215.8535954449569
 31
0.0
 73
     2
  0
LINE
  5
EDB
  8
UMCL2
 10
1550.2253625898829
 20
1212.8535954449569
 30
0.0
 11
1562.5237449776289
 21
1224.0158492896151
 31
0.0
  0
SOLID
  5
EDC
  8
UMCL2
  6
CONTINUOUS
 10
1559.947558245151
 20
1222.398882334558
 30
0.0
 11
1560.610459011129
 21
1221.6501750656839
 31
0.0
 12
1562.5251304347639
 22
1224.013230998055
 32
0.0
 13
1562.5251304347639
 23
1224.013230998055
 33
0.0
  0
TEXT
  5
EDD
  8
UMCL2
  6
CONTINUOUS
 10
1639.0672026501429
 20
1215.2117046106471
 30
0.0
 40
3.0
  1
4-%%C9 Through-hole 
  7
ROMANSS
 72
     2
 11
1687.495774078714
 21
1216.7117046106471
 31
0.0
 73
     2
  0
LINE
  5
EDE
  8
UMCL2
  6
CONTINUOUS
 10
1688.1094467652231
 20
1213.499282347577
 30
0.0
 11
1628.5229913280029
 21
1213.499282347577
 31
0.0
  0
TEXT
  5
EDF
  8
UMCL2
  6
CONTINUOUS
 10
1636.9167607739309
 20
1209.0483981218861
 30
0.0
 40
3.0
  1
Counter bore %%C14x9dp
  7
ROMANSS
 72
     2
 11
1687.345332202502
 21
1210.5483981218861
 31
0.0
 73
     2
  0
LINE
  5
EE0
  8
UMCL2
 10
1628.5229913280029
 20
1213.499282347577
 30
0.0
 11
1613.1365606574591
 21
1228.3384240895241
 31
0.0
  0
SOLID
  5
EE1
  8
UMCL2
  6
CONTINUOUS
 10
1615.5682566249141
 20
1226.5117181137709
 30
0.0
 11
1614.844368418321
 21
1225.8218008257179
 31
0.0
 12
1613.1365606574579
 22
1228.338424089525
 32
0.0
 13
1613.1365606574579
 23
1228.338424089525
 33
0.0
  0
LINE
  5
EE2
  8
UMCL2
  6
CONTINUOUS
 10
1608.5113530800629
 20
1176.5792391656259
 30
0.0
 11
1608.5113530800629
 21
1189.779239165626
 31
0.0
  0
LINE
  5
EE3
  8
UMCL2
  6
CONTINUOUS
 10
1647.5113530800629
 20
1181.5192093629739
 30
0.0
 11
1647.5113530800629
 21
1189.779239165626
 31
0.0
  0
LINE
  5
EE4
  8
UMCL2
  6
CONTINUOUS
 10
1611.0113530800629
 20
1188.779239165626
 30
0.0
 11
1645.0113530800629
 21
1188.779239165626
 31
0.0
  0
SOLID
  5
EE5
  8
UMCL2
  6
CONTINUOUS
 10
1611.0113530800629
 20
1189.195905832293
 30
0.0
 11
1611.0113530800629
 21
1188.3625724989599
 31
0.0
 12
1608.5113530800629
 22
1188.779239165626
 32
0.0
 13
1608.5113530800629
 23
1188.779239165626
 33
0.0
  0
SOLID
  5
EE6
  8
UMCL2
  6
CONTINUOUS
 10
1645.0113530800629
 20
1189.195905832293
 30
0.0
 11
1645.0113530800629
 21
1188.3625724989599
 31
0.0
 12
1647.5113530800629
 22
1188.779239165626
 32
0.0
 13
1647.5113530800629
 23
1188.779239165626
 33
0.0
  0
INSERT
  5
EE7
  8
0
  2
*U9
 10
0.0
 20
0.0
 30
0.0
  0
LINE
  5
EE8
  8
UMCL2
  6
CONTINUOUS
 10
1608.5113530800629
 20
1176.5792391656259
 30
0.0
 11
1608.5113530800629
 21
1189.779239165626
 31
0.0
  0
LINE
  5
EE9
  8
UMCL2
  6
CONTINUOUS
 10
1578.5113530800629
 20
1183.779239165626
 30
0.0
 11
1578.5113530800629
 21
1189.779239165626
 31
0.0
  0
LINE
  5
EEA
  8
UMCL2
  6
CONTINUOUS
 10
1606.0113530800629
 20
1188.779239165626
 30
0.0
 11
1581.0113530800629
 21
1188.779239165626
 31
0.0
  0
SOLID
  5
EEB
  8
UMCL2
  6
CONTINUOUS
 10
1606.0113530800629
 20
1189.195905832293
 30
0.0
 11
1606.0113530800629
 21
1188.362572498959
 31
0.0
 12
1608.5113530800629
 22
1188.779239165626
 32
0.0
 13
1608.5113530800629
 23
1188.779239165626
 33
0.0
  0
SOLID
  5
EEC
  8
UMCL2
  6
CONTINUOUS
 10
1581.0113530800629
 20
1189.195905832293
 30
0.0
 11
1581.0113530800629
 21
1188.362572498959
 31
0.0
 12
1578.5113530800629
 22
1188.779239165626
 32
0.0
 13
1578.5113530800629
 23
1188.779239165626
 33
0.0
  0
INSERT
  5
EED
  8
0
  2
*U10
 10
0.0
 20
0.0
 30
0.0
  0
LINE
  5
EEE
  8
UMCL2
  6
CONTINUOUS
 10
1578.5113530800629
 20
1183.779239165626
 30
0.0
 11
1578.5113530800629
 21
1197.779239165626
 31
0.0
  0
LINE
  5
EEF
  8
UMCL2
  6
CONTINUOUS
 10
1655.5113530800629
 20
1171.3792391656259
 30
0.0
 11
1655.5113530800629
 21
1197.779239165626
 31
0.0
  0
LINE
  5
EF0
  8
UMCL2
  6
CONTINUOUS
 10
1581.0113530800629
 20
1196.779239165626
 30
0.0
 11
1653.0113530800629
 21
1196.779239165626
 31
0.0
  0
SOLID
  5
EF1
  8
UMCL2
  6
CONTINUOUS
 10
1581.0113530800629
 20
1197.195905832293
 30
0.0
 11
1581.0113530800629
 21
1196.3625724989599
 31
0.0
 12
1578.5113530800629
 22
1196.779239165626
 32
0.0
 13
1578.5113530800629
 23
1196.779239165626
 33
0.0
  0
SOLID
  5
EF2
  8
UMCL2
  6
CONTINUOUS
 10
1653.0113530800629
 20
1197.195905832293
 30
0.0
 11
1653.0113530800629
 21
1196.3625724989599
 31
0.0
 12
1655.5113530800629
 22
1196.779239165626
 32
0.0
 13
1655.5113530800629
 23
1196.779239165626
 33
0.0
  0
INSERT
  5
EF3
  8
0
  2
*U11
 10
0.0
 20
0.0
 30
0.0
  0
LINE
  5
EF4
  8
UMCL2
  6
CONTINUOUS
 10
1655.5113530800629
 20
1171.3792391656259
 30
0.0
 11
1655.5113530800629
 21
1205.779239165626
 31
0.0
  0
LINE
  5
EF5
  8
UMCL2
  6
CONTINUOUS
 10
1565.5113530800629
 20
1181.779239165626
 30
0.0
 11
1565.5113530800629
 21
1205.779239165626
 31
0.0
  0
LINE
  5
EF6
  8
UMCL2
  6
CONTINUOUS
 10
1653.0113530800629
 20
1204.779239165626
 30
0.0
 11
1568.0113530800629
 21
1204.779239165626
 31
0.0
  0
SOLID
  5
EF7
  8
UMCL2
  6
CONTINUOUS
 10
1653.0113530800629
 20
1205.195905832293
 30
0.0
 11
1653.0113530800629
 21
1204.3625724989599
 31
0.0
 12
1655.5113530800629
 22
1204.779239165626
 32
0.0
 13
1655.5113530800629
 23
1204.779239165626
 33
0.0
  0
SOLID
  5
EF8
  8
UMCL2
  6
CONTINUOUS
 10
1568.0113530800629
 20
1205.195905832293
 30
0.0
 11
1568.0113530800629
 21
1204.3625724989599
 31
0.0
 12
1565.5113530800629
 22
1204.779239165626
 32
0.0
 13
1565.5113530800629
 23
1204.779239165626
 33
0.0
  0
INSERT
  5
EF9
  8
0
  2
*U12
 10
0.0
 20
0.0
 30
0.0
  0
LINE
  5
EFA
  8
UMCL2
  6
CONTINUOUS
 10
1581.6710501295649
 20
1169.584667528374
 30
0.0
 11
1575.35165603056
 21
1166.5738108028791
 31
0.0
  0
INSERT
  5
EFB
  8
0
  2
*U13
 10
0.0
 20
0.0
 30
0.0
  0
SOLID
  5
EFC
  8
UMCL2
  6
CONTINUOUS
 10
1581.4918324673331
 20
1169.9608219390291
 30
0.0
 11
1581.850267791797
 21
1169.2085131177189
 31
0.0
 12
1583.9279765934959
 22
1170.6599735017651
 32
0.0
 13
1583.9279765934959
 23
1170.6599735017651
 33
0.0
  0
SOLID
  5
EFD
  8
UMCL2
  6
CONTINUOUS
 10
1575.1724383683279
 20
1166.9499652135339
 30
0.0
 11
1575.5308736927921
 21
1166.197656392224
 31
0.0
 12
1573.0947295666299
 22
1165.498504829488
 32
0.0
 13
1573.0947295666299
 23
1165.498504829488
 33
0.0
  0
LINE
  5
EFE
  8
UMCL2
  6
CONTINUOUS
 10
1583.9279765934959
 20
1170.6599735017651
 30
0.0
 11
1557.3880374527221
 21
1158.0246508709431
 31
0.0
  0
LINE
  5
EFF
  8
UMCL2
  6
CONTINUOUS
 10
1617.0113530800629
 20
1168.0792391656259
 30
0.0
 11
1628.3947752642359
 21
1168.0792391656259
 31
0.0
  0
LINE
  5
F00
  8
UMCL2
  6
CONTINUOUS
 10
1617.0113530800629
 20
1135.0771883580569
 30
0.0
 11
1628.3947752642359
 21
1135.0771883580569
 31
0.0
  0
LINE
  5
F01
  8
UMCL2
  6
CONTINUOUS
 10
1627.3947752642359
 20
1165.5792391656271
 30
0.0
 11
1627.3947752642359
 21
1137.5771883580569
 31
0.0
  0
SOLID
  5
F02
  8
UMCL2
  6
CONTINUOUS
 10
1626.9781085975701
 20
1165.5792391656271
 30
0.0
 11
1627.8114419309029
 21
1165.5792391656271
 31
0.0
 12
1627.3947752642359
 22
1168.0792391656259
 32
0.0
 13
1627.3947752642359
 23
1168.0792391656259
 33
0.0
  0
SOLID
  5
F03
  8
UMCL2
  6
CONTINUOUS
 10
1626.9781085975701
 20
1137.5771883580569
 30
0.0
 11
1627.8114419309029
 21
1137.5771883580569
 31
0.0
 12
1627.3947752642359
 22
1135.0771883580569
 32
0.0
 13
1627.3947752642359
 23
1135.0771883580569
 33
0.0
  0
INSERT
  5
F04
  8
0
  2
*U14
 10
0.0
 20
0.0
 30
0.0
  0
LINE
  5
F05
  8
UMCL2
  6
CONTINUOUS
 10
1655.5113530800629
 20
1154.3792391656259
 30
0.0
 11
1655.5113530800629
 21
1124.7266547192301
 31
0.0
  0
LINE
  5
F06
  8
UMCL2
  6
CONTINUOUS
 10
1620.0113530800629
 20
1134.0771894047659
 30
0.0
 11
1620.0113530800629
 21
1124.7266547192301
 31
0.0
  0
LINE
  5
F07
  8
UMCL2
  6
CONTINUOUS
 10
1653.0113530800629
 20
1125.7266547192301
 30
0.0
 11
1622.5113530800629
 21
1125.7266547192301
 31
0.0
  0
SOLID
  5
F08
  8
UMCL2
  6
CONTINUOUS
 10
1653.0113530800629
 20
1126.143321385897
 30
0.0
 11
1653.0113530800629
 21
1125.3099880525631
 31
0.0
 12
1655.5113530800629
 22
1125.7266547192301
 32
0.0
 13
1655.5113530800629
 23
1125.7266547192301
 33
0.0
  0
SOLID
  5
F09
  8
UMCL2
  6
CONTINUOUS
 10
1622.5113530800629
 20
1126.143321385897
 30
0.0
 11
1622.5113530800629
 21
1125.3099880525631
 31
0.0
 12
1620.0113530800629
 22
1125.7266547192301
 32
0.0
 13
1620.0113530800629
 23
1125.7266547192301
 33
0.0
  0
INSERT
  5
F0A
  8
0
  2
*U15
 10
0.0
 20
0.0
 30
0.0
  0
LINE
  5
F0B
  8
UMCL2
  6
CONTINUOUS
 10
1616.211353080063
 20
1018.377188358057
 30
0.0
 11
1655.138141834319
 21
1018.377188358057
 31
0.0
  0
LINE
  5
F0C
  8
UMCL2
  6
CONTINUOUS
 10
1603.6113530800631
 20
1039.8771883580571
 30
0.0
 11
1655.138141834319
 21
1039.8771883580571
 31
0.0
  0
LINE
  5
F0D
  8
UMCL2
  6
CONTINUOUS
 10
1654.138141834319
 20
1020.877188358057
 30
0.0
 11
1654.138141834319
 21
1037.3771883580571
 31
0.0
  0
SOLID
  5
F0E
  8
UMCL2
  6
CONTINUOUS
 10
1653.721475167652
 20
1020.877188358057
 30
0.0
 11
1654.554808500985
 21
1020.877188358057
 31
0.0
 12
1654.138141834319
 22
1018.377188358057
 32
0.0
 13
1654.138141834319
 23
1018.377188358057
 33
0.0
  0
SOLID
  5
F0F
  8
UMCL2
  6
CONTINUOUS
 10
1653.721475167652
 20
1037.3771883580571
 30
0.0
 11
1654.554808500985
 21
1037.3771883580571
 31
0.0
 12
1654.138141834319
 22
1039.8771883580571
 32
0.0
 13
1654.138141834319
 23
1039.8771883580571
 33
0.0
  0
INSERT
  5
F10
  8
0
  2
*U16
 10
0.0
 20
0.0
 30
0.0
  0
LINE
  5
F11
  8
UMCL2
  6
CONTINUOUS
 10
1603.6113530800631
 20
1039.8771883580571
 30
0.0
 11
1655.138141834319
 21
1039.8771883580571
 31
0.0
  0
LINE
  5
F12
  8
UMCL2
  6
CONTINUOUS
 10
1571.6113530800631
 20
1084.8771883580571
 30
0.0
 11
1655.138141834319
 21
1084.8771883580571
 31
0.0
  0
LINE
  5
F13
  8
UMCL2
  6
CONTINUOUS
 10
1654.138141834319
 20
1042.3771883580571
 30
0.0
 11
1654.138141834319
 21
1082.3771883580571
 31
0.0
  0
SOLID
  5
F14
  8
UMCL2
  6
CONTINUOUS
 10
1653.721475167652
 20
1042.3771883580571
 30
0.0
 11
1654.554808500985
 21
1042.3771883580571
 31
0.0
 12
1654.138141834319
 22
1039.8771883580571
 32
0.0
 13
1654.138141834319
 23
1039.8771883580571
 33
0.0
  0
SOLID
  5
F15
  8
UMCL2
  6
CONTINUOUS
 10
1653.721475167652
 20
1082.3771883580571
 30
0.0
 11
1654.554808500985
 21
1082.3771883580571
 31
0.0
 12
1654.138141834319
 22
1084.8771883580571
 32
0.0
 13
1654.138141834319
 23
1084.8771883580571
 33
0.0
  0
INSERT
  5
F16
  8
0
  2
*U17
 10
0.0
 20
0.0
 30
0.0
  0
LINE
  5
F17
  8
UMCL2
  6
CONTINUOUS
 10
1616.211353080063
 20
1018.377188358057
 30
0.0
 11
1664.5113530800629
 21
1018.377188358057
 31
0.0
  0
LINE
  5
F18
  8
UMCL2
  6
CONTINUOUS
 10
1621.0113530800629
 20
1118.3771883580571
 30
0.0
 11
1664.5113530800629
 21
1118.3771883580571
 31
0.0
  0
LINE
  5
F19
  8
UMCL2
  6
CONTINUOUS
 10
1663.5113530800629
 20
1020.877188358057
 30
0.0
 11
1663.5113530800629
 21
1115.8771883580571
 31
0.0
  0
SOLID
  5
F1A
  8
UMCL2
  6
CONTINUOUS
 10
1663.0946864133971
 20
1020.877188358057
 30
0.0
 11
1663.9280197467299
 21
1020.877188358057
 31
0.0
 12
1663.5113530800629
 22
1018.377188358057
 32
0.0
 13
1663.5113530800629
 23
1018.377188358057
 33
0.0
  0
SOLID
  5
F1B
  8
UMCL2
  6
CONTINUOUS
 10
1663.0946864133971
 20
1115.8771883580571
 30
0.0
 11
1663.9280197467299
 21
1115.8771883580571
 31
0.0
 12
1663.5113530800629
 22
1118.3771883580571
 32
0.0
 13
1663.5113530800629
 23
1118.3771883580571
 33
0.0
  0
INSERT
  5
F1C
  8
0
  2
*U18
 10
0.0
 20
0.0
 30
0.0
  0
LINE
  5
F1D
  8
UMCL2
  6
CONTINUOUS
 10
1656.5113530800629
 20
1170.3792391656259
 30
0.0
 11
1664.5113530800629
 21
1170.3792391656259
 31
0.0
  0
LINE
  5
F1E
  8
UMCL2
  6
CONTINUOUS
 10
1656.5113530800629
 20
1155.3792391656259
 30
0.0
 11
1664.5113530800629
 21
1155.3792391656259
 31
0.0
  0
LINE
  5
F1F
  8
UMCL2
  6
CONTINUOUS
 10
1663.5113530800629
 20
1167.8792391656259
 30
0.0
 11
1663.5113530800629
 21
1157.8792391656259
 31
0.0
  0
SOLID
  5
F20
  8
UMCL2
  6
CONTINUOUS
 10
1663.0946864133971
 20
1167.8792391656259
 30
0.0
 11
1663.9280197467299
 21
1167.8792391656259
 31
0.0
 12
1663.5113530800629
 22
1170.3792391656259
 32
0.0
 13
1663.5113530800629
 23
1170.3792391656259
 33
0.0
  0
SOLID
  5
F21
  8
UMCL2
  6
CONTINUOUS
 10
1663.0946864133971
 20
1157.8792391656259
 30
0.0
 11
1663.9280197467299
 21
1157.8792391656259
 31
0.0
 12
1663.5113530800629
 22
1155.3792391656259
 32
0.0
 13
1663.5113530800629
 23
1155.3792391656259
 33
0.0
  0
INSERT
  5
F22
  8
0
  2
*U19
 10
0.0
 20
0.0
 30
0.0
  0
LINE
  5
F23
  8
UMCL2
  6
CONTINUOUS
 10
1616.211353080063
 20
1018.377188358057
 30
0.0
 11
1672.5113530800629
 21
1018.377188358057
 31
0.0
  0
LINE
  5
F24
  8
UMCL2
  6
CONTINUOUS
 10
1656.5113530800629
 20
1155.3792391656259
 30
0.0
 11
1672.5113530800629
 21
1155.3792391656259
 31
0.0
  0
LINE
  5
F25
  8
UMCL2
  6
CONTINUOUS
 10
1671.5113530800629
 20
1020.877188358057
 30
0.0
 11
1671.5113530800629
 21
1152.8792391656259
 31
0.0
  0
SOLID
  5
F26
  8
UMCL2
  6
CONTINUOUS
 10
1671.0946864133959
 20
1020.877188358057
 30
0.0
 11
1671.9280197467299
 21
1020.877188358057
 31
0.0
 12
1671.5113530800629
 22
1018.377188358057
 32
0.0
 13
1671.5113530800629
 23
1018.377188358057
 33
0.0
  0
SOLID
  5
F27
  8
UMCL2
  6
CONTINUOUS
 10
1671.0946864133959
 20
1152.8792391656259
 30
0.0
 11
1671.9280197467299
 21
1152.8792391656259
 31
0.0
 12
1671.5113530800629
 22
1155.3792391656259
 32
0.0
 13
1671.5113530800629
 23
1155.3792391656259
 33
0.0
  0
INSERT
  5
F28
  8
0
  2
*U20
 10
0.0
 20
0.0
 30
0.0
  0
LINE
  5
F29
  8
UMCL2
  6
CONTINUOUS
 10
1656.5113530800629
 20
1155.3792391656259
 30
0.0
 11
1672.5113530800629
 21
1155.3792391656259
 31
0.0
  0
LINE
  5
F2A
  8
UMCL2
  6
CONTINUOUS
 10
1637.1046888807041
 20
1180.779239165626
 30
0.0
 11
1672.5113530800629
 21
1180.779239165626
 31
0.0
  0
LINE
  5
F2B
  8
UMCL2
  6
CONTINUOUS
 10
1671.5113530800629
 20
1157.8792391656259
 30
0.0
 11
1671.5113530800629
 21
1178.279239165626
 31
0.0
  0
SOLID
  5
F2C
  8
UMCL2
  6
CONTINUOUS
 10
1671.0946864133959
 20
1157.8792391656259
 30
0.0
 11
1671.9280197467299
 21
1157.8792391656259
 31
0.0
 12
1671.5113530800629
 22
1155.3792391656259
 32
0.0
 13
1671.5113530800629
 23
1155.3792391656259
 33
0.0
  0
SOLID
  5
F2D
  8
UMCL2
  6
CONTINUOUS
 10
1671.0946864133959
 20
1178.279239165626
 30
0.0
 11
1671.9280197467299
 21
1178.279239165626
 31
0.0
 12
1671.5113530800629
 22
1180.779239165626
 32
0.0
 13
1671.5113530800629
 23
1180.779239165626
 33
0.0
  0
INSERT
  5
F2E
  8
0
  2
*U21
 10
0.0
 20
0.0
 30
0.0
  0
LINE
  5
F2F
  8
UMCL2
  6
CONTINUOUS
 10
1616.211353080063
 20
1018.377188358057
 30
0.0
 11
1680.5113530800629
 21
1018.377188358057
 31
0.0
  0
LINE
  5
F30
  8
UMCL2
  6
CONTINUOUS
 10
1637.1046888807041
 20
1180.779239165626
 30
0.0
 11
1680.5113530800629
 21
1180.779239165626
 31
0.0
  0
LINE
  5
F31
  8
UMCL2
  6
CONTINUOUS
 10
1679.5113530800629
 20
1020.877188358057
 30
0.0
 11
1679.5113530800629
 21
1178.279239165626
 31
0.0
  0
SOLID
  5
F32
  8
UMCL2
  6
CONTINUOUS
 10
1679.0946864133971
 20
1020.877188358057
 30
0.0
 11
1679.9280197467299
 21
1020.877188358057
 31
0.0
 12
1679.5113530800629
 22
1018.377188358057
 32
0.0
 13
1679.5113530800629
 23
1018.377188358057
 33
0.0
  0
SOLID
  5
F33
  8
UMCL2
  6
CONTINUOUS
 10
1679.0946864133971
 20
1178.279239165626
 30
0.0
 11
1679.9280197467299
 21
1178.279239165626
 31
0.0
 12
1679.5113530800629
 22
1180.779239165626
 32
0.0
 13
1679.5113530800629
 23
1180.779239165626
 33
0.0
  0
INSERT
  5
F34
  8
0
  2
*U22
 10
0.0
 20
0.0
 30
0.0
  0
LINE
  5
F35
  8
UMCL1
  6
HIDDEN
 62
     6
 10
1585.5113530800629
 20
1184.779239165626
 30
0.0
 11
1571.5113530800629
 21
1184.779239165626
 31
0.0
  0
LINE
  5
F36
  8
UMCL1
  6
HIDDEN
 62
     6
 10
1571.5113530800629
 20
1184.779239165626
 30
0.0
 11
1567.511353080062
 21
1180.779239165626
 31
0.0
  0
LINE
  5
F37
  8
UMCL1
  6
HIDDEN
 62
     6
 10
1585.5113530800629
 20
1184.779239165626
 30
0.0
 11
1589.5113530800629
 21
1180.779239165626
 31
0.0
  0
LINE
  5
F38
  8
UMCL2
  6
CONTINUOUS
 10
1564.5113530800629
 20
1180.779239165626
 30
0.0
 11
1549.35517667473
 21
1180.779239165626
 31
0.0
  0
LINE
  5
F39
  8
UMCL2
  6
CONTINUOUS
 10
1570.511353080062
 20
1184.779239165626
 30
0.0
 11
1549.35517667473
 21
1184.779239165626
 31
0.0
  0
LINE
  5
F3A
  8
UMCL2
  6
CONTINUOUS
 10
1550.35517667473
 20
1178.279239165626
 30
0.0
 11
1550.35517667473
 21
1175.779239165626
 31
0.0
  0
LINE
  5
F3B
  8
UMCL2
  6
CONTINUOUS
 10
1550.35517667473
 20
1187.2792391656269
 30
0.0
 11
1550.35517667473
 21
1189.7792391656269
 31
0.0
  0
INSERT
  5
F3C
  8
0
  2
*U23
 10
0.0
 20
0.0
 30
0.0
  0
LINE
  5
F3D
  8
UMCL2
  6
CONTINUOUS
 10
1550.35517667473
 20
1180.779239165626
 30
0.0
 11
1550.35517667473
 21
1184.779239165626
 31
0.0
  0
SOLID
  5
F3E
  8
UMCL2
  6
CONTINUOUS
 10
1549.938510008064
 20
1178.279239165626
 30
0.0
 11
1550.771843341397
 21
1178.279239165626
 31
0.0
 12
1550.35517667473
 22
1180.779239165626
 32
0.0
 13
1550.35517667473
 23
1180.779239165626
 33
0.0
  0
SOLID
  5
F3F
  8
UMCL2
  6
CONTINUOUS
 10
1549.938510008064
 20
1187.2792391656269
 30
0.0
 11
1550.771843341397
 21
1187.2792391656269
 31
0.0
 12
1550.35517667473
 22
1184.779239165626
 32
0.0
 13
1550.35517667473
 23
1184.779239165626
 33
0.0
  0
TEXT
  5
F40
  8
UMCL2
 10
1541.5006414234549
 20
1165.9220963084831
 30
0.0
 40
3.0
  1
Raise clearnce
 50
90.0
  0
LINE
  5
F41
  8
UMCL2
 10
1542.0293353926579
 20
1166.0635045295789
 30
0.0
 11
1542.0293353926579
 21
1199.194859236158
 31
0.0
  0
LINE
  5
F42
  8
UMCL2
 10
1543.0293353926579
 20
1166.0635045295789
 30
0.0
 11
1543.0293353926579
 21
1199.194859236158
 31
0.0
  0
TEXT
  5
F43
  8
UMCL2
  6
CONTINUOUS
 10
1692.4199597247509
 20
1029.464039686764
 30
0.0
 40
3.0
  1
A
  7
ROMANS
  0
CIRCLE
  5
F44
  8
UMCL2
  6
CONTINUOUS
 10
1693.852592070901
 20
1030.7111399411069
 30
0.0
 40
2.5
  0
TEXT
  5
F45
  8
UMCL2
  6
CONTINUOUS
 10
1692.4199597247509
 20
1022.798598781181
 30
0.0
 40
3.0
  1
B
  7
ROMANS
  0
CIRCLE
  5
F46
  8
UMCL2
  6
CONTINUOUS
 10
1693.852592070901
 20
1024.045699035524
 30
0.0
 40
2.5
  0
TEXT
  5
F47
  8
UMCL2
  6
CONTINUOUS
 10
1699.385845678851
 20
1030.094501664601
 30
0.0
 40
3.0
  1
Clamping port
  7
ROMANSS
 72
     2
 11
1730.9572742502789
 21
1031.594501664601
 31
0.0
 73
     2
  0
TEXT
  5
F48
  8
UMCL2
  6
CONTINUOUS
 10
1699.2431555478961
 20
1022.529197289741
 30
0.0
 40
3.0
  1
Unclamping port
  7
ROMANSS
 72
     2
 11
1736.243155547897
 21
1024.029197289741
 31
0.0
 73
     2
  0
LINE
  5
F49
  8
UMCL2
 10
1689.4804009329091
 20
1035.4148116933161
 30
0.0
 11
1738.4859029946369
 21
1035.4148116933161
 31
0.0
  0
LINE
  5
F4A
  8
UMCL2
 10
1738.4859029946369
 20
1035.4148116933161
 30
0.0
 11
1738.4859029946369
 21
1019.613927507175
 31
0.0
  0
LINE
  5
F4B
  8
UMCL2
 10
1738.4859029946369
 20
1019.613927507175
 30
0.0
 11
1689.4804009329091
 21
1019.613927507175
 31
0.0
  0
LINE
  5
F4C
  8
UMCL2
 10
1689.4804009329091
 20
1019.613927507175
 30
0.0
 11
1689.4804009329091
 21
1035.4148116933161
 31
0.0
  0
ARC
  5
F4D
  8
UMCL2
  6
CONTINUOUS
 10
1636.1046888807041
 20
1248.8046021595551
 30
0.0
 40
12.0077046466029
 50
336.09877462132113
 51
348.04938731066028
  0
ARC
  5
F4E
  8
UMCL2
  6
CONTINUOUS
 10
1636.1046888807041
 20
1248.8046021595551
 30
0.0
 40
12.0077046466029
 50
26.950612689336442
 51
38.901225378678092
  0
ARC
  5
F4F
  8
UMCL2
  6
CONTINUOUS
 10
1636.1046888807041
 20
1248.8046021595551
 30
0.0
 40
12.0077046466029
 50
0.0
 51
15.000000000000741
  0
SOLID
  5
F50
  8
UMCL2
  6
CONTINUOUS
 10
1647.4377410993629
 20
1246.361559955134
 30
0.0
 11
1648.2665468104151
 21
1246.274810097661
 31
0.0
 12
1648.1123935273069
 22
1248.8046021595551
 32
0.0
 13
1648.1123935273069
 23
1248.8046021595551
 33
0.0
  0
SOLID
  5
F51
  8
UMCL2
  6
CONTINUOUS
 10
1647.1973831849041
 20
1254.395914103319
 30
0.0
 11
1646.419270858896
 21
1254.0976094728489
 31
0.0
 12
1647.7032409133089
 22
1251.9124248100611
 32
0.0
 13
1647.7032409133089
 23
1251.9124248100611
 33
0.0
  0
INSERT
  5
F52
  8
0
  2
*U24
 10
0.0
 20
0.0
 30
0.0
  0
TEXT
  5
F53
  8
UMCL2
  6
CONTINUOUS
 10
1300.3264035700799
 20
1213.912029196126
 30
0.0
 40
3.0
  1
A
  7
ROMANS
  0
CIRCLE
  5
F54
  8
UMCL2
  6
CONTINUOUS
 10
1302.04556238546
 20
1215.408549501338
 30
0.0
 40
3.0
  0
TEXT
  5
F55
  8
UMCL2
  6
CONTINUOUS
 10
1259.303223400455
 20
1213.9328055659239
 30
0.0
 40
3.0
  1
B
  7
ROMANS
  0
CIRCLE
  5
F56
  8
UMCL2
  6
CONTINUOUS
 10
1260.9705157751141
 20
1215.727506079266
 30
0.0
 40
3.0
  0
CIRCLE
  5
F57
  8
UMCL1
  6
CONTINUOUS
 10
1311.098647758171
 20
1135.7079134467549
 30
0.0
 40
6.0
  0
LINE
  5
F58
  8
UMCL1
  6
HIDDEN
 62
     3
 10
1297.598647758171
 20
1181.409964254324
 30
0.0
 11
1297.598647758171
 21
1156.0099642543239
 31
0.0
  0
CIRCLE
  5
F59
  8
UMCL1
  6
CONTINUOUS
 10
1311.098647758171
 20
1168.7099642543239
 30
0.0
 40
6.0
  0
CIRCLE
  5
F5A
  8
UMCL1
  6
CONTINUOUS
 10
1310.098647758171
 20
1291.135327248252
 30
0.0
 40
4.5
  0
ARC
  5
F5B
  8
UMCL1
  6
CONTINUOUS
 10
1310.098647758171
 20
1291.135327248252
 30
0.0
 40
7.0
 50
304.77194403195438
 51
235.2280559680456
  0
LINE
  5
F5C
  8
UMCL1
  6
CONTINUOUS
 10
1313.409636600979
 20
1299.635327248252
 30
0.0
 11
1248.7876589153641
 21
1299.635327248252
 31
0.0
  0
ARC
  5
F5D
  8
UMCL1
  6
CONTINUOUS
 10
1281.098647758171
 20
1262.135327248252
 30
0.0
 40
49.5
 50
130.74905437747159
 51
139.25094562252841
  0
LINE
  5
F5E
  8
UMCL1
  6
CONTINUOUS
 10
1243.598647758171
 20
1294.4463160910591
 30
0.0
 11
1243.598647758171
 21
1229.8243384054449
 31
0.0
  0
ARC
  5
F5F
  8
UMCL1
  6
CONTINUOUS
 10
1281.098647758171
 20
1262.135327248252
 30
0.0
 40
49.5
 50
220.74905437747159
 51
229.25094562252841
  0
LINE
  5
F60
  8
UMCL1
  6
CONTINUOUS
 10
1248.7876589153641
 20
1224.635327248252
 30
0.0
 11
1313.409636600978
 21
1224.635327248252
 31
0.0
  0
ARC
  5
F61
  8
UMCL1
  6
CONTINUOUS
 10
1281.098647758171
 20
1262.135327248252
 30
0.0
 40
49.5
 50
310.74905437747162
 51
319.25094562252838
  0
ARC
  5
F62
  8
UMCL1
  6
CONTINUOUS
 10
1281.098647758171
 20
1262.135327248252
 30
0.0
 40
49.5
 50
40.749054377471602
 51
49.250945622528398
  0
CIRCLE
  5
F63
  8
UMCL1
  6
CONTINUOUS
 10
1252.0986477581721
 20
1291.1353272482529
 30
0.0
 40
4.5
  0
CIRCLE
  5
F64
  8
UMCL1
  6
CONTINUOUS
 10
1252.0986477581721
 20
1291.1353272482529
 30
0.0
 40
7.0
  0
CIRCLE
  5
F65
  8
UMCL1
  6
CONTINUOUS
 10
1252.098647758171
 20
1233.1353272482529
 30
0.0
 40
4.5
  0
CIRCLE
  5
F66
  8
UMCL1
  6
CONTINUOUS
 10
1252.098647758171
 20
1233.1353272482529
 30
0.0
 40
7.0
  0
CIRCLE
  5
F67
  8
UMCL1
  6
CONTINUOUS
 10
1310.098647758171
 20
1233.1353272482529
 30
0.0
 40
4.5
  0
ARC
  5
F68
  8
UMCL1
  6
CONTINUOUS
 10
1310.098647758171
 20
1233.1353272482529
 30
0.0
 40
7.0
 50
124.77194403195431
 51
55.228055968045631
  0
LINE
  5
F69
  8
UMCL1
  6
CONTINUOUS
 10
1268.0986477581721
 20
1267.635327248252
 30
0.0
 11
1297.0986477581721
 21
1267.635327248252
 31
0.0
  0
LINE
  5
F6A
  8
UMCL1
  6
CONTINUOUS
 10
1297.0986477581721
 20
1256.635327248252
 30
0.0
 11
1268.0986477581721
 21
1256.635327248252
 31
0.0
  0
LINE
  5
F6B
  8
UMCL1
  6
CONTINUOUS
 10
1268.0986477581721
 20
1274.835327248252
 30
0.0
 11
1268.0986477581721
 21
1267.635327248252
 31
0.0
  0
LINE
  5
F6C
  8
UMCL1
  6
CONTINUOUS
 10
1268.0986477581721
 20
1256.635327248252
 30
0.0
 11
1268.0986477581721
 21
1249.435327248252
 31
0.0
  0
LINE
  5
F6D
  8
UMCL1
  6
CONTINUOUS
 10
1297.0986477581721
 20
1267.635327248252
 30
0.0
 11
1297.0986477581721
 21
1256.635327248252
 31
0.0
  0
LINE
  5
F6E
  8
UMCL1
  6
CONTINUOUS
 10
1318.598647758171
 20
1281.835327248252
 30
0.0
 11
1318.598647758171
 21
1294.4463160910591
 31
0.0
  0
LINE
  5
F6F
  8
UMCL1
  6
CONTINUOUS
 10
1318.598647758171
 20
1229.8243384054449
 30
0.0
 11
1318.598647758171
 21
1242.435327248252
 31
0.0
  0
LINE
  5
F70
  8
UMCL1
  6
CONTINUOUS
 10
1358.0986477581721
 20
1269.635327248252
 30
0.0
 11
1338.6919835588139
 21
1274.835327248252
 31
0.0
  0
LINE
  5
F71
  8
UMCL1
  6
CONTINUOUS
 10
1338.691983558813
 20
1274.835327248252
 30
0.0
 11
1338.691983558813
 21
1249.435327248252
 31
0.0
  0
LINE
  5
F72
  8
UMCL1
  6
CONTINUOUS
 10
1338.691983558813
 20
1249.435327248252
 30
0.0
 11
1358.0986477581721
 21
1254.635327248252
 31
0.0
  0
LINE
  5
F73
  8
UMCL1
  6
HIDDEN
 62
     3
 10
1287.098647758171
 20
1274.835327248252
 30
0.0
 11
1287.098647758171
 21
1249.435327248252
 31
0.0
  0
LINE
  5
F74
  8
UMCL1
  6
HIDDEN
 62
     3
 10
1275.098647758171
 20
1274.835327248252
 30
0.0
 11
1275.098647758171
 21
1249.435327248252
 31
0.0
  0
ARC
  5
F75
  8
UMCL1
  6
CONTINUOUS
 10
1281.098647758171
 20
1262.135327248252
 30
0.0
 40
13.0
 50
154.97100051238641
 51
205.0289994876135
  0
ARC
  5
F76
  8
UMCL1
  6
CONTINUOUS
 10
1281.098647758171
 20
1262.135327248252
 30
0.0
 40
13.0
 50
334.97100051238641
 51
25.028999487613579
  0
ARC
  5
F77
  8
UMCL1
  6
CONTINUOUS
 10
1281.098647758171
 20
1262.135327248252
 30
0.0
 40
7.0
 50
308.21321070173627
 51
51.786789298263777
  0
ARC
  5
F78
  8
UMCL1
  6
CONTINUOUS
 10
1281.098647758171
 20
1262.135327248252
 30
0.0
 40
7.0
 50
128.21321070173619
 51
231.78678929825361
  0
LINE
  5
F79
  8
UMCL1
  6
CONTINUOUS
 10
1338.691983558813
 20
1181.409964254324
 30
0.0
 11
1338.691983558813
 21
1156.0099642543239
 31
0.0
  0
LINE
  5
F7A
  8
UMCL1
  6
CONTINUOUS
 10
1268.098647758171
 20
1153.409964254324
 30
0.0
 11
1267.098647758171
 21
1151.409964254324
 31
0.0
  0
LINE
  5
F7B
  8
UMCL1
  6
CONTINUOUS
 10
1267.098647758171
 20
1151.409964254324
 30
0.0
 11
1295.098647758171
 21
1151.409964254324
 31
0.0
  0
LINE
  5
F7C
  8
UMCL1
  6
CONTINUOUS
 10
1295.098647758171
 20
1151.409964254324
 30
0.0
 11
1294.098647758171
 21
1153.409964254324
 31
0.0
  0
LINE
  5
F7D
  8
UMCL1
  6
CONTINUOUS
 10
1294.098647758171
 20
1153.409964254324
 30
0.0
 11
1268.098647758171
 21
1153.409964254324
 31
0.0
  0
LINE
  5
F7E
  8
UMCL1
  6
HIDDEN
 62
     2
 10
1288.098647758171
 20
1181.409964254324
 30
0.0
 11
1274.098647758171
 21
1181.409964254324
 31
0.0
  0
CIRCLE
  5
F7F
  8
UMCL1
  6
CONTINUOUS
 10
1281.098647758171
 20
1168.7099642543239
 30
0.0
 40
6.0
  0
LINE
  5
F80
  8
UMCL1
  6
HIDDEN
 62
     3
 10
1274.098647758171
 20
1181.409964254324
 30
0.0
 11
1268.098647758171
 21
1175.409964254324
 31
0.0
  0
LINE
  5
F81
  8
UMCL1
  6
HIDDEN
 62
     3
 10
1288.098647758171
 20
1181.409964254324
 30
0.0
 11
1294.098647758171
 21
1175.409964254324
 31
0.0
  0
LINE
  5
F82
  8
UMCL1
  6
CENTER
 62
     1
 10
1281.098647758171
 20
1017.007913446755
 30
0.0
 11
1281.098647758171
 21
1183.409964254324
 31
0.0
  0
LINE
  5
F83
  8
UMCL1
  6
HIDDEN
 62
     3
 10
1317.5986477581721
 20
1147.2079134467549
 30
0.0
 11
1304.5986477581721
 21
1147.2079134467549
 31
0.0
  0
LINE
  5
F84
  8
UMCL1
  6
HIDDEN
 62
     3
 10
1304.5986477581721
 20
1147.2079134467549
 30
0.0
 11
1299.5986477581721
 21
1142.2079134467549
 31
0.0
  0
LINE
  5
F85
  8
UMCL1
  6
CONTINUOUS
 10
1299.5986477581721
 20
1142.2079134467549
 30
0.0
 11
1299.5986477581721
 21
1119.0079134467551
 31
0.0
  0
LINE
  5
F86
  8
UMCL1
  6
CONTINUOUS
 10
1299.5986477581721
 20
1119.0079134467551
 30
0.0
 11
1322.598647758171
 21
1119.0079134467551
 31
0.0
  0
LINE
  5
F87
  8
UMCL1
  6
CONTINUOUS
 10
1322.598647758171
 20
1119.0079134467551
 30
0.0
 11
1322.598647758171
 21
1142.2079134467549
 31
0.0
  0
LINE
  5
F88
  8
UMCL1
  6
HIDDEN
 62
     3
 10
1322.598647758171
 20
1142.2079134467549
 30
0.0
 11
1317.5986477581721
 21
1147.2079134467549
 31
0.0
  0
POLYLINE
  5
F89
  8
UMCL1
  6
CONTINUOUS
 66
     1
 10
0.0
 20
0.0
 30
0.0
  0
VERTEX
  5
1285
  8
UMCL1
  6
CONTINUOUS
 10
1322.598647758171
 20
1135.7079134467549
 30
0.0
  0
VERTEX
  5
1286
  8
UMCL1
  6
CONTINUOUS
 10
1322.598647758171
 20
1168.709963207614
 30
0.0
 42
1.0000000568863789
  0
VERTEX
  5
1287
  8
UMCL1
  6
CONTINUOUS
 10
1299.598647758171
 20
1168.7099642543239
 30
0.0
  0
VERTEX
  5
1288
  8
UMCL1
  6
CONTINUOUS
 10
1299.598647758171
 20
1135.7079144934639
 30
0.0
 42
1.0000000910182081
  0
VERTEX
  5
1289
  8
UMCL1
  6
CONTINUOUS
 10
1322.598647758171
 20
1135.7079144934639
 30
0.0
  0
SEQEND
  5
128A
  8
UMCL1
  6
CONTINUOUS
  0
LINE
  5
F8A
  8
UMCL1
  6
CONTINUOUS
 10
1358.098647758171
 20
1171.0099642543239
 30
0.0
 11
1338.691983558813
 21
1181.409964254324
 31
0.0
  0
LINE
  5
F8B
  8
UMCL1
  6
CONTINUOUS
 10
1268.098647758171
 20
1163.409964254324
 30
0.0
 11
1275.498647758171
 21
1156.0099642543239
 31
0.0
  0
ARC
  5
F8C
  8
UMCL1
  6
CONTINUOUS
 10
1281.098647758171
 20
1262.135327248252
 30
0.0
 40
14.0
 50
336.86760360070389
 51
23.132396399296098
  0
LINE
  5
F8D
  8
UMCL1
  6
HIDDEN
 62
     3
 10
1268.098647758171
 20
1175.409964254324
 30
0.0
 11
1269.3194287687811
 21
1175.409964254324
 31
0.0
  0
LINE
  5
F8E
  8
UMCL1
  6
HIDDEN
 62
     3
 10
1294.098647758171
 20
1175.409964254324
 30
0.0
 11
1292.877866747561
 21
1175.409964254324
 31
0.0
  0
LINE
  5
F8F
  8
UMCL1
  6
CONTINUOUS
 10
1295.098647758171
 20
1119.0079134467539
 30
0.0
 11
1295.098647758171
 21
1151.4079134467549
 31
0.0
  0
LINE
  5
F90
  8
UMCL1
  6
CONTINUOUS
 10
1267.098647758171
 20
1151.407913446754
 30
0.0
 11
1267.098647758171
 21
1119.0079134467551
 31
0.0
  0
LINE
  5
F91
  8
UMCL1
  6
CONTINUOUS
 10
1358.098647758171
 20
1156.0099642543239
 30
0.0
 11
1358.098647758171
 21
1171.0099642543239
 31
0.0
  0
LINE
  5
F92
  8
UMCL1
  6
CONTINUOUS
 10
1268.098647758171
 20
1181.409964254324
 30
0.0
 11
1268.098647758171
 21
1163.409964254324
 31
0.0
  0
LINE
  5
F93
  8
UMCL1
  6
CONTINUOUS
 10
1268.098647758171
 20
1181.409964254324
 30
0.0
 11
1338.691983558813
 21
1181.409964254324
 31
0.0
  0
LINE
  5
F94
  8
UMCL1
  6
CONTINUOUS
 10
1275.498647758171
 20
1156.0099642543239
 30
0.0
 11
1299.598647758171
 21
1156.0099642543239
 31
0.0
  0
LINE
  5
F95
  8
UMCL1
  6
HIDDEN
 62
     3
 10
1299.598647758171
 20
1156.0099642543239
 30
0.0
 11
1322.598647758171
 21
1156.0099642543239
 31
0.0
  0
LINE
  5
F96
  8
UMCL1
  6
CONTINUOUS
 10
1322.598647758171
 20
1156.0099642543239
 30
0.0
 11
1358.098647758171
 21
1156.0099642543239
 31
0.0
  0
LINE
  5
F97
  8
UMCL1
  6
CONTINUOUS
 10
1358.0986477581721
 20
1254.635327248252
 30
0.0
 11
1358.0986477581721
 21
1269.635327248252
 31
0.0
  0
ARC
  5
F98
  8
UMCL1
  6
CONTINUOUS
 10
1281.098647758171
 20
1262.135327248252
 30
0.0
 40
14.0
 50
156.86760360070389
 51
203.13239639929611
  0
LINE
  5
F99
  8
UMCL1
  6
CONTINUOUS
 10
1268.0986477581721
 20
1274.835327248252
 30
0.0
 11
1338.6919835588139
 21
1274.835327248252
 31
0.0
  0
LINE
  5
F9A
  8
UMCL1
  6
CONTINUOUS
 10
1268.0986477581721
 20
1249.435327248252
 30
0.0
 11
1338.691983558813
 21
1249.435327248252
 31
0.0
  0
LINE
  5
F9B
  8
UMCL1
  6
HIDDEN
 62
     3
 10
1322.598647758171
 20
1274.835327248252
 30
0.0
 11
1322.598647758171
 21
1249.435327248252
 31
0.0
  0
LINE
  5
F9C
  8
UMCL1
  6
CENTER
 62
     1
 10
1281.098647758171
 20
1301.635327248252
 30
0.0
 11
1281.098647758171
 21
1222.635327248252
 31
0.0
  0
LINE
  5
F9D
  8
UMCL1
  6
CENTER
 62
     1
 10
1241.598647758171
 20
1262.135327248252
 30
0.0
 11
1360.0986477581721
 21
1262.135327248252
 31
0.0
  0
LINE
  5
F9E
  8
UMCL1
  6
HIDDEN
 62
     3
 10
1294.098647758171
 20
1175.409964254324
 30
0.0
 11
1294.098647758171
 21
1156.0099642543239
 31
0.0
  0
LINE
  5
F9F
  8
UMCL1
  6
HIDDEN
 62
     3
 10
1292.877866747561
 20
1176.6307452649339
 30
0.0
 11
1292.877866747561
 21
1156.0099642543239
 31
0.0
  0
LINE
  5
FA0
  8
UMCL1
  6
HIDDEN
 62
     3
 10
1268.098647758171
 20
1175.409964254324
 30
0.0
 11
1268.098647758171
 21
1163.409964254324
 31
0.0
  0
LINE
  5
FA1
  8
UMCL1
  6
HIDDEN
 62
     3
 10
1269.3194287687811
 20
1176.6307452649339
 30
0.0
 11
1269.3194287687811
 21
1162.1891832437141
 31
0.0
  0
LINE
  5
FA2
  8
UMCL1
  6
CONTINUOUS
 10
1268.098647758171
 20
1163.409964254324
 30
0.0
 11
1268.098647758171
 21
1153.409964254324
 31
0.0
  0
LINE
  5
FA3
  8
UMCL1
  6
CONTINUOUS
 10
1269.3194287687811
 20
1162.1891832437141
 30
0.0
 11
1269.3194287687811
 21
1153.409964254324
 31
0.0
  0
LINE
  5
FA4
  8
UMCL1
  6
CONTINUOUS
 10
1292.877866747561
 20
1156.0099642543239
 30
0.0
 11
1292.877866747561
 21
1153.409964254324
 31
0.0
  0
LINE
  5
FA5
  8
UMCL1
  6
CONTINUOUS
 10
1294.098647758171
 20
1156.0099642543239
 30
0.0
 11
1294.098647758171
 21
1153.409964254324
 31
0.0
  0
LINE
  5
FA6
  8
UMCL1
  6
HIDDEN
 62
     3
 10
1245.098647758171
 20
1119.0079134467551
 30
0.0
 11
1245.098647758171
 21
1110.0079134467551
 31
0.0
  0
LINE
  5
FA7
  8
UMCL1
  6
HIDDEN
 62
     3
 10
1245.098647758171
 20
1110.0079134467551
 30
0.0
 11
1259.098647758171
 21
1110.0079134467551
 31
0.0
  0
LINE
  5
FA8
  8
UMCL1
  6
HIDDEN
 62
     3
 10
1259.098647758171
 20
1110.0079134467551
 30
0.0
 11
1259.098647758171
 21
1119.0079134467551
 31
0.0
  0
LINE
  5
FA9
  8
UMCL1
  6
HIDDEN
 62
     3
 10
1256.598647758171
 20
1019.007913446755
 30
0.0
 11
1256.598647758171
 21
1110.0079134467551
 31
0.0
  0
LINE
  5
FAA
  8
UMCL1
  6
CENTER
 62
     1
 10
1252.098647758171
 20
1017.507913446755
 30
0.0
 11
1252.098647758171
 21
1120.5079134467551
 31
0.0
  0
LINE
  5
FAB
  8
UMCL1
  6
HIDDEN
 62
     3
 10
1247.598647758171
 20
1019.007913446755
 30
0.0
 11
1247.598647758171
 21
1110.0079134467551
 31
0.0
  0
LINE
  5
FAC
  8
UMCL1
  6
HIDDEN
 62
     3
 10
1303.098647758171
 20
1119.0079134467539
 30
0.0
 11
1303.098647758171
 21
1110.0079134467551
 31
0.0
  0
LINE
  5
FAD
  8
UMCL1
  6
HIDDEN
 62
     3
 10
1303.098647758171
 20
1110.0079134467551
 30
0.0
 11
1317.098647758171
 21
1110.0079134467539
 31
0.0
  0
LINE
  5
FAE
  8
UMCL1
  6
HIDDEN
 62
     3
 10
1317.098647758171
 20
1110.0079134467539
 30
0.0
 11
1317.098647758171
 21
1119.0079134467539
 31
0.0
  0
LINE
  5
FAF
  8
UMCL1
  6
HIDDEN
 62
     3
 10
1314.598647758171
 20
1019.0079134467539
 30
0.0
 11
1314.598647758171
 21
1110.0079134467539
 31
0.0
  0
LINE
  5
FB0
  8
UMCL1
  6
CENTER
 62
     1
 10
1310.098647758171
 20
1017.507913446755
 30
0.0
 11
1310.098647758171
 21
1120.5079134467539
 31
0.0
  0
LINE
  5
FB1
  8
UMCL1
  6
HIDDEN
 62
     3
 10
1305.598647758171
 20
1019.0079134467539
 30
0.0
 11
1305.598647758171
 21
1110.0079134467539
 31
0.0
  0
CIRCLE
  5
FB2
  8
UMCL1
  6
CONTINUOUS
 10
1265.098647758171
 20
1085.5079134467551
 30
0.0
 40
5.75
  0
CIRCLE
  5
FB3
  8
UMCL1
  6
CONTINUOUS
 10
1297.098647758171
 20
1040.5079134467539
 30
0.0
 40
5.75
  0
LINE
  5
FB4
  8
UMCL1
  6
CENTER
 62
     1
 10
1301.798647758171
 20
1291.135327248252
 30
0.0
 11
1307.498647758171
 21
1291.135327248252
 31
0.0
  0
LINE
  5
FB5
  8
UMCL1
  6
CENTER
 62
     1
 10
1308.798647758171
 20
1291.135327248252
 30
0.0
 11
1311.398647758172
 21
1291.135327248252
 31
0.0
  0
LINE
  5
FB6
  8
UMCL1
  6
CENTER
 62
     1
 10
1312.6986477581711
 20
1291.135327248252
 30
0.0
 11
1318.3986477581709
 21
1291.135327248252
 31
0.0
  0
LINE
  5
FB7
  8
UMCL1
  6
CENTER
 62
     1
 10
1310.098647758171
 20
1282.835327248252
 30
0.0
 11
1310.098647758171
 21
1288.5353272482521
 31
0.0
  0
LINE
  5
FB8
  8
UMCL1
  6
CENTER
 62
     1
 10
1310.098647758171
 20
1289.835327248252
 30
0.0
 11
1310.098647758171
 21
1292.435327248252
 31
0.0
  0
LINE
  5
FB9
  8
UMCL1
  6
CENTER
 62
     1
 10
1310.098647758171
 20
1293.7353272482519
 30
0.0
 11
1310.098647758171
 21
1299.435327248252
 31
0.0
  0
LINE
  5
FBA
  8
UMCL1
  6
CENTER
 62
     1
 10
1301.798647758171
 20
1233.1353272482529
 30
0.0
 11
1307.498647758171
 21
1233.1353272482529
 31
0.0
  0
LINE
  5
FBB
  8
UMCL1
  6
CENTER
 62
     1
 10
1308.798647758171
 20
1233.1353272482529
 30
0.0
 11
1311.3986477581709
 21
1233.1353272482529
 31
0.0
  0
LINE
  5
FBC
  8
UMCL1
  6
CENTER
 62
     1
 10
1312.6986477581711
 20
1233.1353272482529
 30
0.0
 11
1318.3986477581709
 21
1233.1353272482529
 31
0.0
  0
LINE
  5
FBD
  8
UMCL1
  6
CENTER
 62
     1
 10
1310.098647758171
 20
1224.835327248253
 30
0.0
 11
1310.098647758171
 21
1230.535327248253
 31
0.0
  0
LINE
  5
FBE
  8
UMCL1
  6
CENTER
 62
     1
 10
1310.098647758171
 20
1231.835327248252
 30
0.0
 11
1310.098647758171
 21
1234.4353272482531
 31
0.0
  0
LINE
  5
FBF
  8
UMCL1
  6
CENTER
 62
     1
 10
1310.098647758171
 20
1235.7353272482519
 30
0.0
 11
1310.098647758171
 21
1241.4353272482531
 31
0.0
  0
LINE
  5
FC0
  8
UMCL1
  6
CENTER
 62
     1
 10
1243.798647758171
 20
1233.1353272482529
 30
0.0
 11
1249.498647758171
 21
1233.1353272482529
 31
0.0
  0
LINE
  5
FC1
  8
UMCL1
  6
CENTER
 62
     1
 10
1250.798647758171
 20
1233.1353272482529
 30
0.0
 11
1253.398647758172
 21
1233.1353272482529
 31
0.0
  0
LINE
  5
FC2
  8
UMCL1
  6
CENTER
 62
     1
 10
1254.6986477581711
 20
1233.1353272482529
 30
0.0
 11
1260.3986477581709
 21
1233.1353272482529
 31
0.0
  0
LINE
  5
FC3
  8
UMCL1
  6
CENTER
 62
     1
 10
1252.098647758171
 20
1224.835327248253
 30
0.0
 11
1252.098647758171
 21
1230.535327248253
 31
0.0
  0
LINE
  5
FC4
  8
UMCL1
  6
CENTER
 62
     1
 10
1252.098647758171
 20
1231.835327248253
 30
0.0
 11
1252.098647758171
 21
1234.4353272482531
 31
0.0
  0
LINE
  5
FC5
  8
UMCL1
  6
CENTER
 62
     1
 10
1252.098647758171
 20
1235.735327248253
 30
0.0
 11
1252.098647758171
 21
1241.4353272482531
 31
0.0
  0
LINE
  5
FC6
  8
UMCL1
  6
CENTER
 62
     1
 10
1243.7986477581719
 20
1291.1353272482529
 30
0.0
 11
1249.498647758172
 21
1291.1353272482529
 31
0.0
  0
LINE
  5
FC7
  8
UMCL1
  6
CENTER
 62
     1
 10
1250.7986477581719
 20
1291.1353272482529
 30
0.0
 11
1253.398647758172
 21
1291.1353272482529
 31
0.0
  0
LINE
  5
FC8
  8
UMCL1
  6
CENTER
 62
     1
 10
1254.698647758172
 20
1291.1353272482529
 30
0.0
 11
1260.398647758172
 21
1291.1353272482529
 31
0.0
  0
LINE
  5
FC9
  8
UMCL1
  6
CENTER
 62
     1
 10
1252.0986477581721
 20
1282.835327248253
 30
0.0
 11
1252.0986477581721
 21
1288.535327248253
 31
0.0
  0
LINE
  5
FCA
  8
UMCL1
  6
CENTER
 62
     1
 10
1252.0986477581721
 20
1289.835327248253
 30
0.0
 11
1252.0986477581721
 21
1292.435327248252
 31
0.0
  0
LINE
  5
FCB
  8
UMCL1
  6
CENTER
 62
     1
 10
1252.0986477581721
 20
1293.7353272482519
 30
0.0
 11
1252.0986477581721
 21
1299.4353272482531
 31
0.0
  0
LINE
  5
FCC
  8
UMCL1
  6
CENTER
 62
     1
 10
1303.598647758171
 20
1168.7099642543239
 30
0.0
 11
1308.098647758171
 21
1168.7099642543239
 31
0.0
  0
LINE
  5
FCD
  8
UMCL1
  6
CENTER
 62
     1
 10
1309.598647758171
 20
1168.7099642543239
 30
0.0
 11
1312.598647758171
 21
1168.7099642543239
 31
0.0
  0
LINE
  5
FCE
  8
UMCL1
  6
CENTER
 62
     1
 10
1314.098647758171
 20
1168.7099642543239
 30
0.0
 11
1318.598647758171
 21
1168.7099642543239
 31
0.0
  0
LINE
  5
FCF
  8
UMCL1
  6
CENTER
 62
     1
 10
1311.098647758171
 20
1161.2099642543239
 30
0.0
 11
1311.098647758171
 21
1165.7099642543239
 31
0.0
  0
LINE
  5
FD0
  8
UMCL1
  6
CENTER
 62
     1
 10
1311.098647758171
 20
1167.2099642543239
 30
0.0
 11
1311.098647758171
 21
1170.2099642543239
 31
0.0
  0
LINE
  5
FD1
  8
UMCL1
  6
CENTER
 62
     1
 10
1311.098647758171
 20
1171.7099642543239
 30
0.0
 11
1311.098647758171
 21
1176.2099642543239
 31
0.0
  0
LINE
  5
FD2
  8
UMCL1
  6
CENTER
 62
     1
 10
1303.598647758171
 20
1135.7079134467549
 30
0.0
 11
1308.098647758171
 21
1135.7079134467549
 31
0.0
  0
LINE
  5
FD3
  8
UMCL1
  6
CENTER
 62
     1
 10
1309.598647758171
 20
1135.7079134467549
 30
0.0
 11
1312.598647758171
 21
1135.7079134467549
 31
0.0
  0
LINE
  5
FD4
  8
UMCL1
  6
CENTER
 62
     1
 10
1314.098647758171
 20
1135.7079134467549
 30
0.0
 11
1318.598647758171
 21
1135.7079134467549
 31
0.0
  0
LINE
  5
FD5
  8
UMCL1
  6
CENTER
 62
     1
 10
1311.098647758171
 20
1128.2079134467549
 30
0.0
 11
1311.098647758171
 21
1132.7079134467549
 31
0.0
  0
LINE
  5
FD6
  8
UMCL1
  6
CENTER
 62
     1
 10
1311.098647758171
 20
1134.2079134467549
 30
0.0
 11
1311.098647758171
 21
1137.2079134467549
 31
0.0
  0
LINE
  5
FD7
  8
UMCL1
  6
CENTER
 62
     1
 10
1311.098647758171
 20
1138.7079134467549
 30
0.0
 11
1311.098647758171
 21
1143.2079134467549
 31
0.0
  0
LINE
  5
FD8
  8
UMCL1
  6
CENTER
 62
     1
 10
1273.598647758171
 20
1168.7099642543239
 30
0.0
 11
1278.098647758171
 21
1168.7099642543239
 31
0.0
  0
LINE
  5
FD9
  8
UMCL1
  6
CENTER
 62
     1
 10
1279.598647758171
 20
1168.7099642543239
 30
0.0
 11
1282.598647758171
 21
1168.7099642543239
 31
0.0
  0
LINE
  5
FDA
  8
UMCL1
  6
CENTER
 62
     1
 10
1284.098647758171
 20
1168.7099642543239
 30
0.0
 11
1288.598647758171
 21
1168.7099642543239
 31
0.0
  0
LINE
  5
FDB
  8
UMCL1
  6
CENTER
 62
     1
 10
1311.098647758171
 20
1161.2099642543239
 30
0.0
 11
1311.098647758171
 21
1143.2079134467549
 31
0.0
  0
LINE
  5
FDC
  8
UMCL1
  6
CENTER
 62
     1
 10
1350.098647758171
 20
1181.149934451671
 30
0.0
 11
1350.098647758171
 21
1143.2079134467549
 31
0.0
  0
LINE
  5
FDD
  8
UMCL1
  6
CONTINUOUS
 10
1244.3986477581709
 20
1019.007913446755
 30
0.0
 11
1317.798647758171
 21
1019.007913446755
 31
0.0
  0
LINE
  5
FDE
  8
UMCL1
  6
CONTINUOUS
 10
1318.598647758171
 20
1019.807913446755
 30
0.0
 11
1318.598647758171
 21
1118.2079134467549
 31
0.0
  0
LINE
  5
FDF
  8
UMCL1
  6
CONTINUOUS
 10
1317.798647758171
 20
1119.0079134467551
 30
0.0
 11
1244.3986477581709
 21
1119.0079134467551
 31
0.0
  0
LINE
  5
FE0
  8
UMCL1
  6
CONTINUOUS
 10
1243.598647758171
 20
1118.2079134467549
 30
0.0
 11
1243.598647758171
 21
1019.807913446755
 31
0.0
  0
LINE
  5
FE1
  8
UMCL1
  6
CONTINUOUS
 10
1318.598647758171
 20
1118.2079134467549
 30
0.0
 11
1243.598647758171
 21
1118.2079134467549
 31
0.0
  0
LINE
  5
FE2
  8
UMCL1
  6
CONTINUOUS
 10
1243.598647758171
 20
1019.807913446755
 30
0.0
 11
1318.598647758171
 21
1019.807913446755
 31
0.0
  0
LINE
  5
FE3
  8
UMCL1
  6
CONTINUOUS
 10
1317.798647758171
 20
1119.0079134467551
 30
0.0
 11
1318.598647758171
 21
1118.2079134467549
 31
0.0
  0
LINE
  5
FE4
  8
UMCL1
  6
CONTINUOUS
 10
1244.3986477581709
 20
1119.0079134467551
 30
0.0
 11
1243.598647758171
 21
1118.2079134467549
 31
0.0
  0
LINE
  5
FE5
  8
UMCL1
  6
CONTINUOUS
 10
1243.598647758171
 20
1019.807913446755
 30
0.0
 11
1244.3986477581709
 21
1019.007913446755
 31
0.0
  0
LINE
  5
FE6
  8
UMCL1
  6
CONTINUOUS
 10
1317.798647758171
 20
1019.007913446755
 30
0.0
 11
1318.598647758171
 21
1019.807913446755
 31
0.0
  0
LINE
  5
FE7
  8
UMCL1
  6
CONTINUOUS
 10
1273.548647758171
 20
1274.835327248252
 30
0.0
 11
1273.548647758171
 21
1275.935327248252
 31
0.0
  0
LINE
  5
FE8
  8
UMCL1
  6
CONTINUOUS
 10
1273.548647758171
 20
1275.935327248252
 30
0.0
 11
1288.6486477581709
 21
1275.935327248252
 31
0.0
  0
LINE
  5
FE9
  8
UMCL1
  6
CONTINUOUS
 10
1288.6486477581709
 20
1275.935327248252
 30
0.0
 11
1288.6486477581709
 21
1274.835327248252
 31
0.0
  0
LINE
  5
FEA
  8
UMCL1
  6
CONTINUOUS
 10
1275.348647758171
 20
1275.935327248252
 30
0.0
 11
1275.348647758171
 21
1274.835327248252
 31
0.0
  0
LINE
  5
FEB
  8
UMCL1
  6
CONTINUOUS
 10
1286.848647758171
 20
1275.935327248252
 30
0.0
 11
1286.848647758171
 21
1274.835327248252
 31
0.0
  0
LINE
  5
FEC
  8
UMCL1
  6
HIDDEN
 62
     3
 10
1317.0986477581721
 20
1282.835327248252
 30
0.0
 11
1317.0986477581721
 21
1241.4353272482531
 31
0.0
  0
LINE
  5
FED
  8
UMCL1
  6
HIDDEN
 62
     3
 10
1305.098647758171
 20
1282.835327248252
 30
0.0
 11
1305.098647758171
 21
1241.4353272482531
 31
0.0
  0
LINE
  5
FEE
  8
UMCL1
  6
CONTINUOUS
 10
1275.598647758171
 20
1277.385327248252
 30
0.0
 11
1286.598647758171
 21
1277.385327248252
 31
0.0
  0
LINE
  5
FEF
  8
UMCL1
  6
CONTINUOUS
 10
1275.098647758171
 20
1276.885327248252
 30
0.0
 11
1287.098647758171
 21
1276.885327248252
 31
0.0
  0
LINE
  5
FF0
  8
UMCL1
  6
CONTINUOUS
 10
1275.098647758171
 20
1276.885327248252
 30
0.0
 11
1275.598647758171
 21
1277.385327248252
 31
0.0
  0
LINE
  5
FF1
  8
UMCL1
  6
CONTINUOUS
 10
1286.598647758171
 20
1277.385327248252
 30
0.0
 11
1287.098647758171
 21
1276.885327248252
 31
0.0
  0
LINE
  5
FF2
  8
UMCL1
  6
CONTINUOUS
 10
1273.548647758171
 20
1249.435327248252
 30
0.0
 11
1273.548647758171
 21
1248.335327248252
 31
0.0
  0
LINE
  5
FF3
  8
UMCL1
  6
CONTINUOUS
 10
1273.548647758171
 20
1248.335327248252
 30
0.0
 11
1288.6486477581709
 21
1248.335327248252
 31
0.0
  0
LINE
  5
FF4
  8
UMCL1
  6
CONTINUOUS
 10
1288.6486477581709
 20
1248.335327248252
 30
0.0
 11
1288.6486477581709
 21
1249.435327248252
 31
0.0
  0
LINE
  5
FF5
  8
UMCL1
  6
CONTINUOUS
 10
1275.348647758171
 20
1248.335327248252
 30
0.0
 11
1275.348647758171
 21
1249.435327248252
 31
0.0
  0
LINE
  5
FF6
  8
UMCL1
  6
CONTINUOUS
 10
1286.848647758171
 20
1248.335327248252
 30
0.0
 11
1286.848647758171
 21
1249.435327248252
 31
0.0
  0
LINE
  5
FF7
  8
UMCL1
  6
CONTINUOUS
 10
1299.5986477581721
 20
1282.835327248252
 30
0.0
 11
1299.5986477581721
 21
1274.835327248252
 31
0.0
  0
LINE
  5
FF8
  8
UMCL1
  6
CONTINUOUS
 10
1322.598647758171
 20
1282.835327248252
 30
0.0
 11
1322.598647758171
 21
1274.835327248252
 31
0.0
  0
LINE
  5
FF9
  8
UMCL1
  6
CONTINUOUS
 10
1299.5986477581721
 20
1241.435327248252
 30
0.0
 11
1299.5986477581721
 21
1249.435327248252
 31
0.0
  0
LINE
  5
FFA
  8
UMCL1
  6
CONTINUOUS
 10
1322.598647758171
 20
1241.435327248252
 30
0.0
 11
1322.598647758171
 21
1249.435327248252
 31
0.0
  0
LINE
  5
FFB
  8
UMCL1
  6
CONTINUOUS
 10
1287.098647758171
 20
1276.885327248252
 30
0.0
 11
1287.098647758171
 21
1275.935327248252
 31
0.0
  0
LINE
  5
FFC
  8
UMCL1
  6
CONTINUOUS
 10
1275.098647758171
 20
1276.885327248252
 30
0.0
 11
1275.098647758171
 21
1275.935327248252
 31
0.0
  0
LINE
  5
FFD
  8
UMCL1
  6
CONTINUOUS
 10
1275.598647758171
 20
1246.885327248252
 30
0.0
 11
1286.598647758171
 21
1246.885327248252
 31
0.0
  0
LINE
  5
FFE
  8
UMCL1
  6
CONTINUOUS
 10
1275.098647758171
 20
1247.385327248252
 30
0.0
 11
1287.098647758171
 21
1247.385327248252
 31
0.0
  0
LINE
  5
FFF
  8
UMCL1
  6
CONTINUOUS
 10
1275.098647758171
 20
1247.385327248252
 30
0.0
 11
1275.598647758171
 21
1246.885327248252
 31
0.0
  0
LINE
  5
1000
  8
UMCL1
  6
CONTINUOUS
 10
1286.598647758171
 20
1246.885327248252
 30
0.0
 11
1287.098647758171
 21
1247.385327248252
 31
0.0
  0
LINE
  5
1001
  8
UMCL1
  6
CONTINUOUS
 10
1287.098647758171
 20
1247.385327248252
 30
0.0
 11
1287.098647758171
 21
1248.335327248252
 31
0.0
  0
LINE
  5
1002
  8
UMCL1
  6
CONTINUOUS
 10
1275.098647758171
 20
1247.385327248252
 30
0.0
 11
1275.098647758171
 21
1248.335327248252
 31
0.0
  0
LINE
  5
1003
  8
UMCL1
  6
CONTINUOUS
 10
1299.5986477581721
 20
1282.835327248252
 30
0.0
 11
1322.598647758171
 21
1282.835327248252
 31
0.0
  0
LINE
  5
1004
  8
UMCL1
  6
CONTINUOUS
 10
1299.5986477581721
 20
1241.435327248252
 30
0.0
 11
1322.598647758171
 21
1241.4353272482531
 31
0.0
  0
LINE
  5
1005
  8
UMCL1
  6
CONTINUOUS
 10
1303.548647758171
 20
1282.835327248252
 30
0.0
 11
1303.548647758171
 21
1283.935327248252
 31
0.0
  0
LINE
  5
1006
  8
UMCL1
  6
CONTINUOUS
 10
1303.548647758171
 20
1283.935327248252
 30
0.0
 11
1318.648647758172
 21
1283.935327248252
 31
0.0
  0
LINE
  5
1007
  8
UMCL1
  6
CONTINUOUS
 10
1318.648647758172
 20
1283.935327248252
 30
0.0
 11
1318.648647758172
 21
1282.835327248252
 31
0.0
  0
LINE
  5
1008
  8
UMCL1
  6
CONTINUOUS
 10
1305.348647758171
 20
1283.935327248252
 30
0.0
 11
1305.348647758171
 21
1282.835327248252
 31
0.0
  0
LINE
  5
1009
  8
UMCL1
  6
CONTINUOUS
 10
1316.848647758171
 20
1283.935327248252
 30
0.0
 11
1316.848647758171
 21
1282.835327248252
 31
0.0
  0
LINE
  5
100A
  8
UMCL1
  6
CONTINUOUS
 10
1305.598647758171
 20
1285.385327248252
 30
0.0
 11
1316.598647758171
 21
1285.385327248252
 31
0.0
  0
LINE
  5
100B
  8
UMCL1
  6
CONTINUOUS
 10
1305.098647758171
 20
1284.885327248252
 30
0.0
 11
1317.098647758171
 21
1284.885327248252
 31
0.0
  0
LINE
  5
100C
  8
UMCL1
  6
CONTINUOUS
 10
1305.098647758171
 20
1284.885327248252
 30
0.0
 11
1305.598647758171
 21
1285.385327248252
 31
0.0
  0
LINE
  5
100D
  8
UMCL1
  6
CONTINUOUS
 10
1316.598647758171
 20
1285.385327248252
 30
0.0
 11
1317.098647758171
 21
1284.885327248252
 31
0.0
  0
LINE
  5
100E
  8
UMCL1
  6
CONTINUOUS
 10
1317.098647758171
 20
1284.885327248252
 30
0.0
 11
1317.098647758171
 21
1283.935327248252
 31
0.0
  0
LINE
  5
100F
  8
UMCL1
  6
CONTINUOUS
 10
1305.098647758171
 20
1284.885327248252
 30
0.0
 11
1305.098647758171
 21
1283.935327248252
 31
0.0
  0
LINE
  5
1010
  8
UMCL1
  6
CONTINUOUS
 10
1303.548647758171
 20
1241.4353272482531
 30
0.0
 11
1303.548647758171
 21
1240.335327248253
 31
0.0
  0
LINE
  5
1011
  8
UMCL1
  6
CONTINUOUS
 10
1303.548647758171
 20
1240.335327248253
 30
0.0
 11
1318.648647758172
 21
1240.335327248253
 31
0.0
  0
LINE
  5
1012
  8
UMCL1
  6
CONTINUOUS
 10
1318.648647758172
 20
1240.335327248253
 30
0.0
 11
1318.648647758172
 21
1241.4353272482531
 31
0.0
  0
LINE
  5
1013
  8
UMCL1
  6
CONTINUOUS
 10
1305.348647758171
 20
1240.335327248253
 30
0.0
 11
1305.348647758171
 21
1241.4353272482531
 31
0.0
  0
LINE
  5
1014
  8
UMCL1
  6
CONTINUOUS
 10
1316.848647758171
 20
1240.335327248253
 30
0.0
 11
1316.848647758171
 21
1241.4353272482531
 31
0.0
  0
LINE
  5
1015
  8
UMCL1
  6
CONTINUOUS
 10
1305.598647758171
 20
1238.885327248252
 30
0.0
 11
1316.598647758171
 21
1238.885327248252
 31
0.0
  0
LINE
  5
1016
  8
UMCL1
  6
CONTINUOUS
 10
1305.098647758171
 20
1239.3853272482529
 30
0.0
 11
1317.098647758171
 21
1239.3853272482529
 31
0.0
  0
LINE
  5
1017
  8
UMCL1
  6
CONTINUOUS
 10
1305.098647758171
 20
1239.3853272482529
 30
0.0
 11
1305.598647758171
 21
1238.885327248252
 31
0.0
  0
LINE
  5
1018
  8
UMCL1
  6
CONTINUOUS
 10
1316.598647758171
 20
1238.885327248252
 30
0.0
 11
1317.098647758171
 21
1239.3853272482529
 31
0.0
  0
LINE
  5
1019
  8
UMCL1
  6
CONTINUOUS
 10
1317.098647758171
 20
1239.3853272482529
 30
0.0
 11
1317.098647758171
 21
1240.335327248253
 31
0.0
  0
LINE
  5
101A
  8
UMCL1
  6
CONTINUOUS
 10
1305.098647758171
 20
1239.3853272482529
 30
0.0
 11
1305.098647758171
 21
1240.335327248253
 31
0.0
  0
LINE
  5
101B
  8
UMCL1
  6
HIDDEN
 62
     3
 10
1318.598647758171
 20
1241.435327248252
 30
0.0
 11
1318.598647758171
 21
1282.835327248252
 31
0.0
  0
LINE
  5
101C
  8
UMCL1
  6
CENTER
 62
     1
 10
1311.098647758171
 20
1286.385327248252
 30
0.0
 11
1311.098647758171
 21
1237.8853272482529
 31
0.0
  0
ARC
  5
101D
  8
UMCL1
  6
CONTINUOUS
 62
     3
 10
1265.098647758171
 20
1085.5079134467551
 30
0.0
 40
6.5999999999999988
 50
344.99999999999932
 51
284.99999999999437
  0
LINE
  5
101E
  8
UMCL1
  6
CENTER
 62
     1
 10
1256.998647758171
 20
1085.5079134467551
 30
0.0
 11
1262.098647758171
 21
1085.5079134467551
 31
0.0
  0
LINE
  5
101F
  8
UMCL1
  6
CENTER
 62
     1
 10
1263.598647758171
 20
1085.5079134467551
 30
0.0
 11
1266.598647758171
 21
1085.5079134467551
 31
0.0
  0
LINE
  5
1020
  8
UMCL1
  6
CENTER
 62
     1
 10
1268.098647758171
 20
1085.5079134467551
 30
0.0
 11
1273.1986477581711
 21
1085.5079134467551
 31
0.0
  0
LINE
  5
1021
  8
UMCL1
  6
CENTER
 62
     1
 10
1265.098647758171
 20
1077.4079134467549
 30
0.0
 11
1265.098647758171
 21
1082.5079134467551
 31
0.0
  0
LINE
  5
1022
  8
UMCL1
  6
CENTER
 62
     1
 10
1265.098647758171
 20
1084.0079134467551
 30
0.0
 11
1265.098647758171
 21
1087.0079134467551
 31
0.0
  0
LINE
  5
1023
  8
UMCL1
  6
CENTER
 62
     1
 10
1265.098647758171
 20
1088.5079134467551
 30
0.0
 11
1265.098647758171
 21
1093.607913446755
 31
0.0
  0
ARC
  5
1024
  8
UMCL1
  6
CONTINUOUS
 62
     3
 10
1297.098647758171
 20
1040.5079134467539
 30
0.0
 40
6.5999999999999988
 50
344.99999999999932
 51
284.99999999999437
  0
LINE
  5
1025
  8
UMCL1
  6
CENTER
 62
     1
 10
1288.998647758171
 20
1040.5079134467539
 30
0.0
 11
1294.098647758171
 21
1040.5079134467539
 31
0.0
  0
LINE
  5
1026
  8
UMCL1
  6
CENTER
 62
     1
 10
1295.598647758171
 20
1040.5079134467539
 30
0.0
 11
1298.598647758171
 21
1040.5079134467539
 31
0.0
  0
LINE
  5
1027
  8
UMCL1
  6
CENTER
 62
     1
 10
1300.098647758171
 20
1040.5079134467539
 30
0.0
 11
1305.1986477581711
 21
1040.5079134467539
 31
0.0
  0
LINE
  5
1028
  8
UMCL1
  6
CENTER
 62
     1
 10
1297.098647758171
 20
1032.407913446754
 30
0.0
 11
1297.098647758171
 21
1037.5079134467539
 31
0.0
  0
LINE
  5
1029
  8
UMCL1
  6
CENTER
 62
     1
 10
1297.098647758171
 20
1039.0079134467539
 30
0.0
 11
1297.098647758171
 21
1042.0079134467539
 31
0.0
  0
LINE
  5
102A
  8
UMCL1
  6
CENTER
 62
     1
 10
1297.098647758171
 20
1043.5079134467539
 30
0.0
 11
1297.098647758171
 21
1048.607913446755
 31
0.0
  0
POINT
  5
102B
  8
0
 10
1265.098647758171
 20
1094.0279134467551
 30
2.5673651826636118E+099
  0
LINE
  5
102C
  8
UMCL2
  6
CONTINUOUS
 10
1359.0986477581721
 20
1254.635327248252
 30
0.0
 11
1367.0986477581721
 21
1254.635327248252
 31
0.0
  0
LINE
  5
102D
  8
UMCL2
  6
CONTINUOUS
 10
1359.0986477581721
 20
1269.635327248252
 30
0.0
 11
1367.0986477581721
 21
1269.635327248252
 31
0.0
  0
LINE
  5
102E
  8
UMCL2
  6
CONTINUOUS
 10
1366.0986477581721
 20
1257.135327248252
 30
0.0
 11
1366.0986477581721
 21
1267.135327248252
 31
0.0
  0
SOLID
  5
102F
  8
UMCL2
  6
CONTINUOUS
 10
1365.6819810915049
 20
1257.135327248252
 30
0.0
 11
1366.5153144248379
 21
1257.135327248252
 31
0.0
 12
1366.0986477581721
 22
1254.635327248252
 32
0.0
 13
1366.0986477581721
 23
1254.635327248252
 33
0.0
  0
SOLID
  5
1030
  8
UMCL2
  6
CONTINUOUS
 10
1365.6819810915049
 20
1267.135327248252
 30
0.0
 11
1366.5153144248379
 21
1267.135327248252
 31
0.0
 12
1366.0986477581721
 22
1269.635327248252
 32
0.0
 13
1366.0986477581721
 23
1269.635327248252
 33
0.0
  0
INSERT
  5
1031
  8
0
  2
*U25
 10
0.0
 20
0.0
 30
0.0
  0
LINE
  5
1032
  8
UMCL2
  6
CONTINUOUS
 10
1339.691983558813
 20
1249.435327248252
 30
0.0
 11
1375.0986477581721
 21
1249.435327248252
 31
0.0
  0
LINE
  5
1033
  8
UMCL2
  6
CONTINUOUS
 10
1339.691983558813
 20
1274.835327248252
 30
0.0
 11
1375.0986477581721
 21
1274.835327248252
 31
0.0
  0
LINE
  5
1034
  8
UMCL2
  6
CONTINUOUS
 10
1374.0986477581721
 20
1251.935327248252
 30
0.0
 11
1374.0986477581721
 21
1272.335327248252
 31
0.0
  0
SOLID
  5
1035
  8
UMCL2
  6
CONTINUOUS
 10
1373.6819810915049
 20
1251.935327248252
 30
0.0
 11
1374.5153144248379
 21
1251.935327248252
 31
0.0
 12
1374.0986477581721
 22
1249.435327248252
 32
0.0
 13
1374.0986477581721
 23
1249.435327248252
 33
0.0
  0
SOLID
  5
1036
  8
UMCL2
  6
CONTINUOUS
 10
1373.6819810915049
 20
1272.335327248252
 30
0.0
 11
1374.5153144248379
 21
1272.335327248252
 31
0.0
 12
1374.0986477581721
 22
1274.835327248252
 32
0.0
 13
1374.0986477581721
 23
1274.835327248252
 33
0.0
  0
INSERT
  5
1037
  8
0
  2
*U26
 10
0.0
 20
0.0
 30
0.0
  0
LINE
  5
1038
  8
UMCL2
  6
CONTINUOUS
 10
1319.3986477581709
 20
1233.1353272482529
 30
0.0
 11
1383.0986477581721
 21
1233.1353272482529
 31
0.0
  0
LINE
  5
1039
  8
UMCL2
  6
CONTINUOUS
 10
1319.398647758172
 20
1291.135327248252
 30
0.0
 11
1383.0986477581721
 21
1291.135327248252
 31
0.0
  0
LINE
  5
103A
  8
UMCL2
  6
CONTINUOUS
 10
1382.098647758171
 20
1235.635327248252
 30
0.0
 11
1382.0986477581721
 21
1288.635327248252
 31
0.0
  0
SOLID
  5
103B
  8
UMCL2
  6
CONTINUOUS
 10
1381.6819810915049
 20
1235.635327248252
 30
0.0
 11
1382.5153144248379
 21
1235.635327248252
 31
0.0
 12
1382.098647758171
 22
1233.1353272482529
 32
0.0
 13
1382.098647758171
 23
1233.1353272482529
 33
0.0
  0
SOLID
  5
103C
  8
UMCL2
  6
CONTINUOUS
 10
1381.6819810915049
 20
1288.635327248252
 30
0.0
 11
1382.5153144248379
 21
1288.635327248252
 31
0.0
 12
1382.0986477581721
 22
1291.135327248252
 32
0.0
 13
1382.0986477581721
 23
1291.135327248252
 33
0.0
  0
INSERT
  5
103D
  8
0
  2
*U27
 10
0.0
 20
0.0
 30
0.0
  0
LINE
  5
103E
  8
UMCL2
  6
CONTINUOUS
 10
1314.409636600978
 20
1224.635327248252
 30
0.0
 11
1391.0986477581721
 21
1224.635327248252
 31
0.0
  0
LINE
  5
103F
  8
UMCL2
  6
CONTINUOUS
 10
1314.409636600978
 20
1299.635327248252
 30
0.0
 11
1391.0986477581721
 21
1299.635327248252
 31
0.0
  0
LINE
  5
1040
  8
UMCL2
  6
CONTINUOUS
 10
1390.0986477581721
 20
1227.135327248252
 30
0.0
 11
1390.0986477581721
 21
1297.135327248252
 31
0.0
  0
SOLID
  5
1041
  8
UMCL2
  6
CONTINUOUS
 10
1389.6819810915049
 20
1227.135327248252
 30
0.0
 11
1390.5153144248379
 21
1227.135327248252
 31
0.0
 12
1390.0986477581721
 22
1224.635327248252
 32
0.0
 13
1390.0986477581721
 23
1224.635327248252
 33
0.0
  0
SOLID
  5
1042
  8
UMCL2
  6
CONTINUOUS
 10
1389.6819810915049
 20
1297.135327248252
 30
0.0
 11
1390.5153144248379
 21
1297.135327248252
 31
0.0
 12
1390.0986477581721
 22
1299.635327248252
 32
0.0
 13
1390.0986477581721
 23
1299.635327248252
 33
0.0
  0
INSERT
  5
1043
  8
0
  2
*U28
 10
0.0
 20
0.0
 30
0.0
  0
LINE
  5
1044
  8
UMCL2
  6
CONTINUOUS
 10
1267.0986477581721
 20
1256.635327248252
 30
0.0
 11
1236.7842714108419
 21
1256.635327248252
 31
0.0
  0
LINE
  5
1045
  8
UMCL2
  6
CONTINUOUS
 10
1267.0986477581721
 20
1267.635327248252
 30
0.0
 11
1236.7842714108419
 21
1267.635327248252
 31
0.0
  0
LINE
  5
1046
  8
UMCL2
  6
CONTINUOUS
 10
1237.7842714108419
 20
1259.135327248252
 30
0.0
 11
1237.7842714108419
 21
1265.135327248252
 31
0.0
  0
SOLID
  5
1047
  8
UMCL2
  6
CONTINUOUS
 10
1237.3676047441761
 20
1259.135327248252
 30
0.0
 11
1238.2009380775089
 21
1259.135327248252
 31
0.0
 12
1237.7842714108419
 22
1256.635327248252
 32
0.0
 13
1237.7842714108419
 23
1256.635327248252
 33
0.0
  0
SOLID
  5
1048
  8
UMCL2
  6
CONTINUOUS
 10
1237.3676047441761
 20
1265.135327248252
 30
0.0
 11
1238.2009380775089
 21
1265.135327248252
 31
0.0
 12
1237.7842714108419
 22
1267.635327248252
 32
0.0
 13
1237.7842714108419
 23
1267.635327248252
 33
0.0
  0
INSERT
  5
1049
  8
0
  2
*U29
 10
0.0
 20
0.0
 30
0.0
  0
LINE
  5
104A
  8
UMCL2
  6
CONTINUOUS
 10
1265.098647758171
 20
1224.835327248252
 30
0.0
 11
1265.098647758171
 21
1214.314874405246
 31
0.0
  0
LINE
  5
104B
  8
UMCL2
  6
CONTINUOUS
 10
1297.09864775817
 20
1224.835327248252
 30
0.0
 11
1297.098647758171
 21
1214.314874405246
 31
0.0
  0
LINE
  5
104C
  8
UMCL2
  6
CONTINUOUS
 10
1267.598647758171
 20
1215.3148744052471
 30
0.0
 11
1294.598647758171
 21
1215.3148744052471
 31
0.0
  0
SOLID
  5
104D
  8
UMCL2
  6
CONTINUOUS
 10
1267.598647758171
 20
1215.7315410719129
 30
0.0
 11
1267.598647758171
 21
1214.8982077385799
 31
0.0
 12
1265.098647758171
 22
1215.3148744052471
 32
0.0
 13
1265.098647758171
 23
1215.3148744052471
 33
0.0
  0
SOLID
  5
104E
  8
UMCL2
  6
CONTINUOUS
 10
1294.598647758171
 20
1215.7315410719129
 30
0.0
 11
1294.598647758171
 21
1214.8982077385799
 31
0.0
 12
1297.098647758171
 22
1215.3148744052471
 32
0.0
 13
1297.098647758171
 23
1215.3148744052471
 33
0.0
  0
INSERT
  5
104F
  8
0
  2
*U30
 10
0.0
 20
0.0
 30
0.0
  0
LINE
  5
1050
  8
UMCL2
  6
CONTINUOUS
 10
1226.7036404414539
 20
1213.4843205336549
 30
0.0
 11
1252.8126572679921
 21
1213.4843205336549
 31
0.0
  0
TEXT
  5
1051
  8
UMCL2
  6
CONTINUOUS
 10
1235.351312731603
 20
1214.9843205336549
 30
0.0
 40
3.0
  1
P-08
  7
ROMANSS
 72
     2
 11
1246.9227413030319
 21
1216.4843205336549
 31
0.0
 73
     2
  0
LINE
  5
1052
  8
UMCL2
 10
1252.8126572679921
 20
1213.4843205336549
 30
0.0
 11
1262.0730778087309
 21
1227.5422970414011
 31
0.0
  0
SOLID
  5
1053
  8
UMCL2
  6
CONTINUOUS
 10
1259.9037686192009
 20
1225.410608124082
 30
0.0
 11
1260.7123871431711
 21
1224.8222748149001
 31
0.0
 12
1262.0730778087309
 22
1227.5422970414011
 32
0.0
 13
1262.0730778087309
 23
1227.5422970414011
 33
0.0
  0
TEXT
  5
1054
  8
UMCL2
  6
CONTINUOUS
 10
1341.6544973282521
 20
1215.8424296993451
 30
0.0
 40
3.0
  1
4-%%C9 Through-hole 
  7
ROMANSS
 72
     2
 11
1390.083068756823
 21
1217.3424296993451
 31
0.0
 73
     2
  0
LINE
  5
1055
  8
UMCL2
  6
CONTINUOUS
 10
1390.696741443332
 20
1214.1300074362739
 30
0.0
 11
1331.110286006111
 21
1214.1300074362739
 31
0.0
  0
TEXT
  5
1056
  8
UMCL2
  6
CONTINUOUS
 10
1339.504055452039
 20
1209.6791232105829
 30
0.0
 40
3.0
  1
Counter bore %%C14x9dp
  7
ROMANSS
 72
     2
 11
1389.9326268806101
 21
1211.1791232105829
 31
0.0
 73
     2
  0
LINE
  5
1057
  8
UMCL2
 10
1331.110286006111
 20
1214.1300074362739
 30
0.0
 11
1315.7238553355669
 21
1228.9691491782221
 31
0.0
  0
SOLID
  5
1058
  8
UMCL2
  6
CONTINUOUS
 10
1318.1555513030221
 20
1227.142443202468
 30
0.0
 11
1317.431663096429
 21
1226.452525914415
 31
0.0
 12
1315.723855335566
 22
1228.9691491782221
 32
0.0
 13
1315.723855335566
 23
1228.9691491782221
 33
0.0
  0
LINE
  5
1059
  8
UMCL2
  6
CONTINUOUS
 10
1311.098647758171
 20
1177.2099642543239
 30
0.0
 11
1311.098647758171
 21
1190.409964254324
 31
0.0
  0
LINE
  5
105A
  8
UMCL2
  6
CONTINUOUS
 10
1350.098647758171
 20
1182.149934451671
 30
0.0
 11
1350.098647758171
 21
1190.409964254324
 31
0.0
  0
LINE
  5
105B
  8
UMCL2
  6
CONTINUOUS
 10
1313.598647758171
 20
1189.4099642543231
 30
0.0
 11
1347.598647758171
 21
1189.4099642543231
 31
0.0
  0
SOLID
  5
105C
  8
UMCL2
  6
CONTINUOUS
 10
1313.598647758171
 20
1189.8266309209901
 30
0.0
 11
1313.598647758171
 21
1188.993297587657
 31
0.0
 12
1311.098647758171
 22
1189.4099642543231
 32
0.0
 13
1311.098647758171
 23
1189.4099642543231
 33
0.0
  0
SOLID
  5
105D
  8
UMCL2
  6
CONTINUOUS
 10
1347.598647758171
 20
1189.8266309209901
 30
0.0
 11
1347.598647758171
 21
1188.993297587657
 31
0.0
 12
1350.098647758171
 22
1189.4099642543231
 32
0.0
 13
1350.098647758171
 23
1189.4099642543231
 33
0.0
  0
INSERT
  5
105E
  8
0
  2
*U31
 10
0.0
 20
0.0
 30
0.0
  0
LINE
  5
105F
  8
UMCL2
  6
CONTINUOUS
 10
1311.098647758171
 20
1177.2099642543239
 30
0.0
 11
1311.098647758171
 21
1190.409964254324
 31
0.0
  0
LINE
  5
1060
  8
UMCL2
  6
CONTINUOUS
 10
1281.098647758171
 20
1184.4099642543231
 30
0.0
 11
1281.098647758171
 21
1190.409964254324
 31
0.0
  0
LINE
  5
1061
  8
UMCL2
  6
CONTINUOUS
 10
1308.598647758171
 20
1189.4099642543231
 30
0.0
 11
1283.598647758171
 21
1189.4099642543231
 31
0.0
  0
SOLID
  5
1062
  8
UMCL2
  6
CONTINUOUS
 10
1308.598647758171
 20
1189.8266309209901
 30
0.0
 11
1308.598647758171
 21
1188.993297587657
 31
0.0
 12
1311.098647758171
 22
1189.4099642543231
 32
0.0
 13
1311.098647758171
 23
1189.4099642543231
 33
0.0
  0
SOLID
  5
1063
  8
UMCL2
  6
CONTINUOUS
 10
1283.598647758171
 20
1189.8266309209901
 30
0.0
 11
1283.598647758171
 21
1188.993297587657
 31
0.0
 12
1281.098647758171
 22
1189.4099642543231
 32
0.0
 13
1281.098647758171
 23
1189.4099642543231
 33
0.0
  0
INSERT
  5
1064
  8
0
  2
*U32
 10
0.0
 20
0.0
 30
0.0
  0
LINE
  5
1065
  8
UMCL2
  6
CONTINUOUS
 10
1281.098647758171
 20
1184.4099642543231
 30
0.0
 11
1281.098647758171
 21
1198.409964254324
 31
0.0
  0
LINE
  5
1066
  8
UMCL2
  6
CONTINUOUS
 10
1358.098647758171
 20
1172.0099642543239
 30
0.0
 11
1358.098647758171
 21
1198.409964254324
 31
0.0
  0
LINE
  5
1067
  8
UMCL2
  6
CONTINUOUS
 10
1283.598647758171
 20
1197.4099642543231
 30
0.0
 11
1355.598647758171
 21
1197.4099642543231
 31
0.0
  0
SOLID
  5
1068
  8
UMCL2
  6
CONTINUOUS
 10
1283.598647758171
 20
1197.8266309209901
 30
0.0
 11
1283.598647758171
 21
1196.993297587657
 31
0.0
 12
1281.098647758171
 22
1197.4099642543231
 32
0.0
 13
1281.098647758171
 23
1197.4099642543231
 33
0.0
  0
SOLID
  5
1069
  8
UMCL2
  6
CONTINUOUS
 10
1355.598647758171
 20
1197.8266309209901
 30
0.0
 11
1355.598647758171
 21
1196.993297587657
 31
0.0
 12
1358.098647758171
 22
1197.4099642543231
 32
0.0
 13
1358.098647758171
 23
1197.4099642543231
 33
0.0
  0
INSERT
  5
106A
  8
0
  2
*U33
 10
0.0
 20
0.0
 30
0.0
  0
LINE
  5
106B
  8
UMCL2
  6
CONTINUOUS
 10
1358.098647758171
 20
1172.0099642543239
 30
0.0
 11
1358.098647758171
 21
1206.409964254324
 31
0.0
  0
LINE
  5
106C
  8
UMCL2
  6
CONTINUOUS
 10
1268.098647758171
 20
1182.409964254324
 30
0.0
 11
1268.098647758171
 21
1206.409964254324
 31
0.0
  0
LINE
  5
106D
  8
UMCL2
  6
CONTINUOUS
 10
1355.598647758171
 20
1205.409964254324
 30
0.0
 11
1270.598647758171
 21
1205.409964254324
 31
0.0
  0
SOLID
  5
106E
  8
UMCL2
  6
CONTINUOUS
 10
1355.598647758171
 20
1205.8266309209901
 30
0.0
 11
1355.598647758171
 21
1204.993297587657
 31
0.0
 12
1358.098647758171
 22
1205.409964254324
 32
0.0
 13
1358.098647758171
 23
1205.409964254324
 33
0.0
  0
SOLID
  5
106F
  8
UMCL2
  6
CONTINUOUS
 10
1270.598647758171
 20
1205.8266309209901
 30
0.0
 11
1270.598647758171
 21
1204.993297587657
 31
0.0
 12
1268.098647758171
 22
1205.409964254324
 32
0.0
 13
1268.098647758171
 23
1205.409964254324
 33
0.0
  0
INSERT
  5
1070
  8
0
  2
*U34
 10
0.0
 20
0.0
 30
0.0
  0
LINE
  5
1071
  8
UMCL2
  6
CONTINUOUS
 10
1284.2583448076739
 20
1170.2153926170711
 30
0.0
 11
1277.9389507086689
 21
1167.2045358915759
 31
0.0
  0
INSERT
  5
1072
  8
0
  2
*U35
 10
0.0
 20
0.0
 30
0.0
  0
SOLID
  5
1073
  8
UMCL2
  6
CONTINUOUS
 10
1284.079127145442
 20
1170.5915470277271
 30
0.0
 11
1284.4375624699051
 21
1169.839238206416
 31
0.0
 12
1286.515271271604
 22
1171.2906985904631
 32
0.0
 13
1286.515271271604
 23
1171.2906985904631
 33
0.0
  0
SOLID
  5
1074
  8
UMCL2
  6
CONTINUOUS
 10
1277.7597330464371
 20
1167.580690302231
 30
0.0
 11
1278.1181683709001
 21
1166.8283814809211
 31
0.0
 12
1275.6820242447379
 22
1166.129229918185
 32
0.0
 13
1275.6820242447379
 23
1166.129229918185
 33
0.0
  0
LINE
  5
1075
  8
UMCL2
  6
CONTINUOUS
 10
1286.515271271604
 20
1171.2906985904631
 30
0.0
 11
1259.9753321308301
 21
1158.6553759596411
 31
0.0
  0
LINE
  5
1076
  8
UMCL2
  6
CONTINUOUS
 10
1319.598647758171
 20
1168.7099642543239
 30
0.0
 11
1330.9820699423451
 21
1168.7099642543239
 31
0.0
  0
LINE
  5
1077
  8
UMCL2
  6
CONTINUOUS
 10
1319.598647758171
 20
1135.7079134467549
 30
0.0
 11
1330.9820699423451
 21
1135.7079134467549
 31
0.0
  0
LINE
  5
1078
  8
UMCL2
  6
CONTINUOUS
 10
1329.9820699423451
 20
1166.2099642543239
 30
0.0
 11
1329.9820699423451
 21
1138.2079134467549
 31
0.0
  0
SOLID
  5
1079
  8
UMCL2
  6
CONTINUOUS
 10
1329.5654032756779
 20
1166.2099642543239
 30
0.0
 11
1330.3987366090109
 21
1166.2099642543239
 31
0.0
 12
1329.9820699423451
 22
1168.7099642543239
 32
0.0
 13
1329.9820699423451
 23
1168.7099642543239
 33
0.0
  0
SOLID
  5
107A
  8
UMCL2
  6
CONTINUOUS
 10
1329.5654032756779
 20
1138.2079134467549
 30
0.0
 11
1330.3987366090109
 21
1138.2079134467549
 31
0.0
 12
1329.9820699423451
 22
1135.7079134467549
 32
0.0
 13
1329.9820699423451
 23
1135.7079134467549
 33
0.0
  0
INSERT
  5
107B
  8
0
  2
*U36
 10
0.0
 20
0.0
 30
0.0
  0
LINE
  5
107C
  8
UMCL2
  6
CONTINUOUS
 10
1358.098647758171
 20
1155.0099642543239
 30
0.0
 11
1358.098647758171
 21
1125.3573798079269
 31
0.0
  0
LINE
  5
107D
  8
UMCL2
  6
CONTINUOUS
 10
1322.598647758171
 20
1134.7079144934639
 30
0.0
 11
1322.598647758171
 21
1125.3573798079269
 31
0.0
  0
LINE
  5
107E
  8
UMCL2
  6
CONTINUOUS
 10
1355.598647758171
 20
1126.3573798079269
 30
0.0
 11
1325.098647758171
 21
1126.3573798079269
 31
0.0
  0
SOLID
  5
107F
  8
UMCL2
  6
CONTINUOUS
 10
1355.598647758171
 20
1126.7740464745939
 30
0.0
 11
1355.598647758171
 21
1125.9407131412611
 31
0.0
 12
1358.098647758171
 22
1126.3573798079269
 32
0.0
 13
1358.098647758171
 23
1126.3573798079269
 33
0.0
  0
SOLID
  5
1080
  8
UMCL2
  6
CONTINUOUS
 10
1325.098647758171
 20
1126.7740464745939
 30
0.0
 11
1325.098647758171
 21
1125.9407131412611
 31
0.0
 12
1322.598647758171
 22
1126.3573798079269
 32
0.0
 13
1322.598647758171
 23
1126.3573798079269
 33
0.0
  0
INSERT
  5
1081
  8
0
  2
*U37
 10
0.0
 20
0.0
 30
0.0
  0
LINE
  5
1082
  8
UMCL2
  6
CONTINUOUS
 10
1318.798647758171
 20
1019.007913446755
 30
0.0
 11
1367.0986477581721
 21
1019.007913446755
 31
0.0
  0
LINE
  5
1083
  8
UMCL2
  6
CONTINUOUS
 10
1323.5986477581721
 20
1119.0079134467551
 30
0.0
 11
1367.0986477581721
 21
1119.0079134467551
 31
0.0
  0
LINE
  5
1084
  8
UMCL2
  6
CONTINUOUS
 10
1366.098647758171
 20
1021.507913446755
 30
0.0
 11
1366.098647758171
 21
1116.5079134467551
 31
0.0
  0
SOLID
  5
1085
  8
UMCL2
  6
CONTINUOUS
 10
1365.6819810915049
 20
1021.507913446755
 30
0.0
 11
1366.5153144248379
 21
1021.507913446755
 31
0.0
 12
1366.098647758171
 22
1019.007913446755
 32
0.0
 13
1366.098647758171
 23
1019.007913446755
 33
0.0
  0
SOLID
  5
1086
  8
UMCL2
  6
CONTINUOUS
 10
1365.6819810915049
 20
1116.5079134467551
 30
0.0
 11
1366.5153144248379
 21
1116.5079134467551
 31
0.0
 12
1366.098647758171
 22
1119.0079134467551
 32
0.0
 13
1366.098647758171
 23
1119.0079134467551
 33
0.0
  0
INSERT
  5
1087
  8
0
  2
*U38
 10
0.0
 20
0.0
 30
0.0
  0
LINE
  5
1088
  8
UMCL2
  6
CONTINUOUS
 10
1359.098647758171
 20
1171.0099642543239
 30
0.0
 11
1367.0986477581721
 21
1171.0099642543239
 31
0.0
  0
LINE
  5
1089
  8
UMCL2
  6
CONTINUOUS
 10
1359.098647758171
 20
1156.0099642543239
 30
0.0
 11
1367.0986477581721
 21
1156.0099642543239
 31
0.0
  0
LINE
  5
108A
  8
UMCL2
  6
CONTINUOUS
 10
1366.098647758171
 20
1168.5099642543239
 30
0.0
 11
1366.098647758171
 21
1158.5099642543239
 31
0.0
  0
SOLID
  5
108B
  8
UMCL2
  6
CONTINUOUS
 10
1365.6819810915049
 20
1168.5099642543239
 30
0.0
 11
1366.5153144248379
 21
1168.5099642543239
 31
0.0
 12
1366.098647758171
 22
1171.0099642543239
 32
0.0
 13
1366.098647758171
 23
1171.0099642543239
 33
0.0
  0
SOLID
  5
108C
  8
UMCL2
  6
CONTINUOUS
 10
1365.6819810915049
 20
1158.5099642543239
 30
0.0
 11
1366.5153144248379
 21
1158.5099642543239
 31
0.0
 12
1366.098647758171
 22
1156.0099642543239
 32
0.0
 13
1366.098647758171
 23
1156.0099642543239
 33
0.0
  0
INSERT
  5
108D
  8
0
  2
*U39
 10
0.0
 20
0.0
 30
0.0
  0
LINE
  5
108E
  8
UMCL2
  6
CONTINUOUS
 10
1318.798647758171
 20
1019.007913446755
 30
0.0
 11
1375.0986477581721
 21
1019.007913446755
 31
0.0
  0
LINE
  5
108F
  8
UMCL2
  6
CONTINUOUS
 10
1359.098647758171
 20
1156.0099642543239
 30
0.0
 11
1375.0986477581721
 21
1156.0099642543239
 31
0.0
  0
LINE
  5
1090
  8
UMCL2
  6
CONTINUOUS
 10
1374.098647758171
 20
1021.507913446755
 30
0.0
 11
1374.098647758171
 21
1153.5099642543239
 31
0.0
  0
SOLID
  5
1091
  8
UMCL2
  6
CONTINUOUS
 10
1373.6819810915049
 20
1021.507913446755
 30
0.0
 11
1374.5153144248379
 21
1021.507913446755
 31
0.0
 12
1374.098647758171
 22
1019.007913446755
 32
0.0
 13
1374.098647758171
 23
1019.007913446755
 33
0.0
  0
SOLID
  5
1092
  8
UMCL2
  6
CONTINUOUS
 10
1373.6819810915049
 20
1153.5099642543239
 30
0.0
 11
1374.5153144248379
 21
1153.5099642543239
 31
0.0
 12
1374.098647758171
 22
1156.0099642543239
 32
0.0
 13
1374.098647758171
 23
1156.0099642543239
 33
0.0
  0
INSERT
  5
1093
  8
0
  2
*U40
 10
0.0
 20
0.0
 30
0.0
  0
LINE
  5
1094
  8
UMCL2
  6
CONTINUOUS
 10
1359.098647758171
 20
1156.0099642543239
 30
0.0
 11
1375.0986477581721
 21
1156.0099642543239
 31
0.0
  0
LINE
  5
1095
  8
UMCL2
  6
CONTINUOUS
 10
1339.691983558813
 20
1181.409964254324
 30
0.0
 11
1375.0986477581721
 21
1181.409964254324
 31
0.0
  0
LINE
  5
1096
  8
UMCL2
  6
CONTINUOUS
 10
1374.098647758171
 20
1158.5099642543239
 30
0.0
 11
1374.098647758171
 21
1178.909964254324
 31
0.0
  0
SOLID
  5
1097
  8
UMCL2
  6
CONTINUOUS
 10
1373.6819810915049
 20
1158.5099642543239
 30
0.0
 11
1374.5153144248379
 21
1158.5099642543239
 31
0.0
 12
1374.098647758171
 22
1156.0099642543239
 32
0.0
 13
1374.098647758171
 23
1156.0099642543239
 33
0.0
  0
SOLID
  5
1098
  8
UMCL2
  6
CONTINUOUS
 10
1373.6819810915049
 20
1178.909964254324
 30
0.0
 11
1374.5153144248379
 21
1178.909964254324
 31
0.0
 12
1374.098647758171
 22
1181.409964254324
 32
0.0
 13
1374.098647758171
 23
1181.409964254324
 33
0.0
  0
INSERT
  5
1099
  8
0
  2
*U41
 10
0.0
 20
0.0
 30
0.0
  0
LINE
  5
109A
  8
UMCL2
  6
CONTINUOUS
 10
1318.798647758171
 20
1019.007913446755
 30
0.0
 11
1383.0986477581721
 21
1019.007913446755
 31
0.0
  0
LINE
  5
109B
  8
UMCL2
  6
CONTINUOUS
 10
1339.691983558813
 20
1181.409964254324
 30
0.0
 11
1383.0986477581721
 21
1181.409964254324
 31
0.0
  0
LINE
  5
109C
  8
UMCL2
  6
CONTINUOUS
 10
1382.098647758171
 20
1021.507913446755
 30
0.0
 11
1382.098647758171
 21
1178.909964254324
 31
0.0
  0
SOLID
  5
109D
  8
UMCL2
  6
CONTINUOUS
 10
1381.6819810915049
 20
1021.507913446755
 30
0.0
 11
1382.5153144248379
 21
1021.507913446755
 31
0.0
 12
1382.098647758171
 22
1019.007913446755
 32
0.0
 13
1382.098647758171
 23
1019.007913446755
 33
0.0
  0
SOLID
  5
109E
  8
UMCL2
  6
CONTINUOUS
 10
1381.6819810915049
 20
1178.909964254324
 30
0.0
 11
1382.5153144248379
 21
1178.909964254324
 31
0.0
 12
1382.098647758171
 22
1181.409964254324
 32
0.0
 13
1382.098647758171
 23
1181.409964254324
 33
0.0
  0
INSERT
  5
109F
  8
0
  2
*U42
 10
0.0
 20
0.0
 30
0.0
  0
LINE
  5
10A0
  8
UMCL1
  6
HIDDEN
 62
     6
 10
1288.098647758171
 20
1185.409964254324
 30
0.0
 11
1274.098647758171
 21
1185.409964254324
 31
0.0
  0
LINE
  5
10A1
  8
UMCL1
  6
HIDDEN
 62
     6
 10
1274.098647758171
 20
1185.409964254324
 30
0.0
 11
1270.098647758171
 21
1181.409964254324
 31
0.0
  0
LINE
  5
10A2
  8
UMCL1
  6
HIDDEN
 62
     6
 10
1288.098647758171
 20
1185.409964254324
 30
0.0
 11
1292.098647758171
 21
1181.409964254324
 31
0.0
  0
LINE
  5
10A3
  8
UMCL2
  6
CONTINUOUS
 10
1267.098647758171
 20
1181.409964254324
 30
0.0
 11
1251.942471352839
 21
1181.409964254324
 31
0.0
  0
LINE
  5
10A4
  8
UMCL2
  6
CONTINUOUS
 10
1273.098647758171
 20
1185.409964254324
 30
0.0
 11
1251.942471352839
 21
1185.409964254324
 31
0.0
  0
LINE
  5
10A5
  8
UMCL2
  6
CONTINUOUS
 10
1252.9424713528381
 20
1178.909964254324
 30
0.0
 11
1252.9424713528381
 21
1176.4099642543231
 31
0.0
  0
LINE
  5
10A6
  8
UMCL2
  6
CONTINUOUS
 10
1252.9424713528381
 20
1187.909964254324
 30
0.0
 11
1252.9424713528381
 21
1190.409964254324
 31
0.0
  0
INSERT
  5
10A7
  8
0
  2
*U43
 10
0.0
 20
0.0
 30
0.0
  0
LINE
  5
10A8
  8
UMCL2
  6
CONTINUOUS
 10
1252.9424713528381
 20
1181.409964254324
 30
0.0
 11
1252.9424713528381
 21
1185.409964254324
 31
0.0
  0
SOLID
  5
10A9
  8
UMCL2
  6
CONTINUOUS
 10
1252.525804686172
 20
1178.909964254324
 30
0.0
 11
1253.3591380195051
 21
1178.909964254324
 31
0.0
 12
1252.9424713528381
 22
1181.409964254324
 32
0.0
 13
1252.9424713528381
 23
1181.409964254324
 33
0.0
  0
SOLID
  5
10AA
  8
UMCL2
  6
CONTINUOUS
 10
1252.525804686172
 20
1187.909964254324
 30
0.0
 11
1253.3591380195051
 21
1187.909964254324
 31
0.0
 12
1252.9424713528381
 22
1185.409964254324
 32
0.0
 13
1252.9424713528381
 23
1185.409964254324
 33
0.0
  0
TEXT
  5
10AB
  8
UMCL2
 10
1244.0879361015641
 20
1166.5528213971811
 30
0.0
 40
3.0
  1
Raise clearnce
 50
90.0
  0
LINE
  5
10AC
  8
UMCL2
 10
1244.616630070766
 20
1166.694229618276
 30
0.0
 11
1244.616630070766
 21
1199.8255843248551
 31
0.0
  0
LINE
  5
10AD
  8
UMCL2
 10
1245.616630070766
 20
1166.694229618276
 30
0.0
 11
1245.616630070766
 21
1199.8255843248551
 31
0.0
  0
TEXT
  5
10AE
  8
UMCL2
  6
CONTINUOUS
 10
1395.007254402859
 20
1030.094764775461
 30
0.0
 40
3.0
  1
A
  7
ROMANS
  0
CIRCLE
  5
10AF
  8
UMCL2
  6
CONTINUOUS
 10
1396.4398867490099
 20
1031.341865029804
 30
0.0
 40
2.5
  0
TEXT
  5
10B0
  8
UMCL2
  6
CONTINUOUS
 10
1395.007254402859
 20
1023.429323869879
 30
0.0
 40
3.0
  1
B
  7
ROMANS
  0
CIRCLE
  5
10B1
  8
UMCL2
  6
CONTINUOUS
 10
1396.4398867490099
 20
1024.676424124222
 30
0.0
 40
2.5
  0
TEXT
  5
10B2
  8
UMCL2
  6
CONTINUOUS
 10
1401.973140356959
 20
1030.7252267532981
 30
0.0
 40
3.0
  1
Clamping port
  7
ROMANSS
 72
     2
 11
1433.5445689283879
 21
1032.2252267532981
 31
0.0
 73
     2
  0
TEXT
  5
10B3
  8
UMCL2
  6
CONTINUOUS
 10
1401.830450226005
 20
1023.159922378439
 30
0.0
 40
3.0
  1
Unclamping port
  7
ROMANSS
 72
     2
 11
1438.830450226005
 21
1024.659922378439
 31
0.0
 73
     2
  0
LINE
  5
10B4
  8
UMCL2
 10
1392.0676956110169
 20
1036.0455367820141
 30
0.0
 11
1441.073197672745
 21
1036.0455367820141
 31
0.0
  0
LINE
  5
10B5
  8
UMCL2
 10
1441.073197672745
 20
1036.0455367820141
 30
0.0
 11
1441.073197672745
 21
1020.244652595872
 31
0.0
  0
LINE
  5
10B6
  8
UMCL2
 10
1441.073197672745
 20
1020.244652595872
 30
0.0
 11
1392.0676956110169
 21
1020.244652595872
 31
0.0
  0
LINE
  5
10B7
  8
UMCL2
 10
1392.0676956110169
 20
1020.244652595872
 30
0.0
 11
1392.0676956110169
 21
1036.0455367820141
 31
0.0
  0
ARC
  5
10B8
  8
UMCL2
  6
CONTINUOUS
 10
1338.691983558813
 20
1249.435327248252
 30
0.0
 40
12.0077046466029
 50
336.09877462132113
 51
348.04938731066028
  0
ARC
  5
10B9
  8
UMCL2
  6
CONTINUOUS
 10
1338.691983558813
 20
1249.435327248252
 30
0.0
 40
12.0077046466029
 50
26.950612689336442
 51
38.901225378678092
  0
ARC
  5
10BA
  8
UMCL2
  6
CONTINUOUS
 10
1338.691983558813
 20
1249.435327248252
 30
0.0
 40
12.0077046466029
 50
0.0
 51
15.000000000000741
  0
SOLID
  5
10BB
  8
UMCL2
  6
CONTINUOUS
 10
1350.0250357774721
 20
1246.9922850438311
 30
0.0
 11
1350.853841488524
 21
1246.905535186359
 31
0.0
 12
1350.6996882054159
 22
1249.435327248252
 32
0.0
 13
1350.6996882054159
 23
1249.435327248252
 33
0.0
  0
SOLID
  5
10BC
  8
UMCL2
  6
CONTINUOUS
 10
1349.7846778630119
 20
1255.0266391920161
 30
0.0
 11
1349.0065655370049
 21
1254.728334561546
 31
0.0
 12
1350.2905355914179
 22
1252.5431498987591
 32
0.0
 13
1350.2905355914179
 23
1252.5431498987591
 33
0.0
  0
INSERT
  5
10BD
  8
0
  2
*U44
 10
0.0
 20
0.0
 30
0.0
  0
CIRCLE
  5
10BE
  8
UMCL1
  6
HIDDEN
 62
     3
 10
1265.098647758171
 20
1232.135327248252
 30
0.0
 40
2.5
  0
CIRCLE
  5
10BF
  8
UMCL1
  6
HIDDEN
 62
     3
 10
1265.098647758171
 20
1232.135327248252
 30
0.0
 40
5.5
  0
CIRCLE
  5
10C0
  8
UMCL1
  6
HIDDEN
 62
     3
 10
1297.09864775817
 20
1232.135327248252
 30
0.0
 40
2.5
  0
CIRCLE
  5
10C1
  8
UMCL1
  6
HIDDEN
 62
     3
 10
1297.09864775817
 20
1232.135327248252
 30
0.0
 40
5.5
  0
LINE
  5
10C2
  8
UMCL1
  6
CENTER
 62
     1
 10
1258.798647758171
 20
1232.135327248252
 30
0.0
 11
1263.498647758171
 21
1232.135327248252
 31
0.0
  0
LINE
  5
10C3
  8
UMCL1
  6
CENTER
 62
     1
 10
1264.298647758171
 20
1232.135327248252
 30
0.0
 11
1265.8986477581709
 21
1232.135327248252
 31
0.0
  0
LINE
  5
10C4
  8
UMCL1
  6
CENTER
 62
     1
 10
1266.6986477581711
 20
1232.135327248252
 30
0.0
 11
1271.3986477581709
 21
1232.135327248252
 31
0.0
  0
LINE
  5
10C5
  8
UMCL1
  6
CENTER
 62
     1
 10
1265.098647758171
 20
1225.835327248252
 30
0.0
 11
1265.098647758171
 21
1230.5353272482521
 31
0.0
  0
LINE
  5
10C6
  8
UMCL1
  6
CENTER
 62
     1
 10
1265.098647758171
 20
1231.335327248252
 30
0.0
 11
1265.098647758171
 21
1232.935327248252
 31
0.0
  0
LINE
  5
10C7
  8
UMCL1
  6
CENTER
 62
     1
 10
1265.098647758171
 20
1233.7353272482519
 30
0.0
 11
1265.098647758171
 21
1238.435327248252
 31
0.0
  0
LINE
  5
10C8
  8
UMCL1
  6
CENTER
 62
     1
 10
1290.798647758171
 20
1232.135327248252
 30
0.0
 11
1295.498647758171
 21
1232.135327248252
 31
0.0
  0
LINE
  5
10C9
  8
UMCL1
  6
CENTER
 62
     1
 10
1296.298647758171
 20
1232.135327248252
 30
0.0
 11
1297.89864775817
 21
1232.135327248252
 31
0.0
  0
LINE
  5
10CA
  8
UMCL1
  6
CENTER
 62
     1
 10
1298.6986477581711
 20
1232.135327248252
 30
0.0
 11
1303.39864775817
 21
1232.135327248252
 31
0.0
  0
LINE
  5
10CB
  8
UMCL1
  6
CENTER
 62
     1
 10
1297.09864775817
 20
1225.835327248252
 30
0.0
 11
1297.09864775817
 21
1230.5353272482521
 31
0.0
  0
LINE
  5
10CC
  8
UMCL1
  6
CENTER
 62
     1
 10
1297.09864775817
 20
1231.335327248252
 30
0.0
 11
1297.09864775817
 21
1232.935327248252
 31
0.0
  0
LINE
  5
10CD
  8
UMCL1
  6
CENTER
 62
     1
 10
1297.09864775817
 20
1233.7353272482519
 30
0.0
 11
1297.09864775817
 21
1238.435327248252
 31
0.0
  0
TEXT
  5
10CE
  8
UMCL2
  6
CONTINUOUS
 10
1232.7866806861259
 20
1209.2443281583289
 30
0.0
 40
3.0
  1
O-Ring
  7
ROMANSS
 72
     2
 11
1248.2152521146979
 21
1210.7443281583289
 31
0.0
 73
     2
  0
LINE
  5
10CF
  8
UMCL1
  6
HIDDEN
 62
     3
 10
1259.598647758171
 20
1019.007913446755
 30
0.0
 11
1259.598647758171
 21
1020.4079134467549
 31
0.0
  0
LINE
  5
10D0
  8
UMCL1
  6
HIDDEN
 62
     3
 10
1259.598647758171
 20
1020.4079134467549
 30
0.0
 11
1270.598647758171
 21
1020.407913446754
 31
0.0
  0
LINE
  5
10D1
  8
UMCL1
  6
HIDDEN
 62
     3
 10
1270.598647758171
 20
1020.407913446754
 30
0.0
 11
1270.598647758171
 21
1019.007913446755
 31
0.0
  0
LINE
  5
10D2
  8
UMCL1
  6
HIDDEN
 62
     3
 10
1262.598647758171
 20
1020.4079134467549
 30
0.0
 11
1262.598647758171
 21
1085.5079134467551
 31
0.0
  0
LINE
  5
10D3
  8
UMCL1
  6
HIDDEN
 62
     3
 10
1267.598647758171
 20
1020.407913446754
 30
0.0
 11
1267.598647758171
 21
1085.5079134467551
 31
0.0
  0
LINE
  5
10D4
  8
UMCL1
  6
HIDDEN
 62
     3
 10
1291.598647758171
 20
1019.0079134467539
 30
0.0
 11
1291.598647758171
 21
1020.407913446754
 31
0.0
  0
LINE
  5
10D5
  8
UMCL1
  6
HIDDEN
 62
     3
 10
1291.598647758171
 20
1020.407913446754
 30
0.0
 11
1302.598647758171
 21
1020.407913446754
 31
0.0
  0
LINE
  5
10D6
  8
UMCL1
  6
HIDDEN
 62
     3
 10
1302.598647758171
 20
1020.407913446754
 30
0.0
 11
1302.598647758171
 21
1019.0079134467539
 31
0.0
  0
LINE
  5
10D7
  8
UMCL1
  6
HIDDEN
 62
     3
 10
1299.598647758171
 20
1020.407913446754
 30
0.0
 11
1299.598647758171
 21
1040.5079134467539
 31
0.0
  0
LINE
  5
10D8
  8
UMCL1
  6
HIDDEN
 62
     3
 10
1294.598647758171
 20
1020.407913446754
 30
0.0
 11
1294.598647758171
 21
1040.5079134467539
 31
0.0
  0
POLYLINE
  5
10D9
  8
UMCL1
  6
CONTINUOUS
 66
     1
 10
0.0
 20
0.0
 30
0.0
 70
     1
  0
VERTEX
  5
12DB
  8
UMCL1
  6
CONTINUOUS
 10
1266.83069856574
 20
1088.5079134467551
 30
0.0
  0
VERTEX
  5
12DC
  8
UMCL1
  6
CONTINUOUS
 10
1263.366596950603
 20
1088.5079134467551
 30
0.0
  0
VERTEX
  5
12DD
  8
UMCL1
  6
CONTINUOUS
 10
1261.634546143034
 20
1085.5079134467551
 30
0.0
  0
VERTEX
  5
12DE
  8
UMCL1
  6
CONTINUOUS
 10
1263.366596950603
 20
1082.5079134467551
 30
0.0
  0
VERTEX
  5
12DF
  8
UMCL1
  6
CONTINUOUS
 10
1266.83069856574
 20
1082.5079134467551
 30
0.0
  0
VERTEX
  5
12E0
  8
UMCL1
  6
CONTINUOUS
 10
1268.5627493733091
 20
1085.5079134467551
 30
0.0
  0
SEQEND
  5
12E1
  8
UMCL1
  6
CONTINUOUS
  0
POLYLINE
  5
10DA
  8
UMCL1
  6
CONTINUOUS
 66
     1
 10
0.0
 20
0.0
 30
0.0
 70
     1
  0
VERTEX
  5
12E2
  8
UMCL1
  6
CONTINUOUS
 10
1298.83069856574
 20
1043.5079134467539
 30
0.0
  0
VERTEX
  5
12E3
  8
UMCL1
  6
CONTINUOUS
 10
1295.3665969506019
 20
1043.5079134467539
 30
0.0
  0
VERTEX
  5
12E4
  8
UMCL1
  6
CONTINUOUS
 10
1293.634546143034
 20
1040.5079134467539
 30
0.0
  0
VERTEX
  5
12E5
  8
UMCL1
  6
CONTINUOUS
 10
1295.3665969506019
 20
1037.5079134467539
 30
0.0
  0
VERTEX
  5
12E6
  8
UMCL1
  6
CONTINUOUS
 10
1298.83069856574
 20
1037.5079134467539
 30
0.0
  0
VERTEX
  5
12E7
  8
UMCL1
  6
CONTINUOUS
 10
1300.5627493733091
 20
1040.5079134467539
 30
0.0
  0
SEQEND
  5
12E8
  8
UMCL1
  6
CONTINUOUS
  0
LINE
  5
10DB
  8
UMCL2
  6
CONTINUOUS
 10
1240.598647758171
 20
1262.135327248252
 30
0.0
 11
1238.982244318621
 21
1262.135327248252
 31
0.0
  0
LINE
  5
10DC
  8
UMCL2
  6
CONTINUOUS
 10
1232.8043397739391
 20
1262.135327248252
 30
0.0
 11
1228.6442800489681
 21
1262.135327248252
 31
0.0
  0
LINE
  5
10DD
  8
UMCL2
  6
CONTINUOUS
 10
1257.798647758171
 20
1232.135327248252
 30
0.0
 11
1228.6442800489681
 21
1232.135327248252
 31
0.0
  0
LINE
  5
10DE
  8
UMCL2
  6
CONTINUOUS
 10
1229.6442800489669
 20
1259.635327248252
 30
0.0
 11
1229.6442800489669
 21
1234.635327248252
 31
0.0
  0
SOLID
  5
10DF
  8
UMCL2
  6
CONTINUOUS
 10
1229.2276133823009
 20
1259.635327248252
 30
0.0
 11
1230.0609467156339
 21
1259.635327248252
 31
0.0
 12
1229.6442800489669
 22
1262.135327248252
 32
0.0
 13
1229.6442800489669
 23
1262.135327248252
 33
0.0
  0
SOLID
  5
10E0
  8
UMCL2
  6
CONTINUOUS
 10
1229.2276133823009
 20
1234.635327248252
 30
0.0
 11
1230.0609467156339
 21
1234.635327248252
 31
0.0
 12
1229.6442800489669
 22
1232.135327248252
 32
0.0
 13
1229.6442800489669
 23
1232.135327248252
 33
0.0
  0
INSERT
  5
10E1
  8
0
  2
*U45
 10
0.0
 20
0.0
 30
0.0
  0
TEXT
  5
10E2
  8
LOGO
 62
     7
 10
1276.981559655135
 20
985.3174055083457
 30
0.0
 40
5.159825459012068
  1
Order example:
 41
0.8
  7
CHINESET
  0
TEXT
  5
10E3
  8
LOGO
 62
     7
 10
1277.9072750125019
 20
992.58137139914152
 30
0.0
 40
7.7397381885181034
  1
訂購代號：
  7
CHINESET
  0
LINE
  5
10E4
  8
LOGO
 62
     4
 10
1274.739597992072
 20
963.57195255320744
 30
0.0
 11
1274.739597992072
 21
1002.270643495798
 31
0.0
  0
TEXT
  5
10E5
  8
LOGO
  6
CONTINUOUS
 10
1203.5032216589329
 20
971.17425198746275
 30
0.0
 40
5.8048036413885793
  1
金器工業股份有限公司
  7
CHINESET
  0
TEXT
  5
10E6
  8
LOGO
  6
CONTINUOUS
 10
1192.8409457934681
 20
965.36831105967462
 30
0.0
 40
3.8698690942590508
  1
MINDMAN INDUSTRIAL CO., LTD.
 41
0.85
  7
CHINESET
  0
LINE
  5
10E7
  8
LOGO
 62
     4
 10
1274.739597992072
 20
994.53090530727991
 30
0.0
 11
1217.9815179429379
 21
994.53090530727991
 31
0.0
  0
LINE
  5
10E8
  8
LOGO
 62
     4
 10
1274.739597992072
 20
986.79116711876179
 30
0.0
 11
1217.9815179429379
 21
986.79116711876179
 31
0.0
  0
LINE
  5
10E9
  8
LOGO
 62
     4
 10
1274.739597992072
 20
979.0514289302439
 30
0.0
 11
1189.6024779183731
 21
979.0514289302439
 31
0.0
  0
LINE
  5
10EA
  8
LOGO
 62
     4
 10
1217.9815179429379
 20
979.0514289302439
 30
0.0
 11
1217.9815179429379
 21
1002.270643495798
 31
0.0
  0
TEXT
  5
10EB
  8
LOGO
 10
1256.772986715948
 20
980.98636347737295
 30
0.0
 40
3.8698690942590508
  1
mm
  7
CHINESET
 72
     1
 11
1261.564253213603
 21
982.92129802450245
 31
0.0
 73
     2
  0
TEXT
  5
10EC
  8
LOGO
 10
1254.7459124284801
 20
996.4658398544093
 30
0.0
 40
3.8698690942590508
  1
1 : 1
  7
CHINESET
 72
     1
 11
1261.564253213603
 21
998.40077440153891
 31
0.0
 73
     2
  0
LINE
  5
10ED
  8
LOGO
 62
     4
 10
1248.9404706970111
 20
979.0514289302439
 30
0.0
 11
1248.9404706970111
 21
1002.270643495798
 31
0.0
  0
TEXT
  5
10EE
  8
LOGO
 10
1221.1724323255719
 20
996.46774431754636
 30
253.62484520083379
 40
3.8698690942590508
  1
比例 Scale:
 41
0.9
  7
CHINESET
 72
     4
 11
1233.460994319975
 21
998.40077440153891
 31
253.62484520083379
  0
TEXT
  5
10EF
  8
LOGO
 10
1220.9495693286251
 20
988.78053757055534
 30
253.62484520083379
 40
3.8698690942590508
  1
投影  View:
 41
0.9
  7
CHINESET
 72
     4
 11
1233.460994319975
 21
990.66103621302068
 31
253.62484520083379
  0
TEXT
  5
10F0
  8
LOGO
 10
1221.327918137395
 20
980.98636347737295
 30
253.62484520083379
 40
3.8698690942590508
  1
單位  Unit:
 41
0.9
  7
CHINESET
 72
     4
 11
1233.460994319975
 21
982.92129802450245
 31
253.62484520083379
  0
POLYLINE
  5
10F1
  8
LOGO
 62
     4
 66
     1
 10
0.0
 20
0.0
 30
0.0
 70
     1
1001
GENIUS_GENREC_14
1002
{
1000
PYDIR
1011
1189.6024779183731
1021
-4.3564948110610617E+281
1031
-3.2673710991351690E+281
1021
1317.1232180828119
1031
0.0
1002
}
1002
{
1000
PXDIR
1011
1757.1957801083131
1021
-4.3564948110610617E+281
1031
-3.2673710991351690E+281
1021
1002.270643495798
1031
0.0
1002
}
1002
{
1000
PORI
1011
1189.6024779183731
1021
-4.3564948110610617E+281
1031
-3.2673710991351690E+281
1021
1002.270643495798
1031
0.0
1002
}
1002
{
1000
PINS
1011
1189.6024779183731
1021
-4.3564948110610617E+281
1031
-3.2673710991351690E+281
1021
1002.270643495798
1031
0.0
1002
}
1002
{
1000
PINS2
1011
1757.1957801083131
1021
-4.3564948110610617E+281
1031
-3.2673710991351690E+281
1021
1317.1232180828119
1031
0.0
1002
}
1002
{
1000
C
1070
     1
1002
}
1001
GENIUS_GENODEF_13
1002
{
1000
HIER
1070
     0
1002
}
1002
{
1000
MANEDIT
1070
     0
1002
}
1002
{
1000
NOSEL
1070
     0
1002
}
1002
{
1000
BEHIND
1070
     0
1002
}
1002
{
1000
OTHER
1070
     0
1002
}
1002
{
1000
REACTOR
1002
}
1001
GENIUS_GENOBJ-N-REC_13
1002
{
1000
OWNER
1000
GEN
1002
}
  0
VERTEX
  5
12ED
  8
LOGO
 62
     4
 10
1189.6024779183731
 20
1002.270643495798
 30
0.0
  0
VERTEX
  5
12EE
  8
LOGO
 62
     4
 10
1757.1957801083131
 20
1002.270643495798
 30
0.0
  0
VERTEX
  5
12EF
  8
LOGO
 62
     4
 10
1757.1957801083131
 20
1317.1232180828119
 30
0.0
  0
VERTEX
  5
12F0
  8
LOGO
 62
     4
 10
1189.6024779183731
 20
1317.1232180828119
 30
0.0
  0
SEQEND
  5
12F1
  8
LOGO
 62
     4
  0
SOLID
  5
10F2
  8
LOGO
 62
     5
 10
1193.617529210341
 20
985.48453546695953
 30
0.0
 11
1195.290759061334
 21
985.48453546695919
 31
0.0
 12
1202.272166370647
 22
1001.351370260855
 32
0.0
 13
1203.945396221641
 23
1001.351370260854
 33
0.0
  0
SOLID
  5
10F3
  8
LOGO
 62
     5
 10
1195.98313003416
 20
985.48453546695953
 30
0.0
 11
1197.6563598851531
 21
985.48453546695953
 31
0.0
 12
1203.945396221641
 22
1000.082023477342
 32
0.0
 13
1202.272166370647
 23
993.9468473570364
 33
0.0
  0
SOLID
  5
10F4
  8
LOGO
 62
     2
 10
1195.290759061334
 20
985.48453546695919
 30
0.0
 11
1195.98313003416
 21
985.48453546695953
 31
0.0
 12
1203.945396221641
 22
1001.351370260854
 32
0.0
 13
1204.6377671944661
 23
1001.351370260854
 33
0.0
  0
SOLID
  5
10F5
  8
LOGO
 62
     5
 10
1190.9349314329779
 20
979.71477736008876
 30
0.0
 11
1191.511907243666
 21
979.71477736008876
 31
0.0
 12
1193.1367160347691
 22
982.59965641352414
 32
0.0
 13
1193.7136918454551
 23
982.59965641352414
 33
0.0
  0
SOLID
  5
10F6
  8
LOGO
 62
     5
 10
1193.1367160347691
 20
982.59965641352414
 30
0.0
 11
1193.7136918454551
 21
982.59965641352414
 31
0.0
 12
1193.1367160347691
 22
979.71477736008876
 32
0.0
 13
1193.7136918454551
 23
979.71477736008876
 33
0.0
  0
SOLID
  5
10F7
  8
LOGO
 62
     5
 10
1193.1367160347691
 20
979.71477736008876
 30
0.0
 11
1193.7136918454551
 21
979.71477736008876
 31
0.0
 12
1195.33850063656
 22
982.59965641352414
 32
0.0
 13
1195.915476447248
 23
982.59965641352414
 33
0.0
  0
SOLID
  5
10F8
  8
LOGO
 62
     5
 10
1195.33850063656
 20
982.59965641352414
 30
0.0
 11
1195.915476447248
 21
982.59965641352414
 31
0.0
 12
1195.33850063656
 22
979.71477736008876
 32
0.0
 13
1195.915476447248
 23
979.71477736008876
 33
0.0
  0
POLYLINE
  5
10F9
  8
LOGO
 62
     5
 66
     1
 10
0.0
 20
0.0
 30
0.0
 40
0.5779004514093519
 41
0.5779004514093519
  0
VERTEX
  5
10FA
  8
LOGO
 62
     5
 10
1214.678533261505
 20
981.44570479214997
 30
0.0
 42
1.0
  0
VERTEX
  5
10FB
  8
LOGO
 62
     5
 10
1212.944831907276
 20
981.44570479214997
 30
0.0
 42
1.0
  0
SEQEND
  5
10FC
  8
LOGO
 62
     5
  0
POLYLINE
  5
10FD
  8
LOGO
 62
     5
 66
     1
 10
0.0
 20
0.0
 30
0.0
 70
     1
  0
VERTEX
  5
10FE
  8
LOGO
 62
     5
 10
1209.6767277395199
 20
981.15721688680605
 30
0.0
 42
1.0000000573306349
  0
VERTEX
  5
10FF
  8
LOGO
 62
     5
 10
1211.4076551715809
 20
981.15721688680605
 30
0.0
 42
1.0000000573306349
  0
SEQEND
  5
1100
  8
LOGO
 62
     5
  0
CIRCLE
  5
1101
  8
LOGO
 62
     5
 10
1210.5421914555509
 20
981.15721688680605
 30
0.0
 40
0.8654637160306457
  0
POLYLINE
  5
1102
  8
LOGO
 62
     5
 66
     1
 10
0.0
 20
0.0
 30
0.0
 70
     1
 40
0.5779004514093519
 41
0.5779004514093519
  0
VERTEX
  5
1103
  8
LOGO
 62
     5
 10
1209.3863905527321
 20
981.15721688680605
 30
0.0
 42
1.0
  0
VERTEX
  5
1104
  8
LOGO
 62
     5
 10
1211.697992358369
 20
981.15721688680605
 30
0.0
 42
1.0
  0
SEQEND
  5
1105
  8
LOGO
 62
     5
  0
LINE
  5
1106
  8
LOGO
 10
1214.965634205764
 20
979.71477736008876
 30
0.0
 11
1214.965634205764
 21
981.44570479214997
 31
0.0
  0
SOLID
  5
1107
  8
LOGO
 62
     5
 10
1211.4075974740031
 20
982.59965641352414
 30
0.0
 11
1211.9845732846879
 21
982.59965641352414
 31
0.0
 12
1211.4075974740031
 22
979.71477736008876
 32
0.0
 13
1211.9845732846879
 23
979.71477736008876
 33
0.0
  0
SOLID
  5
1108
  8
LOGO
 62
     5
 10
1212.6577309630161
 20
979.71477736008876
 30
0.0
 11
1213.234706773703
 21
979.71477736008876
 31
0.0
 12
1212.6577309630161
 22
982.59965641352414
 32
0.0
 13
1213.234706773703
 23
982.59965641352414
 33
0.0
  0
SOLID
  5
1109
  8
LOGO
 62
     5
 10
1214.388658395078
 20
981.44570479214997
 30
0.0
 11
1214.965634205764
 21
981.44570479214997
 31
0.0
 12
1214.388658395078
 22
979.71477736008876
 32
0.0
 13
1214.965634205764
 23
979.71477736008876
 33
0.0
  0
SOLID
  5
110A
  8
LOGO
 62
     5
 10
1212.600033381947
 20
1000.082023477342
 30
0.0
 11
1210.9268035309551
 21
993.9468473570364
 31
0.0
 12
1212.600033381947
 22
985.48453546695919
 32
0.0
 13
1210.9268035309551
 23
985.48453546695919
 33
0.0
  0
SOLID
  5
110B
  8
LOGO
 62
     5
 10
1213.292404354773
 20
985.48453546695919
 30
0.0
 11
1214.965634205764
 21
985.48453546695919
 31
0.0
 12
1213.292404354773
 22
1001.351370260854
 32
0.0
 13
1214.965634205764
 23
1001.351370260855
 33
0.0
  0
SOLID
  5
110C
  8
LOGO
 62
     2
 10
1212.600033381947
 20
1001.351370260855
 30
0.0
 11
1213.292404354773
 21
1001.351370260854
 31
0.0
 12
1212.600033381947
 22
985.48453546695919
 32
0.0
 13
1213.292404354773
 23
985.48453546695919
 33
0.0
  0
POLYLINE
  5
110D
  8
LOGO
 62
     5
 66
     1
 10
0.0
 20
0.0
 30
0.0
 40
0.5779004514093519
 41
0.5779004514093519
  0
VERTEX
  5
110E
  8
LOGO
 62
     5
 10
1206.4085081766029
 20
981.44570479214997
 30
0.0
 42
1.0
  0
VERTEX
  5
110F
  8
LOGO
 62
     5
 10
1204.6748068223751
 20
981.44570479214997
 30
0.0
 42
1.0
  0
SEQEND
  5
1110
  8
LOGO
 62
     5
  0
POLYLINE
  5
1111
  8
LOGO
 62
     5
 66
     1
 10
0.0
 20
0.0
 30
0.0
 40
0.5779004514093519
 41
0.5779004514093519
  0
VERTEX
  5
1112
  8
LOGO
 62
     5
 10
1208.1394356086621
 20
981.44570479214997
 30
0.0
 42
1.0
  0
VERTEX
  5
1113
  8
LOGO
 62
     5
 10
1206.4057342544349
 20
981.44570479214997
 30
0.0
 42
1.0
  0
SEQEND
  5
1114
  8
LOGO
 62
     5
  0
POLYLINE
  5
1115
  8
LOGO
 62
     5
 66
     1
 10
0.0
 20
0.0
 30
0.0
 40
0.5779004514093519
 41
0.5779004514093519
  0
VERTEX
  5
1116
  8
LOGO
 62
     5
 10
1199.8694105237601
 20
981.44570479214997
 30
0.0
 42
1.0
  0
VERTEX
  5
1117
  8
LOGO
 62
     5
 10
1198.1357091695329
 20
981.44570479214997
 30
0.0
 42
1.0
  0
SEQEND
  5
1118
  8
LOGO
 62
     5
  0
SOLID
  5
1119
  8
LOGO
 62
     5
 10
1197.848608225273
 20
982.59965641352414
 30
0.0
 11
1198.425584035959
 21
982.59965641352414
 31
0.0
 12
1197.848608225273
 22
979.71477736008876
 32
0.0
 13
1198.425584035959
 23
979.71477736008876
 33
0.0
  0
SOLID
  5
111A
  8
LOGO
 62
     5
 10
1199.579535657334
 20
981.44570479214997
 30
0.0
 11
1200.156511468022
 21
981.44570479214997
 31
0.0
 12
1199.579535657334
 22
979.71477736008876
 32
0.0
 13
1200.156511468022
 23
979.71477736008876
 33
0.0
  0
POLYLINE
  5
111B
  8
LOGO
 62
     5
 66
     1
 10
0.0
 20
0.0
 30
0.0
 70
     1
 40
0.5779004514093519
 41
0.5779004514093519
  0
VERTEX
  5
111C
  8
LOGO
 62
     5
 10
1201.1163654678289
 20
981.15721688680605
 30
0.0
 42
1.0
  0
VERTEX
  5
111D
  8
LOGO
 62
     5
 10
1203.4279672734669
 20
981.15721688680605
 30
0.0
 42
1.0
  0
SEQEND
  5
111E
  8
LOGO
 62
     5
  0
SOLID
  5
111F
  8
LOGO
 62
     5
 10
1203.137572389099
 20
983.46512012955509
 30
0.0
 11
1203.714548199785
 21
983.46512012955509
 31
0.0
 12
1203.137572389099
 22
979.71477736008876
 32
0.0
 13
1203.714548199785
 23
979.71477736008876
 33
0.0
  0
SOLID
  5
1120
  8
LOGO
 62
     5
 10
1204.387705878115
 20
982.59965641352414
 30
0.0
 11
1204.964681688801
 21
982.59965641352414
 31
0.0
 12
1204.387705878115
 22
979.71477736008876
 32
0.0
 13
1204.964681688801
 23
979.71477736008876
 33
0.0
  0
SOLID
  5
1121
  8
LOGO
 62
     5
 10
1206.118633310175
 20
981.44570479214997
 30
0.0
 11
1206.6956091208619
 21
981.44570479214997
 31
0.0
 12
1206.118633310175
 22
979.71477736008876
 32
0.0
 13
1206.6956091208619
 23
979.71477736008876
 33
0.0
  0
SOLID
  5
1122
  8
LOGO
 62
     5
 10
1207.849560742236
 20
981.44570479214997
 30
0.0
 11
1208.4265365529229
 21
981.44570479214997
 31
0.0
 12
1207.849560742236
 22
979.71477736008808
 32
0.0
 13
1208.4265365529229
 23
979.71477736008808
 33
0.0
  0
SOLID
  5
1123
  8
LOGO
 62
     5
 10
1196.598474736257
 20
983.0035394810053
 30
0.0
 11
1197.1754505469451
 21
983.0035394810053
 31
0.0
 12
1196.598474736257
 22
983.46512012955509
 32
0.0
 13
1197.1754505469451
 23
983.46512012955509
 33
0.0
  0
SOLID
  5
1124
  8
LOGO
 62
     5
 10
1196.598474736257
 20
982.59965641352414
 30
0.0
 11
1197.1754505469451
 21
982.59965641352414
 31
0.0
 12
1196.598474736257
 22
979.71477736008808
 32
0.0
 13
1197.1754505469451
 23
979.71477736008876
 33
0.0
  0
SOLID
  5
1125
  8
LOGO
 62
     5
 10
1202.272166370647
 20
985.48453546695953
 30
0.0
 11
1203.945396221641
 21
985.48453546695953
 31
0.0
 12
1202.272166370647
 22
993.9468473570364
 32
0.0
 13
1203.945396221641
 23
1000.082023477342
 33
0.0
  0
SOLID
  5
1126
  8
LOGO
 62
     5
 10
1204.6377671944661
 20
1001.351370260854
 30
0.0
 11
1206.310997045458
 21
1001.351370260855
 31
0.0
 12
1204.6377671944661
 22
986.75388225047107
 32
0.0
 13
1206.310997045458
 23
992.88905837077743
 33
0.0
  0
SOLID
  5
1127
  8
LOGO
 62
     2
 10
1203.945396221641
 20
1001.351370260854
 30
0.0
 11
1204.6377671944661
 21
1001.351370260854
 31
0.0
 12
1203.945396221641
 22
985.48453546695953
 32
0.0
 13
1204.6377671944661
 23
985.48453546695953
 33
0.0
  0
SOLID
  5
1128
  8
LOGO
 62
     5
 10
1204.6377671944661
 20
986.75388225047107
 30
0.0
 11
1206.310997045458
 21
992.88905837077743
 31
0.0
 12
1212.600033381947
 22
1001.351370260855
 32
0.0
 13
1210.9268035309551
 23
1001.351370260855
 33
0.0
  0
SOLID
  5
1129
  8
LOGO
 62
     5
 10
1204.6377671944661
 20
985.48453546695953
 30
0.0
 11
1206.310997045458
 21
985.48453546695953
 31
0.0
 12
1212.600033381947
 22
1000.082023477342
 32
0.0
 13
1210.9268035309551
 23
993.9468473570364
 33
0.0
  0
SOLID
  5
112A
  8
LOGO
 62
     2
 10
1203.945396221641
 20
985.48453546695953
 30
0.0
 11
1204.6377671944661
 21
985.48453546695953
 31
0.0
 12
1212.600033381947
 22
1001.351370260855
 32
0.0
 13
1213.292404354773
 23
1001.351370260854
 33
0.0
  0
POLYLINE
  5
112B
  8
LOGO
 62
     4
 66
     1
 10
0.0
 20
0.0
 30
0.0
 70
     1
1001
GENIUS_GENREC_14
1002
{
1000
PYDIR
1011
1189.6024779183731
1021
-4.3564948110610617E+281
1031
-3.2673710991351690E+281
1021
963.57195255320687
1031
0.0
1002
}
1002
{
1000
PXDIR
1011
1757.1957801083131
1021
-4.3564948110610617E+281
1031
-3.2673710991351690E+281
1021
1002.270643495798
1031
0.0
1002
}
1002
{
1000
PORI
1011
1189.6024779183731
1021
-4.3564948110610617E+281
1031
-3.2673710991351690E+281
1021
1002.270643495798
1031
0.0
1002
}
1002
{
1000
PINS
1011
1189.6024779183731
1021
-4.3564948110610617E+281
1031
-3.2673710991351690E+281
1021
1002.270643495798
1031
0.0
1002
}
1002
{
1000
PINS2
1011
1757.1957801083131
1021
-4.3564948110610617E+281
1031
-3.2673710991351690E+281
1021
963.57195255320687
1031
0.0
1002
}
1002
{
1000
C
1070
     1
1002
}
1001
GENIUS_GENOBJ-N-REC_13
1002
{
1000
OWNER
1000
GEN
1002
}
1001
GENIUS_GENODEF_13
1002
{
1000
HIER
1070
     0
1002
}
1002
{
1000
MANEDIT
1070
     0
1002
}
1002
{
1000
NOSEL
1070
     0
1002
}
1002
{
1000
BEHIND
1070
     0
1002
}
1002
{
1000
OTHER
1070
     0
1002
}
1002
{
1000
REACTOR
1002
}
  0
VERTEX
  5
12F2
  8
LOGO
 62
     4
 10
1189.6024779183731
 20
1002.270643495798
 30
0.0
  0
VERTEX
  5
12F3
  8
LOGO
 62
     4
 10
1757.1957801083131
 20
1002.270643495798
 30
0.0
  0
VERTEX
  5
12F4
  8
LOGO
 62
     4
 10
1757.1957801083131
 20
963.57195255320687
 30
0.0
  0
VERTEX
  5
12F5
  8
LOGO
 62
     4
 10
1189.6024779183731
 20
963.57195255320687
 30
0.0
  0
SEQEND
  5
12F6
  8
LOGO
 62
     4
  0
LINE
  5
112C
  8
LOGO
 62
     4
 10
1353.767057143571
 20
980.98636347737374
 30
0.0
 11
1353.767057143571
 21
966.79684346508998
 31
0.0
  0
LINE
  5
112D
  8
LOGO
 62
     4
 10
1327.96792984851
 20
980.98636347737374
 30
0.0
 11
1327.96792984851
 21
966.79684346508998
 31
0.0
  0
LINE
  5
112E
  8
LOGO
 62
     4
 10
1353.767057143571
 20
966.79684346508998
 30
0.0
 11
1327.96792984851
 21
966.79684346508998
 31
0.0
  0
LINE
  5
112F
  8
LOGO
 62
     4
 10
1358.3944048042961
 20
998.40077440153891
 30
0.0
 11
1327.96792984851
 21
998.40077440153891
 31
0.0
  0
LINE
  5
1130
  8
LOGO
 62
     4
 10
1358.3944048042961
 20
986.79116711876179
 30
0.0
 11
1327.96792984851
 21
986.79116711876179
 31
0.0
  0
LINE
  5
1131
  8
LOGO
 62
     4
 10
1327.96792984851
 20
998.40077440153891
 30
0.0
 11
1327.96792984851
 21
986.79116711876179
 31
0.0
  0
LINE
  5
1132
  8
LOGO
 62
     4
 10
1358.3944048042961
 20
998.40077440153891
 30
0.0
 11
1358.3944048042961
 21
986.79116711876179
 31
0.0
  0
LINE
  5
1133
  8
LOGO
 62
     4
 10
1342.2135599467931
 20
986.79116711876179
 30
0.0
 11
1342.2135599467931
 21
980.98636347737374
 31
0.0
  0
TEXT
  5
1134
  8
LOGO
  6
CONTINUOUS
 10
1330.030775239906
 20
989.21465566579752
 30
0.0
 40
6.7732516572747556
  1
MHCK
  7
CHINESET
  0
LINE
  5
1135
  8
LOGO
 62
     4
 10
1353.767057143571
 20
980.98636347737374
 30
0.0
 11
1327.96792984851
 21
980.98636347737374
 31
0.0
  0
TEXT
  5
1136
  8
LOGO
  6
CONTINUOUS
 10
1336.246788118701
 20
968.79966412524755
 30
253.62484520083379
 40
2.9028221388320379
  1
Model
 41
0.8
  7
CHINESET
  0
TEXT
  5
1137
  8
LOGO
 10
1335.474151230288
 20
974.18087076782058
 30
253.62484520083379
 40
4.8380368980533976
  1
型號
  7
CHINESET
  0
LINE
  5
1138
  8
LOGO
  6
CONTINUOUS
 10
1361.3032545229421
 20
992.55484769640327
 30
0.0
 11
1366.4296334832691
 21
992.55484769640327
 31
0.0
  0
LINE
  5
1139
  8
LOGO
 62
     4
 10
1387.219300183714
 20
980.98636347737374
 30
0.0
 11
1387.219300183714
 21
966.79684346508998
 31
0.0
  0
LINE
  5
113A
  8
LOGO
 62
     4
 10
1361.420172888654
 20
980.98636347737374
 30
0.0
 11
1361.420172888654
 21
966.79684346508998
 31
0.0
  0
LINE
  5
113B
  8
LOGO
 62
     4
 10
1387.219300183714
 20
966.79684346508998
 30
0.0
 11
1361.420172888654
 21
966.79684346508998
 31
0.0
  0
LINE
  5
113C
  8
LOGO
 62
     4
 10
1387.884611831952
 20
998.40077440153891
 30
0.0
 11
1368.0467358176909
 21
998.40077440153891
 31
0.0
  0
LINE
  5
113D
  8
LOGO
 62
     4
 10
1387.884611831952
 20
986.79116711876179
 30
0.0
 11
1368.0467358176909
 21
986.79116711876179
 31
0.0
  0
LINE
  5
113E
  8
LOGO
 62
     4
 10
1368.0467358176909
 20
998.40077440153891
 30
0.0
 11
1368.0467358176909
 21
986.79116711876179
 31
0.0
  0
LINE
  5
113F
  8
LOGO
 62
     4
 10
1387.884611831952
 20
998.40077440153891
 30
0.0
 11
1387.884611831952
 21
986.79116711876179
 31
0.0
  0
LINE
  5
1140
  8
LOGO
 62
     4
 10
1377.965673824822
 20
986.79116711876179
 30
0.0
 11
1377.965673824822
 21
980.98636347737374
 31
0.0
  0
TEXT
  5
1141
  8
LOGO
  6
CONTINUOUS
 10
1372.3046582755551
 20
988.98553321646443
 30
0.0
 40
6.7732516572747556
  1
50
  7
CHINESET
  0
LINE
  5
1142
  8
LOGO
 62
     4
 10
1387.219300183714
 20
980.98636347737374
 30
0.0
 11
1361.420172888654
 21
980.98636347737374
 31
0.0
  0
LINE
  5
1143
  8
LOGO
  6
CONTINUOUS
 10
1389.536009226681
 20
992.55484769640327
 30
0.0
 11
1394.66238818701
 21
992.55484769640327
 31
0.0
  0
LINE
  5
1144
  8
LOGO
 62
     4
 10
1420.3732313321871
 20
980.98636347737374
 30
0.0
 11
1420.3732313321871
 21
966.79684346508998
 31
0.0
  0
LINE
  5
1145
  8
LOGO
 62
     4
 10
1390.3123101957281
 20
980.98636347737374
 30
0.0
 11
1390.3123101957281
 21
966.79684346508998
 31
0.0
  0
LINE
  5
1146
  8
LOGO
 62
     4
 10
1420.3732313321871
 20
966.79684346508998
 30
0.0
 11
1390.3123101957281
 21
966.79684346508998
 31
0.0
  0
LINE
  5
1147
  8
LOGO
 62
     4
 10
1408.6317902738101
 20
998.40077440153891
 30
0.0
 11
1396.2794905214309
 21
998.40077440153891
 31
0.0
  0
LINE
  5
1148
  8
LOGO
 62
     4
 10
1408.6317902738101
 20
986.79116711876179
 30
0.0
 11
1396.2794905214309
 21
986.79116711876179
 31
0.0
  0
LINE
  5
1149
  8
LOGO
 62
     4
 10
1396.2794905214309
 20
998.40077440153891
 30
0.0
 11
1396.2794905214309
 21
986.79116711876179
 31
0.0
  0
LINE
  5
114A
  8
LOGO
 62
     4
 10
1408.6317902738101
 20
998.40077440153891
 30
0.0
 11
1408.6317902738101
 21
986.79116711876179
 31
0.0
  0
LINE
  5
114B
  8
LOGO
 62
     4
 10
1402.540826169092
 20
986.79116711876179
 30
0.0
 11
1402.540826169092
 21
980.98636347737374
 31
0.0
  0
TEXT
  5
114C
  8
LOGO
  6
CONTINUOUS
 10
1400.4428050914471
 20
989.21465566579752
 30
0.0
 40
6.7732516572747556
  1
*
  7
CHINESET
  0
LINE
  5
114D
  8
LOGO
 62
     4
 10
1420.3732313321871
 20
980.98636347737374
 30
0.0
 11
1390.3123101957281
 21
980.98636347737374
 31
0.0
  0
TEXT
  5
114E
  8
LOGO
  6
CONTINUOUS
 10
1366.8240356185941
 20
968.79966412524755
 30
253.62484520083379
 40
2.9028221388320379
  1
Tube I.D.
 41
0.8
  7
CHINESET
  0
TEXT
  5
114F
  8
LOGO
 10
1368.7335993755701
 20
974.18087076782058
 30
253.62484520083379
 40
4.8380368980533976
  1
內徑
  7
CHINESET
  0
TEXT
  5
1150
  8
LOGO
  6
CONTINUOUS
 10
1393.3428804539831
 20
968.79966412524755
 30
253.62484520083379
 40
2.9028221388320379
  1
Manifold type
 41
0.8
  7
CHINESET
  0
TEXT
  5
1151
  8
LOGO
 10
1395.6502171929919
 20
974.18087076782058
 30
253.62484520083379
 40
4.8380368980533976
  1
油口型式
  7
CHINESET
  0
TEXT
  5
1152
  8
LOGO
 10
1276.0165860740531
 20
965.63070763722499
 30
0.0
 40
3.8704295184427191
  1
00904070
 41
0.7
  7
CHINESET
 72
     1
 11
1285.9506885047231
 21
965.63070763722499
 31
0.0
  0
LINE
  5
1153
  8
LOGO
 62
     4
 10
1297.9621751027271
 20
971.31169074172658
 30
0.0
 11
1297.962175102728
 21
963.57195255320812
 31
0.0
  0
LINE
  5
1154
  8
LOGO
 62
     4
 10
1297.9621751027271
 20
971.31169074172658
 30
0.0
 11
1274.739597992072
 21
971.31169074172658
 31
0.0
  0
CIRCLE
  5
1155
  8
LOGO
  6
CONTINUOUS
 10
1256.106017360607
 20
990.66931389133265
 30
0.0
 40
2.2469370825774342
  0
CIRCLE
  5
1156
  8
LOGO
  6
CONTINUOUS
 10
1256.106017360607
 20
990.66931389133265
 30
0.0
 40
1.3165062203045199
  0
LINE
  5
1157
  8
LOGO
 10
1270.2260307110771
 20
988.42237680875485
 30
0.0
 11
1270.2260307110771
 21
992.91625097391068
 31
0.0
  0
LINE
  5
1158
  8
LOGO
 10
1263.18201193754
 20
989.35280767102836
 30
0.0
 11
1263.18201193754
 21
991.98582011163739
 31
0.0
  0
LINE
  5
1159
  8
LOGO
  6
CONTINUOUS
 10
1263.18201193754
 20
991.98582011163739
 30
0.0
 11
1270.2260307110771
 21
992.91625097391068
 31
0.0
  0
LINE
  5
115A
  8
LOGO
  6
CONTINUOUS
 10
1263.18201193754
 20
989.35280767102836
 30
0.0
 11
1270.2260307110771
 21
988.42237680875485
 31
0.0
  0
LINE
  5
115B
  8
LOGO
  6
AM_ISO08W050X2
 10
1253.0085809470399
 20
990.66931389133265
 30
0.0
 11
1259.2034537741731
 21
990.66931389133265
 31
0.0
1001
GENIUS_GENOREF_13
1005
1163
  0
LINE
  5
115C
  8
LOGO
  6
AM_ISO08W050X2
 10
1256.106017360607
 20
987.57187747776652
 30
0.0
 11
1256.106017360607
 21
993.76675030489923
 31
0.0
1001
GENIUS_GENOREF_13
1005
1162
  0
LINE
  5
115D
  8
LOGO
  6
CENTER
 10
1262.6186862232421
 20
990.66931389133265
 30
0.0
 11
1270.9353405989079
 21
990.66931389133265
 31
0.0
1001
GENIUS_GENOREF_13
1005
1161
  0
LINE
  5
115E
  8
LOGO
 62
     4
 10
1473.3991290133431
 20
1317.1232180828119
 30
0.0
 11
1473.3991290133431
 21
1002.270643495798
 31
0.0
  0
TEXT
  5
115F
  8
UMCL1
  6
CONTINUOUS
 10
1193.3310931076589
 20
1303.3142239661599
 30
0.0
 40
6.0
  1
MHCK-50-F
  0
TEXT
  5
1160
  8
UMCL1
  6
CONTINUOUS
 10
1481.3721736856089
 20
1299.535729305328
 30
0.0
 40
6.0
  1
MHCK-50
  0
POINT
  5
1161
  8
0
 10
7577.1846415828459
 20
-546.44259692976095
 30
-179.8317238765535
1001
GENIUS_GENOBJ-N-CRS_13
1002
{
1000
OWNER
1000
GEN
1002
}
1001
GENIUS_GENOLIS_13
1002
{
1000
ENT
1005
0
1005
0
1005
0
1005
115D
1002
}
1001
GENIUS_GENOENT_13
1002
{
1000
MYREF
1005
1161
1002
}
1002
{
1000
GRP
1005
0
1002
}
1001
GENIUS_GENODEF_13
1002
{
1000
HIER
1070
    10
1002
}
1002
{
1000
MANEDIT
1070
     1
1002
}
1002
{
1000
NOSEL
1070
     0
1002
}
1002
{
1000
BEHIND
1070
     0
1002
}
1002
{
1000
OTHER
1070
     0
1002
}
1002
{
1000
REACTOR
1002
}
  0
POINT
  5
1162
  8
0
 10
7565.8600563599912
 20
-537.5670104511247
 30
-179.8317238765535
1001
GENIUS_GENOBJ-N-CRS_13
1002
{
1000
OWNER
1000
GEN
1002
}
1001
GENIUS_GENOLIS_13
1002
{
1000
ENT
1005
0
1005
0
1005
0
1005
115C
1002
}
1001
GENIUS_GENOENT_13
1002
{
1000
MYREF
1005
1162
1002
}
1002
{
1000
GRP
1005
0
1002
}
1001
GENIUS_GENODEF_13
1002
{
1000
HIER
1070
    10
1002
}
1002
{
1000
MANEDIT
1070
     1
1002
}
1002
{
1000
NOSEL
1070
     0
1002
}
1002
{
1000
BEHIND
1070
     0
1002
}
1002
{
1000
OTHER
1070
     0
1002
}
1002
{
1000
REACTOR
1002
}
  0
POINT
  5
1163
  8
0
 10
7572.218730057828
 20
-546.44259692976095
 30
-179.8317238765535
1001
GENIUS_GENOBJ-N-CRS_13
1002
{
1000
OWNER
1000
GEN
1002
}
1001
GENIUS_GENOLIS_13
1002
{
1000
ENT
1005
0
1005
0
1005
0
1005
115B
1002
}
1001
GENIUS_GENOENT_13
1002
{
1000
MYREF
1005
1163
1002
}
1002
{
1000
GRP
1005
0
1002
}
1001
GENIUS_GENODEF_13
1002
{
1000
HIER
1070
    10
1002
}
1002
{
1000
MANEDIT
1070
     1
1002
}
1002
{
1000
NOSEL
1070
     0
1002
}
1002
{
1000
BEHIND
1070
     0
1002
}
1002
{
1000
OTHER
1070
     0
1002
}
1002
{
1000
REACTOR
1002
}
  0
ENDSEC
  0
EOF
