  0
SECTION
  2
HEADER
  9
$ACADVER
  1
AC1009
  9
$INSBASE
 10
0.0
 20
0.0
 30
0.0
  9
$EXTMIN
 10
1139.409549009076
 20
938.17306067012476
 30
-0.0187299813358095
  9
$EXTMAX
 10
1826.3212392685491
 20
1366.1123780955249
 30
306.9047955325313
  9
$LIMMIN
 10
0.0
 20
0.0
  9
$LIMMAX
 10
420.0
 20
297.0
  9
$ORTHOMODE
 70
     0
  9
$REGENMODE
 70
     1
  9
$FILLMODE
 70
     1
  9
$QTEXTMODE
 70
     0
  9
$MIRRTEXT
 70
     1
  9
$DRAGMODE
 70
     2
  9
$LTSCALE
 40
1.0
  9
$OSMODE
 70
    37
  9
$ATTMODE
 70
     1
  9
$TEXTSIZE
 40
1.0
  9
$TRACEWID
 40
1.0
  9
$TEXTSTYLE
  7
STANDARD
  9
$CLAYER
  8
0
  9
$CELTYPE
  6
BYLAYER
  9
$CECOLOR
 62
   256
  9
$DIMSCALE
 40
1.0
  9
$DIMASZ
 40
2.5
  9
$DIMEXO
 40
1.0
  9
$DIMDLI
 40
10.0
  9
$DIMRND
 40
0.0
  9
$DIMDLE
 40
0.0
  9
$DIMEXE
 40
1.0
  9
$DIMTP
 40
0.1
  9
$DIMTM
 40
0.1
  9
$DIMTXT
 40
3.5
  9
$DIMCEN
 40
0.0
  9
$DIMTSZ
 40
0.0
  9
$DIMTOL
 70
     0
  9
$DIMLIM
 70
     0
  9
$DIMTIH
 70
     0
  9
$DIMTOH
 70
     0
  9
$DIMSE1
 70
     0
  9
$DIMSE2
 70
     0
  9
$DIMTAD
 70
     1
  9
$DIMZIN
 70
     8
  9
$DIMBLK
  1

  9
$DIMASO
 70
     1
  9
$DIMSHO
 70
     1
  9
$DIMPOST
  1

  9
$DIMAPOST
  1
"
  9
$DIMALT
 70
     0
  9
$DIMALTD
 70
     2
  9
$DIMALTF
 40
0.0393701
  9
$DIMLFAC
 40
1.0
  9
$DIMTOFL
 70
     1
  9
$DIMTVP
 40
0.0
  9
$DIMTIX
 70
     0
  9
$DIMSOXD
 70
     0
  9
$DIMSAH
 70
     0
  9
$DIMBLK1
  1

  9
$DIMBLK2
  1

  9
$DIMSTYLE
  2
AM_ISO
  9
$DIMCLRD
 70
   256
  9
$DIMCLRE
 70
   256
  9
$DIMCLRT
 70
     2
  9
$DIMTFAC
 40
0.71
  9
$DIMGAP
 40
1.5
  9
$LUNITS
 70
     2
  9
$LUPREC
 70
     2
  9
$SKETCHINC
 40
1.0
  9
$FILLETRAD
 40
2.5
  9
$AUNITS
 70
     0
  9
$AUPREC
 70
     0
  9
$MENU
  1
.
  9
$ELEVATION
 40
0.0
  9
$PELEVATION
 40
0.0
  9
$THICKNESS
 40
0.0
  9
$LIMCHECK
 70
     0
  9
$BLIPMODE
 70
     0
  9
$CHAMFERA
 40
2.5
  9
$CHAMFERB
 40
2.5
  9
$SKPOLY
 70
     0
  9
$TDCREATE
 40
2454929.4405136001
  9
$TDUPDATE
 40
2454937.5391834611
  9
$TDINDWG
 40
0.0085971412
  9
$TDUSRTIMER
 40
0.0082162731
  9
$USRTIMER
 70
     1
  9
$ANGBASE
 50
0.0
  9
$ANGDIR
 70
     0
  9
$PDMODE
 70
     0
  9
$PDSIZE
 40
0.0
  9
$PLINEWID
 40
0.0
  9
$COORDS
 70
     1
  9
$SPLFRAME
 70
     0
  9
$SPLINETYPE
 70
     6
  9
$SPLINESEGS
 70
     8
  9
$ATTDIA
 70
     1
  9
$ATTREQ
 70
     1
  9
$HANDLING
 70
     1
  9
$HANDSEED
  5
1A4F
  9
$SURFTAB1
 70
     6
  9
$SURFTAB2
 70
     6
  9
$SURFTYPE
 70
     6
  9
$SURFU
 70
     6
  9
$SURFV
 70
     6
  9
$UCSNAME
  2

  9
$UCSORG
 10
0.0
 20
0.0
 30
0.0
  9
$UCSXDIR
 10
1.0
 20
0.0
 30
0.0
  9
$UCSYDIR
 10
0.0
 20
1.0
 30
0.0
  9
$PUCSNAME
  2

  9
$PUCSORG
 10
0.0
 20
0.0
 30
0.0
  9
$PUCSXDIR
 10
1.0
 20
0.0
 30
0.0
  9
$PUCSYDIR
 10
0.0
 20
1.0
 30
0.0
  9
$USERI1
 70
     0
  9
$USERI2
 70
     0
  9
$USERI3
 70
     0
  9
$USERI4
 70
     0
  9
$USERI5
 70
     0
  9
$USERR1
 40
0.0
  9
$USERR2
 40
0.0
  9
$USERR3
 40
0.0
  9
$USERR4
 40
0.0
  9
$USERR5
 40
0.0
  9
$WORLDVIEW
 70
     1
  9
$SHADEDGE
 70
     3
  9
$SHADEDIF
 70
    70
  9
$TILEMODE
 70
     1
  9
$MAXACTVP
 70
    64
  9
$PLIMCHECK
 70
     0
  9
$PEXTMIN
 10
1.0000000000000000E+020
 20
1.0000000000000000E+020
 30
1.0000000000000000E+020
  9
$PEXTMAX
 10
-1.0000000000000000E+020
 20
-1.0000000000000000E+020
 30
-1.0000000000000000E+020
  9
$PLIMMIN
 10
0.0
 20
0.0
  9
$PLIMMAX
 10
420.0
 20
297.0
  9
$UNITMODE
 70
     0
  9
$VISRETAIN
 70
     1
  9
$PLINEGEN
 70
     0
  9
$PSLTSCALE
 70
     1
  0
ENDSEC
  0
SECTION
  2
TABLES
  0
TABLE
  2
VPORT
 70
     3
  0
VPORT
  2
*ACTIVE
 70
     0
 10
0.0
 20
0.0
 11
1.0
 21
1.0
 12
1482.8653941388129
 22
1152.1427193828249
 13
0.0
 23
0.0
 14
2.5
 24
2.5
 15
10.0
 25
10.0
 16
0.0
 26
0.0
 36
1.0
 17
0.0
 27
0.0
 37
0.0
 40
759.73087838083688
 41
0.911957950065703
 42
50.0
 43
0.0
 44
0.0
 50
0.0
 51
0.0
 71
     0
 72
   100
 73
     1
 74
     3
 75
     0
 76
     0
 77
     0
 78
     0
  0
ENDTAB
  0
TABLE
  2
LTYPE
 70
    20
  0
LTYPE
  2
CONTINUOUS
 70
     0
  3
Solid line
 72
    65
 73
     0
 40
0.0
  0
LTYPE
  2
AM_ISO02W050
 70
     0
  3
__ __ __ __ __ __ __ __ __ __ __ __ __ __ __
 72
    65
 73
     2
 40
7.5
 49
6.0
 49
-1.5
  0
LTYPE
  2
AM_ISO08W050
 70
     0
  3
____ . ____ . ____ . ____ . ____ . ____ . ____
 72
    65
 73
     4
 40
18.0
 49
12.0
 49
-1.5
 49
3.0
 49
-1.5
  0
LTYPE
  2
AM_ISO09W050
 70
     0
  3
_____ . . _____ . . _____ . . ____ .. ____
 72
    65
 73
     6
 40
22.5
 49
12.0
 49
-1.5
 49
3.0
 49
-1.5
 49
3.0
 49
-1.5
  0
LTYPE
  2
AMCONSTR
 70
     0
  3
_______________________
 72
    65
 73
     2
 40
9999.0
 49
9999.0
 49
0.0
  0
LTYPE
  2
AM_ISO08W050X2
 70
     0
  3
__ . __ . __ . __ . __ . __
 72
    65
 73
     4
 40
9.0
 49
6.0
 49
-0.75
 49
1.5
 49
-0.75
  0
LTYPE
  2
AM_ISO02W050X2
 70
     0
  3
 _ _ _ _ _ _ _ _ _ _ _ _
 72
    65
 73
     2
 40
3.75
 49
3.0
 49
-0.75
  0
LTYPE
  2
AMZIGZAG
 70
     0
  3
/\/-/\/-/\/-/\/-/\/-/\/
 72
    65
 73
     2
 40
11.0001
 49
0.0001
 49
-11.0
  0
LTYPE
  2
ACISOWELD
 70
     0
  3
_ _ _ _ _
 72
    65
 73
     2
 40
2.0
 49
2.0
 49
-1.0
  0
LTYPE
  2
ACISOTGB
 70
     0
  3
__ . . __ . .
 72
    65
 73
     6
 40
9.0
 49
4.0
 49
-1.0
 49
1.0
 49
-1.0
 49
1.0
 49
-1.0
  0
LTYPE
  2
ACISOTGL
 70
     0
  3
_ _ _ _ _
 72
    65
 73
     2
 40
3.0
 49
2.0
 49
-1.0
  0
LTYPE
  2
CENTER
 70
     0
  3
__ . __
 72
    65
 73
     4
 40
7.0
 49
4.0
 49
-1.0
 49
1.0
 49
-1.0
  0
LTYPE
  2
HIDDEN
 70
     0
  3
Hidden __ __ __ __ __ __ __ __ __ __ __ __ __ _
 72
    65
 73
     2
 40
9.5249999999999986
 49
6.3499999999999988
 49
-3.1749999999999989
  0
LTYPE
  2
PHANTOM2
 70
     0
  3
Phantom (.5x) ___ _ _ ___ _ _ ___ _ _ ___ _ _
 72
    65
 73
     6
 40
31.75
 49
15.875
 49
-3.1749999999999989
 49
3.1749999999999989
 49
-3.1749999999999989
 49
3.1749999999999989
 49
-3.1749999999999989
  0
ENDTAB
  0
TABLE
  2
LAYER
 70
     5
  0
LAYER
  2
0
 70
     0
 62
     7
  6
CONTINUOUS
  0
LAYER
  2
UMCL1
 70
     0
 62
     7
  6
CONTINUOUS
  0
LAYER
  2
UMCL2
 70
     0
 62
     5
  6
CONTINUOUS
  0
LAYER
  2
LOGO
 70
     0
 62
     7
  6
CONTINUOUS
  0
ENDTAB
  0
TABLE
  2
STYLE
 70
    13
  0
STYLE
  2
STANDARD
 70
     0
 40
0.0
 41
1.0
 50
0.0
 71
     0
 42
1.0
  3
ISOCP.SHX
  4
CHINESET.SHX
  0
STYLE
  2

 70
     1
 40
0.0
 41
1.0
 50
0.0
 71
     0
 42
2.5
  3
ltypeshp.shx
  4

  0
STYLE
  2
ACISOTS
 70
     0
 40
1.0
 41
1.0
 50
0.0
 71
     0
 42
1.0
  3
isocp.shx
  4
chineset.shx
  0
STYLE
  2
ACISOGDT
 70
     0
 40
0.0
 41
1.0
 50
0.0
 71
     0
 42
2.5
  3
amgdt.shx
  4
chineset.shx
  0
STYLE
  2
ROMANS
 70
     0
 40
0.0
 41
1.0
 50
0.0
 71
     0
 42
3.0
  3
ROMANS.SHX
  4
LMP
  0
STYLE
  2
ROMANSS
 70
     0
 40
0.0
 41
1.0
 50
0.0
 71
     0
 42
3.0
  3
ROMANSS.SHX
  4
LMP
  0
STYLE
  2
CHINESET
 70
     0
 40
0.0
 41
1.0
 50
0.0
 71
     0
 42
5.0
  3
simplex.shx
  4
chineset.shx
  0
ENDTAB
  0
TABLE
  2
VIEW
 70
     0
  0
ENDTAB
  0
TABLE
  2
UCS
 70
     0
  0
ENDTAB
  0
TABLE
  2
APPID
 70
    16
  0
APPID
  2
ACAD
 70
     0
  0
APPID
  2
MCAD_NO_VIS
 70
     0
  0
APPID
  2
ACAD_TEMP_GRAPHIC
 70
     0
  0
APPID
  2
ACATTRIBSERVICES
 70
     0
  0
APPID
  2
AD_DRAW
 70
     0
  0
APPID
  2
DESIGNERASSEMBLIES
 70
     0
  0
APPID
  2
ACADM_DIM_EDIT
 70
     0
  0
APPID
  2
AMDT_DM_ADJ
 70
     0
  0
APPID
  2
GENIUS_GENODEF_13
 70
     0
  0
APPID
  2
GENIUS_GENREC_14
 70
     0
  0
APPID
  2
GENIUS_GENOBJ-N-REC_13
 70
     0
  0
APPID
  2
GENIUS_GENOLIS_13
 70
     0
  0
APPID
  2
GENIUS_GENOENT_13
 70
     0
  0
APPID
  2
GENIUS_GENOBJ-N-CRS_13
 70
     0
  0
APPID
  2
GENIUS_GENOREF_13
 70
     0
  0
APPID
  2
ACAD_PSEXT
 70
     0
  0
ENDTAB
  0
TABLE
  2
DIMSTYLE
 70
    16
  0
DIMSTYLE
  2
AM_ISO
 70
     0
  3

  4
"
  5

  6

  7

 40
1.0
 41
2.5
 42
1.0
 43
10.0
 44
1.0
 45
0.0
 46
0.0
 47
0.1
 48
0.1
140
3.5
141
0.0
142
0.0
143
0.0393701
144
1.0
145
0.0
146
0.71
147
1.5
 71
     0
 72
     0
 73
     0
 74
     0
 75
     0
 76
     0
 77
     1
 78
     8
170
     0
171
     2
172
     1
173
     0
174
     0
175
     0
176
   256
177
   256
178
     2
  0
DIMSTYLE
  2
AM_ISO$3
 70
     0
  3

  4
"
  5

  6

  7

 40
1.0
 41
2.5
 42
1.0
 43
10.0
 44
1.0
 45
0.0
 46
0.0
 47
0.1
 48
0.1
140
3.5
141
0.0
142
0.0
143
0.0393701
144
1.0
145
0.0
146
0.71
147
1.5
 71
     0
 72
     0
 73
     0
 74
     1
 75
     0
 76
     0
 77
     1
 78
     8
170
     0
171
     2
172
     0
173
     0
174
     0
175
     0
176
   256
177
   256
178
     2
  0
DIMSTYLE
  2
AM_ISO$4
 70
     0
  3

  4
"
  5

  6

  7

 40
1.0
 41
2.5
 42
1.0
 43
10.0
 44
1.0
 45
0.0
 46
0.0
 47
0.1
 48
0.1
140
3.5
141
0.0
142
0.0
143
0.0393701
144
1.0
145
0.0
146
0.71
147
1.5
 71
     0
 72
     0
 73
     0
 74
     1
 75
     0
 76
     0
 77
     1
 78
     8
170
     0
171
     2
172
     0
173
     0
174
     0
175
     0
176
   256
177
   256
178
     2
  0
DIMSTYLE
  2
AM_ISO$6
 70
     0
  3

  4
"
  5

  6

  7

 40
1.0
 41
2.5
 42
1.0
 43
10.0
 44
1.0
 45
0.0
 46
0.0
 47
0.1
 48
0.1
140
3.5
141
0.0
142
0.0
143
0.0393701
144
1.0
145
0.0
146
0.71
147
1.5
 71
     0
 72
     0
 73
     0
 74
     0
 75
     0
 76
     0
 77
     0
 78
     8
170
     0
171
     2
172
     1
173
     0
174
     0
175
     0
176
   256
177
   256
178
     2
  0
DIMSTYLE
  2
AM_ISO$7
 70
     0
  3

  4
"
  5

  6

  7

 40
1.0
 41
2.5
 42
1.0
 43
10.0
 44
1.0
 45
0.0
 46
0.0
 47
0.1
 48
0.1
140
5.0
141
0.0
142
0.0
143
0.0393701
144
1.0
145
0.0
146
0.71
147
1.5
 71
     0
 72
     0
 73
     0
 74
     0
 75
     0
 76
     0
 77
     1
 78
     8
170
     0
171
     2
172
     1
173
     0
174
     0
175
     0
176
   256
177
   256
178
     2
  0
DIMSTYLE
  2
AM_ISO$SF
 70
     0
  3

  4
"
  5

  6

  7

 40
1.0
 41
2.5
 42
1.0
 43
10.0
 44
1.0
 45
0.0
 46
0.0
 47
0.1
 48
0.1
140
3.5
141
0.0
142
0.0
143
0.0393701
144
1.0
145
0.0
146
0.71
147
1.5
 71
     0
 72
     0
 73
     0
 74
     0
 75
     1
 76
     1
 77
     1
 78
     8
170
     0
171
     2
172
     1
173
     0
174
     0
175
     0
176
   256
177
   256
178
     2
  0
DIMSTYLE
  2
AM_ISO$SH
 70
     0
  3

  4
"
  5

  6
GENAXEH
  7

 40
1.0
 41
2.5
 42
1.0
 43
10.0
 44
1.0
 45
0.0
 46
0.0
 47
0.1
 48
0.1
140
3.5
141
0.0
142
0.0
143
0.0393701
144
2.0
145
0.0
146
0.71
147
1.5
 71
     0
 72
     0
 73
     0
 74
     0
 75
     1
 76
     1
 77
     1
 78
     8
170
     0
171
     2
172
     1
173
     1
174
     0
175
     0
176
   256
177
   256
178
     2
  0
DIMSTYLE
  2
STANDARD
 70
     0
  3

  4

  5

  6

  7

 40
1.0
 41
0.18
 42
0.0625
 43
0.38
 44
0.18
 45
0.0
 46
0.0
 47
0.0
 48
0.0
140
0.18
141
0.09
142
0.0
143
25.399999999999999
144
1.0
145
0.0
146
1.0
147
0.09
 71
     0
 72
     0
 73
     1
 74
     1
 75
     0
 76
     0
 77
     0
 78
     0
170
     0
171
     2
172
     0
173
     0
174
     0
175
     0
176
     0
177
     0
178
     0
  0
ENDTAB
  0
ENDSEC
  0
SECTION
  2
BLOCKS
  0
BLOCK
  8
0
  2
$MODEL_SPACE
 70
     0
 10
0.0
 20
0.0
 30
0.0
  3
$MODEL_SPACE
  1

  0
ENDBLK
  5
21
  8
0
  0
BLOCK
 67
     1
  8
0
  2
$PAPER_SPACE
 70
     0
 10
0.0
 20
0.0
 30
0.0
  3
$PAPER_SPACE
  1

  0
ENDBLK
  5
1D
 67
     1
  8
0
  0
BLOCK
  8
0
  2
GENAXEH
 70
     0
 10
0.0
 20
0.0
 30
0.0
  3
GENAXEH
  1

  0
LINE
  5
88
  8
0
 10
-1.0
 20
0.0
 30
0.0
 11
1.0
 21
0.0
 31
0.0
  0
ENDBLK
  5
8A
  8
0
  0
BLOCK
  8
0
  2
*U4
 70
     1
 10
0.0
 20
0.0
 30
0.0
  3
*U4
  1

  0
TEXT
  5
1975
  8
UMCL2
 10
1721.378207009619
 20
1285.786359688037
 30
0.0
 40
3.0
  1
19
 50
90.0
  0
ENDBLK
  5
1977
  8
0
  0
BLOCK
  8
0
  2
*U5
 70
     1
 10
0.0
 20
0.0
 30
0.0
  3
*U5
  1

  0
TEXT
  5
1979
  8
UMCL2
 10
1729.3782070096181
 20
1284.3937499065401
 30
0.0
 40
3.0
  1
31.8
 50
90.0
  0
ENDBLK
  5
197B
  8
0
  0
BLOCK
  8
0
  2
*U6
 70
     1
 10
0.0
 20
0.0
 30
0.0
  3
*U6
  1

  0
TEXT
  5
197D
  8
UMCL2
 10
1737.378207009619
 20
1285.5316178721839
 30
0.0
 40
3.0
  1
75
 50
90.0
  0
ENDBLK
  5
197F
  8
0
  0
BLOCK
  8
0
  2
*U7
 70
     1
 10
0.0
 20
0.0
 30
0.0
  3
*U7
  1

  0
TEXT
  5
1981
  8
UMCL2
 10
1745.3782070096181
 20
1285.5709895005939
 30
0.0
 40
3.0
  1
96
 50
90.0
  0
ENDBLK
  5
1983
  8
0
  0
BLOCK
  8
0
  2
*U8
 70
     1
 10
0.0
 20
0.0
 30
0.0
  3
*U8
  1

  0
TEXT
  5
198F
  8
UMCL2
 10
1618.278207009618
 20
1231.510884758176
 30
0.0
 40
3.0
  1
38
  0
ENDBLK
  5
1991
  8
0
  0
BLOCK
  8
0
  2
*U9
 70
     1
 10
0.0
 20
0.0
 30
0.0
  3
*U9
  1

  0
TEXT
  5
1993
  8
UMCL2
 10
1563.371882999839
 20
1285.8316178721841
 30
0.0
 40
3.0
  1
15
 50
90.0
  0
ENDBLK
  5
1995
  8
0
  0
BLOCK
  8
0
  2
*U10
 70
     1
 10
0.0
 20
0.0
 30
0.0
  3
*U10
  1

  0
TEXT
  5
1997
  8
UMCL2
 10
1678.1282070096181
 20
1207.1685034216159
 30
0.0
 40
3.0
  1
48
  0
ENDBLK
  5
1999
  8
0
  0
BLOCK
  8
0
  2
*U11
 70
     1
 10
0.0
 20
0.0
 30
0.0
  3
*U11
  1

  0
TEXT
  5
199B
  8
UMCL2
 10
1636.2037975607991
 20
1207.1685034216159
 30
0.0
 40
3.0
  1
36
  0
ENDBLK
  5
199D
  8
0
  0
BLOCK
  8
0
  2
*U12
 70
     1
 10
0.0
 20
0.0
 30
0.0
  3
*U12
  1

  0
TEXT
  5
199F
  8
UMCL2
 10
1665.1798560524919
 20
1215.1685034216159
 30
0.0
 40
3.0
  1
94
  0
ENDBLK
  5
19A1
  8
0
  0
BLOCK
  8
0
  2
*U13
 70
     1
 10
0.0
 20
0.0
 30
0.0
  3
*U13
  1

  0
TEXT
  5
19A3
  8
UMCL2
 10
1656.827025907256
 20
1223.1685034216159
 30
0.0
 40
3.0
  1
110
  0
ENDBLK
  5
19A5
  8
0
  0
BLOCK
  8
0
  2
*U14
 70
     1
 10
0.0
 20
0.0
 30
0.0
  3
*U14
  1

  0
TEXT
  5
19A7
  8
UMCL2
 10
1681.7037294259669
 20
1160.5611132031131
 30
0.0
 40
3.0
  1
39
 50
90.0
  0
ENDBLK
  5
19A9
  8
0
  0
BLOCK
  8
0
  2
*U15
 70
     1
 10
0.0
 20
0.0
 30
0.0
  3
*U15
  1

  0
TEXT
  5
19AB
  8
UMCL2
 10
1690.5660749752631
 20
1133.5781099372989
 30
0.0
 40
3.0
  1
43
  0
ENDBLK
  5
19AD
  8
0
  0
BLOCK
  8
0
  2
*U16
 70
     1
 10
0.0
 20
0.0
 30
0.0
  3
*U16
  1

  0
TEXT
  5
19AF
  8
UMCL2
 10
1711.0251597484189
 20
1020.21650539012
 30
0.0
 40
3.0
  1
22
 50
90.0
  0
ENDBLK
  5
19B1
  8
0
  0
BLOCK
  8
0
  2
*U17
 70
     1
 10
0.0
 20
0.0
 30
0.0
  3
*U17
  1

  0
TEXT
  5
19B3
  8
UMCL2
 10
1711.0251597484189
 20
1057.178414838939
 30
0.0
 40
3.0
  1
52
 50
90.0
  0
ENDBLK
  5
19B5
  8
0
  0
BLOCK
  8
0
  2
*U18
 70
     1
 10
0.0
 20
0.0
 30
0.0
  3
*U18
  1

  0
TEXT
  5
19B7
  8
UMCL2
 10
1721.378207009619
 20
1064.618503421616
 30
0.0
 40
3.0
  1
111
 50
90.0
  0
ENDBLK
  5
19B9
  8
0
  0
BLOCK
  8
0
  2
*U19
 70
     1
 10
0.0
 20
0.0
 30
0.0
  3
*U19
  1

  0
TEXT
  5
19BB
  8
UMCL2
 10
1721.378207009619
 20
1173.961113203113
 30
0.0
 40
3.0
  1
19
 50
90.0
  0
ENDBLK
  5
19BD
  8
0
  0
BLOCK
  8
0
  2
*U20
 70
     1
 10
0.0
 20
0.0
 30
0.0
  3
*U20
  1

  0
TEXT
  5
19BF
  8
UMCL2
 10
1729.3782070096181
 20
1178.9685034216161
 30
0.0
 40
3.0
  1
31.8
 50
90.0
  0
ENDBLK
  5
19C1
  8
0
  0
BLOCK
  8
0
  2
*U21
 70
     1
 10
0.0
 20
0.0
 30
0.0
  3
*U21
  1

  0
TEXT
  5
19C3
  8
UMCL2
 10
1729.3782070096181
 20
1085.9563713872601
 30
0.0
 40
3.0
  1
155
 50
90.0
  0
ENDBLK
  5
19C5
  8
0
  0
BLOCK
  8
0
  2
*U22
 70
     1
 10
0.0
 20
0.0
 30
0.0
  3
*U22
  1

  0
TEXT
  5
19C7
  8
UMCL2
 10
1737.378207009619
 20
1100.4185034216159
 30
0.0
 40
3.0
  1
186.8
 50
90.0
  0
ENDBLK
  5
19C9
  8
0
  0
BLOCK
  8
0
  2
*U23
 70
     1
 10
0.0
 20
0.0
 30
0.0
  3
*U23
  1

  0
TEXT
  5
19CB
  8
UMCL2
 10
1596.4328517269489
 20
1163.4102632552051
 30
0.0
 40
3.0
  1
\U+220515
 50
40.574699683316901
  0
ENDBLK
  5
19CD
  8
0
  0
BLOCK
  8
0
  2
*U24
 70
     1
 10
0.0
 20
0.0
 30
0.0
  3
*U24
  1

  0
TEXT
  5
19CF
  8
UMCL2
 10
1588.6217972548061
 20
1198.9685034216161
 30
0.0
 40
3.0
  1
4
 50
90.0
  0
ENDBLK
  5
19D1
  8
0
  0
BLOCK
  8
0
  2
*U25
 70
     1
 10
0.0
 20
0.0
 30
0.0
  3
*U25
  1

  0
TEXT
  5
19EC
  8
UMCL2
 10
1390.1393460980969
 20
1285.786359688037
 30
0.0
 40
3.0
  1
19
 50
90.0
  0
ENDBLK
  5
19EE
  8
0
  0
BLOCK
  8
0
  2
*U26
 70
     1
 10
0.0
 20
0.0
 30
0.0
  3
*U26
  1

  0
TEXT
  5
19F0
  8
UMCL2
 10
1398.1393460980969
 20
1284.3937499065401
 30
0.0
 40
3.0
  1
31.8
 50
90.0
  0
ENDBLK
  5
19F2
  8
0
  0
BLOCK
  8
0
  2
*U27
 70
     1
 10
0.0
 20
0.0
 30
0.0
  3
*U27
  1

  0
TEXT
  5
19F4
  8
UMCL2
 10
1406.139346098098
 20
1285.5316178721839
 30
0.0
 40
3.0
  1
75
 50
90.0
  0
ENDBLK
  5
19F6
  8
0
  0
BLOCK
  8
0
  2
*U28
 70
     1
 10
0.0
 20
0.0
 30
0.0
  3
*U28
  1

  0
TEXT
  5
19F8
  8
UMCL2
 10
1414.139346098098
 20
1285.5709895005939
 30
0.0
 40
3.0
  1
96
 50
90.0
  0
ENDBLK
  5
19FA
  8
0
  0
BLOCK
  8
0
  2
*U29
 70
     1
 10
0.0
 20
0.0
 30
0.0
  3
*U29
  1

  0
TEXT
  5
1A06
  8
UMCL2
 10
1287.039346098097
 20
1231.5108847581771
 30
0.0
 40
3.0
  1
38
  0
ENDBLK
  5
1A08
  8
0
  0
BLOCK
  8
0
  2
*U30
 70
     1
 10
0.0
 20
0.0
 30
0.0
  3
*U30
  1

  0
TEXT
  5
1A0A
  8
UMCL2
 10
1232.133022088319
 20
1285.8316178721841
 30
0.0
 40
3.0
  1
15
 50
90.0
  0
ENDBLK
  5
1A0C
  8
0
  0
BLOCK
  8
0
  2
*U31
 70
     1
 10
0.0
 20
0.0
 30
0.0
  3
*U31
  1

  0
TEXT
  5
1A0E
  8
UMCL2
 10
1346.889346098098
 20
1207.1685034216159
 30
0.0
 40
3.0
  1
48
  0
ENDBLK
  5
1A10
  8
0
  0
BLOCK
  8
0
  2
*U32
 70
     1
 10
0.0
 20
0.0
 30
0.0
  3
*U32
  1

  0
TEXT
  5
1A12
  8
UMCL2
 10
1304.964936649279
 20
1207.1685034216159
 30
0.0
 40
3.0
  1
36
  0
ENDBLK
  5
1A14
  8
0
  0
BLOCK
  8
0
  2
*U33
 70
     1
 10
0.0
 20
0.0
 30
0.0
  3
*U33
  1

  0
TEXT
  5
1A16
  8
UMCL2
 10
1333.9409951409709
 20
1215.1685034216159
 30
0.0
 40
3.0
  1
94
  0
ENDBLK
  5
1A18
  8
0
  0
BLOCK
  8
0
  2
*U34
 70
     1
 10
0.0
 20
0.0
 30
0.0
  3
*U34
  1

  0
TEXT
  5
1A1A
  8
UMCL2
 10
1325.588164995735
 20
1223.1685034216159
 30
0.0
 40
3.0
  1
110
  0
ENDBLK
  5
1A1C
  8
0
  0
BLOCK
  8
0
  2
*U35
 70
     1
 10
0.0
 20
0.0
 30
0.0
  3
*U35
  1

  0
TEXT
  5
1A1E
  8
UMCL2
 10
1350.4648685144459
 20
1160.5611132031131
 30
0.0
 40
3.0
  1
39
 50
90.0
  0
ENDBLK
  5
1A20
  8
0
  0
BLOCK
  8
0
  2
*U36
 70
     1
 10
0.0
 20
0.0
 30
0.0
  3
*U36
  1

  0
TEXT
  5
1A22
  8
UMCL2
 10
1359.3272140637421
 20
1133.5781099373
 30
0.0
 40
3.0
  1
43
  0
ENDBLK
  5
1A24
  8
0
  0
BLOCK
  8
0
  2
*U37
 70
     1
 10
0.0
 20
0.0
 30
0.0
  3
*U37
  1

  0
TEXT
  5
1A26
  8
UMCL2
 10
1390.1393460980969
 20
1064.618503421616
 30
0.0
 40
3.0
  1
111
 50
90.0
  0
ENDBLK
  5
1A28
  8
0
  0
BLOCK
  8
0
  2
*U38
 70
     1
 10
0.0
 20
0.0
 30
0.0
  3
*U38
  1

  0
TEXT
  5
1A2A
  8
UMCL2
 10
1390.1393460980969
 20
1173.9611132031141
 30
0.0
 40
3.0
  1
19
 50
90.0
  0
ENDBLK
  5
1A2C
  8
0
  0
BLOCK
  8
0
  2
*U39
 70
     1
 10
0.0
 20
0.0
 30
0.0
  3
*U39
  1

  0
TEXT
  5
1A2E
  8
UMCL2
 10
1398.1393460980969
 20
1178.9685034216161
 30
0.0
 40
3.0
  1
31.8
 50
90.0
  0
ENDBLK
  5
1A30
  8
0
  0
BLOCK
  8
0
  2
*U40
 70
     1
 10
0.0
 20
0.0
 30
0.0
  3
*U40
  1

  0
TEXT
  5
1A32
  8
UMCL2
 10
1398.1393460980969
 20
1085.9563713872601
 30
0.0
 40
3.0
  1
155
 50
90.0
  0
ENDBLK
  5
1A34
  8
0
  0
BLOCK
  8
0
  2
*U41
 70
     1
 10
0.0
 20
0.0
 30
0.0
  3
*U41
  1

  0
TEXT
  5
1A36
  8
UMCL2
 10
1406.139346098098
 20
1100.4185034216159
 30
0.0
 40
3.0
  1
186.8
 50
90.0
  0
ENDBLK
  5
1A38
  8
0
  0
BLOCK
  8
0
  2
*U42
 70
     1
 10
0.0
 20
0.0
 30
0.0
  3
*U42
  1

  0
TEXT
  5
1A3A
  8
UMCL2
 10
1265.1939908154279
 20
1163.4102632552051
 30
0.0
 40
3.0
  1
\U+220515
 50
40.574699683316901
  0
ENDBLK
  5
1A3C
  8
0
  0
BLOCK
  8
0
  2
*U43
 70
     1
 10
0.0
 20
0.0
 30
0.0
  3
*U43
  1

  0
TEXT
  5
1A3E
  8
UMCL2
 10
1257.3829363432851
 20
1198.9685034216161
 30
0.0
 40
3.0
  1
4
 50
90.0
  0
ENDBLK
  5
1A40
  8
0
  0
ENDSEC
  0
SECTION
  2
ENTITIES
  0
TEXT
  5
1508
  8
UMCL2
  6
CONTINUOUS
 10
1637.6590481942389
 20
1044.4719831164041
 30
0.0
 40
3.0
  1
A
  7
ROMANS
  0
CIRCLE
  5
1509
  8
UMCL2
  6
CONTINUOUS
 10
1639.378207009619
 20
1045.9685034216161
 30
0.0
 40
3.0
  0
TEXT
  5
150A
  8
UMCL2
  6
CONTINUOUS
 10
1599.710914634959
 20
1096.173802908273
 30
0.0
 40
3.0
  1
B
  7
ROMANS
  0
CIRCLE
  5
150B
  8
UMCL2
  6
CONTINUOUS
 10
1601.3782070096181
 20
1097.9685034216161
 30
0.0
 40
3.0
  0
CIRCLE
  5
150C
  8
UMCL1
  6
CONTINUOUS
 10
1582.8782070096181
 20
1325.19374990654
 30
0.0
 40
5.5
  0
CIRCLE
  5
150D
  8
UMCL1
  6
CONTINUOUS
 10
1582.8782070096181
 20
1325.19374990654
 30
0.0
 40
9.0
  0
CIRCLE
  5
150E
  8
UMCL1
  6
CONTINUOUS
 10
1620.3782070096181
 20
1182.2685034216161
 30
0.0
 40
7.5
  0
LINE
  5
150F
  8
UMCL1
  6
CONTINUOUS
 10
1602.878207009619
 20
1160.7685034216161
 30
0.0
 11
1637.8782070096199
 21
1160.7685034216161
 31
0.0
  0
LINE
  5
1510
  8
UMCL1
  6
CONTINUOUS
 10
1603.8782070096199
 20
1162.7685034216161
 30
0.0
 11
1636.878207009619
 21
1162.7685034216161
 31
0.0
  0
LINE
  5
1511
  8
UMCL1
  6
HIDDEN
 62
     3
 10
1628.8782070096181
 20
1198.1685034216159
 30
0.0
 11
1636.8782070096181
 21
1190.1685034216159
 31
0.0
  0
LINE
  5
1512
  8
UMCL1
  6
HIDDEN
 62
     3
 10
1636.8782070096181
 20
1190.1685034216159
 30
0.0
 11
1635.075145466318
 21
1190.1685034216159
 31
0.0
  0
LINE
  5
1513
  8
UMCL1
  6
HIDDEN
 62
     2
 10
1611.878207009619
 20
1198.1685034216159
 30
0.0
 11
1628.8782070096181
 21
1198.1685034216159
 31
0.0
  0
LINE
  5
1514
  8
UMCL1
  6
CONTINUOUS
 10
1603.8782070096199
 20
1162.7685034216161
 30
0.0
 11
1603.8782070096199
 21
1190.1685034216159
 31
0.0
  0
CIRCLE
  5
1515
  8
UMCL1
  6
CONTINUOUS
 10
1657.8782070096181
 20
1325.19374990654
 30
0.0
 40
5.5
  0
ARC
  5
1516
  8
UMCL1
  6
CONTINUOUS
 10
1657.8782070096181
 20
1325.19374990654
 30
0.0
 40
9.0
 50
289.18813645371648
 51
250.81186354628349
  0
CIRCLE
  5
1517
  8
UMCL1
  6
CONTINUOUS
 10
1582.8782070096181
 20
1250.19374990654
 30
0.0
 40
5.5
  0
CIRCLE
  5
1518
  8
UMCL1
  6
CONTINUOUS
 10
1582.8782070096181
 20
1250.19374990654
 30
0.0
 40
9.0
  0
CIRCLE
  5
1519
  8
UMCL1
  6
CONTINUOUS
 10
1657.8782070096181
 20
1250.19374990654
 30
0.0
 40
5.5
  0
ARC
  5
151A
  8
UMCL1
  6
CONTINUOUS
 10
1657.8782070096181
 20
1250.19374990654
 30
0.0
 40
9.0
 50
109.1881364537164
 51
70.811863546283533
  0
LINE
  5
151B
  8
UMCL1
  6
CONTINUOUS
 10
1636.878207009619
 20
1162.7685034216161
 30
0.0
 11
1637.8782070096199
 21
1160.7685034216161
 31
0.0
  0
LINE
  5
151C
  8
UMCL1
  6
CONTINUOUS
 10
1637.8782070096199
 20
1160.7685034216161
 30
0.0
 11
1637.878207009619
 21
1122.368503421616
 31
0.0
  0
LINE
  5
151D
  8
UMCL1
  6
CONTINUOUS
 10
1602.878207009619
 20
1160.7685034216161
 30
0.0
 11
1603.8782070096199
 21
1162.7685034216161
 31
0.0
  0
LINE
  5
151E
  8
UMCL1
  6
HIDDEN
 62
     3
 10
1604.3782070096181
 20
1190.6685034216159
 30
0.0
 11
1611.878207009619
 21
1198.1685034216159
 31
0.0
  0
LINE
  5
151F
  8
UMCL1
  6
HIDDEN
 62
     3
 10
1604.3782070096181
 20
1190.1685034216159
 30
0.0
 11
1605.6812685529189
 21
1190.1685034216159
 31
0.0
  0
LINE
  5
1520
  8
UMCL1
  6
CONTINUOUS
 10
1604.3782070096181
 20
1190.6685034216159
 30
0.0
 11
1603.8782070096199
 21
1190.1685034216159
 31
0.0
  0
LINE
  5
1521
  8
UMCL1
  6
CONTINUOUS
 10
1604.3782070096181
 20
1190.1685034216159
 30
0.0
 11
1603.8782070096199
 21
1190.1685034216159
 31
0.0
  0
LINE
  5
1522
  8
UMCL1
  6
HIDDEN
 62
     3
 10
1605.6812685529189
 20
1191.9715649649161
 30
0.0
 11
1605.6812685529189
 21
1174.0654418783149
 31
0.0
  0
LINE
  5
1523
  8
UMCL1
  6
CONTINUOUS
 10
1605.6812685529189
 20
1174.0654418783149
 30
0.0
 11
1605.6812685529201
 21
1162.7685034216161
 31
0.0
  0
LINE
  5
1524
  8
UMCL1
  6
HIDDEN
 62
     3
 10
1636.8782070096181
 20
1190.1685034216159
 30
0.0
 11
1636.878207009619
 21
1166.368503421616
 31
0.0
  0
LINE
  5
1525
  8
UMCL1
  6
HIDDEN
 62
     3
 10
1635.075145466318
 20
1191.9715649649161
 30
0.0
 11
1635.075145466318
 21
1166.368503421616
 31
0.0
  0
LINE
  5
1526
  8
UMCL1
  6
CONTINUOUS
 10
1635.075145466318
 20
1166.368503421616
 30
0.0
 11
1635.075145466318
 21
1162.7685034216161
 31
0.0
  0
LINE
  5
1527
  8
UMCL1
  6
CONTINUOUS
 10
1636.878207009619
 20
1166.368503421616
 30
0.0
 11
1636.878207009619
 21
1162.7685034216161
 31
0.0
  0
LINE
  5
1528
  8
UMCL1
  6
HIDDEN
 62
     3
 10
1640.3782070096181
 20
1198.1685034216159
 30
0.0
 11
1640.3782070096181
 21
1166.368503421616
 31
0.0
  0
LINE
  5
1529
  8
UMCL1
  6
CONTINUOUS
 10
1690.491215815774
 20
1303.5937499065401
 30
0.0
 11
1690.491215815774
 21
1271.7937499065399
 31
0.0
  0
ARC
  5
152A
  8
UMCL1
  6
CONTINUOUS
 10
1620.3782070096181
 20
1287.69374990654
 30
0.0
 40
17.5
 50
334.62306647485087
 51
25.37693352514912
  0
ARC
  5
152B
  8
UMCL1
  6
CONTINUOUS
 10
1620.3782070096181
 20
1287.69374990654
 30
0.0
 40
16.5
 50
332.96430821058118
 51
27.035691789418781
  0
ARC
  5
152C
  8
UMCL1
  6
CONTINUOUS
 10
1620.3782070096181
 20
1287.69374990654
 30
0.0
 40
8.5
 50
298.0724869358545
 51
61.927513064145501
  0
ARC
  5
152D
  8
UMCL1
  6
CONTINUOUS
 10
1620.3782070096181
 20
1287.69374990654
 30
0.0
 40
17.5
 50
154.6230664748509
 51
205.3769335251491
  0
ARC
  5
152E
  8
UMCL1
  6
CONTINUOUS
 10
1620.3782070096181
 20
1287.69374990654
 30
0.0
 40
16.5
 50
152.96430821058121
 51
207.03569178941879
  0
ARC
  5
152F
  8
UMCL1
  6
CONTINUOUS
 10
1620.3782070096181
 20
1287.69374990654
 30
0.0
 40
8.5
 50
118.0724869358545
 51
241.9275130641455
  0
LINE
  5
1530
  8
UMCL1
  6
CONTINUOUS
 10
1690.491215815774
 20
1198.1685034216159
 30
0.0
 11
1690.491215815774
 21
1166.368503421616
 31
0.0
  0
LINE
  5
1531
  8
UMCL1
  6
CONTINUOUS
 10
1690.4912158157731
 20
1271.7937499065399
 30
0.0
 11
1714.378207009619
 21
1278.1942499065401
 31
0.0
  0
LINE
  5
1532
  8
UMCL1
  6
CONTINUOUS
 10
1714.378207009619
 20
1278.1942499065401
 30
0.0
 11
1714.378207009619
 21
1297.1932499065399
 31
0.0
  0
LINE
  5
1533
  8
UMCL1
  6
CONTINUOUS
 10
1714.378207009619
 20
1297.1932499065399
 30
0.0
 11
1690.491215815774
 21
1303.5937499065401
 31
0.0
  0
LINE
  5
1534
  8
UMCL1
  6
CONTINUOUS
 10
1604.3782070096181
 20
1303.5937499065401
 30
0.0
 11
1604.3782070096181
 21
1295.19374990654
 31
0.0
  0
LINE
  5
1535
  8
UMCL1
  6
CONTINUOUS
 10
1604.3782070096181
 20
1295.19374990654
 30
0.0
 11
1640.3782070096181
 21
1295.19374990654
 31
0.0
  0
LINE
  5
1536
  8
UMCL1
  6
CONTINUOUS
 10
1640.3782070096181
 20
1295.19374990654
 30
0.0
 11
1640.3782070096181
 21
1280.19374990654
 31
0.0
  0
LINE
  5
1537
  8
UMCL1
  6
CONTINUOUS
 10
1640.3782070096181
 20
1280.19374990654
 30
0.0
 11
1604.3782070096181
 21
1280.19374990654
 31
0.0
  0
LINE
  5
1538
  8
UMCL1
  6
CONTINUOUS
 10
1604.3782070096181
 20
1280.19374990654
 30
0.0
 11
1604.3782070096181
 21
1271.7937499065399
 31
0.0
  0
LINE
  5
1539
  8
UMCL1
  6
CONTINUOUS
 10
1714.378207009619
 20
1185.368503421616
 30
0.0
 11
1690.491215815774
 21
1198.1685034216159
 31
0.0
  0
LINE
  5
153A
  8
UMCL1
  6
CONTINUOUS
 10
1604.3782070096181
 20
1198.1685034216159
 30
0.0
 11
1604.3782070096181
 21
1175.368503421616
 31
0.0
  0
LINE
  5
153B
  8
UMCL1
  6
CONTINUOUS
 10
1604.3782070096181
 20
1175.368503421616
 30
0.0
 11
1613.3782070096181
 21
1166.368503421616
 31
0.0
  0
LINE
  5
153C
  8
UMCL1
  6
CONTINUOUS
 10
1613.3782070096181
 20
1166.368503421616
 30
0.0
 11
1641.3782070096181
 21
1166.368503421616
 31
0.0
  0
CIRCLE
  5
153D
  8
UMCL1
  6
CONTINUOUS
 10
1656.3782070096181
 20
1143.2685034216161
 30
0.0
 40
7.5
  0
CIRCLE
  5
153E
  8
UMCL1
  6
CONTINUOUS
 10
1656.3782070096181
 20
1182.2685034216161
 30
0.0
 40
7.5
  0
LINE
  5
153F
  8
UMCL1
  6
CONTINUOUS
 10
1671.378207009619
 20
1143.2685034216161
 30
0.0
 11
1671.378207009619
 21
1182.2685034216161
 31
0.0
  0
ARC
  5
1540
  8
UMCL1
  6
CONTINUOUS
 10
1656.3782070096181
 20
1182.2685034216161
 30
0.0
 40
15.00000000000006
 50
0.0
 51
180.0
  0
LINE
  5
1541
  8
UMCL1
  6
CONTINUOUS
 10
1641.3782070096181
 20
1182.2685034216161
 30
0.0
 11
1641.3782070096181
 21
1143.2685034216161
 31
0.0
  0
ARC
  5
1542
  8
UMCL1
  6
CONTINUOUS
 10
1656.3782070096181
 20
1143.2685034216161
 30
0.0
 40
15.0
 50
180.0
 51
0.0
  0
LINE
  5
1543
  8
UMCL1
  6
HIDDEN
 62
     3
 10
1671.378207009619
 20
1147.010173172418
 30
0.0
 11
1664.8782070096181
 21
1158.2685034216161
 31
0.0
  0
LINE
  5
1544
  8
UMCL1
  6
CONTINUOUS
 10
1671.378207009619
 20
1147.010173172418
 30
0.0
 11
1671.378207009619
 21
1122.368503421616
 31
0.0
  0
LINE
  5
1545
  8
UMCL1
  6
CONTINUOUS
 10
1641.3782070096181
 20
1147.010173172418
 30
0.0
 11
1641.3782070096181
 21
1122.368503421616
 31
0.0
  0
LINE
  5
1546
  8
UMCL1
  6
HIDDEN
 62
     3
 10
1664.8782070096181
 20
1158.2685034216161
 30
0.0
 11
1647.8782070096181
 21
1158.2685034216161
 31
0.0
  0
LINE
  5
1547
  8
UMCL1
  6
HIDDEN
 62
     3
 10
1641.3782070096181
 20
1147.010173172418
 30
0.0
 11
1647.8782070096181
 21
1158.2685034216161
 31
0.0
  0
LINE
  5
1548
  8
UMCL1
  6
CONTINUOUS
 10
1611.128207009619
 20
1303.5937499065401
 30
0.0
 11
1611.128207009619
 21
1304.69374990654
 31
0.0
  0
LINE
  5
1549
  8
UMCL1
  6
CONTINUOUS
 10
1611.128207009619
 20
1304.69374990654
 30
0.0
 11
1629.6282070096181
 21
1304.69374990654
 31
0.0
  0
LINE
  5
154A
  8
UMCL1
  6
CONTINUOUS
 10
1629.6282070096181
 20
1304.69374990654
 30
0.0
 11
1629.6282070096181
 21
1303.5937499065401
 31
0.0
  0
LINE
  5
154B
  8
UMCL1
  6
CONTINUOUS
 10
1613.228207009618
 20
1304.69374990654
 30
0.0
 11
1613.228207009618
 21
1303.5937499065401
 31
0.0
  0
LINE
  5
154C
  8
UMCL1
  6
CONTINUOUS
 10
1627.528207009618
 20
1304.69374990654
 30
0.0
 11
1627.528207009618
 21
1303.5937499065401
 31
0.0
  0
LINE
  5
154D
  8
UMCL1
  6
CONTINUOUS
 10
1612.8782070096181
 20
1304.69374990654
 30
0.0
 11
1612.8782070096181
 21
1306.19374990654
 31
0.0
  0
LINE
  5
154E
  8
UMCL1
  6
CONTINUOUS
 10
1613.3782070096181
 20
1306.69374990654
 30
0.0
 11
1627.3782070096181
 21
1306.69374990654
 31
0.0
  0
LINE
  5
154F
  8
UMCL1
  6
CONTINUOUS
 10
1627.8782070096181
 20
1306.19374990654
 30
0.0
 11
1627.8782070096181
 21
1304.69374990654
 31
0.0
  0
LINE
  5
1550
  8
UMCL1
  6
CONTINUOUS
 10
1612.8782070096181
 20
1306.19374990654
 30
0.0
 11
1627.8782070096181
 21
1306.19374990654
 31
0.0
  0
LINE
  5
1551
  8
UMCL1
  6
CONTINUOUS
 10
1612.8782070096181
 20
1306.19374990654
 30
0.0
 11
1613.3782070096181
 21
1306.69374990654
 31
0.0
  0
LINE
  5
1552
  8
UMCL1
  6
CONTINUOUS
 10
1627.3782070096181
 20
1306.69374990654
 30
0.0
 11
1627.8782070096181
 21
1306.19374990654
 31
0.0
  0
LINE
  5
1553
  8
UMCL1
  6
CONTINUOUS
 10
1611.128207009619
 20
1271.7937499065399
 30
0.0
 11
1611.128207009619
 21
1270.69374990654
 31
0.0
  0
LINE
  5
1554
  8
UMCL1
  6
CONTINUOUS
 10
1611.128207009619
 20
1270.69374990654
 30
0.0
 11
1629.6282070096181
 21
1270.69374990654
 31
0.0
  0
LINE
  5
1555
  8
UMCL1
  6
CONTINUOUS
 10
1629.6282070096181
 20
1270.69374990654
 30
0.0
 11
1629.6282070096181
 21
1271.7937499065399
 31
0.0
  0
LINE
  5
1556
  8
UMCL1
  6
CONTINUOUS
 10
1613.228207009618
 20
1270.69374990654
 30
0.0
 11
1613.228207009618
 21
1271.7937499065399
 31
0.0
  0
LINE
  5
1557
  8
UMCL1
  6
CONTINUOUS
 10
1627.528207009618
 20
1270.69374990654
 30
0.0
 11
1627.528207009618
 21
1271.7937499065399
 31
0.0
  0
LINE
  5
1558
  8
UMCL1
  6
CONTINUOUS
 10
1612.8782070096181
 20
1270.69374990654
 30
0.0
 11
1612.8782070096181
 21
1269.19374990654
 31
0.0
  0
LINE
  5
1559
  8
UMCL1
  6
CONTINUOUS
 10
1613.3782070096181
 20
1268.69374990654
 30
0.0
 11
1627.3782070096181
 21
1268.69374990654
 31
0.0
  0
LINE
  5
155A
  8
UMCL1
  6
CONTINUOUS
 10
1627.8782070096181
 20
1269.19374990654
 30
0.0
 11
1627.8782070096181
 21
1270.69374990654
 31
0.0
  0
LINE
  5
155B
  8
UMCL1
  6
CONTINUOUS
 10
1612.8782070096181
 20
1269.19374990654
 30
0.0
 11
1627.8782070096181
 21
1269.19374990654
 31
0.0
  0
LINE
  5
155C
  8
UMCL1
  6
CONTINUOUS
 10
1612.8782070096181
 20
1269.19374990654
 30
0.0
 11
1613.3782070096181
 21
1268.69374990654
 31
0.0
  0
LINE
  5
155D
  8
UMCL1
  6
CONTINUOUS
 10
1627.3782070096181
 20
1268.69374990654
 30
0.0
 11
1627.8782070096181
 21
1269.19374990654
 31
0.0
  0
POLYLINE
  5
155E
  8
UMCL1
  6
CONTINUOUS
 66
     1
 10
0.0
 20
0.0
 30
0.0
  0
VERTEX
  5
1965
  8
UMCL1
  6
CONTINUOUS
 10
1662.7102279866519
 20
1335.69374990654
 30
0.0
  0
VERTEX
  5
1966
  8
UMCL1
  6
CONTINUOUS
 10
1578.046186032585
 20
1335.69374990654
 30
0.0
  0
SEQEND
  5
1967
  8
UMCL1
  6
CONTINUOUS
  0
POLYLINE
  5
155F
  8
UMCL1
  6
CONTINUOUS
 66
     1
 10
0.0
 20
0.0
 30
0.0
  0
VERTEX
  5
1968
  8
UMCL1
  6
CONTINUOUS
 10
1572.3782070096181
 20
1330.0257708835729
 30
0.0
  0
VERTEX
  5
1969
  8
UMCL1
  6
CONTINUOUS
 10
1572.3782070096181
 20
1245.3617289295071
 30
0.0
  0
SEQEND
  5
196A
  8
UMCL1
  6
CONTINUOUS
  0
ARC
  5
1560
  8
UMCL1
  6
CONTINUOUS
 10
1620.3782070096181
 20
1287.69374990654
 30
0.0
 40
64.0
 50
131.40962210928379
 51
138.5903778907302
  0
POLYLINE
  5
1561
  8
UMCL1
  6
CONTINUOUS
 66
     1
 10
0.0
 20
0.0
 30
0.0
  0
VERTEX
  5
196B
  8
UMCL1
  6
CONTINUOUS
 10
1578.046186032585
 20
1239.69374990654
 30
0.0
  0
VERTEX
  5
196C
  8
UMCL1
  6
CONTINUOUS
 10
1662.7102279866519
 20
1239.69374990654
 30
0.0
  0
SEQEND
  5
196D
  8
UMCL1
  6
CONTINUOUS
  0
ARC
  5
1562
  8
UMCL1
  6
CONTINUOUS
 10
1620.3782070096181
 20
1287.69374990654
 30
0.0
 40
64.0
 50
221.40962210926969
 51
228.59037789071621
  0
ARC
  5
1563
  8
UMCL1
  6
CONTINUOUS
 10
1620.3782070096181
 20
1287.69374990654
 30
0.0
 40
64.0
 50
311.40962210928382
 51
318.59037789073022
  0
ARC
  5
1564
  8
UMCL1
  6
CONTINUOUS
 10
1620.3782070096181
 20
1287.69374990654
 30
0.0
 40
64.0
 50
41.409622109269741
 51
48.590377890716169
  0
LINE
  5
1565
  8
UMCL1
  6
CENTER
 62
     1
 10
1620.3782070096181
 20
1337.69374990654
 30
0.0
 11
1620.3782070096181
 21
1237.69374990654
 31
0.0
  0
LINE
  5
1566
  8
UMCL1
  6
CONTINUOUS
 10
1602.878207009619
 20
1122.368503421616
 30
0.0
 11
1602.878207009619
 21
1160.7685034216161
 31
0.0
  0
CIRCLE
  5
1567
  8
UMCL1
  6
CONTINUOUS
 10
1601.3782070096181
 20
1085.368503421616
 30
0.0
 40
5.75
  0
CIRCLE
  5
1568
  8
UMCL1
  6
CONTINUOUS
 10
1639.378207009619
 20
1033.368503421616
 30
0.0
 40
5.75
  0
LINE
  5
1569
  8
UMCL1
  6
HIDDEN
 62
     3
 10
1573.8782070096181
 20
1122.368503421616
 30
0.0
 11
1573.8782070096181
 21
1111.368503421616
 31
0.0
  0
LINE
  5
156A
  8
UMCL1
  6
HIDDEN
 62
     3
 10
1573.8782070096181
 20
1111.368503421616
 30
0.0
 11
1591.8782070096181
 21
1111.368503421616
 31
0.0
  0
LINE
  5
156B
  8
UMCL1
  6
HIDDEN
 62
     3
 10
1591.8782070096181
 20
1111.368503421616
 30
0.0
 11
1591.8782070096181
 21
1122.368503421616
 31
0.0
  0
LINE
  5
156C
  8
UMCL1
  6
HIDDEN
 62
     3
 10
1666.8782070096181
 20
1122.368503421616
 30
0.0
 11
1666.8782070096181
 21
1111.368503421616
 31
0.0
  0
LINE
  5
156D
  8
UMCL1
  6
HIDDEN
 62
     3
 10
1666.8782070096181
 20
1111.368503421616
 30
0.0
 11
1648.8782070096181
 21
1111.368503421616
 31
0.0
  0
LINE
  5
156E
  8
UMCL1
  6
HIDDEN
 62
     3
 10
1648.8782070096181
 20
1111.368503421616
 30
0.0
 11
1648.8782070096181
 21
1122.368503421616
 31
0.0
  0
LINE
  5
156F
  8
UMCL1
  6
HIDDEN
 62
     3
 10
1641.3782070096181
 20
1166.368503421616
 30
0.0
 11
1671.378207009619
 21
1166.368503421616
 31
0.0
  0
LINE
  5
1570
  8
UMCL1
  6
CONTINUOUS
 10
1641.3782070096181
 20
1122.368503421616
 30
0.0
 11
1671.378207009619
 21
1122.368503421616
 31
0.0
  0
LINE
  5
1571
  8
UMCL1
  6
HIDDEN
 62
     3
 10
1663.3782070096181
 20
1111.368503421616
 30
0.0
 11
1663.3782070096181
 21
1011.368503421616
 31
0.0
  0
LINE
  5
1572
  8
UMCL1
  6
HIDDEN
 62
     3
 10
1652.3782070096181
 20
1111.368503421616
 30
0.0
 11
1652.3782070096181
 21
1011.368503421616
 31
0.0
  0
LINE
  5
1573
  8
UMCL1
  6
CENTER
 62
     1
 10
1620.3782070096181
 20
1009.368503421616
 30
0.0
 11
1620.3782070096181
 21
1200.1685034216159
 31
0.0
  0
LINE
  5
1574
  8
UMCL1
  6
CENTER
 62
     1
 10
1582.8782070096181
 20
1009.368503421616
 30
0.0
 11
1582.8782070096181
 21
1124.368503421616
 31
0.0
  0
LINE
  5
1575
  8
UMCL1
  6
CENTER
 62
     1
 10
1657.8782070096181
 20
1009.368503421616
 30
0.0
 11
1657.8782070096181
 21
1124.368503421616
 31
0.0
  0
LINE
  5
1576
  8
UMCL1
  6
HIDDEN
 62
     3
 10
1588.378207009619
 20
1111.368503421616
 30
0.0
 11
1588.378207009619
 21
1011.368503421616
 31
0.0
  0
LINE
  5
1577
  8
UMCL1
  6
HIDDEN
 62
     3
 10
1577.3782070096181
 20
1111.368503421616
 30
0.0
 11
1577.3782070096181
 21
1011.368503421616
 31
0.0
  0
POLYLINE
  5
1578
  8
UMCL1
  6
CONTINUOUS
 66
     1
 10
0.0
 20
0.0
 30
0.0
  0
VERTEX
  5
196E
  8
UMCL1
  6
CONTINUOUS
 10
1668.3782070096181
 20
1313.593749906539
 30
0.0
  0
VERTEX
  5
196F
  8
UMCL1
  6
CONTINUOUS
 10
1668.3782070096181
 20
1330.0257708835741
 30
0.0
  0
SEQEND
  5
1970
  8
UMCL1
  6
CONTINUOUS
  0
LINE
  5
1579
  8
UMCL1
  6
CONTINUOUS
 10
1641.3782070096181
 20
1313.593749906539
 30
0.0
 11
1671.378207009619
 21
1313.593749906539
 31
0.0
  0
LINE
  5
157A
  8
UMCL1
  6
CONTINUOUS
 10
1647.1282070096181
 20
1313.593749906539
 30
0.0
 11
1647.1282070096181
 21
1314.69374990654
 31
0.0
  0
LINE
  5
157B
  8
UMCL1
  6
CONTINUOUS
 10
1647.1282070096181
 20
1314.69374990654
 30
0.0
 11
1665.6282070096181
 21
1314.69374990654
 31
0.0
  0
LINE
  5
157C
  8
UMCL1
  6
CONTINUOUS
 10
1665.6282070096181
 20
1314.69374990654
 30
0.0
 11
1665.6282070096181
 21
1313.593749906539
 31
0.0
  0
LINE
  5
157D
  8
UMCL1
  6
CONTINUOUS
 10
1649.228207009618
 20
1314.69374990654
 30
0.0
 11
1649.228207009618
 21
1313.593749906539
 31
0.0
  0
LINE
  5
157E
  8
UMCL1
  6
CONTINUOUS
 10
1663.528207009618
 20
1314.69374990654
 30
0.0
 11
1663.528207009618
 21
1313.593749906539
 31
0.0
  0
LINE
  5
157F
  8
UMCL1
  6
CONTINUOUS
 10
1648.8782070096181
 20
1314.69374990654
 30
0.0
 11
1648.8782070096181
 21
1316.19374990654
 31
0.0
  0
LINE
  5
1580
  8
UMCL1
  6
CONTINUOUS
 10
1649.3782070096181
 20
1316.69374990654
 30
0.0
 11
1663.3782070096181
 21
1316.69374990654
 31
0.0
  0
LINE
  5
1581
  8
UMCL1
  6
CONTINUOUS
 10
1663.8782070096181
 20
1316.19374990654
 30
0.0
 11
1663.8782070096181
 21
1314.69374990654
 31
0.0
  0
LINE
  5
1582
  8
UMCL1
  6
CONTINUOUS
 10
1648.8782070096181
 20
1316.19374990654
 30
0.0
 11
1663.8782070096181
 21
1316.19374990654
 31
0.0
  0
LINE
  5
1583
  8
UMCL1
  6
CONTINUOUS
 10
1648.8782070096181
 20
1316.19374990654
 30
0.0
 11
1649.3782070096181
 21
1316.69374990654
 31
0.0
  0
LINE
  5
1584
  8
UMCL1
  6
CONTINUOUS
 10
1663.3782070096181
 20
1316.69374990654
 30
0.0
 11
1663.8782070096181
 21
1316.19374990654
 31
0.0
  0
LINE
  5
1585
  8
UMCL1
  6
HIDDEN
 62
     3
 10
1671.378207009619
 20
1303.5937499065401
 30
0.0
 11
1671.378207009619
 21
1271.7937499065399
 31
0.0
  0
LINE
  5
1586
  8
UMCL1
  6
CONTINUOUS
 10
1641.3782070096181
 20
1313.593749906539
 30
0.0
 11
1641.3782070096181
 21
1303.5937499065401
 31
0.0
  0
LINE
  5
1587
  8
UMCL1
  6
CONTINUOUS
 10
1671.378207009619
 20
1313.593749906539
 30
0.0
 11
1671.378207009619
 21
1303.593749906539
 31
0.0
  0
LINE
  5
1588
  8
UMCL1
  6
CONTINUOUS
 10
1641.3782070096181
 20
1261.7937499065399
 30
0.0
 11
1671.378207009619
 21
1261.7937499065399
 31
0.0
  0
LINE
  5
1589
  8
UMCL1
  6
CONTINUOUS
 10
1647.1282070096181
 20
1261.7937499065399
 30
0.0
 11
1647.1282070096181
 21
1260.69374990654
 31
0.0
  0
LINE
  5
158A
  8
UMCL1
  6
CONTINUOUS
 10
1647.1282070096181
 20
1260.69374990654
 30
0.0
 11
1665.6282070096181
 21
1260.69374990654
 31
0.0
  0
LINE
  5
158B
  8
UMCL1
  6
CONTINUOUS
 10
1665.6282070096181
 20
1260.69374990654
 30
0.0
 11
1665.6282070096181
 21
1261.7937499065399
 31
0.0
  0
LINE
  5
158C
  8
UMCL1
  6
CONTINUOUS
 10
1649.228207009618
 20
1260.69374990654
 30
0.0
 11
1649.228207009618
 21
1261.7937499065399
 31
0.0
  0
LINE
  5
158D
  8
UMCL1
  6
CONTINUOUS
 10
1663.528207009618
 20
1260.69374990654
 30
0.0
 11
1663.528207009618
 21
1261.7937499065399
 31
0.0
  0
LINE
  5
158E
  8
UMCL1
  6
CONTINUOUS
 10
1648.8782070096181
 20
1260.69374990654
 30
0.0
 11
1648.8782070096181
 21
1259.19374990654
 31
0.0
  0
LINE
  5
158F
  8
UMCL1
  6
CONTINUOUS
 10
1649.3782070096181
 20
1258.69374990654
 30
0.0
 11
1663.3782070096181
 21
1258.69374990654
 31
0.0
  0
LINE
  5
1590
  8
UMCL1
  6
CONTINUOUS
 10
1663.8782070096181
 20
1259.19374990654
 30
0.0
 11
1663.8782070096181
 21
1260.69374990654
 31
0.0
  0
LINE
  5
1591
  8
UMCL1
  6
CONTINUOUS
 10
1648.8782070096181
 20
1259.19374990654
 30
0.0
 11
1663.8782070096181
 21
1259.19374990654
 31
0.0
  0
LINE
  5
1592
  8
UMCL1
  6
CONTINUOUS
 10
1648.8782070096181
 20
1259.19374990654
 30
0.0
 11
1649.3782070096181
 21
1258.69374990654
 31
0.0
  0
LINE
  5
1593
  8
UMCL1
  6
CONTINUOUS
 10
1663.3782070096181
 20
1258.69374990654
 30
0.0
 11
1663.8782070096181
 21
1259.19374990654
 31
0.0
  0
LINE
  5
1594
  8
UMCL1
  6
CONTINUOUS
 10
1641.3782070096181
 20
1261.7937499065399
 30
0.0
 11
1641.3782070096181
 21
1271.7937499065399
 31
0.0
  0
LINE
  5
1595
  8
UMCL1
  6
CONTINUOUS
 10
1671.378207009619
 20
1261.7937499065399
 30
0.0
 11
1671.378207009619
 21
1271.7937499065399
 31
0.0
  0
LINE
  5
1596
  8
UMCL1
  6
HIDDEN
 62
     3
 10
1648.8782070096181
 20
1313.593749906539
 30
0.0
 11
1648.8782070096181
 21
1261.7937499065399
 31
0.0
  0
LINE
  5
1597
  8
UMCL1
  6
HIDDEN
 62
     3
 10
1663.8782070096181
 20
1313.593749906539
 30
0.0
 11
1663.8782070096181
 21
1261.7937499065399
 31
0.0
  0
LINE
  5
1598
  8
UMCL1
  6
CENTER
 62
     1
 10
1656.3782070096181
 20
1318.19374990654
 30
0.0
 11
1656.3782070096181
 21
1257.19374990654
 31
0.0
  0
POLYLINE
  5
1599
  8
UMCL1
  6
CONTINUOUS
 66
     1
 10
0.0
 20
0.0
 30
0.0
  0
VERTEX
  5
1971
  8
UMCL1
  6
CONTINUOUS
 10
1668.3782070096181
 20
1245.3617289295059
 30
0.0
  0
VERTEX
  5
1972
  8
UMCL1
  6
CONTINUOUS
 10
1668.3782070096181
 20
1261.7937499065399
 30
0.0
  0
SEQEND
  5
1973
  8
UMCL1
  6
CONTINUOUS
  0
LINE
  5
159A
  8
UMCL1
  6
CONTINUOUS
 10
1714.378207009619
 20
1166.368503421616
 30
0.0
 11
1714.378207009619
 21
1185.368503421616
 31
0.0
  0
LINE
  5
159B
  8
UMCL1
  6
CONTINUOUS
 10
1690.4912158157731
 20
1198.1685034216159
 30
0.0
 11
1604.3782070096181
 21
1198.1685034216159
 31
0.0
  0
LINE
  5
159C
  8
UMCL1
  6
CONTINUOUS
 10
1671.378207009619
 20
1166.368503421616
 30
0.0
 11
1714.378207009619
 21
1166.368503421616
 31
0.0
  0
LINE
  5
159D
  8
UMCL1
  6
CENTER
 62
     1
 10
1570.3782070096181
 20
1287.69374990654
 30
0.0
 11
1716.3782070096181
 21
1287.69374990654
 31
0.0
  0
LINE
  5
159E
  8
UMCL1
  6
CONTINUOUS
 10
1690.491215815774
 20
1303.5937499065401
 30
0.0
 11
1604.3782070096181
 21
1303.5937499065401
 31
0.0
  0
LINE
  5
159F
  8
UMCL1
  6
CONTINUOUS
 10
1604.3782070096181
 20
1271.7937499065399
 30
0.0
 11
1690.491215815774
 21
1271.7937499065399
 31
0.0
  0
LINE
  5
15A0
  8
UMCL1
  6
CENTER
 62
     1
 10
1647.3782070096181
 20
1325.19374990654
 30
0.0
 11
1654.878207009619
 21
1325.19374990654
 31
0.0
  0
LINE
  5
15A1
  8
UMCL1
  6
CENTER
 62
     1
 10
1656.3782070096181
 20
1325.19374990654
 30
0.0
 11
1659.3782070096181
 21
1325.19374990654
 31
0.0
  0
LINE
  5
15A2
  8
UMCL1
  6
CENTER
 62
     1
 10
1660.8782070096181
 20
1325.19374990654
 30
0.0
 11
1668.3782070096181
 21
1325.19374990654
 31
0.0
  0
LINE
  5
15A3
  8
UMCL1
  6
CENTER
 62
     1
 10
1657.8782070096181
 20
1314.69374990654
 30
0.0
 11
1657.8782070096181
 21
1322.19374990654
 31
0.0
  0
LINE
  5
15A4
  8
UMCL1
  6
CENTER
 62
     1
 10
1657.8782070096181
 20
1323.69374990654
 30
0.0
 11
1657.8782070096181
 21
1326.69374990654
 31
0.0
  0
LINE
  5
15A5
  8
UMCL1
  6
CENTER
 62
     1
 10
1657.8782070096181
 20
1328.19374990654
 30
0.0
 11
1657.8782070096181
 21
1335.69374990654
 31
0.0
  0
LINE
  5
15A6
  8
UMCL1
  6
CENTER
 62
     1
 10
1647.3782070096181
 20
1250.19374990654
 30
0.0
 11
1654.878207009619
 21
1250.19374990654
 31
0.0
  0
LINE
  5
15A7
  8
UMCL1
  6
CENTER
 62
     1
 10
1656.3782070096181
 20
1250.19374990654
 30
0.0
 11
1659.3782070096181
 21
1250.19374990654
 31
0.0
  0
LINE
  5
15A8
  8
UMCL1
  6
CENTER
 62
     1
 10
1660.8782070096181
 20
1250.19374990654
 30
0.0
 11
1668.3782070096181
 21
1250.19374990654
 31
0.0
  0
LINE
  5
15A9
  8
UMCL1
  6
CENTER
 62
     1
 10
1657.8782070096181
 20
1239.69374990654
 30
0.0
 11
1657.8782070096181
 21
1247.19374990654
 31
0.0
  0
LINE
  5
15AA
  8
UMCL1
  6
CENTER
 62
     1
 10
1657.8782070096181
 20
1248.69374990654
 30
0.0
 11
1657.8782070096181
 21
1251.69374990654
 31
0.0
  0
LINE
  5
15AB
  8
UMCL1
  6
CENTER
 62
     1
 10
1657.8782070096181
 20
1253.19374990654
 30
0.0
 11
1657.8782070096181
 21
1260.69374990654
 31
0.0
  0
LINE
  5
15AC
  8
UMCL1
  6
CENTER
 62
     1
 10
1572.3782070096181
 20
1250.19374990654
 30
0.0
 11
1579.8782070096181
 21
1250.19374990654
 31
0.0
  0
LINE
  5
15AD
  8
UMCL1
  6
CENTER
 62
     1
 10
1581.3782070096181
 20
1250.19374990654
 30
0.0
 11
1584.3782070096181
 21
1250.19374990654
 31
0.0
  0
LINE
  5
15AE
  8
UMCL1
  6
CENTER
 62
     1
 10
1585.8782070096181
 20
1250.19374990654
 30
0.0
 11
1593.3782070096181
 21
1250.19374990654
 31
0.0
  0
LINE
  5
15AF
  8
UMCL1
  6
CENTER
 62
     1
 10
1582.8782070096181
 20
1239.69374990654
 30
0.0
 11
1582.8782070096181
 21
1247.19374990654
 31
0.0
  0
LINE
  5
15B0
  8
UMCL1
  6
CENTER
 62
     1
 10
1582.8782070096181
 20
1248.69374990654
 30
0.0
 11
1582.8782070096181
 21
1251.69374990654
 31
0.0
  0
LINE
  5
15B1
  8
UMCL1
  6
CENTER
 62
     1
 10
1582.8782070096181
 20
1253.19374990654
 30
0.0
 11
1582.8782070096181
 21
1260.69374990654
 31
0.0
  0
LINE
  5
15B2
  8
UMCL1
  6
CENTER
 62
     1
 10
1572.3782070096181
 20
1325.19374990654
 30
0.0
 11
1579.8782070096181
 21
1325.19374990654
 31
0.0
  0
LINE
  5
15B3
  8
UMCL1
  6
CENTER
 62
     1
 10
1581.3782070096181
 20
1325.19374990654
 30
0.0
 11
1584.3782070096181
 21
1325.19374990654
 31
0.0
  0
LINE
  5
15B4
  8
UMCL1
  6
CENTER
 62
     1
 10
1585.8782070096181
 20
1325.19374990654
 30
0.0
 11
1593.3782070096181
 21
1325.19374990654
 31
0.0
  0
LINE
  5
15B5
  8
UMCL1
  6
CENTER
 62
     1
 10
1582.8782070096181
 20
1314.69374990654
 30
0.0
 11
1582.8782070096181
 21
1322.19374990654
 31
0.0
  0
LINE
  5
15B6
  8
UMCL1
  6
CENTER
 62
     1
 10
1582.8782070096181
 20
1323.69374990654
 30
0.0
 11
1582.8782070096181
 21
1326.69374990654
 31
0.0
  0
LINE
  5
15B7
  8
UMCL1
  6
CENTER
 62
     1
 10
1582.8782070096181
 20
1328.19374990654
 30
0.0
 11
1582.8782070096181
 21
1335.69374990654
 31
0.0
  0
LINE
  5
15B8
  8
UMCL1
  6
HIDDEN
 62
     3
 10
1668.3782070096181
 20
1313.593749906539
 30
0.0
 11
1668.3782070096181
 21
1261.7937499065399
 31
0.0
  0
LINE
  5
15B9
  8
UMCL1
  6
HIDDEN
 62
     3
 10
1627.8782070096181
 20
1303.5937499065401
 30
0.0
 11
1627.8782070096181
 21
1271.7937499065399
 31
0.0
  0
LINE
  5
15BA
  8
UMCL1
  6
HIDDEN
 62
     3
 10
1612.8782070096181
 20
1303.5937499065401
 30
0.0
 11
1612.8782070096181
 21
1271.7937499065399
 31
0.0
  0
LINE
  5
15BB
  8
UMCL1
  6
CENTER
 62
     1
 10
1647.3782070096181
 20
1182.2685034216161
 30
0.0
 11
1653.378207009619
 21
1182.2685034216161
 31
0.0
  0
LINE
  5
15BC
  8
UMCL1
  6
CENTER
 62
     1
 10
1654.878207009619
 20
1182.2685034216161
 30
0.0
 11
1657.8782070096181
 21
1182.2685034216161
 31
0.0
  0
LINE
  5
15BD
  8
UMCL1
  6
CENTER
 62
     1
 10
1659.3782070096181
 20
1182.2685034216161
 30
0.0
 11
1665.3782070096181
 21
1182.2685034216161
 31
0.0
  0
LINE
  5
15BE
  8
UMCL1
  6
CENTER
 62
     1
 10
1656.3782070096181
 20
1173.2685034216161
 30
0.0
 11
1656.3782070096181
 21
1179.2685034216161
 31
0.0
  0
LINE
  5
15BF
  8
UMCL1
  6
CENTER
 62
     1
 10
1656.3782070096181
 20
1180.7685034216161
 30
0.0
 11
1656.3782070096181
 21
1183.7685034216161
 31
0.0
  0
LINE
  5
15C0
  8
UMCL1
  6
CENTER
 62
     1
 10
1656.3782070096181
 20
1185.2685034216161
 30
0.0
 11
1656.3782070096181
 21
1191.2685034216161
 31
0.0
  0
LINE
  5
15C1
  8
UMCL1
  6
CENTER
 62
     1
 10
1647.3782070096181
 20
1143.2685034216161
 30
0.0
 11
1653.378207009619
 21
1143.2685034216161
 31
0.0
  0
LINE
  5
15C2
  8
UMCL1
  6
CENTER
 62
     1
 10
1654.878207009619
 20
1143.2685034216161
 30
0.0
 11
1657.8782070096181
 21
1143.2685034216161
 31
0.0
  0
LINE
  5
15C3
  8
UMCL1
  6
CENTER
 62
     1
 10
1659.3782070096181
 20
1143.2685034216161
 30
0.0
 11
1665.3782070096181
 21
1143.2685034216161
 31
0.0
  0
LINE
  5
15C4
  8
UMCL1
  6
CENTER
 62
     1
 10
1656.3782070096181
 20
1134.2685034216161
 30
0.0
 11
1656.3782070096181
 21
1140.2685034216161
 31
0.0
  0
LINE
  5
15C5
  8
UMCL1
  6
CENTER
 62
     1
 10
1656.3782070096181
 20
1141.7685034216161
 30
0.0
 11
1656.3782070096181
 21
1144.7685034216161
 31
0.0
  0
LINE
  5
15C6
  8
UMCL1
  6
CENTER
 62
     1
 10
1656.3782070096181
 20
1146.2685034216161
 30
0.0
 11
1656.3782070096181
 21
1152.2685034216161
 31
0.0
  0
LINE
  5
15C7
  8
UMCL1
  6
CENTER
 62
     1
 10
1611.3782070096181
 20
1182.2685034216161
 30
0.0
 11
1617.3782070096181
 21
1182.2685034216161
 31
0.0
  0
LINE
  5
15C8
  8
UMCL1
  6
CENTER
 62
     1
 10
1618.8782070096181
 20
1182.2685034216161
 30
0.0
 11
1621.8782070096181
 21
1182.2685034216161
 31
0.0
  0
LINE
  5
15C9
  8
UMCL1
  6
CENTER
 62
     1
 10
1623.3782070096181
 20
1182.2685034216161
 30
0.0
 11
1629.3782070096181
 21
1182.2685034216161
 31
0.0
  0
LINE
  5
15CA
  8
UMCL1
  6
CENTER
 62
     1
 10
1656.3782070096181
 20
1173.2685034216161
 30
0.0
 11
1656.3782070096181
 21
1152.2685034216161
 31
0.0
  0
LINE
  5
15CB
  8
UMCL1
  6
CENTER
 62
     1
 10
1704.3782070096181
 20
1197.7551858155639
 30
0.0
 11
1704.3782070096181
 21
1152.2685034216161
 31
0.0
  0
LINE
  5
15CC
  8
UMCL1
  6
CONTINUOUS
 10
1573.178207009619
 20
1011.368503421616
 30
0.0
 11
1667.5782070096191
 21
1011.368503421616
 31
0.0
  0
LINE
  5
15CD
  8
UMCL1
  6
CONTINUOUS
 10
1667.5782070096191
 20
1122.368503421616
 30
0.0
 11
1573.1782070096181
 21
1122.368503421616
 31
0.0
  0
LINE
  5
15CE
  8
UMCL1
  6
CONTINUOUS
 10
1668.378207009619
 20
1012.168503421616
 30
0.0
 11
1668.378207009619
 21
1121.568503421616
 31
0.0
  0
LINE
  5
15CF
  8
UMCL1
  6
CONTINUOUS
 10
1572.378207009619
 20
1121.568503421616
 30
0.0
 11
1572.378207009619
 21
1012.168503421616
 31
0.0
  0
LINE
  5
15D0
  8
UMCL1
  6
CONTINUOUS
 10
1668.378207009619
 20
1121.568503421616
 30
0.0
 11
1572.378207009619
 21
1121.568503421616
 31
0.0
  0
LINE
  5
15D1
  8
UMCL1
  6
CONTINUOUS
 10
1572.378207009619
 20
1012.168503421616
 30
0.0
 11
1668.378207009619
 21
1012.168503421616
 31
0.0
  0
LINE
  5
15D2
  8
UMCL1
  6
CONTINUOUS
 10
1573.1782070096181
 20
1122.368503421616
 30
0.0
 11
1572.378207009619
 21
1121.568503421616
 31
0.0
  0
LINE
  5
15D3
  8
UMCL1
  6
CONTINUOUS
 10
1667.5782070096191
 20
1122.368503421616
 30
0.0
 11
1668.378207009619
 21
1121.568503421616
 31
0.0
  0
LINE
  5
15D4
  8
UMCL1
  6
CONTINUOUS
 10
1667.5782070096191
 20
1011.368503421616
 30
0.0
 11
1668.378207009619
 21
1012.168503421616
 31
0.0
  0
LINE
  5
15D5
  8
UMCL1
  6
CONTINUOUS
 10
1573.178207009619
 20
1011.368503421616
 30
0.0
 11
1572.378207009619
 21
1012.168503421616
 31
0.0
  0
LINE
  5
15D6
  8
UMCL1
  6
HIDDEN
 62
     3
 10
1594.778207009618
 20
1239.69374990654
 30
0.0
 11
1595.090707009618
 21
1249.69374990654
 31
0.0
  0
LINE
  5
15D7
  8
UMCL1
  6
HIDDEN
 62
     3
 10
1595.6282070096181
 20
1239.69374990654
 30
0.0
 11
1595.9407070096181
 21
1249.69374990654
 31
0.0
  0
LINE
  5
15D8
  8
UMCL1
  6
HIDDEN
 62
     3
 10
1607.9782070096189
 20
1239.69374990654
 30
0.0
 11
1607.6657070096189
 21
1249.69374990654
 31
0.0
  0
LINE
  5
15D9
  8
UMCL1
  6
HIDDEN
 62
     3
 10
1607.128207009619
 20
1239.69374990654
 30
0.0
 11
1606.815707009619
 21
1249.69374990654
 31
0.0
  0
LINE
  5
15DA
  8
UMCL1
  6
CENTER
 62
     1
 10
1601.3782070096181
 20
1238.19574990654
 30
0.0
 11
1601.3782070096181
 21
1251.19374990654
 31
0.0
  0
LINE
  5
15DB
  8
UMCL1
  6
HIDDEN
 62
     3
 10
1632.778207009618
 20
1239.69374990654
 30
0.0
 11
1633.0907070096191
 21
1249.69374990654
 31
0.0
  0
LINE
  5
15DC
  8
UMCL1
  6
HIDDEN
 62
     3
 10
1633.6282070096181
 20
1239.69374990654
 30
0.0
 11
1633.9407070096181
 21
1249.69374990654
 31
0.0
  0
LINE
  5
15DD
  8
UMCL1
  6
HIDDEN
 62
     3
 10
1645.9782070096189
 20
1239.69374990654
 30
0.0
 11
1645.6657070096189
 21
1249.69374990654
 31
0.0
  0
LINE
  5
15DE
  8
UMCL1
  6
HIDDEN
 62
     3
 10
1645.128207009619
 20
1239.69374990654
 30
0.0
 11
1644.815707009619
 21
1249.69374990654
 31
0.0
  0
LINE
  5
15DF
  8
UMCL1
  6
CENTER
 62
     1
 10
1639.378207009619
 20
1238.195749906539
 30
0.0
 11
1639.378207009619
 21
1251.19374990654
 31
0.0
  0
LINE
  5
15E0
  8
UMCL1
  6
HIDDEN
 62
     3
 10
1594.778207009618
 20
1335.69374990654
 30
0.0
 11
1595.090707009618
 21
1325.69374990654
 31
0.0
  0
LINE
  5
15E1
  8
UMCL1
  6
HIDDEN
 62
     3
 10
1595.6282070096181
 20
1335.69374990654
 30
0.0
 11
1595.9407070096181
 21
1325.69374990654
 31
0.0
  0
LINE
  5
15E2
  8
UMCL1
  6
HIDDEN
 62
     3
 10
1607.9782070096189
 20
1335.69374990654
 30
0.0
 11
1607.6657070096189
 21
1325.69374990654
 31
0.0
  0
LINE
  5
15E3
  8
UMCL1
  6
HIDDEN
 62
     3
 10
1607.128207009619
 20
1335.69374990654
 30
0.0
 11
1606.815707009619
 21
1325.69374990654
 31
0.0
  0
LINE
  5
15E4
  8
UMCL1
  6
CENTER
 62
     1
 10
1601.3782070096181
 20
1337.1917499065401
 30
0.0
 11
1601.3782070096181
 21
1324.19374990654
 31
0.0
  0
LINE
  5
15E5
  8
UMCL1
  6
HIDDEN
 62
     3
 10
1632.778207009618
 20
1335.69374990654
 30
0.0
 11
1633.0907070096191
 21
1325.69374990654
 31
0.0
  0
LINE
  5
15E6
  8
UMCL1
  6
HIDDEN
 62
     3
 10
1633.6282070096181
 20
1335.69374990654
 30
0.0
 11
1633.9407070096181
 21
1325.69374990654
 31
0.0
  0
LINE
  5
15E7
  8
UMCL1
  6
HIDDEN
 62
     3
 10
1645.9782070096189
 20
1335.69374990654
 30
0.0
 11
1645.6657070096189
 21
1325.69374990654
 31
0.0
  0
LINE
  5
15E8
  8
UMCL1
  6
HIDDEN
 62
     3
 10
1645.128207009619
 20
1335.69374990654
 30
0.0
 11
1644.815707009619
 21
1325.69374990654
 31
0.0
  0
LINE
  5
15E9
  8
UMCL1
  6
CENTER
 62
     1
 10
1639.378207009619
 20
1337.1917499065401
 30
0.0
 11
1639.378207009619
 21
1324.19374990654
 31
0.0
  0
ARC
  5
15EA
  8
UMCL1
  6
CONTINUOUS
 62
     3
 10
1601.3782070096181
 20
1085.368503421616
 30
0.0
 40
6.5999999999999988
 50
344.99999999999932
 51
284.99999999999437
  0
LINE
  5
15EB
  8
UMCL1
  6
CENTER
 62
     1
 10
1593.278207009618
 20
1085.368503421616
 30
0.0
 11
1598.3782070096181
 21
1085.368503421616
 31
0.0
  0
LINE
  5
15EC
  8
UMCL1
  6
CENTER
 62
     1
 10
1599.8782070096181
 20
1085.368503421616
 30
0.0
 11
1602.8782070096181
 21
1085.368503421616
 31
0.0
  0
LINE
  5
15ED
  8
UMCL1
  6
CENTER
 62
     1
 10
1604.3782070096181
 20
1085.368503421616
 30
0.0
 11
1609.478207009618
 21
1085.368503421616
 31
0.0
  0
LINE
  5
15EE
  8
UMCL1
  6
CENTER
 62
     1
 10
1601.3782070096181
 20
1077.2685034216161
 30
0.0
 11
1601.3782070096181
 21
1082.368503421616
 31
0.0
  0
LINE
  5
15EF
  8
UMCL1
  6
CENTER
 62
     1
 10
1601.3782070096181
 20
1083.868503421616
 30
0.0
 11
1601.3782070096181
 21
1086.868503421616
 31
0.0
  0
LINE
  5
15F0
  8
UMCL1
  6
CENTER
 62
     1
 10
1601.3782070096181
 20
1088.368503421616
 30
0.0
 11
1601.3782070096181
 21
1093.4685034216161
 31
0.0
  0
ARC
  5
15F1
  8
UMCL1
  6
CONTINUOUS
 62
     3
 10
1639.378207009619
 20
1033.368503421616
 30
0.0
 40
6.5999999999999988
 50
344.99999999999932
 51
284.99999999999437
  0
LINE
  5
15F2
  8
UMCL1
  6
CENTER
 62
     1
 10
1631.2782070096191
 20
1033.368503421616
 30
0.0
 11
1636.3782070096181
 21
1033.368503421616
 31
0.0
  0
LINE
  5
15F3
  8
UMCL1
  6
CENTER
 62
     1
 10
1637.8782070096181
 20
1033.368503421616
 30
0.0
 11
1640.878207009619
 21
1033.368503421616
 31
0.0
  0
LINE
  5
15F4
  8
UMCL1
  6
CENTER
 62
     1
 10
1642.378207009619
 20
1033.368503421616
 30
0.0
 11
1647.478207009618
 21
1033.368503421616
 31
0.0
  0
LINE
  5
15F5
  8
UMCL1
  6
CENTER
 62
     1
 10
1639.378207009619
 20
1025.2685034216161
 30
0.0
 11
1639.378207009619
 21
1030.368503421616
 31
0.0
  0
LINE
  5
15F6
  8
UMCL1
  6
CENTER
 62
     1
 10
1639.378207009619
 20
1031.868503421616
 30
0.0
 11
1639.378207009619
 21
1034.868503421616
 31
0.0
  0
LINE
  5
15F7
  8
UMCL1
  6
CENTER
 62
     1
 10
1639.378207009619
 20
1036.368503421616
 30
0.0
 11
1639.378207009619
 21
1041.4685034216161
 31
0.0
  0
LINE
  5
15F8
  8
UMCL2
  6
CONTINUOUS
 10
1715.3782070096181
 20
1278.1942499065401
 30
0.0
 11
1723.3782070096181
 21
1278.1942499065401
 31
0.0
  0
LINE
  5
15F9
  8
UMCL2
  6
CONTINUOUS
 10
1715.3782070096181
 20
1297.1932499065399
 30
0.0
 11
1723.3782070096181
 21
1297.1932499065399
 31
0.0
  0
LINE
  5
15FA
  8
UMCL2
  6
CONTINUOUS
 10
1722.3782070096181
 20
1280.6942499065401
 30
0.0
 11
1722.3782070096181
 21
1294.6932499065399
 31
0.0
  0
SOLID
  5
15FB
  8
UMCL2
  6
CONTINUOUS
 10
1721.961540342952
 20
1280.6942499065401
 30
0.0
 11
1722.7948736762851
 21
1280.6942499065401
 31
0.0
 12
1722.3782070096181
 22
1278.1942499065401
 32
0.0
 13
1722.3782070096181
 23
1278.1942499065401
 33
0.0
  0
SOLID
  5
15FC
  8
UMCL2
  6
CONTINUOUS
 10
1721.961540342952
 20
1294.6932499065399
 30
0.0
 11
1722.7948736762851
 21
1294.6932499065399
 31
0.0
 12
1722.3782070096181
 22
1297.1932499065399
 32
0.0
 13
1722.3782070096181
 23
1297.1932499065399
 33
0.0
  0
INSERT
  5
15FD
  8
0
  2
*U4
 10
0.0
 20
0.0
 30
0.0
  0
LINE
  5
15FE
  8
UMCL2
  6
CONTINUOUS
 10
1691.491215815774
 20
1271.7937499065399
 30
0.0
 11
1731.3782070096181
 21
1271.7937499065399
 31
0.0
  0
LINE
  5
15FF
  8
UMCL2
  6
CONTINUOUS
 10
1691.491215815774
 20
1303.5937499065401
 30
0.0
 11
1731.3782070096181
 21
1303.5937499065401
 31
0.0
  0
LINE
  5
1600
  8
UMCL2
  6
CONTINUOUS
 10
1730.378207009619
 20
1274.2937499065399
 30
0.0
 11
1730.378207009619
 21
1301.0937499065401
 31
0.0
  0
SOLID
  5
1601
  8
UMCL2
  6
CONTINUOUS
 10
1729.961540342952
 20
1274.2937499065399
 30
0.0
 11
1730.7948736762851
 21
1274.2937499065399
 31
0.0
 12
1730.378207009619
 22
1271.7937499065399
 32
0.0
 13
1730.378207009619
 23
1271.7937499065399
 33
0.0
  0
SOLID
  5
1602
  8
UMCL2
  6
CONTINUOUS
 10
1729.961540342952
 20
1301.0937499065401
 30
0.0
 11
1730.7948736762851
 21
1301.0937499065401
 31
0.0
 12
1730.378207009619
 22
1303.5937499065401
 32
0.0
 13
1730.378207009619
 23
1303.5937499065401
 33
0.0
  0
INSERT
  5
1603
  8
0
  2
*U5
 10
0.0
 20
0.0
 30
0.0
  0
LINE
  5
1604
  8
UMCL2
  6
CONTINUOUS
 10
1669.378207009619
 20
1325.19374990654
 30
0.0
 11
1739.3782070096181
 21
1325.19374990654
 31
0.0
  0
LINE
  5
1605
  8
UMCL2
  6
CONTINUOUS
 10
1669.3782070096181
 20
1250.19374990654
 30
0.0
 11
1739.3782070096181
 21
1250.19374990654
 31
0.0
  0
LINE
  5
1606
  8
UMCL2
  6
CONTINUOUS
 10
1738.3782070096181
 20
1322.69374990654
 30
0.0
 11
1738.3782070096181
 21
1252.69374990654
 31
0.0
  0
SOLID
  5
1607
  8
UMCL2
  6
CONTINUOUS
 10
1737.961540342952
 20
1322.69374990654
 30
0.0
 11
1738.7948736762851
 21
1322.69374990654
 31
0.0
 12
1738.3782070096181
 22
1325.19374990654
 32
0.0
 13
1738.3782070096181
 23
1325.19374990654
 33
0.0
  0
SOLID
  5
1608
  8
UMCL2
  6
CONTINUOUS
 10
1737.961540342952
 20
1252.69374990654
 30
0.0
 11
1738.7948736762851
 21
1252.69374990654
 31
0.0
 12
1738.3782070096181
 22
1250.19374990654
 32
0.0
 13
1738.3782070096181
 23
1250.19374990654
 33
0.0
  0
INSERT
  5
1609
  8
0
  2
*U6
 10
0.0
 20
0.0
 30
0.0
  0
LINE
  5
160A
  8
UMCL2
  6
CONTINUOUS
 10
1663.7102279866519
 20
1239.69374990654
 30
0.0
 11
1747.3782070096181
 21
1239.69374990654
 31
0.0
  0
LINE
  5
160B
  8
UMCL2
  6
CONTINUOUS
 10
1663.7102279866519
 20
1335.69374990654
 30
0.0
 11
1747.3782070096181
 21
1335.69374990654
 31
0.0
  0
LINE
  5
160C
  8
UMCL2
  6
CONTINUOUS
 10
1746.378207009619
 20
1242.19374990654
 30
0.0
 11
1746.378207009619
 21
1333.19374990654
 31
0.0
  0
SOLID
  5
160D
  8
UMCL2
  6
CONTINUOUS
 10
1745.961540342952
 20
1242.19374990654
 30
0.0
 11
1746.7948736762851
 21
1242.19374990654
 31
0.0
 12
1746.378207009619
 22
1239.69374990654
 32
0.0
 13
1746.378207009619
 23
1239.69374990654
 33
0.0
  0
SOLID
  5
160E
  8
UMCL2
  6
CONTINUOUS
 10
1745.961540342952
 20
1333.19374990654
 30
0.0
 11
1746.7948736762851
 21
1333.19374990654
 31
0.0
 12
1746.378207009619
 22
1335.69374990654
 32
0.0
 13
1746.378207009619
 23
1335.69374990654
 33
0.0
  0
INSERT
  5
160F
  8
0
  2
*U7
 10
0.0
 20
0.0
 30
0.0
  0
POLYLINE
  5
1610
  8
UMCL2
  6
CONTINUOUS
 66
     1
 10
0.0
 20
0.0
 30
0.0
 70
     1
  0
VERTEX
  5
1984
  8
UMCL2
  6
CONTINUOUS
 10
1742.0653436766479
 20
1280.623265112537
 30
0.0
  0
VERTEX
  5
1985
  8
UMCL2
  6
CONTINUOUS
 10
1745.0653436766479
 20
1280.623265112537
 30
0.0
  0
VERTEX
  5
1986
  8
UMCL2
  6
CONTINUOUS
 10
1745.0653436766479
 20
1283.623265112537
 30
0.0
  0
VERTEX
  5
1987
  8
UMCL2
  6
CONTINUOUS
 10
1742.0653436766479
 20
1283.623265112537
 30
0.0
  0
SEQEND
  5
1988
  8
UMCL2
  6
CONTINUOUS
  0
POLYLINE
  5
1611
  8
UMCL2
  6
CONTINUOUS
 66
     1
 10
0.0
 20
0.0
 30
0.0
 70
     1
  0
VERTEX
  5
1989
  8
UMCL2
  6
CONTINUOUS
 10
1734.2149864647599
 20
1281.1243394071239
 30
0.0
  0
VERTEX
  5
198A
  8
UMCL2
  6
CONTINUOUS
 10
1737.2149864647599
 20
1281.1243394071239
 30
0.0
  0
VERTEX
  5
198B
  8
UMCL2
  6
CONTINUOUS
 10
1737.2149864647599
 20
1284.124339407125
 30
0.0
  0
VERTEX
  5
198C
  8
UMCL2
  6
CONTINUOUS
 10
1734.2149864647599
 20
1284.124339407125
 30
0.0
  0
SEQEND
  5
198D
  8
UMCL2
  6
CONTINUOUS
  0
LINE
  5
1612
  8
UMCL2
  6
CONTINUOUS
 10
1601.3782070096181
 20
1237.19574990654
 30
0.0
 11
1601.3782070096181
 21
1229.510884758176
 31
0.0
  0
LINE
  5
1613
  8
UMCL2
  6
CONTINUOUS
 10
1639.378207009619
 20
1237.19574990654
 30
0.0
 11
1639.378207009619
 21
1229.510884758176
 31
0.0
  0
LINE
  5
1614
  8
UMCL2
  6
CONTINUOUS
 10
1603.8782070096181
 20
1230.510884758176
 30
0.0
 11
1636.8782070096181
 21
1230.510884758176
 31
0.0
  0
SOLID
  5
1615
  8
UMCL2
  6
CONTINUOUS
 10
1603.8782070096181
 20
1230.9275514248429
 30
0.0
 11
1603.8782070096181
 21
1230.0942180915099
 31
0.0
 12
1601.3782070096181
 22
1230.510884758176
 32
0.0
 13
1601.3782070096181
 23
1230.510884758176
 33
0.0
  0
SOLID
  5
1616
  8
UMCL2
  6
CONTINUOUS
 10
1636.8782070096181
 20
1230.9275514248429
 30
0.0
 11
1636.8782070096181
 21
1230.0942180915099
 31
0.0
 12
1639.378207009619
 22
1230.510884758176
 32
0.0
 13
1639.378207009619
 23
1230.510884758176
 33
0.0
  0
INSERT
  5
1617
  8
0
  2
*U8
 10
0.0
 20
0.0
 30
0.0
  0
LINE
  5
1618
  8
UMCL2
  6
CONTINUOUS
 10
1603.3782070096181
 20
1280.19374990654
 30
0.0
 11
1563.371882999839
 21
1280.19374990654
 31
0.0
  0
LINE
  5
1619
  8
UMCL2
  6
CONTINUOUS
 10
1603.3782070096181
 20
1295.19374990654
 30
0.0
 11
1563.371882999839
 21
1295.19374990654
 31
0.0
  0
LINE
  5
161A
  8
UMCL2
  6
CONTINUOUS
 10
1564.37188299984
 20
1282.69374990654
 30
0.0
 11
1564.37188299984
 21
1292.69374990654
 31
0.0
  0
SOLID
  5
161B
  8
UMCL2
  6
CONTINUOUS
 10
1563.955216333173
 20
1282.69374990654
 30
0.0
 11
1564.788549666506
 21
1282.69374990654
 31
0.0
 12
1564.37188299984
 22
1280.19374990654
 32
0.0
 13
1564.37188299984
 23
1280.19374990654
 33
0.0
  0
SOLID
  5
161C
  8
UMCL2
  6
CONTINUOUS
 10
1563.955216333173
 20
1292.69374990654
 30
0.0
 11
1564.788549666506
 21
1292.69374990654
 31
0.0
 12
1564.37188299984
 22
1295.19374990654
 32
0.0
 13
1564.37188299984
 23
1295.19374990654
 33
0.0
  0
INSERT
  5
161D
  8
0
  2
*U9
 10
0.0
 20
0.0
 30
0.0
  0
LINE
  5
161E
  8
UMCL2
  6
CONTINUOUS
 10
1562.9831996929011
 20
1228.542743191942
 30
0.0
 11
1589.092216519439
 21
1228.542743191942
 31
0.0
  0
TEXT
  5
161F
  8
UMCL2
  6
CONTINUOUS
 10
1563.406629545696
 20
1230.042743191942
 30
0.0
 40
3.0
  1
2x2-PT1/4
  7
ROMANSS
 72
     2
 11
1588.406629545696
 21
1231.5427431919429
 31
0.0
 73
     2
  0
LINE
  5
1620
  8
UMCL2
 10
1589.092216519439
 20
1228.542743191942
 30
0.0
 11
1601.3905989071841
 21
1239.7049970365999
 31
0.0
  0
SOLID
  5
1621
  8
UMCL2
  6
CONTINUOUS
 10
1598.8144121747059
 20
1238.0880300815429
 30
0.0
 11
1599.4773129406849
 21
1237.339322812669
 31
0.0
 12
1601.3919843643189
 22
1239.7023787450401
 32
0.0
 13
1601.3919843643189
 23
1239.7023787450401
 33
0.0
  0
TEXT
  5
1622
  8
UMCL2
  6
CONTINUOUS
 10
1687.719770865413
 20
1232.9008523576319
 30
0.0
 40
3.0
  1
4-%%C11 Through-hole 
  7
ROMANSS
 72
     2
 11
1737.862628008271
 21
1234.4008523576319
 31
0.0
 73
     2
  0
LINE
  5
1623
  8
UMCL2
  6
CONTINUOUS
 10
1738.476300694779
 20
1231.188430094561
 30
0.0
 11
1678.889845257559
 21
1231.188430094561
 31
0.0
  0
TEXT
  5
1624
  8
UMCL2
  6
CONTINUOUS
 10
1685.569328989201
 20
1226.7375458688709
 30
0.0
 40
3.0
  1
Counter bore %%C18x11dp
  7
ROMANSS
 72
     2
 11
1737.7121861320579
 21
1228.2375458688709
 31
0.0
 73
     2
  0
LINE
  5
1625
  8
UMCL2
 10
1678.889845257559
 20
1231.188430094561
 30
0.0
 11
1664.952475768991
 21
1244.630053157061
 31
0.0
  0
SOLID
  5
1626
  8
UMCL2
  6
CONTINUOUS
 10
1667.384171736448
 20
1242.8033471813069
 30
0.0
 11
1666.660283529854
 21
1242.1134298932541
 31
0.0
 12
1664.952475768991
 22
1244.630053157061
 32
0.0
 13
1664.952475768991
 23
1244.630053157061
 33
0.0
  0
LINE
  5
1627
  8
UMCL2
  6
CONTINUOUS
 10
1656.3782070096181
 20
1192.2685034216161
 30
0.0
 11
1656.3782070096181
 21
1207.1685034216159
 31
0.0
  0
LINE
  5
1628
  8
UMCL2
  6
CONTINUOUS
 10
1704.3782070096181
 20
1198.7551858155639
 30
0.0
 11
1704.3782070096181
 21
1207.1685034216159
 31
0.0
  0
LINE
  5
1629
  8
UMCL2
  6
CONTINUOUS
 10
1658.878207009619
 20
1206.1685034216159
 30
0.0
 11
1701.878207009619
 21
1206.1685034216159
 31
0.0
  0
SOLID
  5
162A
  8
UMCL2
  6
CONTINUOUS
 10
1658.878207009619
 20
1206.5851700882829
 30
0.0
 11
1658.878207009619
 21
1205.7518367549501
 31
0.0
 12
1656.3782070096181
 22
1206.1685034216159
 32
0.0
 13
1656.3782070096181
 23
1206.1685034216159
 33
0.0
  0
SOLID
  5
162B
  8
UMCL2
  6
CONTINUOUS
 10
1701.878207009619
 20
1206.5851700882829
 30
0.0
 11
1701.878207009619
 21
1205.7518367549501
 31
0.0
 12
1704.3782070096181
 22
1206.1685034216159
 32
0.0
 13
1704.3782070096181
 23
1206.1685034216159
 33
0.0
  0
INSERT
  5
162C
  8
0
  2
*U10
 10
0.0
 20
0.0
 30
0.0
  0
LINE
  5
162D
  8
UMCL2
  6
CONTINUOUS
 10
1656.3782070096181
 20
1192.2685034216161
 30
0.0
 11
1656.3782070096181
 21
1207.1685034216159
 31
0.0
  0
LINE
  5
162E
  8
UMCL2
  6
CONTINUOUS
 10
1620.3782070096181
 20
1201.1685034216159
 30
0.0
 11
1620.3782070096181
 21
1207.1685034216159
 31
0.0
  0
LINE
  5
162F
  8
UMCL2
  6
CONTINUOUS
 10
1653.8782070096181
 20
1206.1685034216159
 30
0.0
 11
1622.878207009619
 21
1206.1685034216159
 31
0.0
  0
SOLID
  5
1630
  8
UMCL2
  6
CONTINUOUS
 10
1653.8782070096181
 20
1206.5851700882829
 30
0.0
 11
1653.8782070096181
 21
1205.7518367549501
 31
0.0
 12
1656.3782070096181
 22
1206.1685034216159
 32
0.0
 13
1656.3782070096181
 23
1206.1685034216159
 33
0.0
  0
SOLID
  5
1631
  8
UMCL2
  6
CONTINUOUS
 10
1622.878207009619
 20
1206.5851700882829
 30
0.0
 11
1622.878207009619
 21
1205.7518367549501
 31
0.0
 12
1620.3782070096181
 22
1206.1685034216159
 32
0.0
 13
1620.3782070096181
 23
1206.1685034216159
 33
0.0
  0
INSERT
  5
1632
  8
0
  2
*U11
 10
0.0
 20
0.0
 30
0.0
  0
LINE
  5
1633
  8
UMCL2
  6
CONTINUOUS
 10
1620.3782070096181
 20
1201.1685034216159
 30
0.0
 11
1620.3782070096181
 21
1215.1685034216159
 31
0.0
  0
LINE
  5
1634
  8
UMCL2
  6
CONTINUOUS
 10
1714.378207009619
 20
1186.368503421616
 30
0.0
 11
1714.378207009619
 21
1215.1685034216159
 31
0.0
  0
LINE
  5
1635
  8
UMCL2
  6
CONTINUOUS
 10
1622.878207009619
 20
1214.1685034216159
 30
0.0
 11
1711.8782070096181
 21
1214.1685034216159
 31
0.0
  0
SOLID
  5
1636
  8
UMCL2
  6
CONTINUOUS
 10
1622.878207009619
 20
1214.5851700882829
 30
0.0
 11
1622.878207009619
 21
1213.7518367549501
 31
0.0
 12
1620.3782070096181
 22
1214.1685034216159
 32
0.0
 13
1620.3782070096181
 23
1214.1685034216159
 33
0.0
  0
SOLID
  5
1637
  8
UMCL2
  6
CONTINUOUS
 10
1711.8782070096181
 20
1214.5851700882829
 30
0.0
 11
1711.8782070096181
 21
1213.7518367549501
 31
0.0
 12
1714.378207009619
 22
1214.1685034216159
 32
0.0
 13
1714.378207009619
 23
1214.1685034216159
 33
0.0
  0
INSERT
  5
1638
  8
0
  2
*U12
 10
0.0
 20
0.0
 30
0.0
  0
LINE
  5
1639
  8
UMCL2
  6
CONTINUOUS
 10
1714.378207009619
 20
1186.368503421616
 30
0.0
 11
1714.378207009619
 21
1223.1685034216159
 31
0.0
  0
LINE
  5
163A
  8
UMCL2
  6
CONTINUOUS
 10
1604.3782070096181
 20
1199.1685034216159
 30
0.0
 11
1604.3782070096181
 21
1223.1685034216159
 31
0.0
  0
LINE
  5
163B
  8
UMCL2
  6
CONTINUOUS
 10
1711.8782070096181
 20
1222.1685034216159
 30
0.0
 11
1606.878207009619
 21
1222.1685034216159
 31
0.0
  0
SOLID
  5
163C
  8
UMCL2
  6
CONTINUOUS
 10
1711.8782070096181
 20
1222.5851700882829
 30
0.0
 11
1711.8782070096181
 21
1221.7518367549501
 31
0.0
 12
1714.378207009619
 22
1222.1685034216159
 32
0.0
 13
1714.378207009619
 23
1222.1685034216159
 33
0.0
  0
SOLID
  5
163D
  8
UMCL2
  6
CONTINUOUS
 10
1606.878207009619
 20
1222.5851700882829
 30
0.0
 11
1606.878207009619
 21
1221.7518367549501
 31
0.0
 12
1604.3782070096181
 22
1222.1685034216159
 32
0.0
 13
1604.3782070096181
 23
1222.1685034216159
 33
0.0
  0
INSERT
  5
163E
  8
0
  2
*U13
 10
0.0
 20
0.0
 30
0.0
  0
LINE
  5
163F
  8
UMCL2
  6
CONTINUOUS
 10
1666.3782070096181
 20
1182.2685034216161
 30
0.0
 11
1683.7037294259669
 21
1182.2685034216161
 31
0.0
  0
LINE
  5
1640
  8
UMCL2
  6
CONTINUOUS
 10
1666.3782070096181
 20
1143.2685034216161
 30
0.0
 11
1683.7037294259669
 21
1143.2685034216161
 31
0.0
  0
LINE
  5
1641
  8
UMCL2
  6
CONTINUOUS
 10
1682.703729425966
 20
1179.7685034216161
 30
0.0
 11
1682.703729425966
 21
1145.7685034216161
 31
0.0
  0
SOLID
  5
1642
  8
UMCL2
  6
CONTINUOUS
 10
1682.2870627592999
 20
1179.7685034216161
 30
0.0
 11
1683.1203960926341
 21
1179.7685034216161
 31
0.0
 12
1682.703729425966
 22
1182.2685034216161
 32
0.0
 13
1682.703729425966
 23
1182.2685034216161
 33
0.0
  0
SOLID
  5
1643
  8
UMCL2
  6
CONTINUOUS
 10
1682.2870627592999
 20
1145.7685034216161
 30
0.0
 11
1683.1203960926341
 21
1145.7685034216161
 31
0.0
 12
1682.703729425966
 22
1143.2685034216161
 32
0.0
 13
1682.703729425966
 23
1143.2685034216161
 33
0.0
  0
INSERT
  5
1644
  8
0
  2
*U14
 10
0.0
 20
0.0
 30
0.0
  0
LINE
  5
1645
  8
UMCL2
  6
CONTINUOUS
 10
1714.378207009619
 20
1165.368503421616
 30
0.0
 11
1714.378207009619
 21
1131.5781099372989
 31
0.0
  0
LINE
  5
1646
  8
UMCL2
  6
CONTINUOUS
 10
1671.378207009619
 20
1142.2685034216161
 30
0.0
 11
1671.378207009619
 21
1131.5781099372989
 31
0.0
  0
LINE
  5
1647
  8
UMCL2
  6
CONTINUOUS
 10
1711.8782070096181
 20
1132.5781099372989
 30
0.0
 11
1673.8782070096181
 21
1132.5781099372989
 31
0.0
  0
SOLID
  5
1648
  8
UMCL2
  6
CONTINUOUS
 10
1711.8782070096181
 20
1132.9947766039661
 30
0.0
 11
1711.8782070096181
 21
1132.1614432706331
 31
0.0
 12
1714.378207009619
 22
1132.5781099372989
 32
0.0
 13
1714.378207009619
 23
1132.5781099372989
 33
0.0
  0
SOLID
  5
1649
  8
UMCL2
  6
CONTINUOUS
 10
1673.8782070096181
 20
1132.9947766039661
 30
0.0
 11
1673.8782070096181
 21
1132.1614432706331
 31
0.0
 12
1671.378207009619
 22
1132.5781099372989
 32
0.0
 13
1671.378207009619
 23
1132.5781099372989
 33
0.0
  0
INSERT
  5
164A
  8
0
  2
*U15
 10
0.0
 20
0.0
 30
0.0
  0
LINE
  5
164B
  8
UMCL2
  6
CONTINUOUS
 10
1668.5782070096191
 20
1011.368503421616
 30
0.0
 11
1713.025159748418
 21
1011.368503421616
 31
0.0
  0
LINE
  5
164C
  8
UMCL2
  6
CONTINUOUS
 10
1648.478207009618
 20
1033.368503421616
 30
0.0
 11
1713.025159748418
 21
1033.368503421616
 31
0.0
  0
LINE
  5
164D
  8
UMCL2
  6
CONTINUOUS
 10
1712.025159748418
 20
1013.868503421616
 30
0.0
 11
1712.025159748418
 21
1030.868503421616
 31
0.0
  0
SOLID
  5
164E
  8
UMCL2
  6
CONTINUOUS
 10
1711.6084930817519
 20
1013.868503421616
 30
0.0
 11
1712.441826415085
 21
1013.868503421616
 31
0.0
 12
1712.025159748418
 22
1011.368503421616
 32
0.0
 13
1712.025159748418
 23
1011.368503421616
 33
0.0
  0
SOLID
  5
164F
  8
UMCL2
  6
CONTINUOUS
 10
1711.6084930817519
 20
1030.868503421616
 30
0.0
 11
1712.441826415085
 21
1030.868503421616
 31
0.0
 12
1712.025159748418
 22
1033.368503421616
 32
0.0
 13
1712.025159748418
 23
1033.368503421616
 33
0.0
  0
INSERT
  5
1650
  8
0
  2
*U16
 10
0.0
 20
0.0
 30
0.0
  0
LINE
  5
1651
  8
UMCL2
  6
CONTINUOUS
 10
1648.478207009618
 20
1033.368503421616
 30
0.0
 11
1713.025159748418
 21
1033.368503421616
 31
0.0
  0
LINE
  5
1652
  8
UMCL2
  6
CONTINUOUS
 10
1610.478207009618
 20
1085.368503421616
 30
0.0
 11
1713.025159748418
 21
1085.368503421616
 31
0.0
  0
LINE
  5
1653
  8
UMCL2
  6
CONTINUOUS
 10
1712.025159748418
 20
1035.868503421616
 30
0.0
 11
1712.025159748418
 21
1082.868503421616
 31
0.0
  0
SOLID
  5
1654
  8
UMCL2
  6
CONTINUOUS
 10
1711.6084930817519
 20
1035.868503421616
 30
0.0
 11
1712.441826415085
 21
1035.868503421616
 31
0.0
 12
1712.025159748418
 22
1033.368503421616
 32
0.0
 13
1712.025159748418
 23
1033.368503421616
 33
0.0
  0
SOLID
  5
1655
  8
UMCL2
  6
CONTINUOUS
 10
1711.6084930817519
 20
1082.868503421616
 30
0.0
 11
1712.441826415085
 21
1082.868503421616
 31
0.0
 12
1712.025159748418
 22
1085.368503421616
 32
0.0
 13
1712.025159748418
 23
1085.368503421616
 33
0.0
  0
INSERT
  5
1656
  8
0
  2
*U17
 10
0.0
 20
0.0
 30
0.0
  0
LINE
  5
1657
  8
UMCL2
  6
CONTINUOUS
 10
1668.5782070096191
 20
1011.368503421616
 30
0.0
 11
1723.3782070096181
 21
1011.368503421616
 31
0.0
  0
LINE
  5
1658
  8
UMCL2
  6
CONTINUOUS
 10
1672.3782070096181
 20
1122.368503421616
 30
0.0
 11
1723.3782070096181
 21
1122.368503421616
 31
0.0
  0
LINE
  5
1659
  8
UMCL2
  6
CONTINUOUS
 10
1722.3782070096181
 20
1013.868503421616
 30
0.0
 11
1722.3782070096181
 21
1119.868503421616
 31
0.0
  0
SOLID
  5
165A
  8
UMCL2
  6
CONTINUOUS
 10
1721.961540342952
 20
1013.868503421616
 30
0.0
 11
1722.7948736762851
 21
1013.868503421616
 31
0.0
 12
1722.3782070096181
 22
1011.368503421616
 32
0.0
 13
1722.3782070096181
 23
1011.368503421616
 33
0.0
  0
SOLID
  5
165B
  8
UMCL2
  6
CONTINUOUS
 10
1721.961540342952
 20
1119.868503421616
 30
0.0
 11
1722.7948736762851
 21
1119.868503421616
 31
0.0
 12
1722.3782070096181
 22
1122.368503421616
 32
0.0
 13
1722.3782070096181
 23
1122.368503421616
 33
0.0
  0
INSERT
  5
165C
  8
0
  2
*U18
 10
0.0
 20
0.0
 30
0.0
  0
LINE
  5
165D
  8
UMCL2
  6
CONTINUOUS
 10
1715.3782070096181
 20
1185.368503421616
 30
0.0
 11
1723.3782070096181
 21
1185.368503421616
 31
0.0
  0
LINE
  5
165E
  8
UMCL2
  6
CONTINUOUS
 10
1715.3782070096181
 20
1166.368503421616
 30
0.0
 11
1723.3782070096181
 21
1166.368503421616
 31
0.0
  0
LINE
  5
165F
  8
UMCL2
  6
CONTINUOUS
 10
1722.3782070096181
 20
1182.868503421616
 30
0.0
 11
1722.3782070096181
 21
1168.868503421616
 31
0.0
  0
SOLID
  5
1660
  8
UMCL2
  6
CONTINUOUS
 10
1721.961540342952
 20
1182.868503421616
 30
0.0
 11
1722.7948736762851
 21
1182.868503421616
 31
0.0
 12
1722.3782070096181
 22
1185.368503421616
 32
0.0
 13
1722.3782070096181
 23
1185.368503421616
 33
0.0
  0
SOLID
  5
1661
  8
UMCL2
  6
CONTINUOUS
 10
1721.961540342952
 20
1168.868503421616
 30
0.0
 11
1722.7948736762851
 21
1168.868503421616
 31
0.0
 12
1722.3782070096181
 22
1166.368503421616
 32
0.0
 13
1722.3782070096181
 23
1166.368503421616
 33
0.0
  0
INSERT
  5
1662
  8
0
  2
*U19
 10
0.0
 20
0.0
 30
0.0
  0
LINE
  5
1663
  8
UMCL2
  6
CONTINUOUS
 10
1691.491215815774
 20
1198.1685034216159
 30
0.0
 11
1731.3782070096181
 21
1198.1685034216159
 31
0.0
  0
LINE
  5
1664
  8
UMCL2
  6
CONTINUOUS
 10
1715.3782070096181
 20
1166.368503421616
 30
0.0
 11
1731.3782070096181
 21
1166.368503421616
 31
0.0
  0
LINE
  5
1665
  8
UMCL2
  6
CONTINUOUS
 10
1730.378207009619
 20
1195.6685034216159
 30
0.0
 11
1730.378207009619
 21
1168.868503421616
 31
0.0
  0
SOLID
  5
1666
  8
UMCL2
  6
CONTINUOUS
 10
1729.961540342952
 20
1195.6685034216159
 30
0.0
 11
1730.7948736762851
 21
1195.6685034216159
 31
0.0
 12
1730.378207009619
 22
1198.1685034216159
 32
0.0
 13
1730.378207009619
 23
1198.1685034216159
 33
0.0
  0
SOLID
  5
1667
  8
UMCL2
  6
CONTINUOUS
 10
1729.961540342952
 20
1168.868503421616
 30
0.0
 11
1730.7948736762851
 21
1168.868503421616
 31
0.0
 12
1730.378207009619
 22
1166.368503421616
 32
0.0
 13
1730.378207009619
 23
1166.368503421616
 33
0.0
  0
INSERT
  5
1668
  8
0
  2
*U20
 10
0.0
 20
0.0
 30
0.0
  0
LINE
  5
1669
  8
UMCL2
  6
CONTINUOUS
 10
1715.3782070096181
 20
1166.368503421616
 30
0.0
 11
1731.3782070096181
 21
1166.368503421616
 31
0.0
  0
LINE
  5
166A
  8
UMCL2
  6
CONTINUOUS
 10
1668.5782070096191
 20
1011.368503421616
 30
0.0
 11
1731.3782070096181
 21
1011.368503421616
 31
0.0
  0
LINE
  5
166B
  8
UMCL2
  6
CONTINUOUS
 10
1730.378207009619
 20
1163.868503421616
 30
0.0
 11
1730.378207009619
 21
1013.868503421616
 31
0.0
  0
SOLID
  5
166C
  8
UMCL2
  6
CONTINUOUS
 10
1729.961540342952
 20
1163.868503421616
 30
0.0
 11
1730.7948736762851
 21
1163.868503421616
 31
0.0
 12
1730.378207009619
 22
1166.368503421616
 32
0.0
 13
1730.378207009619
 23
1166.368503421616
 33
0.0
  0
SOLID
  5
166D
  8
UMCL2
  6
CONTINUOUS
 10
1729.961540342952
 20
1013.868503421616
 30
0.0
 11
1730.7948736762851
 21
1013.868503421616
 31
0.0
 12
1730.378207009619
 22
1011.368503421616
 32
0.0
 13
1730.378207009619
 23
1011.368503421616
 33
0.0
  0
INSERT
  5
166E
  8
0
  2
*U21
 10
0.0
 20
0.0
 30
0.0
  0
LINE
  5
166F
  8
UMCL2
  6
CONTINUOUS
 10
1691.491215815774
 20
1198.1685034216159
 30
0.0
 11
1739.3782070096181
 21
1198.1685034216159
 31
0.0
  0
LINE
  5
1670
  8
UMCL2
  6
CONTINUOUS
 10
1668.5782070096191
 20
1011.368503421616
 30
0.0
 11
1739.3782070096181
 21
1011.368503421616
 31
0.0
  0
LINE
  5
1671
  8
UMCL2
  6
CONTINUOUS
 10
1738.3782070096181
 20
1195.6685034216159
 30
0.0
 11
1738.3782070096181
 21
1013.868503421616
 31
0.0
  0
SOLID
  5
1672
  8
UMCL2
  6
CONTINUOUS
 10
1737.961540342952
 20
1195.6685034216159
 30
0.0
 11
1738.7948736762851
 21
1195.6685034216159
 31
0.0
 12
1738.3782070096181
 22
1198.1685034216159
 32
0.0
 13
1738.3782070096181
 23
1198.1685034216159
 33
0.0
  0
SOLID
  5
1673
  8
UMCL2
  6
CONTINUOUS
 10
1737.961540342952
 20
1013.868503421616
 30
0.0
 11
1738.7948736762851
 21
1013.868503421616
 31
0.0
 12
1738.3782070096181
 22
1011.368503421616
 32
0.0
 13
1738.3782070096181
 23
1011.368503421616
 33
0.0
  0
INSERT
  5
1674
  8
0
  2
*U22
 10
0.0
 20
0.0
 30
0.0
  0
LINE
  5
1675
  8
UMCL2
  6
CONTINUOUS
 10
1624.176000000436
 20
1185.5206978190799
 30
0.0
 11
1616.5804140188011
 21
1179.016309024152
 31
0.0
  0
INSERT
  5
1676
  8
0
  2
*U23
 10
0.0
 20
0.0
 30
0.0
  0
SOLID
  5
1677
  8
UMCL2
  6
CONTINUOUS
 10
1623.9049838006481
 20
1185.837180568315
 30
0.0
 11
1624.4470162002251
 21
1185.2042150698451
 31
0.0
 12
1626.074896495845
 22
1187.146795017811
 32
0.0
 13
1626.074896495845
 23
1187.146795017811
 33
0.0
  0
SOLID
  5
1678
  8
UMCL2
  6
CONTINUOUS
 10
1616.309397819012
 20
1179.332791773387
 30
0.0
 11
1616.851430218589
 21
1178.6998262749171
 31
0.0
 12
1614.6815175233919
 22
1177.3902118254209
 32
0.0
 13
1614.6815175233919
 23
1177.3902118254209
 33
0.0
  0
LINE
  5
1679
  8
UMCL2
  6
CONTINUOUS
 10
1626.074896495845
 20
1187.146795017811
 30
0.0
 11
1596.517515234545
 21
1161.7379164180079
 31
0.0
  0
LINE
  5
167A
  8
UMCL1
  6
HIDDEN
 62
     6
 10
1628.8782070096181
 20
1202.1685034216159
 30
0.0
 11
1632.8782070096181
 21
1198.1685034216159
 31
0.0
  0
LINE
  5
167B
  8
UMCL1
  6
HIDDEN
 62
     6
 10
1611.878207009619
 20
1202.1685034216159
 30
0.0
 11
1628.8782070096181
 21
1202.1685034216159
 31
0.0
  0
LINE
  5
167C
  8
UMCL1
  6
HIDDEN
 62
     6
 10
1607.878207009619
 20
1198.1685034216159
 30
0.0
 11
1611.878207009619
 21
1202.1685034216159
 31
0.0
  0
LINE
  5
167D
  8
UMCL2
  6
CONTINUOUS
 10
1603.3782070096181
 20
1198.1685034216159
 30
0.0
 11
1590.1217972548061
 21
1198.1685034216159
 31
0.0
  0
LINE
  5
167E
  8
UMCL2
  6
CONTINUOUS
 10
1610.878207009619
 20
1202.1685034216159
 30
0.0
 11
1590.1217972548061
 21
1202.1685034216159
 31
0.0
  0
LINE
  5
167F
  8
UMCL2
  6
CONTINUOUS
 10
1591.1217972548061
 20
1195.6685034216159
 30
0.0
 11
1591.1217972548061
 21
1193.1685034216159
 31
0.0
  0
LINE
  5
1680
  8
UMCL2
  6
CONTINUOUS
 10
1591.1217972548061
 20
1204.6685034216159
 30
0.0
 11
1591.1217972548061
 21
1207.1685034216159
 31
0.0
  0
INSERT
  5
1681
  8
0
  2
*U24
 10
0.0
 20
0.0
 30
0.0
  0
LINE
  5
1682
  8
UMCL2
  6
CONTINUOUS
 10
1591.1217972548061
 20
1198.1685034216159
 30
0.0
 11
1591.1217972548061
 21
1202.1685034216159
 31
0.0
  0
SOLID
  5
1683
  8
UMCL2
  6
CONTINUOUS
 10
1590.7051305881389
 20
1195.6685034216159
 30
0.0
 11
1591.5384639214719
 21
1195.6685034216159
 31
0.0
 12
1591.1217972548061
 22
1198.1685034216159
 32
0.0
 13
1591.1217972548061
 23
1198.1685034216159
 33
0.0
  0
SOLID
  5
1684
  8
UMCL2
  6
CONTINUOUS
 10
1590.7051305881389
 20
1204.6685034216159
 30
0.0
 11
1591.5384639214719
 21
1204.6685034216159
 31
0.0
 12
1591.1217972548061
 22
1202.1685034216159
 32
0.0
 13
1591.1217972548061
 23
1202.1685034216159
 33
0.0
  0
TEXT
  5
1685
  8
UMCL2
 10
1582.267262003531
 20
1183.311360564473
 30
0.0
 40
3.0
  1
Raise clearnce
 50
90.0
  0
LINE
  5
1686
  8
UMCL2
 10
1582.7959559727331
 20
1183.452768785568
 30
0.0
 11
1582.7959559727331
 21
1216.584123492147
 31
0.0
  0
LINE
  5
1687
  8
UMCL2
 10
1583.795955972734
 20
1183.452768785568
 30
0.0
 11
1583.795955972734
 21
1216.584123492147
 31
0.0
  0
TEXT
  5
1688
  8
UMCL2
  6
CONTINUOUS
 10
1751.2868136543059
 20
1022.455354750322
 30
0.0
 40
3.0
  1
A
  7
ROMANS
  0
CIRCLE
  5
1689
  8
UMCL2
  6
CONTINUOUS
 10
1752.7194460004559
 20
1023.702455004665
 30
0.0
 40
2.5
  0
TEXT
  5
168A
  8
UMCL2
  6
CONTINUOUS
 10
1751.2868136543059
 20
1015.78991384474
 30
0.0
 40
3.0
  1
B
  7
ROMANS
  0
CIRCLE
  5
168B
  8
UMCL2
  6
CONTINUOUS
 10
1752.7194460004559
 20
1017.037014099083
 30
0.0
 40
2.5
  0
TEXT
  5
168C
  8
UMCL2
  6
CONTINUOUS
 10
1758.2526996084059
 20
1023.085816728159
 30
0.0
 40
3.0
  1
Clamping port
  7
ROMANSS
 72
     2
 11
1789.8241281798339
 21
1024.585816728159
 31
0.0
 73
     2
  0
TEXT
  5
168D
  8
UMCL2
  6
CONTINUOUS
 10
1758.1100094774511
 20
1015.5205123533
 30
0.0
 40
3.0
  1
Unclamping port
  7
ROMANSS
 72
     2
 11
1795.110009477452
 21
1017.0205123533
 31
0.0
 73
     2
  0
LINE
  5
168E
  8
UMCL2
 10
1748.3472548624641
 20
1028.4061267568741
 30
0.0
 11
1797.3527569241919
 21
1028.4061267568741
 31
0.0
  0
LINE
  5
168F
  8
UMCL2
 10
1797.3527569241919
 20
1028.4061267568741
 30
0.0
 11
1797.3527569241919
 21
1012.605242570733
 31
0.0
  0
LINE
  5
1690
  8
UMCL2
 10
1797.3527569241919
 20
1012.605242570733
 30
0.0
 11
1748.3472548624641
 21
1012.605242570733
 31
0.0
  0
LINE
  5
1691
  8
UMCL2
 10
1748.3472548624641
 20
1012.605242570733
 30
0.0
 11
1748.3472548624641
 21
1028.4061267568741
 31
0.0
  0
TEXT
  5
1692
  8
LOGO
 62
     7
 10
1245.1505593166539
 20
964.54396145371493
 30
0.0
 40
6.2433888054046029
  1
Order example:
 41
0.8
  7
CHINESET
  0
TEXT
  5
1693
  8
LOGO
 62
     7
 10
1246.270674899069
 20
973.33336018157775
 30
0.0
 40
9.3650832081069062
  1
訂購代號：
  7
CHINESET
  0
LINE
  5
1694
  8
LOGO
 62
     4
 10
1242.437785704348
 20
938.23196337799777
 30
0.0
 11
1242.437785704348
 21
985.05737941853238
 31
0.0
  0
TEXT
  5
1695
  8
LOGO
  6
CONTINUOUS
 10
1156.24177034125
 20
947.43074569344662
 30
0.0
 40
7.0238124060801823
  1
金器工業股份有限公司
  7
CHINESET
  0
TEXT
  5
1696
  8
LOGO
  6
CONTINUOUS
 10
1143.3404165440379
 20
940.40555717082282
 30
0.0
 40
4.6825416040534531
  1
MINDMAN INDUSTRIAL CO., LTD.
 41
0.85
  7
CHINESET
  0
LINE
  5
1697
  8
LOGO
 62
     4
 10
1242.437785704348
 20
975.6922962104253
 30
0.0
 11
1173.760508844897
 21
975.6922962104253
 31
0.0
  0
LINE
  5
1698
  8
LOGO
 62
     4
 10
1242.437785704348
 20
966.32721300231856
 30
0.0
 11
1173.760508844897
 21
966.32721300231856
 31
0.0
  0
LINE
  5
1699
  8
LOGO
 62
     4
 10
1242.437785704348
 20
956.96212979421182
 30
0.0
 11
1139.421870415172
 21
956.96212979421182
 31
0.0
  0
LINE
  5
169A
  8
LOGO
 62
     4
 10
1173.760508844897
 20
956.96212979421182
 30
0.0
 11
1173.760508844897
 21
985.05737941853238
 31
0.0
  0
TEXT
  5
169B
  8
LOGO
 10
1220.6981860602391
 20
959.30340059623802
 30
0.0
 40
4.6825416040534531
  1
mm
  7
CHINESET
 72
     1
 11
1226.4956185224
 21
961.64467139826479
 31
0.0
 73
     2
  0
TEXT
  5
169C
  8
LOGO
 10
1218.245426172401
 20
978.03356701245195
 30
0.0
 40
4.6825416040534531
  1
1 : 1
  7
CHINESET
 72
     1
 11
1226.4956185224
 21
980.37483781447872
 31
0.0
 73
     2
  0
LINE
  5
169D
  8
LOGO
 62
     4
 10
1211.2208416773251
 20
956.96212979421182
 30
0.0
 11
1211.2208416773251
 21
985.05737941853238
 31
0.0
  0
TEXT
  5
169E
  8
LOGO
 10
1177.6215152478831
 20
978.03587141284765
 30
306.88606269300891
 40
4.6825416040534531
  1
比例 Scale:
 41
0.9
  7
CHINESET
 72
     4
 11
1192.4906752611109
 21
980.37483781447872
 31
306.88606269300891
  0
TEXT
  5
169F
  8
LOGO
 10
1177.3518510215781
 20
968.73435124898867
 30
306.88606269300891
 40
4.6825416040534531
  1
投影  View:
 41
0.9
  7
CHINESET
 72
     4
 11
1192.4906752611109
 21
971.00975460637187
 31
306.88606269300891
  0
TEXT
  5
16A0
  8
LOGO
 10
1177.8096530801879
 20
959.30340059623802
 30
306.88606269300891
 40
4.6825416040534531
  1
單位  Unit:
 41
0.9
  7
CHINESET
 72
     4
 11
1192.4906752611109
 21
961.64467139826479
 31
306.88606269300891
  0
POLYLINE
  5
16A1
  8
LOGO
 62
     4
 66
     1
 10
0.0
 20
0.0
 30
0.0
 70
     1
1001
GENIUS_GENREC_14
1002
{
1000
PYDIR
1011
1139.421870415172
1021
0.0
1031
0.0
1021
1366.028994668819
1031
0.0
1002
}
1002
{
1000
PXDIR
1011
1826.2097660649999
1021
0.0
1031
0.0
1021
985.05737941853238
1031
0.0
1002
}
1002
{
1000
PORI
1011
1139.421870415172
1021
0.0
1031
0.0
1021
985.05737941853238
1031
0.0
1002
}
1002
{
1000
PINS
1011
1139.421870415172
1021
0.0
1031
0.0
1021
985.05737941853238
1031
0.0
1002
}
1002
{
1000
PINS2
1011
1826.2097660649999
1021
0.0
1031
0.0
1021
1366.028994668819
1031
0.0
1002
}
1002
{
1000
C
1070
     1
1002
}
1001
GENIUS_GENODEF_13
1002
{
1000
HIER
1070
     0
1002
}
1002
{
1000
MANEDIT
1070
     0
1002
}
1002
{
1000
NOSEL
1070
     0
1002
}
1002
{
1000
BEHIND
1070
     0
1002
}
1002
{
1000
OTHER
1070
     0
1002
}
1002
{
1000
REACTOR
1002
}
1001
GENIUS_GENOBJ-N-REC_13
1002
{
1000
OWNER
1000
GEN
1002
}
  0
VERTEX
  5
19D2
  8
LOGO
 62
     4
 10
1139.421870415172
 20
985.05737941853238
 30
0.0
  0
VERTEX
  5
19D3
  8
LOGO
 62
     4
 10
1826.2097660649999
 20
985.05737941853238
 30
0.0
  0
VERTEX
  5
19D4
  8
LOGO
 62
     4
 10
1826.2097660649999
 20
1366.028994668819
 30
0.0
  0
VERTEX
  5
19D5
  8
LOGO
 62
     4
 10
1139.421870415172
 20
1366.028994668819
 30
0.0
  0
SEQEND
  5
19D6
  8
LOGO
 62
     4
  0
SOLID
  5
16A2
  8
LOGO
 62
     5
 10
1144.280082478454
 20
964.74618870363781
 30
0.0
 11
1146.304690598155
 21
964.74618870363724
 31
0.0
 12
1154.7521934424251
 22
983.94505880425174
 32
0.0
 13
1156.776801562127
 23
983.94505880425015
 33
0.0
  0
SOLID
  5
16A3
  8
LOGO
 62
     5
 10
1147.142459475275
 20
964.74618870363781
 30
0.0
 11
1149.1670675949761
 21
964.74618870363781
 31
0.0
 12
1156.776801562127
 22
982.40914919620127
 32
0.0
 13
1154.7521934424251
 23
974.98558609063059
 33
0.0
  0
SOLID
  5
16A4
  8
LOGO
 62
     2
 10
1146.304690598155
 20
964.74618870363724
 30
0.0
 11
1147.142459475275
 21
964.74618870363781
 31
0.0
 12
1156.776801562127
 22
983.94505880425015
 32
0.0
 13
1157.614570439245
 23
983.94505880425015
 33
0.0
  0
SOLID
  5
16A5
  8
LOGO
 62
     5
 10
1141.0341391678451
 20
957.76478139432425
 30
0.0
 11
1141.732279898778
 21
957.76478139432425
 31
0.0
 12
1143.6982985360121
 22
961.25548504898086
 32
0.0
 13
1144.396439266942
 23
961.25548504898086
 33
0.0
  0
SOLID
  5
16A6
  8
LOGO
 62
     5
 10
1143.6982985360121
 20
961.25548504898086
 30
0.0
 11
1144.396439266942
 21
961.25548504898086
 31
0.0
 12
1143.6982985360121
 22
957.76478139432425
 32
0.0
 13
1144.396439266942
 23
957.76478139432425
 33
0.0
  0
SOLID
  5
16A7
  8
LOGO
 62
     5
 10
1143.6982985360121
 20
957.76478139432425
 30
0.0
 11
1144.396439266942
 21
957.76478139432425
 31
0.0
 12
1146.3624579041791
 22
961.25548504898086
 32
0.0
 13
1147.0605986351111
 23
961.25548504898086
 33
0.0
  0
SOLID
  5
16A8
  8
LOGO
 62
     5
 10
1146.3624579041791
 20
961.25548504898086
 30
0.0
 11
1147.0605986351111
 21
961.25548504898086
 31
0.0
 12
1146.3624579041791
 22
957.76478139432425
 32
0.0
 13
1147.0605986351111
 23
957.76478139432425
 33
0.0
  0
POLYLINE
  5
16A9
  8
LOGO
 62
     5
 66
     1
 10
0.0
 20
0.0
 30
0.0
 40
0.6992595462053158
 41
0.6992595462053158
  0
VERTEX
  5
16AA
  8
LOGO
 62
     5
 10
1169.7638973803621
 20
959.85920358711826
 30
0.0
 42
1.0
  0
VERTEX
  5
16AB
  8
LOGO
 62
     5
 10
1167.666118741746
 20
959.85920358711826
 30
0.0
 42
1.0
  0
SEQEND
  5
16AC
  8
LOGO
 62
     5
  0
POLYLINE
  5
16AD
  8
LOGO
 62
     5
 66
     1
 10
0.0
 20
0.0
 30
0.0
 70
     1
  0
VERTEX
  5
16AE
  8
LOGO
 62
     5
 10
1163.71171269876
 20
959.51013322165204
 30
0.0
 42
1.0000000573306349
  0
VERTEX
  5
16AF
  8
LOGO
 62
     5
 10
1165.8061348915551
 20
959.51013322165204
 30
0.0
 42
1.0000000573306349
  0
SEQEND
  5
16B0
  8
LOGO
 62
     5
  0
CIRCLE
  5
16B1
  8
LOGO
 62
     5
 10
1164.758923795159
 20
959.51013322165204
 30
0.0
 40
1.0472110963970811
  0
POLYLINE
  5
16B2
  8
LOGO
 62
     5
 66
     1
 10
0.0
 20
0.0
 30
0.0
 70
     1
 40
0.6992595462053158
 41
0.6992595462053158
  0
VERTEX
  5
16B3
  8
LOGO
 62
     5
 10
1163.360404702747
 20
959.51013322165204
 30
0.0
 42
1.0
  0
VERTEX
  5
16B4
  8
LOGO
 62
     5
 10
1166.1574428875681
 20
959.51013322165204
 30
0.0
 42
1.0
  0
SEQEND
  5
16B5
  8
LOGO
 62
     5
  0
LINE
  5
16B6
  8
LOGO
 10
1170.1112895229151
 20
957.76478139432425
 30
0.0
 11
1170.1112895229151
 21
959.85920358711826
 31
0.0
  0
SOLID
  5
16B7
  8
LOGO
 62
     5
 10
1165.8060650774839
 20
961.25548504898086
 30
0.0
 11
1166.5042058084141
 21
961.25548504898086
 31
0.0
 12
1165.8060650774839
 22
957.76478139432425
 32
0.0
 13
1166.5042058084141
 23
957.76478139432425
 33
0.0
  0
SOLID
  5
16B8
  8
LOGO
 62
     5
 10
1167.318726599191
 20
957.76478139432425
 30
0.0
 11
1168.0168673301221
 21
957.76478139432425
 31
0.0
 12
1167.318726599191
 22
961.25548504898086
 32
0.0
 13
1168.0168673301221
 23
961.25548504898086
 33
0.0
  0
SOLID
  5
16B9
  8
LOGO
 62
     5
 10
1169.413148791986
 20
959.85920358711826
 30
0.0
 11
1170.1112895229151
 21
959.85920358711826
 31
0.0
 12
1169.413148791986
 22
957.76478139432425
 32
0.0
 13
1170.1112895229151
 23
957.76478139432425
 33
0.0
  0
SOLID
  5
16BA
  8
LOGO
 62
     5
 10
1167.248912526097
 20
982.40914919620127
 30
0.0
 11
1165.2243044063971
 21
974.98558609063059
 31
0.0
 12
1167.248912526097
 22
964.74618870363724
 32
0.0
 13
1165.2243044063971
 23
964.74618870363724
 33
0.0
  0
SOLID
  5
16BB
  8
LOGO
 62
     5
 10
1168.0866814032161
 20
964.74618870363724
 30
0.0
 11
1170.1112895229151
 21
964.74618870363724
 31
0.0
 12
1168.0866814032161
 22
983.94505880425015
 32
0.0
 13
1170.1112895229151
 23
983.94505880425174
 33
0.0
  0
SOLID
  5
16BC
  8
LOGO
 62
     2
 10
1167.248912526097
 20
983.94505880425174
 30
0.0
 11
1168.0866814032161
 21
983.94505880425015
 31
0.0
 12
1167.248912526097
 22
964.74618870363724
 32
0.0
 13
1168.0866814032161
 23
964.74618870363724
 33
0.0
  0
POLYLINE
  5
16BD
  8
LOGO
 62
     5
 66
     1
 10
0.0
 20
0.0
 30
0.0
 40
0.6992595462053158
 41
0.6992595462053158
  0
VERTEX
  5
16BE
  8
LOGO
 62
     5
 10
1159.75716702763
 20
959.85920358711826
 30
0.0
 42
1.0
  0
VERTEX
  5
16BF
  8
LOGO
 62
     5
 10
1157.6593883890141
 20
959.85920358711826
 30
0.0
 42
1.0
  0
SEQEND
  5
16C0
  8
LOGO
 62
     5
  0
POLYLINE
  5
16C1
  8
LOGO
 62
     5
 66
     1
 10
0.0
 20
0.0
 30
0.0
 40
0.6992595462053158
 41
0.6992595462053158
  0
VERTEX
  5
16C2
  8
LOGO
 62
     5
 10
1161.851589220423
 20
959.85920358711826
 30
0.0
 42
1.0
  0
VERTEX
  5
16C3
  8
LOGO
 62
     5
 10
1159.7538105818071
 20
959.85920358711826
 30
0.0
 42
1.0
  0
SEQEND
  5
16C4
  8
LOGO
 62
     5
  0
POLYLINE
  5
16C5
  8
LOGO
 62
     5
 66
     1
 10
0.0
 20
0.0
 30
0.0
 40
0.6992595462053158
 41
0.6992595462053158
  0
VERTEX
  5
16C6
  8
LOGO
 62
     5
 10
1151.8448588676911
 20
959.85920358711826
 30
0.0
 42
1.0
  0
VERTEX
  5
16C7
  8
LOGO
 62
     5
 10
1149.7470802290759
 20
959.85920358711826
 30
0.0
 42
1.0
  0
SEQEND
  5
16C8
  8
LOGO
 62
     5
  0
SOLID
  5
16C9
  8
LOGO
 62
     5
 10
1149.3996880865211
 20
961.25548504898086
 30
0.0
 11
1150.097828817451
 21
961.25548504898086
 31
0.0
 12
1149.3996880865211
 22
957.76478139432425
 32
0.0
 13
1150.097828817451
 23
957.76478139432425
 33
0.0
  0
SOLID
  5
16CA
  8
LOGO
 62
     5
 10
1151.494110279315
 20
959.85920358711826
 30
0.0
 11
1152.1922510102479
 21
959.85920358711826
 31
0.0
 12
1151.494110279315
 22
957.76478139432425
 32
0.0
 13
1152.1922510102479
 23
957.76478139432425
 33
0.0
  0
POLYLINE
  5
16CB
  8
LOGO
 62
     5
 66
     1
 10
0.0
 20
0.0
 30
0.0
 70
     1
 40
0.6992595462053158
 41
0.6992595462053158
  0
VERTEX
  5
16CC
  8
LOGO
 62
     5
 10
1153.353674350014
 20
959.51013322165204
 30
0.0
 42
1.0
  0
VERTEX
  5
16CD
  8
LOGO
 62
     5
 10
1156.150712534836
 20
959.51013322165204
 30
0.0
 42
1.0
  0
SEQEND
  5
16CE
  8
LOGO
 62
     5
  0
SOLID
  5
16CF
  8
LOGO
 62
     5
 10
1155.7993347247509
 20
962.30269614537826
 30
0.0
 11
1156.4974754556811
 21
962.30269614537826
 31
0.0
 12
1155.7993347247509
 22
957.76478139432425
 32
0.0
 13
1156.4974754556811
 23
957.76478139432425
 33
0.0
  0
SOLID
  5
16D0
  8
LOGO
 62
     5
 10
1157.3119962464609
 20
961.25548504898086
 30
0.0
 11
1158.0101369773911
 21
961.25548504898086
 31
0.0
 12
1157.3119962464609
 22
957.76478139432425
 32
0.0
 13
1158.0101369773911
 23
957.76478139432425
 33
0.0
  0
SOLID
  5
16D1
  8
LOGO
 62
     5
 10
1159.4064184392521
 20
959.85920358711826
 30
0.0
 11
1160.104559170185
 21
959.85920358711826
 31
0.0
 12
1159.4064184392521
 22
957.76478139432425
 32
0.0
 13
1160.104559170185
 23
957.76478139432425
 33
0.0
  0
SOLID
  5
16D2
  8
LOGO
 62
     5
 10
1161.5008406320469
 20
959.85920358711826
 30
0.0
 11
1162.198981362978
 21
959.85920358711826
 31
0.0
 12
1161.5008406320469
 22
957.76478139432334
 32
0.0
 13
1162.198981362978
 23
957.76478139432334
 33
0.0
  0
SOLID
  5
16D3
  8
LOGO
 62
     5
 10
1147.887026564812
 20
961.74418356063325
 30
0.0
 11
1148.5851672957449
 21
961.74418356063325
 31
0.0
 12
1147.887026564812
 22
962.30269614537826
 32
0.0
 13
1148.5851672957449
 23
962.30269614537826
 33
0.0
  0
SOLID
  5
16D4
  8
LOGO
 62
     5
 10
1147.887026564812
 20
961.25548504898086
 30
0.0
 11
1148.5851672957449
 21
961.25548504898086
 31
0.0
 12
1147.887026564812
 22
957.76478139432334
 32
0.0
 13
1148.5851672957449
 23
957.76478139432425
 33
0.0
  0
SOLID
  5
16D5
  8
LOGO
 62
     5
 10
1154.7521934424251
 20
964.74618870363781
 30
0.0
 11
1156.776801562127
 21
964.74618870363781
 31
0.0
 12
1154.7521934424251
 22
974.98558609063059
 32
0.0
 13
1156.776801562127
 23
982.40914919620127
 33
0.0
  0
SOLID
  5
16D6
  8
LOGO
 62
     5
 10
1157.614570439245
 20
983.94505880425015
 30
0.0
 11
1159.639178558946
 21
983.94505880425174
 31
0.0
 12
1157.614570439245
 22
966.2820983116867
 32
0.0
 13
1159.639178558946
 23
973.70566141725726
 33
0.0
  0
SOLID
  5
16D7
  8
LOGO
 62
     2
 10
1156.776801562127
 20
983.94505880425015
 30
0.0
 11
1157.614570439245
 21
983.94505880425015
 31
0.0
 12
1156.776801562127
 22
964.74618870363781
 32
0.0
 13
1157.614570439245
 23
964.74618870363781
 33
0.0
  0
SOLID
  5
16D8
  8
LOGO
 62
     5
 10
1157.614570439245
 20
966.2820983116867
 30
0.0
 11
1159.639178558946
 21
973.70566141725726
 31
0.0
 12
1167.248912526097
 22
983.94505880425174
 32
0.0
 13
1165.2243044063971
 23
983.94505880425174
 33
0.0
  0
SOLID
  5
16D9
  8
LOGO
 62
     5
 10
1157.614570439245
 20
964.74618870363781
 30
0.0
 11
1159.639178558946
 21
964.74618870363781
 31
0.0
 12
1167.248912526097
 22
982.40914919620127
 32
0.0
 13
1165.2243044063971
 23
974.98558609063059
 33
0.0
  0
SOLID
  5
16DA
  8
LOGO
 62
     2
 10
1156.776801562127
 20
964.74618870363781
 30
0.0
 11
1157.614570439245
 21
964.74618870363781
 31
0.0
 12
1167.248912526097
 22
983.94505880425174
 32
0.0
 13
1168.0866814032161
 23
983.94505880425015
 33
0.0
  0
POLYLINE
  5
16DB
  8
LOGO
 62
     4
 66
     1
 10
0.0
 20
0.0
 30
0.0
 70
     1
1001
GENIUS_GENREC_14
1002
{
1000
PYDIR
1011
1139.421870415172
1021
0.0
1031
0.0
1021
938.23196337799709
1031
0.0
1002
}
1002
{
1000
PXDIR
1011
1826.2097660649999
1021
0.0
1031
0.0
1021
985.05737941853238
1031
0.0
1002
}
1002
{
1000
PORI
1011
1139.421870415172
1021
0.0
1031
0.0
1021
985.05737941853238
1031
0.0
1002
}
1002
{
1000
PINS
1011
1139.421870415172
1021
0.0
1031
0.0
1021
985.05737941853238
1031
0.0
1002
}
1002
{
1000
PINS2
1011
1826.2097660649999
1021
0.0
1031
0.0
1021
938.23196337799709
1031
0.0
1002
}
1002
{
1000
C
1070
     1
1002
}
1001
GENIUS_GENOBJ-N-REC_13
1002
{
1000
OWNER
1000
GEN
1002
}
1001
GENIUS_GENODEF_13
1002
{
1000
HIER
1070
     0
1002
}
1002
{
1000
MANEDIT
1070
     0
1002
}
1002
{
1000
NOSEL
1070
     0
1002
}
1002
{
1000
BEHIND
1070
     0
1002
}
1002
{
1000
OTHER
1070
     0
1002
}
1002
{
1000
REACTOR
1002
}
  0
VERTEX
  5
19D7
  8
LOGO
 62
     4
 10
1139.421870415172
 20
985.05737941853238
 30
0.0
  0
VERTEX
  5
19D8
  8
LOGO
 62
     4
 10
1826.2097660649999
 20
985.05737941853238
 30
0.0
  0
VERTEX
  5
19D9
  8
LOGO
 62
     4
 10
1826.2097660649999
 20
938.23196337799709
 30
0.0
  0
VERTEX
  5
19DA
  8
LOGO
 62
     4
 10
1139.421870415172
 20
938.23196337799709
 30
0.0
  0
SEQEND
  5
19DB
  8
LOGO
 62
     4
  0
LINE
  5
16DC
  8
LOGO
 62
     4
 10
1338.0610112776619
 20
959.30340059623904
 30
0.0
 11
1338.0610112776619
 21
942.13408138137561
 31
0.0
  0
LINE
  5
16DD
  8
LOGO
 62
     4
 10
1306.8440672506381
 20
959.30340059623904
 30
0.0
 11
1306.8440672506381
 21
942.13408138137561
 31
0.0
  0
LINE
  5
16DE
  8
LOGO
 62
     4
 10
1338.0610112776619
 20
942.13408138137561
 30
0.0
 11
1306.8440672506381
 21
942.13408138137561
 31
0.0
  0
LINE
  5
16DF
  8
LOGO
 62
     4
 10
1343.6601019471391
 20
980.37483781447872
 30
0.0
 11
1306.8440672506381
 21
980.37483781447872
 31
0.0
  0
LINE
  5
16E0
  8
LOGO
 62
     4
 10
1343.6601019471391
 20
966.32721300231856
 30
0.0
 11
1306.8440672506381
 21
966.32721300231856
 31
0.0
  0
LINE
  5
16E1
  8
LOGO
 62
     4
 10
1306.8440672506381
 20
980.37483781447872
 30
0.0
 11
1306.8440672506381
 21
966.32721300231856
 31
0.0
  0
LINE
  5
16E2
  8
LOGO
 62
     4
 10
1343.6601019471391
 20
980.37483781447872
 30
0.0
 11
1343.6601019471391
 21
966.32721300231856
 31
0.0
  0
LINE
  5
16E3
  8
LOGO
 62
     4
 10
1324.0812796695609
 20
966.32721300231856
 30
0.0
 11
1324.0812796695609
 21
959.30340059623904
 31
0.0
  0
TEXT
  5
16E4
  8
LOGO
  6
CONTINUOUS
 10
1309.3401101742279
 20
969.25963414423165
 30
0.0
 40
8.1956345053024542
  1
MHCK
  7
CHINESET
  0
LINE
  5
16E5
  8
LOGO
 62
     4
 10
1338.0610112776619
 20
959.30340059623904
 30
0.0
 11
1306.8440672506381
 21
959.30340059623904
 31
0.0
  0
TEXT
  5
16E6
  8
LOGO
  6
CONTINUOUS
 10
1316.8614857575701
 20
944.55749438016608
 30
306.88606269300891
 40
3.5124147879867671
  1
Model
 41
0.8
  7
CHINESET
  0
TEXT
  5
16E7
  8
LOGO
 10
1315.92659512259
 20
951.06875441767977
 30
306.88606269300891
 40
5.8540246466446124
  1
型號
  7
CHINESET
  0
LINE
  5
16E8
  8
LOGO
  6
CONTINUOUS
 10
1347.1798101067
 20
973.30126650126476
 30
0.0
 11
1353.3827286486969
 21
973.30126650126476
 31
0.0
  0
LINE
  5
16E9
  8
LOGO
 62
     4
 10
1378.538225356235
 20
959.30340059623904
 30
0.0
 11
1378.538225356235
 21
942.13408138137561
 31
0.0
  0
LINE
  5
16EA
  8
LOGO
 62
     4
 10
1347.3212813292121
 20
959.30340059623904
 30
0.0
 11
1347.3212813292121
 21
942.13408138137561
 31
0.0
  0
LINE
  5
16EB
  8
LOGO
 62
     4
 10
1378.538225356235
 20
942.13408138137561
 30
0.0
 11
1347.3212813292121
 21
942.13408138137561
 31
0.0
  0
LINE
  5
16EC
  8
LOGO
 62
     4
 10
1379.3432524506029
 20
980.37483781447872
 30
0.0
 11
1355.339422473347
 21
980.37483781447872
 31
0.0
  0
LINE
  5
16ED
  8
LOGO
 62
     4
 10
1379.3432524506029
 20
966.32721300231856
 30
0.0
 11
1355.339422473347
 21
966.32721300231856
 31
0.0
  0
LINE
  5
16EE
  8
LOGO
 62
     4
 10
1355.339422473347
 20
980.37483781447872
 30
0.0
 11
1355.339422473347
 21
966.32721300231856
 31
0.0
  0
LINE
  5
16EF
  8
LOGO
 62
     4
 10
1379.3432524506029
 20
980.37483781447872
 30
0.0
 11
1379.3432524506029
 21
966.32721300231856
 31
0.0
  0
LINE
  5
16F0
  8
LOGO
 62
     4
 10
1367.3413374619749
 20
966.32721300231856
 30
0.0
 11
1367.3413374619749
 21
959.30340059623904
 31
0.0
  0
TEXT
  5
16F1
  8
LOGO
  6
CONTINUOUS
 10
1360.4915086473629
 20
968.98239598053885
 30
0.0
 40
8.1956345053024542
  1
63
  7
CHINESET
  0
LINE
  5
16F2
  8
LOGO
 62
     4
 10
1378.538225356235
 20
959.30340059623904
 30
0.0
 11
1347.3212813292121
 21
959.30340059623904
 31
0.0
  0
LINE
  5
16F3
  8
LOGO
  6
CONTINUOUS
 10
1381.3414432982249
 20
973.30126650126476
 30
0.0
 11
1387.5443618402221
 21
973.30126650126476
 31
0.0
  0
LINE
  5
16F4
  8
LOGO
 62
     4
 10
1418.654482045888
 20
959.30340059623904
 30
0.0
 11
1418.654482045888
 21
942.13408138137561
 31
0.0
  0
LINE
  5
16F5
  8
LOGO
 62
     4
 10
1382.2807674707719
 20
959.30340059623904
 30
0.0
 11
1382.2807674707719
 21
942.13408138137561
 31
0.0
  0
LINE
  5
16F6
  8
LOGO
 62
     4
 10
1418.654482045888
 20
942.13408138137561
 30
0.0
 11
1382.2807674707719
 21
942.13408138137561
 31
0.0
  0
LINE
  5
16F7
  8
LOGO
 62
     4
 10
1404.4473383652521
 20
980.37483781447872
 30
0.0
 11
1389.5010556648731
 21
980.37483781447872
 31
0.0
  0
LINE
  5
16F8
  8
LOGO
 62
     4
 10
1404.4473383652521
 20
966.32721300231856
 30
0.0
 11
1389.5010556648731
 21
966.32721300231856
 31
0.0
  0
LINE
  5
16F9
  8
LOGO
 62
     4
 10
1389.5010556648731
 20
980.37483781447872
 30
0.0
 11
1389.5010556648731
 21
966.32721300231856
 31
0.0
  0
LINE
  5
16FA
  8
LOGO
 62
     4
 10
1404.4473383652521
 20
980.37483781447872
 30
0.0
 11
1404.4473383652521
 21
966.32721300231856
 31
0.0
  0
LINE
  5
16FB
  8
LOGO
 62
     4
 10
1397.0772717985419
 20
966.32721300231856
 30
0.0
 11
1397.0772717985419
 21
959.30340059623904
 31
0.0
  0
TEXT
  5
16FC
  8
LOGO
  6
CONTINUOUS
 10
1394.5386662945921
 20
969.25963414423165
 30
0.0
 40
8.1956345053024542
  1
*
  7
CHINESET
  0
LINE
  5
16FD
  8
LOGO
 62
     4
 10
1418.654482045888
 20
959.30340059623904
 30
0.0
 11
1382.2807674707719
 21
959.30340059623904
 31
0.0
  0
TEXT
  5
16FE
  8
LOGO
  6
CONTINUOUS
 10
1353.8599552324399
 20
944.55749438016608
 30
306.88606269300891
 40
3.5124147879867671
  1
Tube I.D.
 41
0.8
  7
CHINESET
  0
TEXT
  5
16FF
  8
LOGO
 10
1356.1705273783809
 20
951.06875441767977
 30
306.88606269300891
 40
5.8540246466446124
  1
內徑
  7
CHINESET
  0
TEXT
  5
1700
  8
LOGO
  6
CONTINUOUS
 10
1385.9477574832611
 20
944.55749438016608
 30
306.88606269300891
 40
3.5124147879867671
  1
Manifold type
 41
0.8
  7
CHINESET
  0
TEXT
  5
1701
  8
LOGO
 10
1388.7396349374619
 20
951.06875441767977
 30
306.88606269300891
 40
5.8540246466446124
  1
油口型式
  7
CHINESET
  0
TEXT
  5
1702
  8
LOGO
 10
1244.2951559313669
 20
940.723057029659
 30
0.0
 40
4.6832197173156898
  1
10904070
 41
0.7
  7
CHINESET
 72
     1
 11
1256.0032052246561
 21
940.723057029659
 31
0.0
  0
LINE
  5
1703
  8
LOGO
 62
     4
 10
1270.53710400824
 20
947.59704658610576
 30
0.0
 11
1270.537104008243
 21
938.23196337799845
 31
0.0
  0
LINE
  5
1704
  8
LOGO
 62
     4
 10
1270.53710400824
 20
947.59704658610576
 30
0.0
 11
1242.437785704348
 21
947.59704658610576
 31
0.0
  0
CIRCLE
  5
1705
  8
LOGO
  6
CONTINUOUS
 10
1219.891153140275
 20
971.0197705971292
 30
0.0
 40
2.7187938699186951
  0
CIRCLE
  5
1706
  8
LOGO
  6
CONTINUOUS
 10
1219.891153140275
 20
971.0197705971292
 30
0.0
 40
1.5929725265684691
  0
LINE
  5
1707
  8
LOGO
 10
1236.9763692943441
 20
968.30097672721024
 30
0.0
 11
1236.9763692943441
 21
973.73856446704849
 31
0.0
  0
LINE
  5
1708
  8
LOGO
 10
1228.453106578364
 20
969.42679807056118
 30
0.0
 11
1228.453106578364
 21
972.61274312369801
 31
0.0
  0
LINE
  5
1709
  8
LOGO
  6
CONTINUOUS
 10
1228.453106578364
 20
972.61274312369801
 30
0.0
 11
1236.9763692943441
 21
973.73856446704849
 31
0.0
  0
LINE
  5
170A
  8
LOGO
  6
CONTINUOUS
 10
1228.453106578364
 20
969.42679807056118
 30
0.0
 11
1236.9763692943441
 21
968.30097672721024
 31
0.0
  0
LINE
  5
170B
  8
LOGO
  6
AM_ISO08W050X2
 10
1216.14325507986
 20
971.0197705971292
 30
0.0
 11
1223.639051200691
 21
971.0197705971292
 31
0.0
1001
GENIUS_GENOREF_13
1005
189A
  0
LINE
  5
170C
  8
LOGO
  6
AM_ISO08W050X2
 10
1219.891153140275
 20
967.271872536714
 30
0.0
 11
1219.891153140275
 21
974.76766865754485
 31
0.0
1001
GENIUS_GENOREF_13
1005
1899
  0
LINE
  5
170D
  8
LOGO
  6
CENTER
 10
1227.7714824640641
 20
971.0197705971292
 30
0.0
 11
1237.834634258619
 21
971.0197705971292
 31
0.0
1001
GENIUS_GENOREF_13
1005
1898
  0
LINE
  5
170E
  8
LOGO
 62
     4
 10
1482.8158182400859
 20
1366.028994668819
 30
0.0
 11
1482.8158182400859
 21
985.05737941853215
 31
0.0
  0
TEXT
  5
170F
  8
UMCL2
  6
CONTINUOUS
 10
1311.167125764716
 20
1228.903327341641
 30
0.0
 40
3.0
  1
A
  7
ROMANS
  0
CIRCLE
  5
1710
  8
UMCL2
  6
CONTINUOUS
 10
1312.8862845800959
 20
1230.399847646853
 30
0.0
 40
3.0
  0
TEXT
  5
1711
  8
UMCL2
  6
CONTINUOUS
 10
1264.34789080726
 20
1227.8176248836489
 30
0.0
 40
3.0
  1
B
  7
ROMANS
  0
CIRCLE
  5
1712
  8
UMCL2
  6
CONTINUOUS
 10
1266.0151831819189
 20
1229.612325396992
 30
0.0
 40
3.0
  0
CIRCLE
  5
1713
  8
UMCL1
  6
CONTINUOUS
 10
1251.6393460980969
 20
1325.19374990654
 30
0.0
 40
5.5
  0
CIRCLE
  5
1714
  8
UMCL1
  6
CONTINUOUS
 10
1251.6393460980969
 20
1325.19374990654
 30
0.0
 40
9.0
  0
CIRCLE
  5
1715
  8
UMCL1
  6
CONTINUOUS
 10
1289.139346098098
 20
1182.2685034216161
 30
0.0
 40
7.5
  0
LINE
  5
1716
  8
UMCL1
  6
CONTINUOUS
 10
1271.6393460980989
 20
1160.7685034216161
 30
0.0
 11
1306.6393460980989
 21
1160.7685034216161
 31
0.0
  0
LINE
  5
1717
  8
UMCL1
  6
CONTINUOUS
 10
1272.639346098098
 20
1162.7685034216161
 30
0.0
 11
1305.6393460980989
 21
1162.7685034216161
 31
0.0
  0
LINE
  5
1718
  8
UMCL1
  6
HIDDEN
 62
     3
 10
1297.6393460980969
 20
1198.1685034216159
 30
0.0
 11
1305.6393460980969
 21
1190.1685034216159
 31
0.0
  0
LINE
  5
1719
  8
UMCL1
  6
HIDDEN
 62
     3
 10
1305.6393460980969
 20
1190.1685034216159
 30
0.0
 11
1303.836284554797
 21
1190.1685034216159
 31
0.0
  0
LINE
  5
171A
  8
UMCL1
  6
HIDDEN
 62
     2
 10
1280.639346098098
 20
1198.1685034216159
 30
0.0
 11
1297.6393460980969
 21
1198.1685034216159
 31
0.0
  0
LINE
  5
171B
  8
UMCL1
  6
CONTINUOUS
 10
1272.639346098098
 20
1162.7685034216161
 30
0.0
 11
1272.639346098098
 21
1190.1685034216159
 31
0.0
  0
CIRCLE
  5
171C
  8
UMCL1
  6
CONTINUOUS
 10
1326.639346098098
 20
1325.19374990654
 30
0.0
 40
5.5
  0
ARC
  5
171D
  8
UMCL1
  6
CONTINUOUS
 10
1326.639346098098
 20
1325.19374990654
 30
0.0
 40
9.0
 50
289.18813645371648
 51
250.81186354628349
  0
CIRCLE
  5
171E
  8
UMCL1
  6
CONTINUOUS
 10
1251.6393460980969
 20
1250.19374990654
 30
0.0
 40
5.5
  0
CIRCLE
  5
171F
  8
UMCL1
  6
CONTINUOUS
 10
1251.6393460980969
 20
1250.19374990654
 30
0.0
 40
9.0
  0
CIRCLE
  5
1720
  8
UMCL1
  6
CONTINUOUS
 10
1326.639346098098
 20
1250.19374990654
 30
0.0
 40
5.5
  0
ARC
  5
1721
  8
UMCL1
  6
CONTINUOUS
 10
1326.639346098098
 20
1250.19374990654
 30
0.0
 40
9.0
 50
109.1881364537164
 51
70.811863546283533
  0
LINE
  5
1722
  8
UMCL1
  6
CONTINUOUS
 10
1305.6393460980989
 20
1162.7685034216161
 30
0.0
 11
1306.6393460980989
 21
1160.7685034216161
 31
0.0
  0
LINE
  5
1723
  8
UMCL1
  6
CONTINUOUS
 10
1306.6393460980989
 20
1160.7685034216161
 30
0.0
 11
1306.639346098098
 21
1122.368503421616
 31
0.0
  0
LINE
  5
1724
  8
UMCL1
  6
CONTINUOUS
 10
1271.6393460980989
 20
1160.7685034216161
 30
0.0
 11
1272.639346098098
 21
1162.7685034216161
 31
0.0
  0
LINE
  5
1725
  8
UMCL1
  6
HIDDEN
 62
     3
 10
1273.139346098098
 20
1190.6685034216159
 30
0.0
 11
1280.639346098098
 21
1198.1685034216159
 31
0.0
  0
LINE
  5
1726
  8
UMCL1
  6
HIDDEN
 62
     3
 10
1273.139346098098
 20
1190.1685034216159
 30
0.0
 11
1274.4424076413979
 21
1190.1685034216159
 31
0.0
  0
LINE
  5
1727
  8
UMCL1
  6
CONTINUOUS
 10
1273.139346098098
 20
1190.6685034216159
 30
0.0
 11
1272.639346098098
 21
1190.1685034216159
 31
0.0
  0
LINE
  5
1728
  8
UMCL1
  6
CONTINUOUS
 10
1273.139346098098
 20
1190.1685034216159
 30
0.0
 11
1272.639346098098
 21
1190.1685034216159
 31
0.0
  0
LINE
  5
1729
  8
UMCL1
  6
HIDDEN
 62
     3
 10
1274.4424076413979
 20
1191.9715649649161
 30
0.0
 11
1274.4424076413979
 21
1174.0654418783149
 31
0.0
  0
LINE
  5
172A
  8
UMCL1
  6
CONTINUOUS
 10
1274.4424076413979
 20
1174.0654418783149
 30
0.0
 11
1274.4424076413991
 21
1162.7685034216161
 31
0.0
  0
LINE
  5
172B
  8
UMCL1
  6
HIDDEN
 62
     3
 10
1305.6393460980969
 20
1190.1685034216159
 30
0.0
 11
1305.639346098098
 21
1166.368503421616
 31
0.0
  0
LINE
  5
172C
  8
UMCL1
  6
HIDDEN
 62
     3
 10
1303.836284554797
 20
1191.971564964917
 30
0.0
 11
1303.836284554797
 21
1166.368503421616
 31
0.0
  0
LINE
  5
172D
  8
UMCL1
  6
CONTINUOUS
 10
1303.836284554797
 20
1166.368503421616
 30
0.0
 11
1303.836284554797
 21
1162.7685034216161
 31
0.0
  0
LINE
  5
172E
  8
UMCL1
  6
CONTINUOUS
 10
1305.639346098098
 20
1166.368503421616
 30
0.0
 11
1305.6393460980989
 21
1162.7685034216161
 31
0.0
  0
LINE
  5
172F
  8
UMCL1
  6
HIDDEN
 62
     3
 10
1309.139346098098
 20
1198.1685034216159
 30
0.0
 11
1309.139346098098
 21
1166.368503421616
 31
0.0
  0
LINE
  5
1730
  8
UMCL1
  6
CONTINUOUS
 10
1359.252354904253
 20
1303.5937499065401
 30
0.0
 11
1359.252354904253
 21
1271.7937499065399
 31
0.0
  0
ARC
  5
1731
  8
UMCL1
  6
CONTINUOUS
 10
1289.139346098098
 20
1287.69374990654
 30
0.0
 40
17.5
 50
334.62306647485087
 51
25.37693352514912
  0
ARC
  5
1732
  8
UMCL1
  6
CONTINUOUS
 10
1289.139346098098
 20
1287.69374990654
 30
0.0
 40
16.5
 50
332.96430821058118
 51
27.035691789418781
  0
ARC
  5
1733
  8
UMCL1
  6
CONTINUOUS
 10
1289.139346098098
 20
1287.69374990654
 30
0.0
 40
8.5
 50
298.0724869358545
 51
61.927513064145501
  0
ARC
  5
1734
  8
UMCL1
  6
CONTINUOUS
 10
1289.139346098098
 20
1287.69374990654
 30
0.0
 40
17.5
 50
154.6230664748509
 51
205.3769335251491
  0
ARC
  5
1735
  8
UMCL1
  6
CONTINUOUS
 10
1289.139346098098
 20
1287.69374990654
 30
0.0
 40
16.5
 50
152.96430821058121
 51
207.03569178941879
  0
ARC
  5
1736
  8
UMCL1
  6
CONTINUOUS
 10
1289.139346098098
 20
1287.69374990654
 30
0.0
 40
8.5
 50
118.0724869358545
 51
241.9275130641455
  0
LINE
  5
1737
  8
UMCL1
  6
CONTINUOUS
 10
1359.252354904253
 20
1198.1685034216159
 30
0.0
 11
1359.252354904253
 21
1166.368503421616
 31
0.0
  0
LINE
  5
1738
  8
UMCL1
  6
CONTINUOUS
 10
1359.252354904253
 20
1271.7937499065399
 30
0.0
 11
1383.139346098098
 21
1278.1942499065401
 31
0.0
  0
LINE
  5
1739
  8
UMCL1
  6
CONTINUOUS
 10
1383.139346098098
 20
1278.1942499065401
 30
0.0
 11
1383.139346098098
 21
1297.1932499065399
 31
0.0
  0
LINE
  5
173A
  8
UMCL1
  6
CONTINUOUS
 10
1383.139346098098
 20
1297.1932499065399
 30
0.0
 11
1359.252354904253
 21
1303.5937499065401
 31
0.0
  0
LINE
  5
173B
  8
UMCL1
  6
CONTINUOUS
 10
1273.139346098098
 20
1303.5937499065401
 30
0.0
 11
1273.139346098098
 21
1295.19374990654
 31
0.0
  0
LINE
  5
173C
  8
UMCL1
  6
CONTINUOUS
 10
1273.139346098098
 20
1295.19374990654
 30
0.0
 11
1309.139346098098
 21
1295.19374990654
 31
0.0
  0
LINE
  5
173D
  8
UMCL1
  6
CONTINUOUS
 10
1309.139346098098
 20
1295.19374990654
 30
0.0
 11
1309.139346098098
 21
1280.19374990654
 31
0.0
  0
LINE
  5
173E
  8
UMCL1
  6
CONTINUOUS
 10
1309.139346098098
 20
1280.19374990654
 30
0.0
 11
1273.139346098098
 21
1280.19374990654
 31
0.0
  0
LINE
  5
173F
  8
UMCL1
  6
CONTINUOUS
 10
1273.139346098098
 20
1280.19374990654
 30
0.0
 11
1273.139346098098
 21
1271.7937499065399
 31
0.0
  0
LINE
  5
1740
  8
UMCL1
  6
CONTINUOUS
 10
1383.139346098098
 20
1185.368503421616
 30
0.0
 11
1359.252354904253
 21
1198.1685034216159
 31
0.0
  0
LINE
  5
1741
  8
UMCL1
  6
CONTINUOUS
 10
1273.139346098098
 20
1198.1685034216159
 30
0.0
 11
1273.139346098098
 21
1175.368503421616
 31
0.0
  0
LINE
  5
1742
  8
UMCL1
  6
CONTINUOUS
 10
1273.139346098098
 20
1175.368503421616
 30
0.0
 11
1282.139346098098
 21
1166.368503421616
 31
0.0
  0
LINE
  5
1743
  8
UMCL1
  6
CONTINUOUS
 10
1282.139346098098
 20
1166.368503421616
 30
0.0
 11
1310.139346098098
 21
1166.368503421616
 31
0.0
  0
CIRCLE
  5
1744
  8
UMCL1
  6
CONTINUOUS
 10
1325.139346098098
 20
1143.2685034216161
 30
0.0
 40
7.5
  0
CIRCLE
  5
1745
  8
UMCL1
  6
CONTINUOUS
 10
1325.139346098098
 20
1182.2685034216161
 30
0.0
 40
7.5
  0
LINE
  5
1746
  8
UMCL1
  6
CONTINUOUS
 10
1340.139346098098
 20
1143.2685034216161
 30
0.0
 11
1340.139346098098
 21
1182.2685034216161
 31
0.0
  0
ARC
  5
1747
  8
UMCL1
  6
CONTINUOUS
 10
1325.139346098098
 20
1182.2685034216161
 30
0.0
 40
15.00000000000006
 50
0.0
 51
180.0
  0
LINE
  5
1748
  8
UMCL1
  6
CONTINUOUS
 10
1310.139346098098
 20
1182.2685034216161
 30
0.0
 11
1310.139346098098
 21
1143.2685034216161
 31
0.0
  0
ARC
  5
1749
  8
UMCL1
  6
CONTINUOUS
 10
1325.139346098098
 20
1143.2685034216161
 30
0.0
 40
15.0
 50
180.0
 51
0.0
  0
LINE
  5
174A
  8
UMCL1
  6
HIDDEN
 62
     3
 10
1340.139346098098
 20
1147.010173172418
 30
0.0
 11
1333.639346098098
 21
1158.2685034216161
 31
0.0
  0
LINE
  5
174B
  8
UMCL1
  6
CONTINUOUS
 10
1340.139346098098
 20
1147.010173172418
 30
0.0
 11
1340.139346098098
 21
1122.368503421616
 31
0.0
  0
LINE
  5
174C
  8
UMCL1
  6
CONTINUOUS
 10
1310.139346098098
 20
1147.0101731724189
 30
0.0
 11
1310.139346098098
 21
1122.368503421616
 31
0.0
  0
LINE
  5
174D
  8
UMCL1
  6
HIDDEN
 62
     3
 10
1333.639346098098
 20
1158.2685034216161
 30
0.0
 11
1316.639346098098
 21
1158.2685034216161
 31
0.0
  0
LINE
  5
174E
  8
UMCL1
  6
HIDDEN
 62
     3
 10
1310.139346098098
 20
1147.0101731724189
 30
0.0
 11
1316.639346098098
 21
1158.2685034216161
 31
0.0
  0
LINE
  5
174F
  8
UMCL1
  6
CONTINUOUS
 10
1279.889346098098
 20
1303.5937499065401
 30
0.0
 11
1279.889346098098
 21
1304.69374990654
 31
0.0
  0
LINE
  5
1750
  8
UMCL1
  6
CONTINUOUS
 10
1279.889346098098
 20
1304.69374990654
 30
0.0
 11
1298.389346098098
 21
1304.69374990654
 31
0.0
  0
LINE
  5
1751
  8
UMCL1
  6
CONTINUOUS
 10
1298.389346098098
 20
1304.69374990654
 30
0.0
 11
1298.389346098098
 21
1303.5937499065401
 31
0.0
  0
LINE
  5
1752
  8
UMCL1
  6
CONTINUOUS
 10
1281.989346098097
 20
1304.69374990654
 30
0.0
 11
1281.989346098097
 21
1303.5937499065401
 31
0.0
  0
LINE
  5
1753
  8
UMCL1
  6
CONTINUOUS
 10
1296.289346098097
 20
1304.69374990654
 30
0.0
 11
1296.289346098097
 21
1303.5937499065401
 31
0.0
  0
LINE
  5
1754
  8
UMCL1
  6
CONTINUOUS
 10
1281.6393460980969
 20
1304.69374990654
 30
0.0
 11
1281.6393460980969
 21
1306.19374990654
 31
0.0
  0
LINE
  5
1755
  8
UMCL1
  6
CONTINUOUS
 10
1282.1393460980969
 20
1306.69374990654
 30
0.0
 11
1296.139346098098
 21
1306.69374990654
 31
0.0
  0
LINE
  5
1756
  8
UMCL1
  6
CONTINUOUS
 10
1296.639346098098
 20
1306.19374990654
 30
0.0
 11
1296.639346098098
 21
1304.69374990654
 31
0.0
  0
LINE
  5
1757
  8
UMCL1
  6
CONTINUOUS
 10
1281.6393460980969
 20
1306.19374990654
 30
0.0
 11
1296.639346098098
 21
1306.19374990654
 31
0.0
  0
LINE
  5
1758
  8
UMCL1
  6
CONTINUOUS
 10
1281.6393460980969
 20
1306.19374990654
 30
0.0
 11
1282.1393460980969
 21
1306.69374990654
 31
0.0
  0
LINE
  5
1759
  8
UMCL1
  6
CONTINUOUS
 10
1296.139346098098
 20
1306.69374990654
 30
0.0
 11
1296.639346098098
 21
1306.19374990654
 31
0.0
  0
LINE
  5
175A
  8
UMCL1
  6
CONTINUOUS
 10
1279.889346098098
 20
1271.7937499065399
 30
0.0
 11
1279.889346098098
 21
1270.69374990654
 31
0.0
  0
LINE
  5
175B
  8
UMCL1
  6
CONTINUOUS
 10
1279.889346098098
 20
1270.69374990654
 30
0.0
 11
1298.389346098098
 21
1270.69374990654
 31
0.0
  0
LINE
  5
175C
  8
UMCL1
  6
CONTINUOUS
 10
1298.389346098098
 20
1270.69374990654
 30
0.0
 11
1298.389346098098
 21
1271.7937499065399
 31
0.0
  0
LINE
  5
175D
  8
UMCL1
  6
CONTINUOUS
 10
1281.989346098097
 20
1270.69374990654
 30
0.0
 11
1281.989346098097
 21
1271.7937499065399
 31
0.0
  0
LINE
  5
175E
  8
UMCL1
  6
CONTINUOUS
 10
1296.289346098097
 20
1270.69374990654
 30
0.0
 11
1296.289346098097
 21
1271.7937499065399
 31
0.0
  0
LINE
  5
175F
  8
UMCL1
  6
CONTINUOUS
 10
1281.6393460980969
 20
1270.69374990654
 30
0.0
 11
1281.6393460980969
 21
1269.19374990654
 31
0.0
  0
LINE
  5
1760
  8
UMCL1
  6
CONTINUOUS
 10
1282.1393460980969
 20
1268.69374990654
 30
0.0
 11
1296.139346098098
 21
1268.69374990654
 31
0.0
  0
LINE
  5
1761
  8
UMCL1
  6
CONTINUOUS
 10
1296.639346098098
 20
1269.19374990654
 30
0.0
 11
1296.639346098098
 21
1270.69374990654
 31
0.0
  0
LINE
  5
1762
  8
UMCL1
  6
CONTINUOUS
 10
1281.6393460980969
 20
1269.19374990654
 30
0.0
 11
1296.639346098098
 21
1269.19374990654
 31
0.0
  0
LINE
  5
1763
  8
UMCL1
  6
CONTINUOUS
 10
1281.6393460980969
 20
1269.19374990654
 30
0.0
 11
1282.1393460980969
 21
1268.69374990654
 31
0.0
  0
LINE
  5
1764
  8
UMCL1
  6
CONTINUOUS
 10
1296.139346098098
 20
1268.69374990654
 30
0.0
 11
1296.639346098098
 21
1269.19374990654
 31
0.0
  0
POLYLINE
  5
1765
  8
UMCL1
  6
CONTINUOUS
 66
     1
 10
0.0
 20
0.0
 30
0.0
  0
VERTEX
  5
19DC
  8
UMCL1
  6
CONTINUOUS
 10
1331.471367075131
 20
1335.69374990654
 30
0.0
  0
VERTEX
  5
19DD
  8
UMCL1
  6
CONTINUOUS
 10
1246.807325121064
 20
1335.69374990654
 30
0.0
  0
SEQEND
  5
19DE
  8
UMCL1
  6
CONTINUOUS
  0
POLYLINE
  5
1766
  8
UMCL1
  6
CONTINUOUS
 66
     1
 10
0.0
 20
0.0
 30
0.0
  0
VERTEX
  5
19DF
  8
UMCL1
  6
CONTINUOUS
 10
1241.1393460980969
 20
1330.0257708835729
 30
0.0
  0
VERTEX
  5
19E0
  8
UMCL1
  6
CONTINUOUS
 10
1241.1393460980969
 20
1245.361728929508
 30
0.0
  0
SEQEND
  5
19E1
  8
UMCL1
  6
CONTINUOUS
  0
ARC
  5
1767
  8
UMCL1
  6
CONTINUOUS
 10
1289.139346098098
 20
1287.69374990654
 30
0.0
 40
64.0
 50
131.40962210928379
 51
138.5903778907302
  0
POLYLINE
  5
1768
  8
UMCL1
  6
CONTINUOUS
 66
     1
 10
0.0
 20
0.0
 30
0.0
  0
VERTEX
  5
19E2
  8
UMCL1
  6
CONTINUOUS
 10
1246.807325121064
 20
1239.69374990654
 30
0.0
  0
VERTEX
  5
19E3
  8
UMCL1
  6
CONTINUOUS
 10
1331.471367075131
 20
1239.69374990654
 30
0.0
  0
SEQEND
  5
19E4
  8
UMCL1
  6
CONTINUOUS
  0
ARC
  5
1769
  8
UMCL1
  6
CONTINUOUS
 10
1289.139346098098
 20
1287.69374990654
 30
0.0
 40
64.0
 50
221.40962210926969
 51
228.59037789071621
  0
ARC
  5
176A
  8
UMCL1
  6
CONTINUOUS
 10
1289.139346098098
 20
1287.69374990654
 30
0.0
 40
64.0
 50
311.40962210927398
 51
318.59037789073022
  0
ARC
  5
176B
  8
UMCL1
  6
CONTINUOUS
 10
1289.139346098098
 20
1287.69374990654
 30
0.0
 40
64.0
 50
41.409622109269741
 51
48.590377890725939
  0
LINE
  5
176C
  8
UMCL1
  6
CENTER
 62
     1
 10
1289.139346098098
 20
1337.69374990654
 30
0.0
 11
1289.139346098098
 21
1237.69374990654
 31
0.0
  0
LINE
  5
176D
  8
UMCL1
  6
CONTINUOUS
 10
1271.6393460980989
 20
1122.368503421616
 30
0.0
 11
1271.6393460980989
 21
1160.7685034216161
 31
0.0
  0
CIRCLE
  5
176E
  8
UMCL1
  6
CONTINUOUS
 10
1270.139346098098
 20
1085.368503421616
 30
0.0
 40
5.75
  0
CIRCLE
  5
176F
  8
UMCL1
  6
CONTINUOUS
 10
1308.139346098098
 20
1033.368503421616
 30
0.0
 40
5.75
  0
LINE
  5
1770
  8
UMCL1
  6
HIDDEN
 62
     3
 10
1242.639346098098
 20
1122.368503421616
 30
0.0
 11
1242.639346098098
 21
1111.368503421616
 31
0.0
  0
LINE
  5
1771
  8
UMCL1
  6
HIDDEN
 62
     3
 10
1242.639346098098
 20
1111.368503421616
 30
0.0
 11
1260.639346098098
 21
1111.368503421616
 31
0.0
  0
LINE
  5
1772
  8
UMCL1
  6
HIDDEN
 62
     3
 10
1260.639346098098
 20
1111.368503421616
 30
0.0
 11
1260.639346098098
 21
1122.368503421616
 31
0.0
  0
LINE
  5
1773
  8
UMCL1
  6
HIDDEN
 62
     3
 10
1335.639346098098
 20
1122.368503421616
 30
0.0
 11
1335.639346098098
 21
1111.368503421616
 31
0.0
  0
LINE
  5
1774
  8
UMCL1
  6
HIDDEN
 62
     3
 10
1335.639346098098
 20
1111.368503421616
 30
0.0
 11
1317.639346098098
 21
1111.368503421616
 31
0.0
  0
LINE
  5
1775
  8
UMCL1
  6
HIDDEN
 62
     3
 10
1317.639346098098
 20
1111.368503421616
 30
0.0
 11
1317.639346098098
 21
1122.368503421616
 31
0.0
  0
LINE
  5
1776
  8
UMCL1
  6
HIDDEN
 62
     3
 10
1310.139346098098
 20
1166.368503421616
 30
0.0
 11
1340.139346098098
 21
1166.368503421616
 31
0.0
  0
LINE
  5
1777
  8
UMCL1
  6
CONTINUOUS
 10
1310.139346098098
 20
1122.368503421616
 30
0.0
 11
1340.139346098098
 21
1122.368503421616
 31
0.0
  0
LINE
  5
1778
  8
UMCL1
  6
HIDDEN
 62
     3
 10
1332.139346098098
 20
1111.368503421616
 30
0.0
 11
1332.139346098098
 21
1011.368503421616
 31
0.0
  0
LINE
  5
1779
  8
UMCL1
  6
HIDDEN
 62
     3
 10
1321.139346098098
 20
1111.368503421616
 30
0.0
 11
1321.139346098098
 21
1011.368503421616
 31
0.0
  0
LINE
  5
177A
  8
UMCL1
  6
CENTER
 62
     1
 10
1289.139346098098
 20
1009.368503421616
 30
0.0
 11
1289.139346098098
 21
1200.1685034216159
 31
0.0
  0
LINE
  5
177B
  8
UMCL1
  6
CENTER
 62
     1
 10
1251.639346098098
 20
1009.368503421616
 30
0.0
 11
1251.639346098098
 21
1124.368503421616
 31
0.0
  0
LINE
  5
177C
  8
UMCL1
  6
CENTER
 62
     1
 10
1326.639346098098
 20
1009.368503421616
 30
0.0
 11
1326.639346098098
 21
1124.368503421616
 31
0.0
  0
LINE
  5
177D
  8
UMCL1
  6
HIDDEN
 62
     3
 10
1257.139346098098
 20
1111.368503421616
 30
0.0
 11
1257.139346098098
 21
1011.368503421616
 31
0.0
  0
LINE
  5
177E
  8
UMCL1
  6
HIDDEN
 62
     3
 10
1246.139346098098
 20
1111.368503421616
 30
0.0
 11
1246.139346098098
 21
1011.368503421616
 31
0.0
  0
POLYLINE
  5
177F
  8
UMCL1
  6
CONTINUOUS
 66
     1
 10
0.0
 20
0.0
 30
0.0
  0
VERTEX
  5
19E5
  8
UMCL1
  6
CONTINUOUS
 10
1337.1393460980969
 20
1313.5937499065401
 30
0.0
  0
VERTEX
  5
19E6
  8
UMCL1
  6
CONTINUOUS
 10
1337.1393460980969
 20
1330.0257708835741
 30
0.0
  0
SEQEND
  5
19E7
  8
UMCL1
  6
CONTINUOUS
  0
LINE
  5
1780
  8
UMCL1
  6
CONTINUOUS
 10
1310.139346098098
 20
1313.5937499065401
 30
0.0
 11
1340.139346098098
 21
1313.5937499065401
 31
0.0
  0
LINE
  5
1781
  8
UMCL1
  6
CONTINUOUS
 10
1315.889346098098
 20
1313.5937499065401
 30
0.0
 11
1315.889346098098
 21
1314.69374990654
 31
0.0
  0
LINE
  5
1782
  8
UMCL1
  6
CONTINUOUS
 10
1315.889346098098
 20
1314.69374990654
 30
0.0
 11
1334.389346098098
 21
1314.69374990654
 31
0.0
  0
LINE
  5
1783
  8
UMCL1
  6
CONTINUOUS
 10
1334.389346098098
 20
1314.69374990654
 30
0.0
 11
1334.389346098098
 21
1313.5937499065401
 31
0.0
  0
LINE
  5
1784
  8
UMCL1
  6
CONTINUOUS
 10
1317.9893460980979
 20
1314.69374990654
 30
0.0
 11
1317.9893460980979
 21
1313.5937499065401
 31
0.0
  0
LINE
  5
1785
  8
UMCL1
  6
CONTINUOUS
 10
1332.289346098097
 20
1314.69374990654
 30
0.0
 11
1332.289346098097
 21
1313.5937499065401
 31
0.0
  0
LINE
  5
1786
  8
UMCL1
  6
CONTINUOUS
 10
1317.639346098098
 20
1314.69374990654
 30
0.0
 11
1317.639346098098
 21
1316.19374990654
 31
0.0
  0
LINE
  5
1787
  8
UMCL1
  6
CONTINUOUS
 10
1318.139346098098
 20
1316.69374990654
 30
0.0
 11
1332.139346098098
 21
1316.69374990654
 31
0.0
  0
LINE
  5
1788
  8
UMCL1
  6
CONTINUOUS
 10
1332.639346098098
 20
1316.19374990654
 30
0.0
 11
1332.639346098098
 21
1314.69374990654
 31
0.0
  0
LINE
  5
1789
  8
UMCL1
  6
CONTINUOUS
 10
1317.639346098098
 20
1316.19374990654
 30
0.0
 11
1332.639346098098
 21
1316.19374990654
 31
0.0
  0
LINE
  5
178A
  8
UMCL1
  6
CONTINUOUS
 10
1317.639346098098
 20
1316.19374990654
 30
0.0
 11
1318.139346098098
 21
1316.69374990654
 31
0.0
  0
LINE
  5
178B
  8
UMCL1
  6
CONTINUOUS
 10
1332.139346098098
 20
1316.69374990654
 30
0.0
 11
1332.639346098098
 21
1316.19374990654
 31
0.0
  0
LINE
  5
178C
  8
UMCL1
  6
HIDDEN
 62
     3
 10
1340.139346098098
 20
1303.5937499065401
 30
0.0
 11
1340.139346098098
 21
1271.7937499065399
 31
0.0
  0
LINE
  5
178D
  8
UMCL1
  6
CONTINUOUS
 10
1310.139346098098
 20
1313.5937499065401
 30
0.0
 11
1310.139346098098
 21
1303.5937499065401
 31
0.0
  0
LINE
  5
178E
  8
UMCL1
  6
CONTINUOUS
 10
1340.139346098098
 20
1313.5937499065401
 30
0.0
 11
1340.139346098098
 21
1303.5937499065401
 31
0.0
  0
LINE
  5
178F
  8
UMCL1
  6
CONTINUOUS
 10
1310.139346098098
 20
1261.7937499065399
 30
0.0
 11
1340.139346098098
 21
1261.7937499065399
 31
0.0
  0
LINE
  5
1790
  8
UMCL1
  6
CONTINUOUS
 10
1315.889346098098
 20
1261.7937499065399
 30
0.0
 11
1315.889346098098
 21
1260.6937499065409
 31
0.0
  0
LINE
  5
1791
  8
UMCL1
  6
CONTINUOUS
 10
1315.889346098098
 20
1260.6937499065409
 30
0.0
 11
1334.389346098098
 21
1260.6937499065409
 31
0.0
  0
LINE
  5
1792
  8
UMCL1
  6
CONTINUOUS
 10
1334.389346098098
 20
1260.6937499065409
 30
0.0
 11
1334.389346098098
 21
1261.7937499065399
 31
0.0
  0
LINE
  5
1793
  8
UMCL1
  6
CONTINUOUS
 10
1317.9893460980979
 20
1260.6937499065409
 30
0.0
 11
1317.9893460980979
 21
1261.7937499065399
 31
0.0
  0
LINE
  5
1794
  8
UMCL1
  6
CONTINUOUS
 10
1332.289346098097
 20
1260.6937499065409
 30
0.0
 11
1332.289346098097
 21
1261.7937499065399
 31
0.0
  0
LINE
  5
1795
  8
UMCL1
  6
CONTINUOUS
 10
1317.639346098098
 20
1260.6937499065409
 30
0.0
 11
1317.639346098098
 21
1259.1937499065409
 31
0.0
  0
LINE
  5
1796
  8
UMCL1
  6
CONTINUOUS
 10
1318.139346098098
 20
1258.69374990654
 30
0.0
 11
1332.139346098098
 21
1258.69374990654
 31
0.0
  0
LINE
  5
1797
  8
UMCL1
  6
CONTINUOUS
 10
1332.639346098098
 20
1259.1937499065409
 30
0.0
 11
1332.639346098098
 21
1260.6937499065409
 31
0.0
  0
LINE
  5
1798
  8
UMCL1
  6
CONTINUOUS
 10
1317.639346098098
 20
1259.1937499065409
 30
0.0
 11
1332.639346098098
 21
1259.1937499065409
 31
0.0
  0
LINE
  5
1799
  8
UMCL1
  6
CONTINUOUS
 10
1317.639346098098
 20
1259.1937499065409
 30
0.0
 11
1318.139346098098
 21
1258.69374990654
 31
0.0
  0
LINE
  5
179A
  8
UMCL1
  6
CONTINUOUS
 10
1332.139346098098
 20
1258.69374990654
 30
0.0
 11
1332.639346098098
 21
1259.1937499065409
 31
0.0
  0
LINE
  5
179B
  8
UMCL1
  6
CONTINUOUS
 10
1310.139346098098
 20
1261.7937499065399
 30
0.0
 11
1310.139346098098
 21
1271.7937499065399
 31
0.0
  0
LINE
  5
179C
  8
UMCL1
  6
CONTINUOUS
 10
1340.139346098098
 20
1261.7937499065399
 30
0.0
 11
1340.139346098098
 21
1271.7937499065411
 31
0.0
  0
LINE
  5
179D
  8
UMCL1
  6
HIDDEN
 62
     3
 10
1317.639346098098
 20
1313.5937499065401
 30
0.0
 11
1317.639346098098
 21
1261.7937499065399
 31
0.0
  0
LINE
  5
179E
  8
UMCL1
  6
HIDDEN
 62
     3
 10
1332.639346098098
 20
1313.5937499065401
 30
0.0
 11
1332.639346098098
 21
1261.7937499065399
 31
0.0
  0
LINE
  5
179F
  8
UMCL1
  6
CENTER
 62
     1
 10
1325.139346098098
 20
1318.19374990654
 30
0.0
 11
1325.139346098098
 21
1257.19374990654
 31
0.0
  0
POLYLINE
  5
17A0
  8
UMCL1
  6
CONTINUOUS
 66
     1
 10
0.0
 20
0.0
 30
0.0
  0
VERTEX
  5
19E8
  8
UMCL1
  6
CONTINUOUS
 10
1337.1393460980969
 20
1245.3617289295059
 30
0.0
  0
VERTEX
  5
19E9
  8
UMCL1
  6
CONTINUOUS
 10
1337.139346098098
 20
1261.7937499065399
 30
0.0
  0
SEQEND
  5
19EA
  8
UMCL1
  6
CONTINUOUS
  0
LINE
  5
17A1
  8
UMCL1
  6
CONTINUOUS
 10
1383.139346098098
 20
1166.368503421616
 30
0.0
 11
1383.139346098098
 21
1185.368503421616
 31
0.0
  0
LINE
  5
17A2
  8
UMCL1
  6
CONTINUOUS
 10
1359.252354904253
 20
1198.1685034216159
 30
0.0
 11
1273.139346098098
 21
1198.1685034216159
 31
0.0
  0
LINE
  5
17A3
  8
UMCL1
  6
CONTINUOUS
 10
1340.139346098098
 20
1166.368503421616
 30
0.0
 11
1383.139346098098
 21
1166.368503421616
 31
0.0
  0
LINE
  5
17A4
  8
UMCL1
  6
CENTER
 62
     1
 10
1239.1393460980969
 20
1287.69374990654
 30
0.0
 11
1385.139346098098
 21
1287.69374990654
 31
0.0
  0
LINE
  5
17A5
  8
UMCL1
  6
CONTINUOUS
 10
1359.252354904253
 20
1303.5937499065401
 30
0.0
 11
1273.139346098098
 21
1303.5937499065401
 31
0.0
  0
LINE
  5
17A6
  8
UMCL1
  6
CONTINUOUS
 10
1273.139346098098
 20
1271.7937499065399
 30
0.0
 11
1359.252354904253
 21
1271.7937499065399
 31
0.0
  0
LINE
  5
17A7
  8
UMCL1
  6
CENTER
 62
     1
 10
1316.139346098098
 20
1325.19374990654
 30
0.0
 11
1323.6393460980969
 21
1325.19374990654
 31
0.0
  0
LINE
  5
17A8
  8
UMCL1
  6
CENTER
 62
     1
 10
1325.139346098098
 20
1325.19374990654
 30
0.0
 11
1328.139346098098
 21
1325.19374990654
 31
0.0
  0
LINE
  5
17A9
  8
UMCL1
  6
CENTER
 62
     1
 10
1329.639346098098
 20
1325.19374990654
 30
0.0
 11
1337.139346098098
 21
1325.19374990654
 31
0.0
  0
LINE
  5
17AA
  8
UMCL1
  6
CENTER
 62
     1
 10
1326.639346098098
 20
1314.69374990654
 30
0.0
 11
1326.639346098098
 21
1322.19374990654
 31
0.0
  0
LINE
  5
17AB
  8
UMCL1
  6
CENTER
 62
     1
 10
1326.639346098098
 20
1323.69374990654
 30
0.0
 11
1326.639346098098
 21
1326.69374990654
 31
0.0
  0
LINE
  5
17AC
  8
UMCL1
  6
CENTER
 62
     1
 10
1326.639346098098
 20
1328.19374990654
 30
0.0
 11
1326.639346098098
 21
1335.69374990654
 31
0.0
  0
LINE
  5
17AD
  8
UMCL1
  6
CENTER
 62
     1
 10
1316.139346098098
 20
1250.19374990654
 30
0.0
 11
1323.6393460980969
 21
1250.19374990654
 31
0.0
  0
LINE
  5
17AE
  8
UMCL1
  6
CENTER
 62
     1
 10
1325.139346098098
 20
1250.19374990654
 30
0.0
 11
1328.139346098098
 21
1250.19374990654
 31
0.0
  0
LINE
  5
17AF
  8
UMCL1
  6
CENTER
 62
     1
 10
1329.639346098098
 20
1250.19374990654
 30
0.0
 11
1337.139346098098
 21
1250.19374990654
 31
0.0
  0
LINE
  5
17B0
  8
UMCL1
  6
CENTER
 62
     1
 10
1326.639346098098
 20
1239.69374990654
 30
0.0
 11
1326.639346098098
 21
1247.19374990654
 31
0.0
  0
LINE
  5
17B1
  8
UMCL1
  6
CENTER
 62
     1
 10
1326.639346098098
 20
1248.69374990654
 30
0.0
 11
1326.639346098098
 21
1251.69374990654
 31
0.0
  0
LINE
  5
17B2
  8
UMCL1
  6
CENTER
 62
     1
 10
1326.639346098098
 20
1253.19374990654
 30
0.0
 11
1326.639346098098
 21
1260.69374990654
 31
0.0
  0
LINE
  5
17B3
  8
UMCL1
  6
CENTER
 62
     1
 10
1241.1393460980969
 20
1250.19374990654
 30
0.0
 11
1248.6393460980969
 21
1250.19374990654
 31
0.0
  0
LINE
  5
17B4
  8
UMCL1
  6
CENTER
 62
     1
 10
1250.1393460980969
 20
1250.19374990654
 30
0.0
 11
1253.1393460980969
 21
1250.19374990654
 31
0.0
  0
LINE
  5
17B5
  8
UMCL1
  6
CENTER
 62
     1
 10
1254.6393460980969
 20
1250.19374990654
 30
0.0
 11
1262.1393460980969
 21
1250.19374990654
 31
0.0
  0
LINE
  5
17B6
  8
UMCL1
  6
CENTER
 62
     1
 10
1251.6393460980969
 20
1239.69374990654
 30
0.0
 11
1251.6393460980969
 21
1247.19374990654
 31
0.0
  0
LINE
  5
17B7
  8
UMCL1
  6
CENTER
 62
     1
 10
1251.6393460980969
 20
1248.69374990654
 30
0.0
 11
1251.6393460980969
 21
1251.69374990654
 31
0.0
  0
LINE
  5
17B8
  8
UMCL1
  6
CENTER
 62
     1
 10
1251.6393460980969
 20
1253.19374990654
 30
0.0
 11
1251.6393460980969
 21
1260.69374990654
 31
0.0
  0
LINE
  5
17B9
  8
UMCL1
  6
CENTER
 62
     1
 10
1241.1393460980969
 20
1325.19374990654
 30
0.0
 11
1248.6393460980969
 21
1325.19374990654
 31
0.0
  0
LINE
  5
17BA
  8
UMCL1
  6
CENTER
 62
     1
 10
1250.1393460980969
 20
1325.19374990654
 30
0.0
 11
1253.1393460980969
 21
1325.19374990654
 31
0.0
  0
LINE
  5
17BB
  8
UMCL1
  6
CENTER
 62
     1
 10
1254.6393460980969
 20
1325.19374990654
 30
0.0
 11
1262.1393460980969
 21
1325.19374990654
 31
0.0
  0
LINE
  5
17BC
  8
UMCL1
  6
CENTER
 62
     1
 10
1251.6393460980969
 20
1314.69374990654
 30
0.0
 11
1251.6393460980969
 21
1322.19374990654
 31
0.0
  0
LINE
  5
17BD
  8
UMCL1
  6
CENTER
 62
     1
 10
1251.6393460980969
 20
1323.69374990654
 30
0.0
 11
1251.6393460980969
 21
1326.69374990654
 31
0.0
  0
LINE
  5
17BE
  8
UMCL1
  6
CENTER
 62
     1
 10
1251.6393460980969
 20
1328.19374990654
 30
0.0
 11
1251.6393460980969
 21
1335.69374990654
 31
0.0
  0
LINE
  5
17BF
  8
UMCL1
  6
HIDDEN
 62
     3
 10
1337.1393460980969
 20
1313.5937499065401
 30
0.0
 11
1337.139346098098
 21
1261.7937499065399
 31
0.0
  0
LINE
  5
17C0
  8
UMCL1
  6
HIDDEN
 62
     3
 10
1296.639346098098
 20
1303.5937499065401
 30
0.0
 11
1296.639346098098
 21
1271.7937499065399
 31
0.0
  0
LINE
  5
17C1
  8
UMCL1
  6
HIDDEN
 62
     3
 10
1281.639346098098
 20
1303.5937499065401
 30
0.0
 11
1281.639346098098
 21
1271.7937499065399
 31
0.0
  0
LINE
  5
17C2
  8
UMCL1
  6
CENTER
 62
     1
 10
1316.139346098098
 20
1182.2685034216161
 30
0.0
 11
1322.139346098098
 21
1182.2685034216161
 31
0.0
  0
LINE
  5
17C3
  8
UMCL1
  6
CENTER
 62
     1
 10
1323.6393460980969
 20
1182.2685034216161
 30
0.0
 11
1326.639346098098
 21
1182.2685034216161
 31
0.0
  0
LINE
  5
17C4
  8
UMCL1
  6
CENTER
 62
     1
 10
1328.139346098098
 20
1182.2685034216161
 30
0.0
 11
1334.139346098098
 21
1182.2685034216161
 31
0.0
  0
LINE
  5
17C5
  8
UMCL1
  6
CENTER
 62
     1
 10
1325.139346098098
 20
1173.2685034216161
 30
0.0
 11
1325.139346098098
 21
1179.2685034216161
 31
0.0
  0
LINE
  5
17C6
  8
UMCL1
  6
CENTER
 62
     1
 10
1325.139346098098
 20
1180.7685034216161
 30
0.0
 11
1325.139346098098
 21
1183.7685034216161
 31
0.0
  0
LINE
  5
17C7
  8
UMCL1
  6
CENTER
 62
     1
 10
1325.139346098098
 20
1185.2685034216161
 30
0.0
 11
1325.139346098098
 21
1191.2685034216161
 31
0.0
  0
LINE
  5
17C8
  8
UMCL1
  6
CENTER
 62
     1
 10
1316.139346098098
 20
1143.2685034216161
 30
0.0
 11
1322.139346098098
 21
1143.2685034216161
 31
0.0
  0
LINE
  5
17C9
  8
UMCL1
  6
CENTER
 62
     1
 10
1323.6393460980969
 20
1143.2685034216161
 30
0.0
 11
1326.639346098098
 21
1143.2685034216161
 31
0.0
  0
LINE
  5
17CA
  8
UMCL1
  6
CENTER
 62
     1
 10
1328.139346098098
 20
1143.2685034216161
 30
0.0
 11
1334.139346098098
 21
1143.2685034216161
 31
0.0
  0
LINE
  5
17CB
  8
UMCL1
  6
CENTER
 62
     1
 10
1325.139346098098
 20
1134.2685034216161
 30
0.0
 11
1325.139346098098
 21
1140.2685034216161
 31
0.0
  0
LINE
  5
17CC
  8
UMCL1
  6
CENTER
 62
     1
 10
1325.139346098098
 20
1141.7685034216161
 30
0.0
 11
1325.139346098098
 21
1144.7685034216161
 31
0.0
  0
LINE
  5
17CD
  8
UMCL1
  6
CENTER
 62
     1
 10
1325.139346098098
 20
1146.2685034216161
 30
0.0
 11
1325.139346098098
 21
1152.2685034216161
 31
0.0
  0
LINE
  5
17CE
  8
UMCL1
  6
CENTER
 62
     1
 10
1280.139346098098
 20
1182.2685034216161
 30
0.0
 11
1286.139346098098
 21
1182.2685034216161
 31
0.0
  0
LINE
  5
17CF
  8
UMCL1
  6
CENTER
 62
     1
 10
1287.639346098098
 20
1182.2685034216161
 30
0.0
 11
1290.639346098098
 21
1182.2685034216161
 31
0.0
  0
LINE
  5
17D0
  8
UMCL1
  6
CENTER
 62
     1
 10
1292.139346098098
 20
1182.2685034216161
 30
0.0
 11
1298.139346098098
 21
1182.2685034216161
 31
0.0
  0
LINE
  5
17D1
  8
UMCL1
  6
CENTER
 62
     1
 10
1325.139346098098
 20
1173.2685034216161
 30
0.0
 11
1325.139346098098
 21
1152.2685034216161
 31
0.0
  0
LINE
  5
17D2
  8
UMCL1
  6
CENTER
 62
     1
 10
1373.139346098098
 20
1197.7551858155639
 30
0.0
 11
1373.139346098098
 21
1152.2685034216161
 31
0.0
  0
LINE
  5
17D3
  8
UMCL1
  6
CONTINUOUS
 10
1241.9393460980989
 20
1011.368503421616
 30
0.0
 11
1336.3393460980981
 21
1011.368503421616
 31
0.0
  0
LINE
  5
17D4
  8
UMCL1
  6
CONTINUOUS
 10
1336.3393460980981
 20
1122.368503421616
 30
0.0
 11
1241.939346098098
 21
1122.368503421616
 31
0.0
  0
LINE
  5
17D5
  8
UMCL1
  6
CONTINUOUS
 10
1337.139346098098
 20
1012.168503421616
 30
0.0
 11
1337.139346098098
 21
1121.568503421616
 31
0.0
  0
LINE
  5
17D6
  8
UMCL1
  6
CONTINUOUS
 10
1241.139346098098
 20
1121.568503421616
 30
0.0
 11
1241.1393460980989
 21
1012.168503421616
 31
0.0
  0
LINE
  5
17D7
  8
UMCL1
  6
CONTINUOUS
 10
1337.1393460980989
 20
1121.568503421616
 30
0.0
 11
1241.139346098098
 21
1121.568503421616
 31
0.0
  0
LINE
  5
17D8
  8
UMCL1
  6
CONTINUOUS
 10
1241.1393460980989
 20
1012.168503421616
 30
0.0
 11
1337.1393460980989
 21
1012.168503421616
 31
0.0
  0
LINE
  5
17D9
  8
UMCL1
  6
CONTINUOUS
 10
1241.939346098098
 20
1122.368503421616
 30
0.0
 11
1241.139346098098
 21
1121.568503421616
 31
0.0
  0
LINE
  5
17DA
  8
UMCL1
  6
CONTINUOUS
 10
1336.3393460980981
 20
1122.368503421616
 30
0.0
 11
1337.139346098098
 21
1121.568503421616
 31
0.0
  0
LINE
  5
17DB
  8
UMCL1
  6
CONTINUOUS
 10
1336.3393460980981
 20
1011.368503421616
 30
0.0
 11
1337.139346098098
 21
1012.168503421616
 31
0.0
  0
LINE
  5
17DC
  8
UMCL1
  6
CONTINUOUS
 10
1241.9393460980989
 20
1011.368503421616
 30
0.0
 11
1241.1393460980989
 21
1012.168503421616
 31
0.0
  0
ARC
  5
17DD
  8
UMCL1
  6
CONTINUOUS
 62
     3
 10
1270.139346098098
 20
1085.368503421616
 30
0.0
 40
6.5999999999999988
 50
344.99999999999932
 51
284.99999999999437
  0
LINE
  5
17DE
  8
UMCL1
  6
CENTER
 62
     1
 10
1262.0393460980979
 20
1085.368503421616
 30
0.0
 11
1267.139346098098
 21
1085.368503421616
 31
0.0
  0
LINE
  5
17DF
  8
UMCL1
  6
CENTER
 62
     1
 10
1268.639346098098
 20
1085.368503421616
 30
0.0
 11
1271.639346098098
 21
1085.368503421616
 31
0.0
  0
LINE
  5
17E0
  8
UMCL1
  6
CENTER
 62
     1
 10
1273.139346098098
 20
1085.368503421616
 30
0.0
 11
1278.2393460980979
 21
1085.368503421616
 31
0.0
  0
LINE
  5
17E1
  8
UMCL1
  6
CENTER
 62
     1
 10
1270.139346098098
 20
1077.2685034216161
 30
0.0
 11
1270.139346098098
 21
1082.368503421616
 31
0.0
  0
LINE
  5
17E2
  8
UMCL1
  6
CENTER
 62
     1
 10
1270.139346098098
 20
1083.868503421616
 30
0.0
 11
1270.139346098098
 21
1086.868503421616
 31
0.0
  0
LINE
  5
17E3
  8
UMCL1
  6
CENTER
 62
     1
 10
1270.139346098098
 20
1088.368503421616
 30
0.0
 11
1270.139346098098
 21
1093.4685034216161
 31
0.0
  0
ARC
  5
17E4
  8
UMCL1
  6
CONTINUOUS
 62
     3
 10
1308.139346098098
 20
1033.368503421616
 30
0.0
 40
6.5999999999999988
 50
344.99999999999932
 51
284.99999999999437
  0
LINE
  5
17E5
  8
UMCL1
  6
CENTER
 62
     1
 10
1300.0393460980979
 20
1033.368503421616
 30
0.0
 11
1305.139346098098
 21
1033.368503421616
 31
0.0
  0
LINE
  5
17E6
  8
UMCL1
  6
CENTER
 62
     1
 10
1306.639346098098
 20
1033.368503421616
 30
0.0
 11
1309.639346098098
 21
1033.368503421616
 31
0.0
  0
LINE
  5
17E7
  8
UMCL1
  6
CENTER
 62
     1
 10
1311.139346098098
 20
1033.368503421616
 30
0.0
 11
1316.2393460980979
 21
1033.368503421616
 31
0.0
  0
LINE
  5
17E8
  8
UMCL1
  6
CENTER
 62
     1
 10
1308.139346098098
 20
1025.2685034216161
 30
0.0
 11
1308.139346098098
 21
1030.368503421616
 31
0.0
  0
LINE
  5
17E9
  8
UMCL1
  6
CENTER
 62
     1
 10
1308.139346098098
 20
1031.868503421616
 30
0.0
 11
1308.139346098098
 21
1034.868503421616
 31
0.0
  0
LINE
  5
17EA
  8
UMCL1
  6
CENTER
 62
     1
 10
1308.139346098098
 20
1036.368503421616
 30
0.0
 11
1308.139346098098
 21
1041.4685034216161
 31
0.0
  0
LINE
  5
17EB
  8
UMCL2
  6
CONTINUOUS
 10
1384.139346098098
 20
1278.1942499065401
 30
0.0
 11
1392.139346098098
 21
1278.1942499065401
 31
0.0
  0
LINE
  5
17EC
  8
UMCL2
  6
CONTINUOUS
 10
1384.139346098098
 20
1297.1932499065399
 30
0.0
 11
1392.139346098098
 21
1297.1932499065399
 31
0.0
  0
LINE
  5
17ED
  8
UMCL2
  6
CONTINUOUS
 10
1391.139346098098
 20
1280.6942499065401
 30
0.0
 11
1391.139346098098
 21
1294.6932499065399
 31
0.0
  0
SOLID
  5
17EE
  8
UMCL2
  6
CONTINUOUS
 10
1390.7226794314311
 20
1280.6942499065401
 30
0.0
 11
1391.5560127647641
 21
1280.6942499065401
 31
0.0
 12
1391.139346098098
 22
1278.1942499065401
 32
0.0
 13
1391.139346098098
 23
1278.1942499065401
 33
0.0
  0
SOLID
  5
17EF
  8
UMCL2
  6
CONTINUOUS
 10
1390.7226794314311
 20
1294.6932499065399
 30
0.0
 11
1391.5560127647641
 21
1294.6932499065399
 31
0.0
 12
1391.139346098098
 22
1297.1932499065399
 32
0.0
 13
1391.139346098098
 23
1297.1932499065399
 33
0.0
  0
INSERT
  5
17F0
  8
0
  2
*U25
 10
0.0
 20
0.0
 30
0.0
  0
LINE
  5
17F1
  8
UMCL2
  6
CONTINUOUS
 10
1360.252354904253
 20
1271.7937499065399
 30
0.0
 11
1400.139346098098
 21
1271.7937499065399
 31
0.0
  0
LINE
  5
17F2
  8
UMCL2
  6
CONTINUOUS
 10
1360.252354904253
 20
1303.5937499065401
 30
0.0
 11
1400.139346098098
 21
1303.5937499065401
 31
0.0
  0
LINE
  5
17F3
  8
UMCL2
  6
CONTINUOUS
 10
1399.139346098098
 20
1274.2937499065399
 30
0.0
 11
1399.139346098098
 21
1301.0937499065401
 31
0.0
  0
SOLID
  5
17F4
  8
UMCL2
  6
CONTINUOUS
 10
1398.7226794314311
 20
1274.2937499065399
 30
0.0
 11
1399.556012764765
 21
1274.2937499065399
 31
0.0
 12
1399.139346098098
 22
1271.7937499065399
 32
0.0
 13
1399.139346098098
 23
1271.7937499065399
 33
0.0
  0
SOLID
  5
17F5
  8
UMCL2
  6
CONTINUOUS
 10
1398.7226794314311
 20
1301.0937499065401
 30
0.0
 11
1399.556012764765
 21
1301.0937499065401
 31
0.0
 12
1399.139346098098
 22
1303.5937499065401
 32
0.0
 13
1399.139346098098
 23
1303.5937499065401
 33
0.0
  0
INSERT
  5
17F6
  8
0
  2
*U26
 10
0.0
 20
0.0
 30
0.0
  0
LINE
  5
17F7
  8
UMCL2
  6
CONTINUOUS
 10
1338.139346098098
 20
1325.19374990654
 30
0.0
 11
1408.139346098098
 21
1325.19374990654
 31
0.0
  0
LINE
  5
17F8
  8
UMCL2
  6
CONTINUOUS
 10
1338.1393460980969
 20
1250.19374990654
 30
0.0
 11
1408.139346098098
 21
1250.19374990654
 31
0.0
  0
LINE
  5
17F9
  8
UMCL2
  6
CONTINUOUS
 10
1407.139346098098
 20
1322.69374990654
 30
0.0
 11
1407.139346098098
 21
1252.69374990654
 31
0.0
  0
SOLID
  5
17FA
  8
UMCL2
  6
CONTINUOUS
 10
1406.7226794314311
 20
1322.69374990654
 30
0.0
 11
1407.556012764765
 21
1322.69374990654
 31
0.0
 12
1407.139346098098
 22
1325.19374990654
 32
0.0
 13
1407.139346098098
 23
1325.19374990654
 33
0.0
  0
SOLID
  5
17FB
  8
UMCL2
  6
CONTINUOUS
 10
1406.7226794314311
 20
1252.69374990654
 30
0.0
 11
1407.556012764765
 21
1252.69374990654
 31
0.0
 12
1407.139346098098
 22
1250.19374990654
 32
0.0
 13
1407.139346098098
 23
1250.19374990654
 33
0.0
  0
INSERT
  5
17FC
  8
0
  2
*U27
 10
0.0
 20
0.0
 30
0.0
  0
LINE
  5
17FD
  8
UMCL2
  6
CONTINUOUS
 10
1332.471367075131
 20
1239.69374990654
 30
0.0
 11
1416.139346098098
 21
1239.69374990654
 31
0.0
  0
LINE
  5
17FE
  8
UMCL2
  6
CONTINUOUS
 10
1332.471367075131
 20
1335.69374990654
 30
0.0
 11
1416.139346098098
 21
1335.69374990654
 31
0.0
  0
LINE
  5
17FF
  8
UMCL2
  6
CONTINUOUS
 10
1415.139346098098
 20
1242.19374990654
 30
0.0
 11
1415.139346098098
 21
1333.19374990654
 31
0.0
  0
SOLID
  5
1800
  8
UMCL2
  6
CONTINUOUS
 10
1414.7226794314311
 20
1242.19374990654
 30
0.0
 11
1415.556012764765
 21
1242.19374990654
 31
0.0
 12
1415.139346098098
 22
1239.69374990654
 32
0.0
 13
1415.139346098098
 23
1239.69374990654
 33
0.0
  0
SOLID
  5
1801
  8
UMCL2
  6
CONTINUOUS
 10
1414.7226794314311
 20
1333.19374990654
 30
0.0
 11
1415.556012764765
 21
1333.19374990654
 31
0.0
 12
1415.139346098098
 22
1335.69374990654
 32
0.0
 13
1415.139346098098
 23
1335.69374990654
 33
0.0
  0
INSERT
  5
1802
  8
0
  2
*U28
 10
0.0
 20
0.0
 30
0.0
  0
POLYLINE
  5
1803
  8
UMCL2
  6
CONTINUOUS
 66
     1
 10
0.0
 20
0.0
 30
0.0
 70
     1
  0
VERTEX
  5
19FB
  8
UMCL2
  6
CONTINUOUS
 10
1410.8264827651269
 20
1280.623265112537
 30
0.0
  0
VERTEX
  5
19FC
  8
UMCL2
  6
CONTINUOUS
 10
1413.8264827651269
 20
1280.623265112537
 30
0.0
  0
VERTEX
  5
19FD
  8
UMCL2
  6
CONTINUOUS
 10
1413.8264827651269
 20
1283.623265112537
 30
0.0
  0
VERTEX
  5
19FE
  8
UMCL2
  6
CONTINUOUS
 10
1410.8264827651269
 20
1283.623265112537
 30
0.0
  0
SEQEND
  5
19FF
  8
UMCL2
  6
CONTINUOUS
  0
POLYLINE
  5
1804
  8
UMCL2
  6
CONTINUOUS
 66
     1
 10
0.0
 20
0.0
 30
0.0
 70
     1
  0
VERTEX
  5
1A00
  8
UMCL2
  6
CONTINUOUS
 10
1402.9761255532389
 20
1281.1243394071239
 30
0.0
  0
VERTEX
  5
1A01
  8
UMCL2
  6
CONTINUOUS
 10
1405.9761255532389
 20
1281.1243394071239
 30
0.0
  0
VERTEX
  5
1A02
  8
UMCL2
  6
CONTINUOUS
 10
1405.9761255532389
 20
1284.124339407125
 30
0.0
  0
VERTEX
  5
1A03
  8
UMCL2
  6
CONTINUOUS
 10
1402.9761255532389
 20
1284.124339407125
 30
0.0
  0
SEQEND
  5
1A04
  8
UMCL2
  6
CONTINUOUS
  0
LINE
  5
1805
  8
UMCL2
  6
CONTINUOUS
 10
1270.1393460980969
 20
1241.8937499065401
 30
0.0
 11
1270.139346098098
 21
1229.5108847581771
 31
0.0
  0
LINE
  5
1806
  8
UMCL2
  6
CONTINUOUS
 10
1308.139346098098
 20
1241.8937499065401
 30
0.0
 11
1308.139346098098
 21
1229.5108847581771
 31
0.0
  0
LINE
  5
1807
  8
UMCL2
  6
CONTINUOUS
 10
1272.639346098098
 20
1230.5108847581771
 30
0.0
 11
1305.639346098098
 21
1230.5108847581771
 31
0.0
  0
SOLID
  5
1808
  8
UMCL2
  6
CONTINUOUS
 10
1272.639346098098
 20
1230.9275514248429
 30
0.0
 11
1272.639346098098
 21
1230.0942180915099
 31
0.0
 12
1270.139346098098
 22
1230.5108847581771
 32
0.0
 13
1270.139346098098
 23
1230.5108847581771
 33
0.0
  0
SOLID
  5
1809
  8
UMCL2
  6
CONTINUOUS
 10
1305.639346098098
 20
1230.9275514248429
 30
0.0
 11
1305.639346098098
 21
1230.0942180915099
 31
0.0
 12
1308.139346098098
 22
1230.5108847581771
 32
0.0
 13
1308.139346098098
 23
1230.5108847581771
 33
0.0
  0
INSERT
  5
180A
  8
0
  2
*U29
 10
0.0
 20
0.0
 30
0.0
  0
LINE
  5
180B
  8
UMCL2
  6
CONTINUOUS
 10
1272.139346098098
 20
1280.19374990654
 30
0.0
 11
1232.133022088319
 21
1280.19374990654
 31
0.0
  0
LINE
  5
180C
  8
UMCL2
  6
CONTINUOUS
 10
1272.139346098098
 20
1295.19374990654
 30
0.0
 11
1232.133022088319
 21
1295.19374990654
 31
0.0
  0
LINE
  5
180D
  8
UMCL2
  6
CONTINUOUS
 10
1233.133022088319
 20
1282.69374990654
 30
0.0
 11
1233.133022088319
 21
1292.69374990654
 31
0.0
  0
SOLID
  5
180E
  8
UMCL2
  6
CONTINUOUS
 10
1232.716355421652
 20
1282.69374990654
 30
0.0
 11
1233.549688754985
 21
1282.69374990654
 31
0.0
 12
1233.133022088319
 22
1280.19374990654
 32
0.0
 13
1233.133022088319
 23
1280.19374990654
 33
0.0
  0
SOLID
  5
180F
  8
UMCL2
  6
CONTINUOUS
 10
1232.716355421652
 20
1292.69374990654
 30
0.0
 11
1233.549688754985
 21
1292.69374990654
 31
0.0
 12
1233.133022088319
 22
1295.19374990654
 32
0.0
 13
1233.133022088319
 23
1295.19374990654
 33
0.0
  0
INSERT
  5
1810
  8
0
  2
*U30
 10
0.0
 20
0.0
 30
0.0
  0
LINE
  5
1811
  8
UMCL2
  6
CONTINUOUS
 10
1231.7443387813801
 20
1228.5427431919429
 30
0.0
 11
1257.853355607918
 21
1228.5427431919429
 31
0.0
  0
TEXT
  5
1812
  8
UMCL2
  6
CONTINUOUS
 10
1239.6606265102359
 20
1230.0427431919429
 30
0.0
 40
3.0
  1
P-09
  7
ROMANSS
 72
     2
 11
1251.089197938807
 21
1231.5427431919429
 31
0.0
 73
     2
  0
LINE
  5
1813
  8
UMCL2
 10
1257.853355607918
 20
1228.5427431919429
 30
0.0
 11
1267.1256596897081
 21
1244.5055234049421
 31
0.0
  0
SOLID
  5
1814
  8
UMCL2
  6
CONTINUOUS
 10
1265.144497334684
 20
1242.22527115094
 30
0.0
 11
1265.9981545594369
 21
1241.7044359153549
 31
0.0
 12
1267.133831653817
 22
1244.5258252074059
 32
0.0
 13
1267.133831653817
 23
1244.5258252074059
 33
0.0
  0
TEXT
  5
1815
  8
UMCL2
  6
CONTINUOUS
 10
1356.4809099538929
 20
1232.9008523576319
 30
0.0
 40
3.0
  1
4-%%C11 Through-hole 
  7
ROMANSS
 72
     2
 11
1406.62376709675
 21
1234.4008523576319
 31
0.0
 73
     2
  0
LINE
  5
1816
  8
UMCL2
  6
CONTINUOUS
 10
1407.237439783258
 20
1231.188430094561
 30
0.0
 11
1347.6509843460381
 21
1231.188430094561
 31
0.0
  0
TEXT
  5
1817
  8
UMCL2
  6
CONTINUOUS
 10
1354.3304680776801
 20
1226.7375458688709
 30
0.0
 40
3.0
  1
Counter bore %%C18x11dp
  7
ROMANSS
 72
     2
 11
1406.4733252205369
 21
1228.2375458688709
 31
0.0
 73
     2
  0
LINE
  5
1818
  8
UMCL2
 10
1347.6509843460381
 20
1231.188430094561
 30
0.0
 11
1333.7136148574709
 21
1244.630053157061
 31
0.0
  0
SOLID
  5
1819
  8
UMCL2
  6
CONTINUOUS
 10
1336.145310824927
 20
1242.8033471813069
 30
0.0
 11
1335.421422618334
 21
1242.1134298932541
 31
0.0
 12
1333.7136148574709
 22
1244.630053157061
 32
0.0
 13
1333.7136148574709
 23
1244.630053157061
 33
0.0
  0
LINE
  5
181A
  8
UMCL2
  6
CONTINUOUS
 10
1325.139346098098
 20
1192.2685034216161
 30
0.0
 11
1325.139346098098
 21
1207.1685034216159
 31
0.0
  0
LINE
  5
181B
  8
UMCL2
  6
CONTINUOUS
 10
1373.139346098098
 20
1198.7551858155639
 30
0.0
 11
1373.139346098098
 21
1207.1685034216159
 31
0.0
  0
LINE
  5
181C
  8
UMCL2
  6
CONTINUOUS
 10
1327.639346098098
 20
1206.1685034216159
 30
0.0
 11
1370.639346098098
 21
1206.1685034216159
 31
0.0
  0
SOLID
  5
181D
  8
UMCL2
  6
CONTINUOUS
 10
1327.639346098098
 20
1206.5851700882829
 30
0.0
 11
1327.639346098098
 21
1205.7518367549501
 31
0.0
 12
1325.139346098098
 22
1206.1685034216159
 32
0.0
 13
1325.139346098098
 23
1206.1685034216159
 33
0.0
  0
SOLID
  5
181E
  8
UMCL2
  6
CONTINUOUS
 10
1370.639346098098
 20
1206.5851700882829
 30
0.0
 11
1370.639346098098
 21
1205.7518367549501
 31
0.0
 12
1373.139346098098
 22
1206.1685034216159
 32
0.0
 13
1373.139346098098
 23
1206.1685034216159
 33
0.0
  0
INSERT
  5
181F
  8
0
  2
*U31
 10
0.0
 20
0.0
 30
0.0
  0
LINE
  5
1820
  8
UMCL2
  6
CONTINUOUS
 10
1325.139346098098
 20
1192.2685034216161
 30
0.0
 11
1325.139346098098
 21
1207.1685034216159
 31
0.0
  0
LINE
  5
1821
  8
UMCL2
  6
CONTINUOUS
 10
1289.139346098098
 20
1201.1685034216159
 30
0.0
 11
1289.139346098098
 21
1207.1685034216159
 31
0.0
  0
LINE
  5
1822
  8
UMCL2
  6
CONTINUOUS
 10
1322.639346098098
 20
1206.1685034216159
 30
0.0
 11
1291.639346098098
 21
1206.1685034216159
 31
0.0
  0
SOLID
  5
1823
  8
UMCL2
  6
CONTINUOUS
 10
1322.639346098098
 20
1206.5851700882829
 30
0.0
 11
1322.639346098098
 21
1205.7518367549501
 31
0.0
 12
1325.139346098098
 22
1206.1685034216159
 32
0.0
 13
1325.139346098098
 23
1206.1685034216159
 33
0.0
  0
SOLID
  5
1824
  8
UMCL2
  6
CONTINUOUS
 10
1291.639346098098
 20
1206.5851700882829
 30
0.0
 11
1291.639346098098
 21
1205.7518367549501
 31
0.0
 12
1289.139346098098
 22
1206.1685034216159
 32
0.0
 13
1289.139346098098
 23
1206.1685034216159
 33
0.0
  0
INSERT
  5
1825
  8
0
  2
*U32
 10
0.0
 20
0.0
 30
0.0
  0
LINE
  5
1826
  8
UMCL2
  6
CONTINUOUS
 10
1289.139346098098
 20
1201.1685034216159
 30
0.0
 11
1289.139346098098
 21
1215.1685034216159
 31
0.0
  0
LINE
  5
1827
  8
UMCL2
  6
CONTINUOUS
 10
1383.139346098098
 20
1186.368503421616
 30
0.0
 11
1383.139346098098
 21
1215.1685034216159
 31
0.0
  0
LINE
  5
1828
  8
UMCL2
  6
CONTINUOUS
 10
1291.639346098098
 20
1214.1685034216159
 30
0.0
 11
1380.639346098098
 21
1214.1685034216159
 31
0.0
  0
SOLID
  5
1829
  8
UMCL2
  6
CONTINUOUS
 10
1291.639346098098
 20
1214.5851700882829
 30
0.0
 11
1291.639346098098
 21
1213.7518367549501
 31
0.0
 12
1289.139346098098
 22
1214.1685034216159
 32
0.0
 13
1289.139346098098
 23
1214.1685034216159
 33
0.0
  0
SOLID
  5
182A
  8
UMCL2
  6
CONTINUOUS
 10
1380.639346098098
 20
1214.5851700882829
 30
0.0
 11
1380.639346098098
 21
1213.7518367549501
 31
0.0
 12
1383.139346098098
 22
1214.1685034216159
 32
0.0
 13
1383.139346098098
 23
1214.1685034216159
 33
0.0
  0
INSERT
  5
182B
  8
0
  2
*U33
 10
0.0
 20
0.0
 30
0.0
  0
LINE
  5
182C
  8
UMCL2
  6
CONTINUOUS
 10
1383.139346098098
 20
1186.368503421616
 30
0.0
 11
1383.139346098098
 21
1223.1685034216159
 31
0.0
  0
LINE
  5
182D
  8
UMCL2
  6
CONTINUOUS
 10
1273.139346098098
 20
1199.1685034216159
 30
0.0
 11
1273.139346098098
 21
1223.1685034216159
 31
0.0
  0
LINE
  5
182E
  8
UMCL2
  6
CONTINUOUS
 10
1380.639346098098
 20
1222.1685034216159
 30
0.0
 11
1275.639346098098
 21
1222.1685034216159
 31
0.0
  0
SOLID
  5
182F
  8
UMCL2
  6
CONTINUOUS
 10
1380.639346098098
 20
1222.5851700882829
 30
0.0
 11
1380.639346098098
 21
1221.7518367549501
 31
0.0
 12
1383.139346098098
 22
1222.1685034216159
 32
0.0
 13
1383.139346098098
 23
1222.1685034216159
 33
0.0
  0
SOLID
  5
1830
  8
UMCL2
  6
CONTINUOUS
 10
1275.639346098098
 20
1222.5851700882829
 30
0.0
 11
1275.639346098098
 21
1221.7518367549501
 31
0.0
 12
1273.139346098098
 22
1222.1685034216159
 32
0.0
 13
1273.139346098098
 23
1222.1685034216159
 33
0.0
  0
INSERT
  5
1831
  8
0
  2
*U34
 10
0.0
 20
0.0
 30
0.0
  0
LINE
  5
1832
  8
UMCL2
  6
CONTINUOUS
 10
1335.139346098098
 20
1182.2685034216161
 30
0.0
 11
1352.4648685144459
 21
1182.2685034216161
 31
0.0
  0
LINE
  5
1833
  8
UMCL2
  6
CONTINUOUS
 10
1335.139346098098
 20
1143.2685034216161
 30
0.0
 11
1352.4648685144459
 21
1143.2685034216161
 31
0.0
  0
LINE
  5
1834
  8
UMCL2
  6
CONTINUOUS
 10
1351.4648685144459
 20
1179.7685034216161
 30
0.0
 11
1351.4648685144459
 21
1145.7685034216161
 31
0.0
  0
SOLID
  5
1835
  8
UMCL2
  6
CONTINUOUS
 10
1351.048201847779
 20
1179.7685034216161
 30
0.0
 11
1351.8815351811129
 21
1179.7685034216161
 31
0.0
 12
1351.4648685144459
 22
1182.2685034216161
 32
0.0
 13
1351.4648685144459
 23
1182.2685034216161
 33
0.0
  0
SOLID
  5
1836
  8
UMCL2
  6
CONTINUOUS
 10
1351.048201847779
 20
1145.7685034216161
 30
0.0
 11
1351.8815351811129
 21
1145.7685034216161
 31
0.0
 12
1351.4648685144459
 22
1143.2685034216161
 32
0.0
 13
1351.4648685144459
 23
1143.2685034216161
 33
0.0
  0
INSERT
  5
1837
  8
0
  2
*U35
 10
0.0
 20
0.0
 30
0.0
  0
LINE
  5
1838
  8
UMCL2
  6
CONTINUOUS
 10
1383.139346098098
 20
1165.368503421616
 30
0.0
 11
1383.139346098098
 21
1131.5781099373
 31
0.0
  0
LINE
  5
1839
  8
UMCL2
  6
CONTINUOUS
 10
1340.139346098098
 20
1142.2685034216161
 30
0.0
 11
1340.139346098098
 21
1131.5781099373
 31
0.0
  0
LINE
  5
183A
  8
UMCL2
  6
CONTINUOUS
 10
1380.639346098098
 20
1132.5781099373
 30
0.0
 11
1342.639346098098
 21
1132.5781099373
 31
0.0
  0
SOLID
  5
183B
  8
UMCL2
  6
CONTINUOUS
 10
1380.639346098098
 20
1132.9947766039661
 30
0.0
 11
1380.639346098098
 21
1132.1614432706331
 31
0.0
 12
1383.139346098098
 22
1132.5781099373
 32
0.0
 13
1383.139346098098
 23
1132.5781099373
 33
0.0
  0
SOLID
  5
183C
  8
UMCL2
  6
CONTINUOUS
 10
1342.639346098098
 20
1132.9947766039661
 30
0.0
 11
1342.639346098098
 21
1132.1614432706331
 31
0.0
 12
1340.139346098098
 22
1132.5781099373
 32
0.0
 13
1340.139346098098
 23
1132.5781099373
 33
0.0
  0
INSERT
  5
183D
  8
0
  2
*U36
 10
0.0
 20
0.0
 30
0.0
  0
LINE
  5
183E
  8
UMCL2
  6
CONTINUOUS
 10
1337.3393460980981
 20
1011.368503421616
 30
0.0
 11
1392.1393460980969
 21
1011.368503421616
 31
0.0
  0
LINE
  5
183F
  8
UMCL2
  6
CONTINUOUS
 10
1341.139346098098
 20
1122.368503421616
 30
0.0
 11
1392.1393460980969
 21
1122.368503421616
 31
0.0
  0
LINE
  5
1840
  8
UMCL2
  6
CONTINUOUS
 10
1391.1393460980969
 20
1013.868503421616
 30
0.0
 11
1391.1393460980969
 21
1119.868503421616
 31
0.0
  0
SOLID
  5
1841
  8
UMCL2
  6
CONTINUOUS
 10
1390.7226794314311
 20
1013.868503421616
 30
0.0
 11
1391.5560127647641
 21
1013.868503421616
 31
0.0
 12
1391.1393460980969
 22
1011.368503421616
 32
0.0
 13
1391.1393460980969
 23
1011.368503421616
 33
0.0
  0
SOLID
  5
1842
  8
UMCL2
  6
CONTINUOUS
 10
1390.7226794314311
 20
1119.868503421616
 30
0.0
 11
1391.5560127647641
 21
1119.868503421616
 31
0.0
 12
1391.1393460980969
 22
1122.368503421616
 32
0.0
 13
1391.1393460980969
 23
1122.368503421616
 33
0.0
  0
INSERT
  5
1843
  8
0
  2
*U37
 10
0.0
 20
0.0
 30
0.0
  0
LINE
  5
1844
  8
UMCL2
  6
CONTINUOUS
 10
1384.139346098098
 20
1185.368503421616
 30
0.0
 11
1392.1393460980969
 21
1185.368503421616
 31
0.0
  0
LINE
  5
1845
  8
UMCL2
  6
CONTINUOUS
 10
1384.139346098098
 20
1166.368503421616
 30
0.0
 11
1392.1393460980969
 21
1166.368503421616
 31
0.0
  0
LINE
  5
1846
  8
UMCL2
  6
CONTINUOUS
 10
1391.1393460980969
 20
1182.868503421616
 30
0.0
 11
1391.1393460980969
 21
1168.868503421616
 31
0.0
  0
SOLID
  5
1847
  8
UMCL2
  6
CONTINUOUS
 10
1390.7226794314311
 20
1182.868503421616
 30
0.0
 11
1391.5560127647641
 21
1182.868503421616
 31
0.0
 12
1391.1393460980969
 22
1185.368503421616
 32
0.0
 13
1391.1393460980969
 23
1185.368503421616
 33
0.0
  0
SOLID
  5
1848
  8
UMCL2
  6
CONTINUOUS
 10
1390.7226794314311
 20
1168.868503421616
 30
0.0
 11
1391.5560127647641
 21
1168.868503421616
 31
0.0
 12
1391.1393460980969
 22
1166.368503421616
 32
0.0
 13
1391.1393460980969
 23
1166.368503421616
 33
0.0
  0
INSERT
  5
1849
  8
0
  2
*U38
 10
0.0
 20
0.0
 30
0.0
  0
LINE
  5
184A
  8
UMCL2
  6
CONTINUOUS
 10
1360.252354904253
 20
1198.1685034216159
 30
0.0
 11
1400.1393460980969
 21
1198.1685034216159
 31
0.0
  0
LINE
  5
184B
  8
UMCL2
  6
CONTINUOUS
 10
1384.139346098098
 20
1166.368503421616
 30
0.0
 11
1400.1393460980969
 21
1166.368503421616
 31
0.0
  0
LINE
  5
184C
  8
UMCL2
  6
CONTINUOUS
 10
1399.1393460980969
 20
1195.6685034216159
 30
0.0
 11
1399.1393460980969
 21
1168.868503421616
 31
0.0
  0
SOLID
  5
184D
  8
UMCL2
  6
CONTINUOUS
 10
1398.7226794314311
 20
1195.6685034216159
 30
0.0
 11
1399.5560127647641
 21
1195.6685034216159
 31
0.0
 12
1399.1393460980969
 22
1198.1685034216159
 32
0.0
 13
1399.1393460980969
 23
1198.1685034216159
 33
0.0
  0
SOLID
  5
184E
  8
UMCL2
  6
CONTINUOUS
 10
1398.7226794314311
 20
1168.868503421616
 30
0.0
 11
1399.5560127647641
 21
1168.868503421616
 31
0.0
 12
1399.1393460980969
 22
1166.368503421616
 32
0.0
 13
1399.1393460980969
 23
1166.368503421616
 33
0.0
  0
INSERT
  5
184F
  8
0
  2
*U39
 10
0.0
 20
0.0
 30
0.0
  0
LINE
  5
1850
  8
UMCL2
  6
CONTINUOUS
 10
1384.139346098098
 20
1166.368503421616
 30
0.0
 11
1400.1393460980969
 21
1166.368503421616
 31
0.0
  0
LINE
  5
1851
  8
UMCL2
  6
CONTINUOUS
 10
1337.3393460980981
 20
1011.368503421616
 30
0.0
 11
1400.1393460980969
 21
1011.368503421616
 31
0.0
  0
LINE
  5
1852
  8
UMCL2
  6
CONTINUOUS
 10
1399.1393460980969
 20
1163.868503421616
 30
0.0
 11
1399.1393460980969
 21
1013.868503421616
 31
0.0
  0
SOLID
  5
1853
  8
UMCL2
  6
CONTINUOUS
 10
1398.7226794314311
 20
1163.868503421616
 30
0.0
 11
1399.5560127647641
 21
1163.868503421616
 31
0.0
 12
1399.1393460980969
 22
1166.368503421616
 32
0.0
 13
1399.1393460980969
 23
1166.368503421616
 33
0.0
  0
SOLID
  5
1854
  8
UMCL2
  6
CONTINUOUS
 10
1398.7226794314311
 20
1013.868503421616
 30
0.0
 11
1399.5560127647641
 21
1013.868503421616
 31
0.0
 12
1399.1393460980969
 22
1011.368503421616
 32
0.0
 13
1399.1393460980969
 23
1011.368503421616
 33
0.0
  0
INSERT
  5
1855
  8
0
  2
*U40
 10
0.0
 20
0.0
 30
0.0
  0
LINE
  5
1856
  8
UMCL2
  6
CONTINUOUS
 10
1360.252354904253
 20
1198.1685034216159
 30
0.0
 11
1408.1393460980969
 21
1198.1685034216159
 31
0.0
  0
LINE
  5
1857
  8
UMCL2
  6
CONTINUOUS
 10
1337.3393460980981
 20
1011.368503421616
 30
0.0
 11
1408.1393460980969
 21
1011.368503421616
 31
0.0
  0
LINE
  5
1858
  8
UMCL2
  6
CONTINUOUS
 10
1407.1393460980969
 20
1195.6685034216159
 30
0.0
 11
1407.1393460980969
 21
1013.868503421616
 31
0.0
  0
SOLID
  5
1859
  8
UMCL2
  6
CONTINUOUS
 10
1406.7226794314311
 20
1195.6685034216159
 30
0.0
 11
1407.5560127647641
 21
1195.6685034216159
 31
0.0
 12
1407.1393460980969
 22
1198.1685034216159
 32
0.0
 13
1407.1393460980969
 23
1198.1685034216159
 33
0.0
  0
SOLID
  5
185A
  8
UMCL2
  6
CONTINUOUS
 10
1406.7226794314311
 20
1013.868503421616
 30
0.0
 11
1407.5560127647641
 21
1013.868503421616
 31
0.0
 12
1407.1393460980969
 22
1011.368503421616
 32
0.0
 13
1407.1393460980969
 23
1011.368503421616
 33
0.0
  0
INSERT
  5
185B
  8
0
  2
*U41
 10
0.0
 20
0.0
 30
0.0
  0
LINE
  5
185C
  8
UMCL2
  6
CONTINUOUS
 10
1292.937139088915
 20
1185.5206978190799
 30
0.0
 11
1285.3415531072801
 21
1179.016309024152
 31
0.0
  0
INSERT
  5
185D
  8
0
  2
*U42
 10
0.0
 20
0.0
 30
0.0
  0
SOLID
  5
185E
  8
UMCL2
  6
CONTINUOUS
 10
1292.6661228891271
 20
1185.837180568315
 30
0.0
 11
1293.2081552887039
 21
1185.2042150698451
 31
0.0
 12
1294.8360355843249
 22
1187.1467950178121
 32
0.0
 13
1294.8360355843249
 23
1187.1467950178121
 33
0.0
  0
SOLID
  5
185F
  8
UMCL2
  6
CONTINUOUS
 10
1285.070536907491
 20
1179.332791773387
 30
0.0
 11
1285.612569307068
 21
1178.699826274918
 31
0.0
 12
1283.4426566118709
 22
1177.3902118254209
 32
0.0
 13
1283.4426566118709
 23
1177.3902118254209
 33
0.0
  0
LINE
  5
1860
  8
UMCL2
  6
CONTINUOUS
 10
1294.8360355843249
 20
1187.1467950178121
 30
0.0
 11
1265.2786543230241
 21
1161.7379164180079
 31
0.0
  0
LINE
  5
1861
  8
UMCL1
  6
HIDDEN
 62
     6
 10
1297.6393460980969
 20
1202.1685034216159
 30
0.0
 11
1301.6393460980969
 21
1198.1685034216159
 31
0.0
  0
LINE
  5
1862
  8
UMCL1
  6
HIDDEN
 62
     6
 10
1280.639346098098
 20
1202.1685034216159
 30
0.0
 11
1297.6393460980969
 21
1202.1685034216159
 31
0.0
  0
LINE
  5
1863
  8
UMCL1
  6
HIDDEN
 62
     6
 10
1276.639346098098
 20
1198.1685034216159
 30
0.0
 11
1280.639346098098
 21
1202.1685034216159
 31
0.0
  0
LINE
  5
1864
  8
UMCL2
  6
CONTINUOUS
 10
1272.139346098098
 20
1198.1685034216159
 30
0.0
 11
1258.8829363432851
 21
1198.1685034216159
 31
0.0
  0
LINE
  5
1865
  8
UMCL2
  6
CONTINUOUS
 10
1279.6393460980989
 20
1202.1685034216159
 30
0.0
 11
1258.8829363432851
 21
1202.1685034216159
 31
0.0
  0
LINE
  5
1866
  8
UMCL2
  6
CONTINUOUS
 10
1259.8829363432851
 20
1195.6685034216159
 30
0.0
 11
1259.8829363432851
 21
1193.1685034216159
 31
0.0
  0
LINE
  5
1867
  8
UMCL2
  6
CONTINUOUS
 10
1259.8829363432851
 20
1204.6685034216159
 30
0.0
 11
1259.8829363432851
 21
1207.1685034216159
 31
0.0
  0
INSERT
  5
1868
  8
0
  2
*U43
 10
0.0
 20
0.0
 30
0.0
  0
LINE
  5
1869
  8
UMCL2
  6
CONTINUOUS
 10
1259.8829363432851
 20
1198.1685034216159
 30
0.0
 11
1259.8829363432851
 21
1202.1685034216159
 31
0.0
  0
SOLID
  5
186A
  8
UMCL2
  6
CONTINUOUS
 10
1259.4662696766179
 20
1195.6685034216159
 30
0.0
 11
1260.2996030099521
 21
1195.6685034216159
 31
0.0
 12
1259.8829363432851
 22
1198.1685034216159
 32
0.0
 13
1259.8829363432851
 23
1198.1685034216159
 33
0.0
  0
SOLID
  5
186B
  8
UMCL2
  6
CONTINUOUS
 10
1259.4662696766179
 20
1204.6685034216159
 30
0.0
 11
1260.2996030099521
 21
1204.6685034216159
 31
0.0
 12
1259.8829363432851
 22
1202.1685034216159
 32
0.0
 13
1259.8829363432851
 23
1202.1685034216159
 33
0.0
  0
TEXT
  5
186C
  8
UMCL2
 10
1251.02840109201
 20
1183.311360564473
 30
0.0
 40
3.0
  1
Raise clearnce
 50
90.0
  0
LINE
  5
186D
  8
UMCL2
 10
1251.557095061213
 20
1183.452768785568
 30
0.0
 11
1251.557095061213
 21
1216.584123492147
 31
0.0
  0
LINE
  5
186E
  8
UMCL2
 10
1252.557095061213
 20
1183.452768785568
 30
0.0
 11
1252.557095061213
 21
1216.584123492147
 31
0.0
  0
TEXT
  5
186F
  8
UMCL2
  6
CONTINUOUS
 10
1420.0479527427849
 20
1022.455354750322
 30
0.0
 40
3.0
  1
A
  7
ROMANS
  0
CIRCLE
  5
1870
  8
UMCL2
  6
CONTINUOUS
 10
1421.4805850889361
 20
1023.702455004666
 30
0.0
 40
2.5
  0
TEXT
  5
1871
  8
UMCL2
  6
CONTINUOUS
 10
1420.0479527427849
 20
1015.78991384474
 30
0.0
 40
3.0
  1
B
  7
ROMANS
  0
CIRCLE
  5
1872
  8
UMCL2
  6
CONTINUOUS
 10
1421.4805850889361
 20
1017.037014099083
 30
0.0
 40
2.5
  0
TEXT
  5
1873
  8
UMCL2
  6
CONTINUOUS
 10
1427.0138386968849
 20
1023.08581672816
 30
0.0
 40
3.0
  1
Clamping port
  7
ROMANSS
 72
     2
 11
1458.5852672683141
 21
1024.5858167281599
 31
0.0
 73
     2
  0
TEXT
  5
1874
  8
UMCL2
  6
CONTINUOUS
 10
1426.871148565931
 20
1015.5205123533
 30
0.0
 40
3.0
  1
Unclamping port
  7
ROMANSS
 72
     2
 11
1463.871148565931
 21
1017.0205123533
 31
0.0
 73
     2
  0
LINE
  5
1875
  8
UMCL2
 10
1417.1083939509431
 20
1028.406126756875
 30
0.0
 11
1466.1138960126721
 21
1028.406126756875
 31
0.0
  0
LINE
  5
1876
  8
UMCL2
 10
1466.1138960126721
 20
1028.406126756875
 30
0.0
 11
1466.1138960126721
 21
1012.605242570734
 31
0.0
  0
LINE
  5
1877
  8
UMCL2
 10
1466.1138960126721
 20
1012.605242570734
 30
0.0
 11
1417.1083939509431
 21
1012.605242570734
 31
0.0
  0
LINE
  5
1878
  8
UMCL2
 10
1417.1083939509431
 20
1012.605242570734
 30
0.0
 11
1417.1083939509431
 21
1028.406126756875
 31
0.0
  0
CIRCLE
  5
1879
  8
UMCL1
  6
HIDDEN
 62
     3
 10
1308.139346098098
 20
1249.69374990654
 30
0.0
 40
6.0
  0
CIRCLE
  5
187A
  8
UMCL1
  6
HIDDEN
 62
     3
 10
1308.139346098098
 20
1249.69374990654
 30
0.0
 40
2.5
  0
CIRCLE
  5
187B
  8
UMCL1
  6
HIDDEN
 62
     3
 10
1270.1393460980969
 20
1249.69374990654
 30
0.0
 40
6.0
  0
CIRCLE
  5
187C
  8
UMCL1
  6
HIDDEN
 62
     3
 10
1270.1393460980969
 20
1249.69374990654
 30
0.0
 40
2.5
  0
LINE
  5
187D
  8
UMCL1
  6
CENTER
 62
     1
 10
1263.3393460980969
 20
1249.69374990654
 30
0.0
 11
1268.539346098097
 21
1249.69374990654
 31
0.0
  0
LINE
  5
187E
  8
UMCL1
  6
CENTER
 62
     1
 10
1269.3393460980969
 20
1249.69374990654
 30
0.0
 11
1270.9393460980971
 21
1249.69374990654
 31
0.0
  0
LINE
  5
187F
  8
UMCL1
  6
CENTER
 62
     1
 10
1271.7393460980979
 20
1249.69374990654
 30
0.0
 11
1276.9393460980971
 21
1249.69374990654
 31
0.0
  0
LINE
  5
1880
  8
UMCL1
  6
CENTER
 62
     1
 10
1270.1393460980969
 20
1242.8937499065401
 30
0.0
 11
1270.1393460980969
 21
1248.0937499065401
 31
0.0
  0
LINE
  5
1881
  8
UMCL1
  6
CENTER
 62
     1
 10
1270.1393460980969
 20
1248.8937499065401
 30
0.0
 11
1270.1393460980969
 21
1250.49374990654
 31
0.0
  0
LINE
  5
1882
  8
UMCL1
  6
CENTER
 62
     1
 10
1270.1393460980969
 20
1251.2937499065399
 30
0.0
 11
1270.1393460980969
 21
1256.49374990654
 31
0.0
  0
LINE
  5
1883
  8
UMCL1
  6
CENTER
 62
     1
 10
1301.3393460980969
 20
1249.69374990654
 30
0.0
 11
1306.539346098097
 21
1249.69374990654
 31
0.0
  0
LINE
  5
1884
  8
UMCL1
  6
CENTER
 62
     1
 10
1307.3393460980969
 20
1249.69374990654
 30
0.0
 11
1308.939346098098
 21
1249.69374990654
 31
0.0
  0
LINE
  5
1885
  8
UMCL1
  6
CENTER
 62
     1
 10
1309.7393460980979
 20
1249.69374990654
 30
0.0
 11
1314.939346098098
 21
1249.69374990654
 31
0.0
  0
LINE
  5
1886
  8
UMCL1
  6
CENTER
 62
     1
 10
1308.139346098098
 20
1242.8937499065401
 30
0.0
 11
1308.139346098098
 21
1248.0937499065401
 31
0.0
  0
LINE
  5
1887
  8
UMCL1
  6
CENTER
 62
     1
 10
1308.139346098098
 20
1248.8937499065401
 30
0.0
 11
1308.139346098098
 21
1250.49374990654
 31
0.0
  0
LINE
  5
1888
  8
UMCL1
  6
CENTER
 62
     1
 10
1308.139346098098
 20
1251.2937499065399
 30
0.0
 11
1308.139346098098
 21
1256.49374990654
 31
0.0
  0
TEXT
  5
1889
  8
UMCL2
  6
CONTINUOUS
 10
1237.102256026207
 20
1224.4290723871879
 30
0.0
 40
3.0
  1
O-Ring
  7
ROMANSS
 72
     2
 11
1252.5308274547781
 21
1225.9290723871879
 31
0.0
 73
     2
  0
POLYLINE
  5
188A
  8
UMCL1
  6
CONTINUOUS
 66
     1
 10
0.0
 20
0.0
 30
0.0
 70
     1
  0
VERTEX
  5
1A41
  8
UMCL1
  6
CONTINUOUS
 10
1271.871396905666
 20
1088.368503421616
 30
0.0
  0
VERTEX
  5
1A42
  8
UMCL1
  6
CONTINUOUS
 10
1268.4072952905281
 20
1088.368503421616
 30
0.0
  0
VERTEX
  5
1A43
  8
UMCL1
  6
CONTINUOUS
 10
1266.6752444829599
 20
1085.368503421616
 30
0.0
  0
VERTEX
  5
1A44
  8
UMCL1
  6
CONTINUOUS
 10
1268.4072952905281
 20
1082.368503421616
 30
0.0
  0
VERTEX
  5
1A45
  8
UMCL1
  6
CONTINUOUS
 10
1271.871396905666
 20
1082.368503421616
 30
0.0
  0
VERTEX
  5
1A46
  8
UMCL1
  6
CONTINUOUS
 10
1273.603447713235
 20
1085.368503421616
 30
0.0
  0
SEQEND
  5
1A47
  8
UMCL1
  6
CONTINUOUS
  0
LINE
  5
188B
  8
UMCL1
  6
HIDDEN
 62
     3
 10
1264.1393460980969
 20
1011.368503421616
 30
0.0
 11
1264.1393460980969
 21
1012.7685034216159
 31
0.0
  0
LINE
  5
188C
  8
UMCL1
  6
HIDDEN
 62
     3
 10
1276.1393460980969
 20
1012.7685034216159
 30
0.0
 11
1276.1393460980969
 21
1011.368503421616
 31
0.0
  0
LINE
  5
188D
  8
UMCL1
  6
HIDDEN
 62
     3
 10
1264.1393460980969
 20
1012.7685034216159
 30
0.0
 11
1276.1393460980969
 21
1012.7685034216159
 31
0.0
  0
LINE
  5
188E
  8
UMCL1
  6
HIDDEN
 62
     3
 10
1302.139346098098
 20
1011.368503421616
 30
0.0
 11
1302.139346098098
 21
1012.7685034216159
 31
0.0
  0
LINE
  5
188F
  8
UMCL1
  6
HIDDEN
 62
     3
 10
1314.139346098098
 20
1012.7685034216159
 30
0.0
 11
1314.139346098098
 21
1011.368503421616
 31
0.0
  0
LINE
  5
1890
  8
UMCL1
  6
HIDDEN
 62
     3
 10
1302.139346098098
 20
1012.7685034216159
 30
0.0
 11
1314.139346098098
 21
1012.7685034216159
 31
0.0
  0
LINE
  5
1891
  8
UMCL1
  6
HIDDEN
 62
     3
 10
1272.639346098098
 20
1012.7685034216159
 30
0.0
 11
1272.639346098098
 21
1085.368503421616
 31
0.0
  0
LINE
  5
1892
  8
UMCL1
  6
HIDDEN
 62
     3
 10
1267.6393460980969
 20
1012.7685034216159
 30
0.0
 11
1267.6393460980969
 21
1085.368503421616
 31
0.0
  0
LINE
  5
1893
  8
UMCL1
  6
HIDDEN
 62
     3
 10
1310.6393460980969
 20
1012.7685034216159
 30
0.0
 11
1310.639346098098
 21
1033.368503421616
 31
0.0
  0
LINE
  5
1894
  8
UMCL1
  6
HIDDEN
 62
     3
 10
1305.639346098098
 20
1012.7685034216159
 30
0.0
 11
1305.639346098098
 21
1033.368503421616
 31
0.0
  0
POLYLINE
  5
1895
  8
UMCL1
  6
CONTINUOUS
 66
     1
 10
0.0
 20
0.0
 30
0.0
 70
     1
  0
VERTEX
  5
1A48
  8
UMCL1
  6
CONTINUOUS
 10
1309.871396905666
 20
1036.368503421616
 30
0.0
  0
VERTEX
  5
1A49
  8
UMCL1
  6
CONTINUOUS
 10
1306.407295290529
 20
1036.368503421616
 30
0.0
  0
VERTEX
  5
1A4A
  8
UMCL1
  6
CONTINUOUS
 10
1304.675244482959
 20
1033.368503421616
 30
0.0
  0
VERTEX
  5
1A4B
  8
UMCL1
  6
CONTINUOUS
 10
1306.407295290529
 20
1030.368503421616
 30
0.0
  0
VERTEX
  5
1A4C
  8
UMCL1
  6
CONTINUOUS
 10
1309.871396905666
 20
1030.368503421616
 30
0.0
  0
VERTEX
  5
1A4D
  8
UMCL1
  6
CONTINUOUS
 10
1311.603447713235
 20
1033.368503421616
 30
0.0
  0
SEQEND
  5
1A4E
  8
UMCL1
  6
CONTINUOUS
  0
TEXT
  5
1896
  8
UMCL1
  6
CONTINUOUS
 10
1149.5183805779161
 20
1343.584143320247
 30
0.0
 40
7.0
  1
MHCK-63-F
  0
TEXT
  5
1897
  8
UMCL1
  6
CONTINUOUS
 10
1494.7383419473299
 20
1340.077514041757
 30
0.0
 40
7.0
  1
MHCK-63
  0
POINT
  5
1898
  8
0
 10
8440.4084781160145
 20
-523.97403193941727
 30
-179.8317238765535
1001
GENIUS_GENOBJ-N-CRS_13
1002
{
1000
OWNER
1000
GEN
1002
}
1001
GENIUS_GENOLIS_13
1002
{
1000
ENT
1005
0
1005
0
1005
0
1005
170D
1002
}
1001
GENIUS_GENOENT_13
1002
{
1000
MYREF
1005
1898
1002
}
1002
{
1000
GRP
1005
0
1002
}
1001
GENIUS_GENODEF_13
1002
{
1000
HIER
1070
    10
1002
}
1002
{
1000
MANEDIT
1070
     1
1002
}
1002
{
1000
NOSEL
1070
     0
1002
}
1002
{
1000
BEHIND
1070
     0
1002
}
1002
{
1000
OTHER
1070
     0
1002
}
1002
{
1000
REACTOR
1002
}
  0
POINT
  5
1899
  8
0
 10
8429.0838928931571
 20
-515.09844546078114
 30
-179.8317238765535
1001
GENIUS_GENOBJ-N-CRS_13
1002
{
1000
OWNER
1000
GEN
1002
}
1001
GENIUS_GENOLIS_13
1002
{
1000
ENT
1005
0
1005
0
1005
0
1005
170C
1002
}
1001
GENIUS_GENOENT_13
1002
{
1000
MYREF
1005
1899
1002
}
1002
{
1000
GRP
1005
0
1002
}
1001
GENIUS_GENODEF_13
1002
{
1000
HIER
1070
    10
1002
}
1002
{
1000
MANEDIT
1070
     1
1002
}
1002
{
1000
NOSEL
1070
     0
1002
}
1002
{
1000
BEHIND
1070
     0
1002
}
1002
{
1000
OTHER
1070
     0
1002
}
1002
{
1000
REACTOR
1002
}
  0
POINT
  5
189A
  8
0
 10
8435.4425665909985
 20
-523.97403193941727
 30
-179.8317238765535
1001
GENIUS_GENOBJ-N-CRS_13
1002
{
1000
OWNER
1000
GEN
1002
}
1001
GENIUS_GENOLIS_13
1002
{
1000
ENT
1005
0
1005
0
1005
0
1005
170B
1002
}
1001
GENIUS_GENOENT_13
1002
{
1000
MYREF
1005
189A
1002
}
1002
{
1000
GRP
1005
0
1002
}
1001
GENIUS_GENODEF_13
1002
{
1000
HIER
1070
    10
1002
}
1002
{
1000
MANEDIT
1070
     1
1002
}
1002
{
1000
NOSEL
1070
     0
1002
}
1002
{
1000
BEHIND
1070
     0
1002
}
1002
{
1000
OTHER
1070
     0
1002
}
1002
{
1000
REACTOR
1002
}
  0
ENDSEC
  0
EOF
