  0
SECTION
  2
HEADER
  9
$ACADVER
  1
AC1009
  9
$INSBASE
 10
0.0
 20
0.0
 30
0.0
  9
$EXTMIN
 10
4406.0771153618898
 20
3765.452473912017
 30
-0.0336634742428714
  9
$EXTMAX
 10
5160.8578902875652
 20
5014.1506613101974
 30
490.28834773090853
  9
$LIMMIN
 10
0.0
 20
0.0
  9
$LIMMAX
 10
420.0
 20
297.0
  9
$ORTHOMODE
 70
     1
  9
$REGENMODE
 70
     1
  9
$FILLMODE
 70
     1
  9
$QTEXTMODE
 70
     0
  9
$MIRRTEXT
 70
     1
  9
$DRAGMODE
 70
     2
  9
$LTSCALE
 40
1.0
  9
$OSMODE
 70
    37
  9
$ATTMODE
 70
     1
  9
$TEXTSIZE
 40
2.5
  9
$TRACEWID
 40
1.0
  9
$TEXTSTYLE
  7
STANDARD
  9
$CLAYER
  8
HIDDEN
  9
$CELTYPE
  6
BYLAYER
  9
$CECOLOR
 62
   256
  9
$DIMSCALE
 40
1.0
  9
$DIMASZ
 40
2.5
  9
$DIMEXO
 40
1.0
  9
$DIMDLI
 40
8.0
  9
$DIMRND
 40
0.0
  9
$DIMDLE
 40
0.0
  9
$DIMEXE
 40
1.0
  9
$DIMTP
 40
0.1
  9
$DIMTM
 40
0.1
  9
$DIMTXT
 40
3.0
  9
$DIMCEN
 40
0.0
  9
$DIMTSZ
 40
0.0
  9
$DIMTOL
 70
     0
  9
$DIMLIM
 70
     0
  9
$DIMTIH
 70
     0
  9
$DIMTOH
 70
     0
  9
$DIMSE1
 70
     0
  9
$DIMSE2
 70
     0
  9
$DIMTAD
 70
     1
  9
$DIMZIN
 70
     8
  9
$DIMBLK
  1

  9
$DIMASO
 70
     1
  9
$DIMSHO
 70
     1
  9
$DIMPOST
  1

  9
$DIMAPOST
  1
"
  9
$DIMALT
 70
     0
  9
$DIMALTD
 70
     2
  9
$DIMALTF
 40
0.0393701
  9
$DIMLFAC
 40
1.0
  9
$DIMTOFL
 70
     1
  9
$DIMTVP
 40
0.0
  9
$DIMTIX
 70
     0
  9
$DIMSOXD
 70
     0
  9
$DIMSAH
 70
     0
  9
$DIMBLK1
  1

  9
$DIMBLK2
  1

  9
$DIMSTYLE
  2
AM_ISO
  9
$DIMCLRD
 70
   256
  9
$DIMCLRE
 70
   256
  9
$DIMCLRT
 70
     5
  9
$DIMTFAC
 40
0.71
  9
$DIMGAP
 40
1.5
  9
$LUNITS
 70
     2
  9
$LUPREC
 70
     2
  9
$SKETCHINC
 40
1.0
  9
$FILLETRAD
 40
2.5
  9
$AUNITS
 70
     0
  9
$AUPREC
 70
     0
  9
$MENU
  1
.
  9
$ELEVATION
 40
0.0
  9
$PELEVATION
 40
0.0
  9
$THICKNESS
 40
0.0
  9
$LIMCHECK
 70
     0
  9
$BLIPMODE
 70
     0
  9
$CHAMFERA
 40
2.5
  9
$CHAMFERB
 40
2.5
  9
$SKPOLY
 70
     0
  9
$TDCREATE
 40
2454958.3685380439
  9
$TDUPDATE
 40
2454959.4784392361
  9
$TDINDWG
 40
0.2851357176
  9
$TDUSRTIMER
 40
0.2851357176
  9
$USRTIMER
 70
     1
  9
$ANGBASE
 50
0.0
  9
$ANGDIR
 70
     0
  9
$PDMODE
 70
    35
  9
$PDSIZE
 40
0.0
  9
$PLINEWID
 40
0.0
  9
$COORDS
 70
     1
  9
$SPLFRAME
 70
     0
  9
$SPLINETYPE
 70
     6
  9
$SPLINESEGS
 70
     8
  9
$ATTDIA
 70
     1
  9
$ATTREQ
 70
     1
  9
$HANDLING
 70
     1
  9
$HANDSEED
  5
664C
  9
$SURFTAB1
 70
     6
  9
$SURFTAB2
 70
     6
  9
$SURFTYPE
 70
     6
  9
$SURFU
 70
     6
  9
$SURFV
 70
     6
  9
$UCSNAME
  2

  9
$UCSORG
 10
0.0
 20
0.0
 30
0.0
  9
$UCSXDIR
 10
1.0
 20
0.0
 30
0.0
  9
$UCSYDIR
 10
0.0
 20
1.0
 30
0.0
  9
$PUCSNAME
  2

  9
$PUCSORG
 10
0.0
 20
0.0
 30
0.0
  9
$PUCSXDIR
 10
1.0
 20
0.0
 30
0.0
  9
$PUCSYDIR
 10
0.0
 20
1.0
 30
0.0
  9
$USERI1
 70
     0
  9
$USERI2
 70
     0
  9
$USERI3
 70
     0
  9
$USERI4
 70
     0
  9
$USERI5
 70
     0
  9
$USERR1
 40
0.0
  9
$USERR2
 40
0.0
  9
$USERR3
 40
0.0
  9
$USERR4
 40
0.0
  9
$USERR5
 40
0.0
  9
$WORLDVIEW
 70
     1
  9
$SHADEDGE
 70
     3
  9
$SHADEDIF
 70
    70
  9
$TILEMODE
 70
     1
  9
$MAXACTVP
 70
    64
  9
$PLIMCHECK
 70
     0
  9
$PEXTMIN
 10
1.0000000000000000E+020
 20
1.0000000000000000E+020
 30
1.0000000000000000E+020
  9
$PEXTMAX
 10
-1.0000000000000000E+020
 20
-1.0000000000000000E+020
 30
-1.0000000000000000E+020
  9
$PLIMMIN
 10
0.0
 20
0.0
  9
$PLIMMAX
 10
420.0
 20
297.0
  9
$UNITMODE
 70
     0
  9
$VISRETAIN
 70
     1
  9
$PLINEGEN
 70
     0
  9
$PSLTSCALE
 70
     1
  0
ENDSEC
  0
SECTION
  2
TABLES
  0
TABLE
  2
VPORT
 70
     3
  0
VPORT
  2
*ACTIVE
 70
     0
 10
0.0
 20
0.0
 11
1.0
 21
1.0
 12
4783.4675028247266
 22
4389.8015676111072
 13
0.0
 23
0.0
 14
2.5
 24
2.5
 15
10.0
 25
10.0
 16
0.0
 26
0.0
 36
1.0
 17
0.0
 27
0.0
 37
0.0
 40
1258.530456590292
 41
1.2470433639947429
 42
50.0
 43
0.0
 44
0.0
 50
0.0
 51
0.0
 71
     0
 72
   100
 73
     1
 74
     3
 75
     0
 76
     0
 77
     0
 78
     0
  0
ENDTAB
  0
TABLE
  2
LTYPE
 70
    16
  0
LTYPE
  2
CONTINUOUS
 70
     0
  3
Solid line
 72
    65
 73
     0
 40
0.0
  0
LTYPE
  2
AM_ISO02W050
 70
     0
  3
__ __ __ __ __ __ __ __ __ __ __ __ __ __ __
 72
    65
 73
     2
 40
7.5
 49
6.0
 49
-1.5
  0
LTYPE
  2
AM_ISO08W050
 70
     0
  3
____ . ____ . ____ . ____ . ____ . ____ . ____
 72
    65
 73
     4
 40
18.0
 49
12.0
 49
-1.5
 49
3.0
 49
-1.5
  0
LTYPE
  2
AM_ISO09W050
 70
     0
  3
_____ . . _____ . . _____ . . ____ .. ____
 72
    65
 73
     6
 40
22.5
 49
12.0
 49
-1.5
 49
3.0
 49
-1.5
 49
3.0
 49
-1.5
  0
LTYPE
  2
AMCONSTR
 70
     0
  3
_______________________
 72
    65
 73
     2
 40
9999.0
 49
9999.0
 49
0.0
  0
LTYPE
  2
AM_ISO08W050X2
 70
     0
  3
__ . __ . __ . __ . __ . __
 72
    65
 73
     4
 40
9.0
 49
6.0
 49
-0.75
 49
1.5
 49
-0.75
  0
LTYPE
  2
AM_ISO02W050X2
 70
     0
  3
 _ _ _ _ _ _ _ _ _ _ _ _
 72
    65
 73
     2
 40
3.75
 49
3.0
 49
-0.75
  0
LTYPE
  2
AMZIGZAG
 70
     0
  3
/\/-/\/-/\/-/\/-/\/-/\/
 72
    65
 73
     2
 40
11.0001
 49
0.0001
 49
-11.0
  0
LTYPE
  2
ACISOWELD
 70
     0
  3
_ _ _ _ _
 72
    65
 73
     2
 40
2.0
 49
2.0
 49
-1.0
  0
LTYPE
  2
ACISOTGB
 70
     0
  3
__ . . __ . .
 72
    65
 73
     6
 40
9.0
 49
4.0
 49
-1.0
 49
1.0
 49
-1.0
 49
1.0
 49
-1.0
  0
LTYPE
  2
ACISOTGL
 70
     0
  3
_ _ _ _ _
 72
    65
 73
     2
 40
3.0
 49
2.0
 49
-1.0
  0
LTYPE
  2
CENTER
 70
     0
  3
__ . __
 72
    65
 73
     4
 40
7.0
 49
4.0
 49
-1.0
 49
1.0
 49
-1.0
  0
LTYPE
  2
HIDDEN
 70
     0
  3
Hidden __ __ __ __ __ __ __ __ __ __ __ __ __ _
 72
    65
 73
     2
 40
9.5249999999999986
 49
6.3499999999999988
 49
-3.1749999999999989
  0
LTYPE
  2
PHANTOM2
 70
     0
  3
Phantom (.5x) ___ _ _ ___ _ _ ___ _ _ ___ _ _
 72
    65
 73
     6
 40
31.75
 49
15.875
 49
-3.1749999999999989
 49
3.1749999999999989
 49
-3.1749999999999989
 49
3.1749999999999989
 49
-3.1749999999999989
  0
LTYPE
  2
ACANSTGB
 70
     0
  3
__ . . __ . .
 72
    65
 73
     6
 40
0.35433070866
 49
0.15748031496
 49
-0.03937007874
 49
0.03937007874
 49
-0.03937007874
 49
0.03937007874
 49
-0.03937007874
  0
LTYPE
  2
ACANSTGL
 70
     0
  3
_ _ _ _ _
 72
    65
 73
     2
 40
0.11811023622
 49
0.07874015748
 49
-0.03937007874
  0
ENDTAB
  0
TABLE
  2
LAYER
 70
     8
  0
LAYER
  2
0
 70
     0
 62
     7
  6
CONTINUOUS
  0
LAYER
  2
LOGO
 70
     0
 62
     7
  6
CONTINUOUS
  0
LAYER
  2
UMCL1
 70
     0
 62
     7
  6
CONTINUOUS
  0
LAYER
  2
UMCL2
 70
     0
 62
     5
  6
CONTINUOUS
  0
LAYER
  2
DEFPOINTS
 70
     0
 62
     7
  6
CONTINUOUS
  0
LAYER
  2
UMCL3
 70
     0
 62
     1
  6
CONTINUOUS
  0
LAYER
  2
CEN
 70
     0
 62
     1
  6
CENTER
  0
LAYER
  2
HIDDEN
 70
     0
 62
     3
  6
HIDDEN
  0
ENDTAB
  0
TABLE
  2
STYLE
 70
     8
  0
STYLE
  2
STANDARD
 70
     0
 40
0.0
 41
1.0
 50
0.0
 71
     0
 42
2.5
  3
ISOCP.SHX
  4
chineset.shx
  0
STYLE
  2

 70
     1
 40
0.0
 41
1.0
 50
0.0
 71
     0
 42
2.5
  3
ltypeshp.shx
  4

  0
STYLE
  2
ACISOTS
 70
     0
 40
1.0
 41
1.0
 50
0.0
 71
     0
 42
2.5
  3
isocp.shx
  4
chineset.shx
  0
STYLE
  2
ACISOGDT
 70
     0
 40
0.0
 41
1.0
 50
0.0
 71
     0
 42
2.5
  3
amgdt.shx
  4
chineset.shx
  0
STYLE
  2
CHINESET
 70
     0
 40
0.0
 41
1.0
 50
0.0
 71
     0
 42
3.0
  3
simplex.shx
  4
CHINESET.SHX
  0
STYLE
  2
ROMANS
 70
     0
 40
0.0
 41
1.0
 50
0.0
 71
     0
 42
3.0
  3
ROMANS.SHX
  4
LMP
  0
STYLE
  2
ACANSTS
 70
     0
 40
1.0
 41
1.0
 50
0.0
 71
     0
 42
5.0
  3
romans.shx
  4
chineset.shx
  0
STYLE
  2
ACANSGDT
 70
     0
 40
0.0
 41
1.0
 50
0.0
 71
     0
 42
5.0
  3
amgdtans.shx
  4

  0
ENDTAB
  0
TABLE
  2
VIEW
 70
     0
  0
ENDTAB
  0
TABLE
  2
UCS
 70
     0
  0
ENDTAB
  0
TABLE
  2
APPID
 70
    19
  0
APPID
  2
ACAD
 70
     0
  0
APPID
  2
MCAD_NO_VIS
 70
     0
  0
APPID
  2
ACAD_TEMP_GRAPHIC
 70
     0
  0
APPID
  2
ACATTRIBSERVICES
 70
     0
  0
APPID
  2
AD_DRAW
 70
     0
  0
APPID
  2
DESIGNERASSEMBLIES
 70
     0
  0
APPID
  2
ACADM_DIM_EDIT
 70
     0
  0
APPID
  2
AMDT_DM_ADJ
 70
     0
  0
APPID
  2
GENIUS_GENOENT_13
 70
     0
  0
APPID
  2
GENIUS_GENOBJ-N-CRS_13
 70
     0
  0
APPID
  2
GENIUS_GENOLIS_13
 70
     0
  0
APPID
  2
GENIUS_GENODEF_13
 70
     0
  0
APPID
  2
GENIUS_GENOREF_13
 70
     0
  0
APPID
  2
ACAD_PSEXT
 70
     0
  0
APPID
  2
GENIUS_GENREC_14
 70
     0
  0
APPID
  2
GENIUS_GENOBJ-N-REC_13
 70
     0
  0
APPID
  2
ACAECLAYERSTANDARD
 70
     0
  0
APPID
  2
GENIUS_GENOBJ-N-FIL_13
 70
     0
  0
APPID
  2
ACAD_DSTYLE_DIMTEXT_FILL
 70
     0
  0
ENDTAB
  0
TABLE
  2
DIMSTYLE
 70
    15
  0
DIMSTYLE
  2
AM_ISO
 70
     0
  3

  4
"
  5

  6

  7

 40
1.0
 41
2.5
 42
1.0
 43
8.0
 44
1.0
 45
0.0
 46
0.0
 47
0.1
 48
0.1
140
3.0
141
0.0
142
0.0
143
0.0393701
144
1.0
145
0.0
146
0.71
147
1.5
 71
     0
 72
     0
 73
     0
 74
     0
 75
     0
 76
     0
 77
     1
 78
     8
170
     0
171
     2
172
     1
173
     0
174
     0
175
     0
176
   256
177
   256
178
     5
  0
DIMSTYLE
  2
AM_ISO$3
 70
     0
  3

  4
"
  5

  6

  7

 40
1.0
 41
2.5
 42
1.0
 43
8.0
 44
1.0
 45
0.0
 46
0.0
 47
0.1
 48
0.1
140
3.0
141
0.0
142
0.0
143
0.0393701
144
1.0
145
0.0
146
0.71
147
1.5
 71
     0
 72
     0
 73
     0
 74
     1
 75
     0
 76
     0
 77
     1
 78
     8
170
     0
171
     2
172
     0
173
     0
174
     0
175
     0
176
   256
177
   256
178
     5
  0
DIMSTYLE
  2
AM_ISO$4
 70
     0
  3

  4
"
  5

  6

  7

 40
1.0
 41
2.5
 42
1.0
 43
8.0
 44
1.0
 45
0.0
 46
0.0
 47
0.1
 48
0.1
140
3.0
141
0.0
142
0.0
143
0.0393701
144
1.0
145
0.0
146
0.71
147
1.5
 71
     0
 72
     0
 73
     0
 74
     1
 75
     0
 76
     0
 77
     1
 78
     8
170
     0
171
     2
172
     0
173
     0
174
     0
175
     0
176
   256
177
   256
178
     5
  0
DIMSTYLE
  2
AM_ISO$6
 70
     0
  3

  4
"
  5

  6

  7

 40
1.0
 41
2.5
 42
1.0
 43
8.0
 44
1.0
 45
0.0
 46
0.0
 47
0.1
 48
0.1
140
3.0
141
0.0
142
0.0
143
0.0393701
144
1.0
145
0.0
146
0.71
147
1.5
 71
     0
 72
     0
 73
     0
 74
     0
 75
     0
 76
     0
 77
     0
 78
     8
170
     0
171
     2
172
     1
173
     0
174
     0
175
     0
176
   256
177
   256
178
     5
  0
DIMSTYLE
  2
AM_ISO$7
 70
     0
  3

  4
"
  5

  6

  7

 40
1.0
 41
2.5
 42
1.0
 43
8.0
 44
1.0
 45
0.0
 46
0.0
 47
0.1
 48
0.1
140
3.0
141
0.0
142
0.0
143
0.0393701
144
1.0
145
0.0
146
0.71
147
1.5
 71
     0
 72
     0
 73
     0
 74
     0
 75
     0
 76
     0
 77
     1
 78
     8
170
     0
171
     2
172
     1
173
     0
174
     0
175
     0
176
   256
177
   256
178
     5
  0
DIMSTYLE
  2
AM_ISO$SF
 70
     0
  3

  4
"
  5

  6

  7

 40
1.0
 41
2.5
 42
1.0
 43
10.0
 44
1.0
 45
0.0
 46
0.0
 47
0.1
 48
0.1
140
3.5
141
0.0
142
0.0
143
0.0393701
144
1.0
145
0.0
146
0.71
147
1.5
 71
     0
 72
     0
 73
     0
 74
     0
 75
     1
 76
     1
 77
     1
 78
     8
170
     0
171
     2
172
     1
173
     0
174
     0
175
     0
176
   256
177
   256
178
     2
  0
DIMSTYLE
  2
AM_ISO$SH
 70
     0
  3

  4
"
  5

  6
GENAXEH
  7

 40
1.0
 41
2.5
 42
1.0
 43
10.0
 44
1.0
 45
0.0
 46
0.0
 47
0.1
 48
0.1
140
3.5
141
0.0
142
0.0
143
0.0393701
144
2.0
145
0.0
146
0.71
147
1.5
 71
     0
 72
     0
 73
     0
 74
     0
 75
     1
 76
     1
 77
     1
 78
     8
170
     0
171
     2
172
     1
173
     1
174
     0
175
     0
176
   256
177
   256
178
     2
  0
DIMSTYLE
  2
AM_ISO$0
 70
     0
  3

  4
"
  5

  6

  7

 40
1.0
 41
3.5
 42
1.0
 43
8.0
 44
1.0
 45
0.0
 46
0.0
 47
0.1
 48
0.1
140
3.0
141
0.0
142
0.0
143
0.0393701
144
1.0
145
0.0
146
0.71
147
1.0
 71
     0
 72
     0
 73
     0
 74
     0
 75
     0
 76
     0
 77
     1
 78
     8
170
     0
171
     2
172
     1
173
     0
174
     0
175
     0
176
   256
177
   256
178
   256
  0
DIMSTYLE
  2
STANDARD
 70
     0
  3

  4

  5

  6

  7

 40
1.0
 41
0.18
 42
0.0625
 43
0.38
 44
0.18
 45
0.0
 46
0.0
 47
0.0
 48
0.0
140
0.18
141
0.09
142
0.0
143
25.399999999999999
144
1.0
145
0.0
146
1.0
147
0.09
 71
     0
 72
     0
 73
     1
 74
     1
 75
     0
 76
     0
 77
     0
 78
     0
170
     0
171
     2
172
     0
173
     0
174
     0
175
     0
176
     0
177
     0
178
     0
  0
DIMSTYLE
  2
AM_ANSI
 70
     0
  3

  4
mm
  5

  6

  7

 40
1.0
 41
0.1
 42
0.05
 43
0.5
 44
0.1
 45
0.0
 46
0.0
 47
0.1
 48
0.1
140
0.12
141
0.0
142
0.0
143
25.399999999999999
144
1.0
145
0.0
146
0.71
147
0.06
 71
     0
 72
     0
 73
     1
 74
     1
 75
     0
 76
     0
 77
     0
 78
     7
170
     0
171
     2
172
     0
173
     0
174
     0
175
     0
176
   256
177
   256
178
     2
  0
DIMSTYLE
  2
AM_ANSI$3
 70
     0
  3

  4
mm
  5

  6

  7

 40
1.0
 41
0.1
 42
0.05
 43
0.5
 44
0.1
 45
0.0
 46
0.0
 47
0.1
 48
0.1
140
0.12
141
0.0
142
0.0
143
25.399999999999999
144
1.0
145
0.0
146
0.71
147
0.06
 71
     0
 72
     0
 73
     1
 74
     1
 75
     0
 76
     0
 77
     0
 78
     7
170
     0
171
     2
172
     0
173
     0
174
     0
175
     0
176
   256
177
   256
178
     2
  0
DIMSTYLE
  2
AM_ANSI$4
 70
     0
  3

  4
mm
  5

  6

  7

 40
1.0
 41
0.1
 42
0.05
 43
0.5
 44
0.1
 45
0.0
 46
0.0
 47
0.1
 48
0.1
140
0.12
141
0.0
142
0.0
143
25.399999999999999
144
1.0
145
0.0
146
0.71
147
0.06
 71
     0
 72
     0
 73
     1
 74
     1
 75
     0
 76
     0
 77
     0
 78
     7
170
     0
171
     2
172
     0
173
     0
174
     0
175
     0
176
   256
177
   256
178
     2
  0
DIMSTYLE
  2
AM_ANSI$7
 70
     0
  3

  4
mm
  5

  6

  7

 40
1.0
 41
0.1
 42
0.05
 43
0.5
 44
0.1
 45
0.0
 46
0.0
 47
0.1
 48
0.1
140
0.24
141
0.0
142
0.0
143
25.399999999999999
144
1.0
145
0.0
146
0.71
147
0.06
 71
     0
 72
     0
 73
     1
 74
     1
 75
     0
 76
     0
 77
     0
 78
     7
170
     0
171
     2
172
     0
173
     0
174
     0
175
     0
176
   256
177
   256
178
     2
  0
DIMSTYLE
  2
AM_ANSI$SF
 70
     0
  3

  4
mm
  5

  6

  7

 40
1.0
 41
0.1
 42
0.05
 43
0.5
 44
0.1
 45
0.0
 46
0.0
 47
0.1
 48
0.1
140
0.12
141
0.0
142
0.0
143
25.399999999999999
144
1.0
145
0.0
146
0.71
147
0.06
 71
     0
 72
     0
 73
     1
 74
     1
 75
     1
 76
     1
 77
     0
 78
     7
170
     0
171
     2
172
     0
173
     0
174
     0
175
     0
176
   256
177
   256
178
     2
  0
DIMSTYLE
  2
AM_ANSI$SH
 70
     0
  3

  4
mm
  5

  6
GENAXEH
  7

 40
1.0
 41
0.1
 42
0.05
 43
0.5
 44
0.1
 45
0.0
 46
0.0
 47
0.1
 48
0.1
140
0.12
141
0.0
142
0.0
143
25.399999999999999
144
1.0
145
0.0
146
0.71
147
0.06
 71
     0
 72
     0
 73
     1
 74
     1
 75
     1
 76
     1
 77
     0
 78
     7
170
     0
171
     2
172
     0
173
     1
174
     0
175
     0
176
   256
177
   256
178
     2
  0
ENDTAB
  0
ENDSEC
  0
SECTION
  2
BLOCKS
  0
BLOCK
  8
0
  2
$MODEL_SPACE
 70
     0
 10
0.0
 20
0.0
 30
0.0
  3
$MODEL_SPACE
  1

  0
ENDBLK
  5
21
  8
0
  0
BLOCK
 67
     1
  8
0
  2
$PAPER_SPACE
 70
     0
 10
0.0
 20
0.0
 30
0.0
  3
$PAPER_SPACE
  1

  0
ENDBLK
  5
1D
 67
     1
  8
0
  0
BLOCK
  8
0
  2
GENAXEH
 70
     0
 10
0.0
 20
0.0
 30
0.0
  3
GENAXEH
  1

  0
LINE
  5
71
  8
0
 10
-1.0
 20
0.0
 30
0.0
 11
1.0
 21
0.0
 31
0.0
  0
ENDBLK
  5
73
  8
0
  0
BLOCK
  8
0
  2
*U3
 70
     1
 10
0.0
 20
0.0
 30
0.0
  3
*U3
  1

  0
TEXT
  5
6640
  8
UMCL3
 62
     7
 10
4421.6141526899701
 20
4934.8561951231404
 30
0.0
 40
10.0
  1
MRPH-32-90
  0
ENDBLK
  5
6642
  8
0
  0
BLOCK
  8
0
  2
*U4
 70
     1
 10
0.0
 20
0.0
 30
0.0
  3
*U4
  1

  0
TEXT
  5
6644
  8
UMCL3
 62
     7
 10
4422.8641524407622
 20
4367.8642547212039
 30
0.0
 40
10.0
  1
MRPH-32-180
  0
ENDBLK
  5
6646
  8
0
  0
ENDSEC
  0
SECTION
  2
ENTITIES
  0
TEXT
  5
726
  8
LOGO
 62
     7
 10
4575.0309320198621
 20
3806.1785615172071
 30
0.0
 40
9.9742414713567964
  1
Order example:
 41
0.8
  7
CHINESET
  0
TEXT
  5
727
  8
LOGO
 62
     7
 10
4576.8203934234443
 20
3820.220228315829
 30
0.0
 40
14.961362207035201
  1
訂購代號：
  7
CHINESET
  0
LINE
  5
728
  8
LOGO
 62
     4
 10
4570.6970902698749
 20
3765.786167501321
 30
0.0
 11
4570.6970902698749
 21
3838.9501524850548
 31
0.0
  0
TEXT
  5
729
  8
LOGO
  6
CONTINUOUS
 10
4432.9930487794454
 20
3778.8390265844168
 30
0.0
 40
11.22102165527639
  1
金器工業股份有限公司
  7
CHINESET
  0
TEXT
  5
72A
  8
LOGO
  6
CONTINUOUS
 10
4412.3822519683572
 20
3767.615806488659
 30
0.0
 40
7.4806811035175977
  1
MINDMAN INDUSTRIAL CO., LTD.
 41
0.85
  7
CHINESET
  0
LINE
  5
72B
  8
LOGO
 62
     4
 10
4570.6970902698749
 20
3823.9887902780192
 30
0.0
 11
4460.9804340849514
 21
3823.9887902780192
 31
0.0
  0
LINE
  5
72C
  8
LOGO
 62
     4
 10
4570.6970902698749
 20
3809.0274280709841
 30
0.0
 11
4460.9804340849514
 21
3809.0274280709841
 31
0.0
  0
LINE
  5
72D
  8
LOGO
 62
     4
 10
4570.6970902698749
 20
3794.0660658639499
 30
0.0
 11
4406.1221059924856
 21
3794.0660658639499
 31
0.0
  0
LINE
  5
72E
  8
LOGO
 62
     4
 10
4460.9804340849514
 20
3794.0660658639499
 30
0.0
 11
4460.9804340849514
 21
3838.9501524850548
 31
0.0
  0
TEXT
  5
72F
  8
LOGO
 10
4535.9665900400532
 20
3797.8064064157079
 30
0.0
 40
7.4806811035175977
  1
mm
  7
CHINESET
 72
     1
 11
4545.2283856920267
 21
3801.5467469674659
 31
0.0
 73
     2
  0
TEXT
  5
730
  8
LOGO
 10
4532.0481380334477
 20
3827.729130829779
 30
0.0
 40
7.4806811035175977
  1
1 : 1
  7
CHINESET
 72
     1
 11
4545.2283856920267
 21
3831.469471381537
 31
0.0
 73
     2
  0
LINE
  5
731
  8
LOGO
 62
     4
 10
4520.8258829130891
 20
3794.0660658639499
 30
0.0
 11
4520.8258829130891
 21
3838.9501524850548
 31
0.0
  0
CIRCLE
  5
732
  8
LOGO
  6
CONTINUOUS
 10
4534.6772996450527
 20
3816.5241104061238
 30
0.0
 40
4.3434595240871428
  0
CIRCLE
  5
733
  8
LOGO
  6
CONTINUOUS
 10
4534.6772996450527
 20
3816.5241104061238
 30
0.0
 40
2.5448827763981559
  0
LINE
  5
734
  8
LOGO
 10
4561.9721032881471
 20
3812.1806508820368
 30
0.0
 11
4561.9721032881471
 21
3820.867569930213
 31
0.0
  0
LINE
  5
735
  8
LOGO
 10
4548.3556070066079
 20
3813.9792276297262
 30
0.0
 11
4548.3556070066079
 21
3819.0689931825241
 31
0.0
  0
LINE
  5
736
  8
LOGO
  6
CONTINUOUS
 10
4548.3556070066079
 20
3819.0689931825241
 30
0.0
 11
4561.9721032881471
 21
3820.867569930213
 31
0.0
  0
LINE
  5
737
  8
LOGO
  6
CONTINUOUS
 10
4548.3556070066079
 20
3813.9792276297262
 30
0.0
 11
4561.9721032881471
 21
3812.1806508820368
 31
0.0
  0
TEXT
  5
738
  8
LOGO
 10
4467.148656405574
 20
3827.7328122673298
 30
490.27151582235052
 40
7.4806811035175977
  1
比例 Scale:
 41
0.9
  7
CHINESET
 72
     4
 11
4490.9031584990207
 21
3831.469471381537
 31
490.27151582235052
  0
TEXT
  5
739
  8
LOGO
 10
4466.7178493241663
 20
3812.8729963794071
 30
490.27151582235052
 40
7.4806811035175977
  1
投影  View:
 41
0.9
  7
CHINESET
 72
     4
 11
4490.9031584990207
 21
3816.5081091745019
 31
490.27151582235052
  0
TEXT
  5
73A
  8
LOGO
 10
4467.4492194856248
 20
3797.8064064157079
 30
490.27151582235052
 40
7.4806811035175977
  1
單位  Unit:
 41
0.9
  7
CHINESET
 72
     4
 11
4490.9031584990207
 21
3801.5467469674659
 31
490.27151582235052
  0
SOLID
  5
73B
  8
LOGO
 62
     5
 10
4413.8834326931856
 20
3806.5016334074398
 30
0.0
 11
4417.1178829092751
 21
3806.5016334074389
 31
0.0
 12
4430.6133476039922
 22
3837.1731440772492
 32
0.0
 13
4433.8477978200817
 23
3837.173144077246
 33
0.0
  0
SOLID
  5
73C
  8
LOGO
 62
     5
 10
4418.4562761021434
 20
3806.5016334074398
 30
0.0
 11
4421.6907263182338
 21
3806.5016334074398
 31
0.0
 12
4433.8477978200817
 22
3834.719423223662
 32
0.0
 13
4430.6133476039922
 23
3822.8597724313372
 33
0.0
  0
SOLID
  5
73D
  8
LOGO
 62
     2
 10
4417.1178829092751
 20
3806.5016334074389
 30
0.0
 11
4418.4562761021434
 21
3806.5016334074398
 31
0.0
 12
4433.8477978200817
 22
3837.173144077246
 32
0.0
 13
4435.1861910129446
 23
3837.173144077246
 33
0.0
  0
SOLID
  5
73E
  8
LOGO
 62
     5
 10
4408.6978158124421
 20
3795.348356800238
 30
0.0
 11
4409.813143473164
 21
3795.348356800238
 31
0.0
 12
4412.9539929759203
 22
3800.9249951038378
 32
0.0
 13
4414.0693206366368
 23
3800.9249951038378
 33
0.0
  0
SOLID
  5
73F
  8
LOGO
 62
     5
 10
4412.9539929759203
 20
3800.9249951038378
 30
0.0
 11
4414.0693206366368
 21
3800.9249951038378
 31
0.0
 12
4412.9539929759203
 22
3795.348356800238
 32
0.0
 13
4414.0693206366368
 23
3795.348356800238
 33
0.0
  0
SOLID
  5
740
  8
LOGO
 62
     5
 10
4412.9539929759203
 20
3795.348356800238
 30
0.0
 11
4414.0693206366368
 21
3795.348356800238
 31
0.0
 12
4417.2101701394004
 22
3800.9249951038378
 32
0.0
 13
4418.3254978001214
 23
3800.9249951038378
 33
0.0
  0
SOLID
  5
741
  8
LOGO
 62
     5
 10
4417.2101701394004
 20
3800.9249951038378
 30
0.0
 11
4418.3254978001214
 21
3800.9249951038378
 31
0.0
 12
4417.2101701394004
 22
3795.348356800238
 32
0.0
 13
4418.3254978001214
 23
3795.348356800238
 33
0.0
  0
POLYLINE
  5
742
  8
LOGO
 62
     5
 66
     1
 10
0.0
 20
0.0
 30
0.0
 40
1.1171150447919611
 41
1.1171150447919611
  0
VERTEX
  5
743
  8
LOGO
 62
     5
 10
4454.595573385589
 20
3798.6943397823979
 30
0.0
 42
1.0
  0
VERTEX
  5
744
  8
LOGO
 62
     5
 10
4451.2442282512102
 20
3798.6943397823979
 30
0.0
 42
1.0
  0
SEQEND
  5
745
  8
LOGO
 62
     5
  0
POLYLINE
  5
746
  8
LOGO
 62
     5
 66
     1
 10
0.0
 20
0.0
 30
0.0
 70
     1
  0
VERTEX
  5
747
  8
LOGO
 62
     5
 10
4444.9267936050801
 20
3798.136675952037
 30
0.0
 42
1.0000000573306349
  0
VERTEX
  5
748
  8
LOGO
 62
     5
 10
4448.2727765872369
 20
3798.136675952037
 30
0.0
 42
1.0000000573306349
  0
SEQEND
  5
749
  8
LOGO
 62
     5
  0
CIRCLE
  5
74A
  8
LOGO
 62
     5
 10
4446.599785096163
 20
3798.136675952037
 30
0.0
 40
1.6729914910804411
  0
POLYLINE
  5
74B
  8
LOGO
 62
     5
 66
     1
 10
0.0
 20
0.0
 30
0.0
 70
     1
 40
1.1171150447919611
 41
1.1171150447919611
  0
VERTEX
  5
74C
  8
LOGO
 62
     5
 10
4444.365555006576
 20
3798.136675952037
 30
0.0
 42
1.0
  0
VERTEX
  5
74D
  8
LOGO
 62
     5
 10
4448.8340151857437
 20
3798.136675952037
 30
0.0
 42
1.0
  0
SEQEND
  5
74E
  8
LOGO
 62
     5
  0
LINE
  5
74F
  8
LOGO
 10
4455.1505561398371
 20
3795.348356800238
 30
0.0
 11
4455.1505561398371
 21
3798.6943397823979
 31
0.0
  0
SOLID
  5
750
  8
LOGO
 62
     5
 10
4448.2726650544801
 20
3800.9249951038378
 30
0.0
 11
4449.3879927151957
 21
3800.9249951038378
 31
0.0
 12
4448.2726650544801
 22
3795.348356800238
 32
0.0
 13
4449.3879927151957
 23
3795.348356800238
 33
0.0
  0
SOLID
  5
751
  8
LOGO
 62
     5
 10
4450.6892454969593
 20
3795.348356800238
 30
0.0
 11
4451.8045731576767
 21
3795.348356800238
 31
0.0
 12
4450.6892454969593
 22
3800.9249951038378
 32
0.0
 13
4451.8045731576767
 23
3800.9249951038378
 33
0.0
  0
SOLID
  5
752
  8
LOGO
 62
     5
 10
4454.0352284791197
 20
3798.6943397823979
 30
0.0
 11
4455.1505561398371
 21
3798.6943397823979
 31
0.0
 12
4454.0352284791197
 22
3795.348356800238
 32
0.0
 13
4455.1505561398371
 23
3795.348356800238
 33
0.0
  0
SOLID
  5
753
  8
LOGO
 62
     5
 10
4450.5777127308838
 20
3834.719423223662
 30
0.0
 11
4447.3432625147971
 21
3822.8597724313372
 31
0.0
 12
4450.5777127308838
 22
3806.5016334074389
 32
0.0
 13
4447.3432625147971
 23
3806.5016334074389
 33
0.0
  0
SOLID
  5
754
  8
LOGO
 62
     5
 10
4451.9161059237513
 20
3806.5016334074389
 30
0.0
 11
4455.1505561398371
 21
3806.5016334074389
 31
0.0
 12
4451.9161059237513
 22
3837.173144077246
 32
0.0
 13
4455.1505561398371
 23
3837.1731440772492
 33
0.0
  0
SOLID
  5
755
  8
LOGO
 62
     2
 10
4450.5777127308838
 20
3837.1731440772492
 30
0.0
 11
4451.9161059237513
 21
3837.173144077246
 31
0.0
 12
4450.5777127308838
 22
3806.5016334074389
 32
0.0
 13
4451.9161059237513
 23
3806.5016334074389
 33
0.0
  0
POLYLINE
  5
756
  8
LOGO
 62
     5
 66
     1
 10
0.0
 20
0.0
 30
0.0
 40
1.1171150447919611
 41
1.1171150447919611
  0
VERTEX
  5
757
  8
LOGO
 62
     5
 10
4438.60913589342
 20
3798.6943397823979
 30
0.0
 42
1.0
  0
VERTEX
  5
758
  8
LOGO
 62
     5
 10
4435.2577907590439
 20
3798.6943397823979
 30
0.0
 42
1.0
  0
SEQEND
  5
759
  8
LOGO
 62
     5
  0
POLYLINE
  5
75A
  8
LOGO
 62
     5
 66
     1
 10
0.0
 20
0.0
 30
0.0
 40
1.1171150447919611
 41
1.1171150447919611
  0
VERTEX
  5
75B
  8
LOGO
 62
     5
 10
4441.9551188755768
 20
3798.6943397823979
 30
0.0
 42
1.0
  0
VERTEX
  5
75C
  8
LOGO
 62
     5
 10
4438.6037737412034
 20
3798.6943397823979
 30
0.0
 42
1.0
  0
SEQEND
  5
75D
  8
LOGO
 62
     5
  0
POLYLINE
  5
75E
  8
LOGO
 62
     5
 66
     1
 10
0.0
 20
0.0
 30
0.0
 40
1.1171150447919611
 41
1.1171150447919611
  0
VERTEX
  5
75F
  8
LOGO
 62
     5
 10
4425.9686813834078
 20
3798.6943397823979
 30
0.0
 42
1.0
  0
VERTEX
  5
760
  8
LOGO
 62
     5
 10
4422.6173362490354
 20
3798.6943397823979
 30
0.0
 42
1.0
  0
SEQEND
  5
761
  8
LOGO
 62
     5
  0
SOLID
  5
762
  8
LOGO
 62
     5
 10
4422.0623534947827
 20
3800.9249951038378
 30
0.0
 11
4423.1776811554992
 21
3800.9249951038378
 31
0.0
 12
4422.0623534947827
 22
3795.348356800238
 32
0.0
 13
4423.1776811554992
 23
3795.348356800238
 33
0.0
  0
SOLID
  5
763
  8
LOGO
 62
     5
 10
4425.4083364769422
 20
3798.6943397823979
 30
0.0
 11
4426.523664137665
 21
3798.6943397823979
 31
0.0
 12
4425.4083364769422
 22
3795.348356800238
 32
0.0
 13
4426.523664137665
 23
3795.348356800238
 33
0.0
  0
POLYLINE
  5
764
  8
LOGO
 62
     5
 66
     1
 10
0.0
 20
0.0
 30
0.0
 70
     1
 40
1.1171150447919611
 41
1.1171150447919611
  0
VERTEX
  5
765
  8
LOGO
 62
     5
 10
4428.3791175144042
 20
3798.136675952037
 30
0.0
 42
1.0
  0
VERTEX
  5
766
  8
LOGO
 62
     5
 10
4432.8475776935747
 20
3798.136675952037
 30
0.0
 42
1.0
  0
SEQEND
  5
767
  8
LOGO
 62
     5
  0
SOLID
  5
768
  8
LOGO
 62
     5
 10
4432.2862275623056
 20
3802.5979865949198
 30
0.0
 11
4433.4015552230267
 21
3802.5979865949198
 31
0.0
 12
4432.2862275623056
 22
3795.348356800238
 32
0.0
 13
4433.4015552230267
 23
3795.348356800238
 33
0.0
  0
SOLID
  5
769
  8
LOGO
 62
     5
 10
4434.702808004794
 20
3800.9249951038378
 30
0.0
 11
4435.8181356655105
 21
3800.9249951038378
 31
0.0
 12
4434.702808004794
 22
3795.348356800238
 32
0.0
 13
4435.8181356655105
 23
3795.348356800238
 33
0.0
  0
SOLID
  5
76A
  8
LOGO
 62
     5
 10
4438.0487909869507
 20
3798.6943397823979
 30
0.0
 11
4439.1641186476709
 21
3798.6943397823979
 31
0.0
 12
4438.0487909869507
 22
3795.348356800238
 32
0.0
 13
4439.1641186476709
 23
3795.348356800238
 33
0.0
  0
SOLID
  5
76B
  8
LOGO
 62
     5
 10
4441.3947739691102
 20
3798.6943397823979
 30
0.0
 11
4442.5101016298331
 21
3798.6943397823979
 31
0.0
 12
4441.3947739691102
 22
3795.3483568002362
 32
0.0
 13
4442.5101016298331
 23
3795.3483568002362
 33
0.0
  0
SOLID
  5
76C
  8
LOGO
 62
     5
 10
4419.6457730522998
 20
3801.7057244663429
 30
0.0
 11
4420.7611007130217
 21
3801.7057244663429
 31
0.0
 12
4419.6457730522998
 22
3802.5979865949198
 32
0.0
 13
4420.7611007130217
 23
3802.5979865949198
 33
0.0
  0
SOLID
  5
76D
  8
LOGO
 62
     5
 10
4419.6457730522998
 20
3800.9249951038378
 30
0.0
 11
4420.7611007130217
 21
3800.9249951038378
 31
0.0
 12
4419.6457730522998
 22
3795.3483568002362
 32
0.0
 13
4420.7611007130217
 23
3795.348356800238
 33
0.0
  0
SOLID
  5
76E
  8
LOGO
 62
     5
 10
4430.6133476039922
 20
3806.5016334074398
 30
0.0
 11
4433.8477978200817
 21
3806.5016334074398
 31
0.0
 12
4430.6133476039922
 22
3822.8597724313372
 32
0.0
 13
4433.8477978200817
 23
3834.719423223662
 33
0.0
  0
SOLID
  5
76F
  8
LOGO
 62
     5
 10
4435.1861910129446
 20
3837.173144077246
 30
0.0
 11
4438.4206412290341
 21
3837.1731440772492
 31
0.0
 12
4435.1861910129446
 22
3808.9553542610238
 32
0.0
 13
4438.4206412290341
 23
3820.81500505335
 33
0.0
  0
SOLID
  5
770
  8
LOGO
 62
     2
 10
4433.8477978200817
 20
3837.173144077246
 30
0.0
 11
4435.1861910129446
 21
3837.173144077246
 31
0.0
 12
4433.8477978200817
 22
3806.5016334074398
 32
0.0
 13
4435.1861910129446
 23
3806.5016334074398
 33
0.0
  0
SOLID
  5
771
  8
LOGO
 62
     5
 10
4435.1861910129446
 20
3808.9553542610238
 30
0.0
 11
4438.4206412290341
 21
3820.81500505335
 31
0.0
 12
4450.5777127308838
 22
3837.1731440772492
 32
0.0
 13
4447.3432625147971
 23
3837.1731440772492
 33
0.0
  0
SOLID
  5
772
  8
LOGO
 62
     5
 10
4435.1861910129446
 20
3806.5016334074398
 30
0.0
 11
4438.4206412290341
 21
3806.5016334074398
 31
0.0
 12
4450.5777127308838
 22
3834.719423223662
 32
0.0
 13
4447.3432625147971
 23
3822.8597724313372
 33
0.0
  0
SOLID
  5
773
  8
LOGO
 62
     2
 10
4433.8477978200817
 20
3806.5016334074398
 30
0.0
 11
4435.1861910129446
 21
3806.5016334074398
 31
0.0
 12
4450.5777127308838
 22
3837.1731440772492
 32
0.0
 13
4451.9161059237513
 23
3837.173144077246
 33
0.0
  0
LINE
  5
774
  8
LOGO
 62
     4
 10
4723.4617461107227
 20
3797.8064064157079
 30
0.0
 11
4723.4617461107227
 21
3770.3772423694759
 31
0.0
  0
LINE
  5
775
  8
LOGO
 62
     4
 10
4673.5905387539397
 20
3797.8064064157079
 30
0.0
 11
4673.5905387539397
 21
3770.3772423694759
 31
0.0
  0
LINE
  5
776
  8
LOGO
 62
     4
 10
4723.4617461107227
 20
3770.3772423694759
 30
0.0
 11
4673.5905387539397
 21
3770.3772423694759
 31
0.0
  0
LINE
  5
777
  8
LOGO
 62
     4
 10
4741.4374775837969
 20
3831.469471381537
 30
0.0
 11
4673.5905387539397
 21
3831.469471381537
 31
0.0
  0
LINE
  5
778
  8
LOGO
 62
     4
 10
4741.4374775837969
 20
3809.0274280709841
 30
0.0
 11
4673.5905387539397
 21
3809.0274280709841
 31
0.0
  0
LINE
  5
779
  8
LOGO
 62
     4
 10
4673.5905387539397
 20
3831.469471381537
 30
0.0
 11
4673.5905387539397
 21
3809.0274280709841
 31
0.0
  0
LINE
  5
77A
  8
LOGO
 62
     4
 10
4741.4374775837969
 20
3831.469471381537
 30
0.0
 11
4741.4374775837969
 21
3809.0274280709841
 31
0.0
  0
LINE
  5
77B
  8
LOGO
 62
     4
 10
4701.1281668463243
 20
3809.0274280709841
 30
0.0
 11
4701.1281668463243
 21
3797.8064064157079
 31
0.0
  0
TEXT
  5
77C
  8
LOGO
  6
CONTINUOUS
 10
4681.6438561684208
 20
3813.7121718017988
 30
0.0
 40
13.093087762868061
  1
MRPH
  7
CHINESET
  0
LINE
  5
77D
  8
LOGO
 62
     4
 10
4723.4617461107227
 20
3797.8064064157079
 30
0.0
 11
4673.5905387539397
 21
3797.8064064157079
 31
0.0
  0
TEXT
  5
77E
  8
LOGO
  6
CONTINUOUS
 10
4689.5940513048927
 20
3774.2488107097079
 30
490.27151582235052
 40
5.611323326943455
  1
Model
 41
0.8
  7
CHINESET
  0
TEXT
  5
77F
  8
LOGO
 10
4688.1004994481636
 20
3784.6509948313719
 30
490.27151582235052
 40
9.3522055449057575
  1
型號
  7
CHINESET
  0
LINE
  5
780
  8
LOGO
  6
CONTINUOUS
 10
4743.8232522686421
 20
3820.1689564621729
 30
0.0
 11
4753.7328397208103
 21
3820.1689564621729
 31
0.0
  0
LINE
  5
781
  8
LOGO
 62
     4
 10
4788.3006044074373
 20
3797.8064064157079
 30
0.0
 11
4788.3006044074373
 21
3770.3772423694759
 31
0.0
  0
LINE
  5
782
  8
LOGO
 62
     4
 10
4738.2251165519674
 20
3797.8064064157079
 30
0.0
 11
4738.2251165519674
 21
3770.3772423694768
 31
0.0
  0
LINE
  5
783
  8
LOGO
 62
     4
 10
4788.3006044074373
 20
3770.3772423694759
 30
0.0
 11
4738.2251165519674
 21
3770.3772423694759
 31
0.0
  0
LINE
  5
784
  8
LOGO
 62
     4
 10
4795.1374388321583
 20
3831.469471381537
 30
0.0
 11
4756.7896754791373
 21
3831.469471381537
 31
0.0
  0
LINE
  5
785
  8
LOGO
 62
     4
 10
4795.1374388321583
 20
3809.0274280709841
 30
0.0
 11
4756.7896754791373
 21
3809.0274280709841
 31
0.0
  0
LINE
  5
786
  8
LOGO
 62
     4
 10
4756.7896754791373
 20
3831.469471381537
 30
0.0
 11
4756.7896754791373
 21
3809.0274280709841
 31
0.0
  0
LINE
  5
787
  8
LOGO
 62
     4
 10
4795.1374388321583
 20
3831.469471381537
 30
0.0
 11
4795.1374388321583
 21
3809.0274280709841
 31
0.0
  0
LINE
  5
788
  8
LOGO
 62
     4
 10
4774.0323127563543
 20
3809.0274280709841
 30
0.0
 11
4774.0323127563543
 21
3797.8064064157079
 31
0.0
  0
TEXT
  5
789
  8
LOGO
  6
CONTINUOUS
 10
4764.9683136135691
 20
3813.7121718017988
 30
0.0
 40
13.093087762868061
  1
32
  7
CHINESET
  0
LINE
  5
78A
  8
LOGO
 62
     4
 10
4788.3006044074373
 20
3797.8064064157079
 30
0.0
 11
4738.2251165519674
 21
3797.8064064157079
 31
0.0
  0
LINE
  5
78B
  8
LOGO
  6
CONTINUOUS
 10
4798.3296856457464
 20
3820.1689564621729
 30
0.0
 11
4808.23927309791
 21
3820.1689564621729
 31
0.0
  0
LINE
  5
78C
  8
LOGO
 62
     4
 10
4867.3510480844134
 20
3797.8064064157079
 30
0.0
 11
4867.3510480844134
 21
3770.3772423694759
 31
0.0
  0
LINE
  5
78D
  8
LOGO
 62
     4
 10
4826.72299916874
 20
3797.8064064157079
 30
0.0
 11
4826.72299916874
 21
3770.3772423694759
 31
0.0
  0
LINE
  5
78E
  8
LOGO
 62
     4
 10
4867.3510480844134
 20
3770.3772423694759
 30
0.0
 11
4826.72299916874
 21
3770.3772423694759
 31
0.0
  0
LINE
  5
78F
  8
LOGO
 62
     4
 10
4894.3298657844307
 20
3831.469471381537
 30
0.0
 11
4811.3652255735406
 21
3831.469471381537
 31
0.0
  0
LINE
  5
790
  8
LOGO
 62
     4
 10
4894.3298657844307
 20
3809.0274280709841
 30
0.0
 11
4811.3652255735406
 21
3809.0274280709841
 31
0.0
  0
LINE
  5
791
  8
LOGO
 62
     4
 10
4811.3652255735406
 20
3831.469471381537
 30
0.0
 11
4811.3652255735406
 21
3809.0274280709841
 31
0.0
  0
LINE
  5
792
  8
LOGO
 62
     4
 10
4894.3298657844343
 20
3831.469471381537
 30
0.0
 11
4894.3298657844343
 21
3809.0274280709841
 31
0.0
  0
LINE
  5
793
  8
LOGO
 62
     4
 10
4850.3250554365422
 20
3809.0274280709841
 30
0.0
 11
4850.3250554365422
 21
3797.8064064157079
 31
0.0
  0
TEXT
  5
794
  8
LOGO
  6
CONTINUOUS
 10
4818.4575873893209
 20
3813.7121718017988
 30
0.0
 40
13.093087762868061
  1
90/180
  7
CHINESET
  0
LINE
  5
795
  8
LOGO
 62
     4
 10
4867.3510480844134
 20
3797.8064064157079
 30
0.0
 11
4826.72299916874
 21
3797.8064064157079
 31
0.0
  0
TEXT
  5
796
  8
LOGO
  6
CONTINUOUS
 10
4748.875376701445
 20
3774.2488107097079
 30
490.27151582235052
 40
5.611323326943455
  1
Tube I.D.
 41
0.8
  7
CHINESET
  0
TEXT
  5
797
  8
LOGO
 10
4751.1379227231764
 20
3784.6509948313719
 30
490.27151582235052
 40
9.3522055449057575
  1
內徑
  7
CHINESET
  0
TEXT
  5
798
  8
LOGO
  6
CONTINUOUS
 10
4837.4305532816106
 20
3774.2488107097079
 30
490.27151582235052
 40
5.611323326943455
  1
Angle
 41
0.8
  7
CHINESET
  0
TEXT
  5
799
  8
LOGO
 10
4828.1323526372862
 20
3784.6509948313719
 30
490.27151582235052
 40
9.3522055449057575
  1
旋轉角度
  7
CHINESET
  0
TEXT
  5
79A
  8
LOGO
 10
4574.2878468613771
 20
3769.7658603226182
 30
0.0
 40
7.4817644359246067
  1
00905071
 41
0.7
  7
CHINESET
 72
     1
 11
4592.3687775815279
 21
3769.7658603226182
 31
0.0
  0
LINE
  5
79B
  8
LOGO
 62
     4
 10
4615.5876768854177
 20
3780.7475297083579
 30
0.0
 11
4615.5876768854223
 21
3765.7861675013219
 31
0.0
  0
LINE
  5
79C
  8
LOGO
 62
     4
 10
4615.5876768854177
 20
3780.7475297083579
 30
0.0
 11
4570.6970902698749
 21
3780.7475297083579
 31
0.0
  0
LINE
  5
79D
  8
LOGO
  6
AM_ISO08W050X2
 10
4528.6897756529152
 20
3816.5241104061238
 30
0.0
 11
4540.6648236371921
 21
3816.5241104061238
 31
0.0
1001
GENIUS_GENOREF_13
1005
BAC
  0
LINE
  5
79E
  8
LOGO
  6
AM_ISO08W050X2
 10
4534.6772996450527
 20
3810.5365864139849
 30
0.0
 11
4534.6772996450527
 21
3822.5116343982641
 31
0.0
1001
GENIUS_GENOREF_13
1005
BAB
  0
LINE
  5
79F
  8
LOGO
  6
CENTER
 10
4547.2666657728296
 20
3816.5241104061238
 30
0.0
 11
4563.3432403848283
 21
3816.5241104061238
 31
0.0
1001
GENIUS_GENOREF_13
1005
BAA
  0
POINT
  5
BAA
  8
0
 10
-571.12080049813619
 20
1282.978892918416
 30
0.0
1001
GENIUS_GENOBJ-N-CRS_13
1002
{
1000
OWNER
1000
GEN
1002
}
1001
GENIUS_GENOLIS_13
1002
{
1000
ENT
1005
0
1005
0
1005
0
1005
79F
1002
}
1001
GENIUS_GENOENT_13
1002
{
1000
MYREF
1005
BAA
1002
}
1002
{
1000
GRP
1005
0
1002
}
1001
GENIUS_GENODEF_13
1002
{
1000
HIER
1070
    10
1002
}
1002
{
1000
MANEDIT
1070
     1
1002
}
1002
{
1000
NOSEL
1070
     0
1002
}
1002
{
1000
BEHIND
1070
     0
1002
}
1002
{
1000
OTHER
1070
     0
1002
}
1002
{
1000
REACTOR
1002
}
  0
POINT
  5
BAB
  8
0
 10
-582.44538572099054
 20
1291.854479397052
 30
0.0
1001
GENIUS_GENOBJ-N-CRS_13
1002
{
1000
OWNER
1000
GEN
1002
}
1001
GENIUS_GENOLIS_13
1002
{
1000
ENT
1005
0
1005
0
1005
0
1005
79E
1002
}
1001
GENIUS_GENOENT_13
1002
{
1000
MYREF
1005
BAB
1002
}
1002
{
1000
GRP
1005
0
1002
}
1001
GENIUS_GENODEF_13
1002
{
1000
HIER
1070
    10
1002
}
1002
{
1000
MANEDIT
1070
     1
1002
}
1002
{
1000
NOSEL
1070
     0
1002
}
1002
{
1000
BEHIND
1070
     0
1002
}
1002
{
1000
OTHER
1070
     0
1002
}
1002
{
1000
REACTOR
1002
}
  0
POINT
  5
BAC
  8
0
 10
-576.08671202315418
 20
1282.978892918416
 30
0.0
1001
GENIUS_GENOBJ-N-CRS_13
1002
{
1000
OWNER
1000
GEN
1002
}
1001
GENIUS_GENOLIS_13
1002
{
1000
ENT
1005
0
1005
0
1005
0
1005
79D
1002
}
1001
GENIUS_GENOENT_13
1002
{
1000
MYREF
1005
BAC
1002
}
1002
{
1000
GRP
1005
0
1002
}
1001
GENIUS_GENODEF_13
1002
{
1000
HIER
1070
    10
1002
}
1002
{
1000
MANEDIT
1070
     1
1002
}
1002
{
1000
NOSEL
1070
     0
1002
}
1002
{
1000
BEHIND
1070
     0
1002
}
1002
{
1000
OTHER
1070
     0
1002
}
1002
{
1000
REACTOR
1002
}
  0
POLYLINE
  5
55C6
  8
LOGO
 62
     4
 66
     1
 10
0.0
 20
0.0
 30
0.0
 70
     1
  0
VERTEX
  5
6555
  8
LOGO
 62
     4
 10
4406.1221059924883
 20
3838.9501524850548
 30
0.0
  0
VERTEX
  5
6556
  8
LOGO
 62
     4
 10
5160.612780268988
 20
3838.9501524850548
 30
0.0
  0
VERTEX
  5
6557
  8
LOGO
 62
     4
 10
5160.612780268988
 20
3765.7861675013219
 30
0.0
  0
VERTEX
  5
6558
  8
LOGO
 62
     4
 10
4406.1221059924883
 20
3765.7861675013219
 30
0.0
  0
SEQEND
  5
6559
  8
LOGO
 62
     4
  0
POLYLINE
  5
55C8
  8
LOGO
 62
     4
 66
     1
 10
0.0
 20
0.0
 30
0.0
 70
     1
  0
VERTEX
  5
655A
  8
LOGO
 62
     4
 10
4406.1221059924883
 20
5014.0405876876403
 30
0.0
  0
VERTEX
  5
655B
  8
LOGO
 62
     4
 10
5160.612780268988
 20
5014.0405876876403
 30
0.0
  0
VERTEX
  5
655C
  8
LOGO
 62
     4
 10
5160.612780268988
 20
4426.4953700863471
 30
0.0
  0
VERTEX
  5
655D
  8
LOGO
 62
     4
 10
4406.1221059924883
 20
4426.4953700863471
 30
0.0
  0
SEQEND
  5
655E
  8
LOGO
 62
     4
  0
LINE
  5
597D
  8
UMCL2
 10
5098.413539462741
 20
4588.096140487587
 30
0.0
 11
5098.413539462741
 21
4726.096140487587
 31
0.0
  0
SOLID
  5
597E
  8
UMCL2
 10
5097.580206129408
 20
4721.096140487587
 30
0.0
 11
5099.246872796075
 21
4721.096140487587
 31
0.0
 12
5098.413539462741
 22
4726.096140487587
 32
0.0
 13
5098.413539462741
 23
4726.096140487587
 33
0.0
  0
TEXT
  5
597F
  8
UMCL2
 10
5096.0135394627423
 20
4649.7237069591192
 30
0.0
 40
6.0
  1
138
 50
90.0
 41
0.85
 51
15.0
  7
ROMANS
  0
TEXT
  5
5980
  8
UMCL2
 10
4682.4776330237419
 20
4744.3961404875881
 30
0.0
 40
6.0
  1
27
 41
0.85
 51
15.0
  7
ROMANS
  0
LINE
  5
5981
  8
UMCL2
 10
4730.6386234581769
 20
4685.0961404875879
 30
0.0
 11
4730.6386234581769
 21
4759.9961404875867
 31
0.0
  0
LINE
  5
5982
  8
UMCL2
 10
4648.6386234581769
 20
4685.0961404875879
 30
0.0
 11
4648.6386234581769
 21
4759.9961404875867
 31
0.0
  0
LINE
  5
5983
  8
UMCL2
 10
4730.6386234581769
 20
4757.9961404875867
 30
0.0
 11
4648.6386234581769
 21
4757.9961404875867
 31
0.0
  0
SOLID
  5
5984
  8
UMCL2
 10
4725.638623458176
 20
4758.8294738209197
 30
0.0
 11
4725.638623458176
 21
4757.1628071542536
 31
0.0
 12
4730.6386234581751
 22
4757.9961404875867
 32
0.0
 13
4730.6386234581751
 23
4757.9961404875867
 33
0.0
  0
SOLID
  5
5985
  8
UMCL2
 10
4653.6386234581769
 20
4758.8294738209197
 30
0.0
 11
4653.6386234581769
 21
4757.1628071542536
 31
0.0
 12
4648.6386234581769
 22
4757.9961404875867
 32
0.0
 13
4648.6386234581769
 23
4757.9961404875867
 33
0.0
  0
TEXT
  5
5986
  8
UMCL2
 10
4681.7021754194157
 20
4760.3961404875872
 30
0.0
 40
6.0
  1
\U+220582
 41
0.85
 51
15.0
  7
ROMANS
  0
TEXT
  5
5987
  8
UMCL2
 10
5000.1170188417391
 20
4744.4961404875867
 30
0.0
 40
6.0
  1
\U+220524
 41
0.85
 51
15.0
  7
ROMANS
  0
LINE
  5
5988
  8
UMCL2
 10
5050.413539462741
 20
4596.0961404875861
 30
0.0
 11
5050.413539462741
 21
4554.0961404875879
 31
0.0
  0
LINE
  5
5989
  8
UMCL2
 10
4940.413539462741
 20
4596.096140487587
 30
0.0
 11
4940.413539462741
 21
4554.096140487587
 31
0.0
  0
LINE
  5
598A
  8
UMCL2
 10
5050.413539462741
 20
4556.096140487587
 30
0.0
 11
4940.413539462741
 21
4556.096140487587
 31
0.0
  0
SOLID
  5
598B
  8
UMCL2
 10
5045.726039462741
 20
4556.877390487587
 30
0.0
 11
5045.726039462741
 21
4555.3148904875861
 31
0.0
 12
5050.413539462741
 22
4556.096140487587
 32
0.0
 13
5050.413539462741
 23
4556.096140487587
 33
0.0
  0
SOLID
  5
598C
  8
UMCL2
 10
4945.101039462741
 20
4556.877390487587
 30
0.0
 11
4945.101039462741
 21
4555.3148904875861
 31
0.0
 12
4940.413539462741
 22
4556.096140487587
 32
0.0
 13
4940.413539462741
 23
4556.096140487587
 33
0.0
  0
TEXT
  5
598D
  8
UMCL2
 10
4987.2846623931991
 20
4558.4961404875867
 30
0.0
 40
6.0
  1
110
 41
0.85
 51
15.0
  7
ROMANS
  0
LINE
  5
598E
  8
UMCL2
 10
5007.913539462741
 20
4582.5961404875879
 30
0.0
 11
5007.913539462741
 21
4569.596140487587
 31
0.0
  0
LINE
  5
598F
  8
UMCL2
 10
4977.9135394627419
 20
4572.096140487587
 30
0.0
 11
5050.413539462741
 21
4572.096140487587
 31
0.0
  0
SOLID
  5
5990
  8
UMCL2
 10
5003.2260394627419
 20
4572.877390487587
 30
0.0
 11
5003.2260394627419
 21
4571.314890487587
 31
0.0
 12
5007.913539462741
 22
4572.096140487587
 32
0.0
 13
5007.913539462741
 23
4572.096140487587
 33
0.0
  0
TEXT
  5
5991
  8
UMCL2
 10
4987.3179714717417
 20
4574.4961404875858
 30
0.0
 40
6.0
  1
30
 41
0.85
 51
15.0
  7
ROMANS
  0
LINE
  5
5992
  8
UMCL2
 10
4737.3709714149736
 20
4758.2418001037886
 30
0.0
 11
4689.6386234581769
 21
4725.9961404875867
 31
0.0
  0
LINE
  5
5993
  8
UMCL2
 10
4737.3709714149736
 20
4758.2418001037886
 30
0.0
 11
4780.6869092256611
 21
4758.2418001037886
 31
0.0
  0
TEXT
  5
5994
  8
UMCL2
 10
4743.7655816361739
 20
4761.64180010379
 30
0.0
 40
6.0
  1
M8x15dp
 41
0.85
 51
15.0
  7
ROMANS
  0
SOLID
  5
5995
  8
UMCL2
 10
4843.7849017131211
 20
4656.2209300445093
 30
0.0
 11
4844.963413015098
 21
4655.0424187425306
 31
0.0
 12
4840.8386234581767
 22
4652.0961404875879
 32
0.0
 13
4840.8386234581767
 23
4652.0961404875879
 33
0.0
  0
LINE
  5
5996
  8
UMCL2
 10
4861.5112085251803
 20
4672.7687255545907
 30
0.0
 11
4840.8386234581767
 21
4652.0961404875879
 31
0.0
  0
LINE
  5
5997
  8
UMCL2
 10
4861.5112085251803
 20
4672.7687255545907
 30
0.0
 11
4897.8053917420184
 21
4672.7687255545907
 31
0.0
  0
TEXT
  5
5998
  8
UMCL2
 10
4863.5307777172693
 20
4673.9524024528837
 30
0.0
 40
6.0
  1
M6x1.0P
 41
0.85
 51
15.0
  7
ROMANS
  0
TEXT
  5
5999
  8
UMCL2
 10
5019.6005518634074
 20
4574.4961404875858
 30
0.0
 40
6.0
  1
42.5
 41
0.85
 51
15.0
  7
ROMANS
  0
SOLID
  5
599A
  8
UMCL2
 10
5012.601039462741
 20
4572.877390487587
 30
0.0
 11
5012.601039462741
 21
4571.314890487587
 31
0.0
 12
5007.913539462741
 22
4572.096140487587
 32
0.0
 13
5007.913539462741
 23
4572.096140487587
 33
0.0
  0
SOLID
  5
599B
  8
UMCL2
 10
5045.726039462741
 20
4572.877390487587
 30
0.0
 11
5045.726039462741
 21
4571.314890487587
 31
0.0
 12
5050.413539462741
 22
4572.096140487587
 32
0.0
 13
5050.413539462741
 23
4572.096140487587
 33
0.0
  0
LINE
  5
599C
  8
UMCL2
 10
4977.913539462741
 20
4606.0291408891999
 30
0.0
 11
4977.9135394627419
 21
4570.096140487587
 31
0.0
  0
SOLID
  5
599D
  8
UMCL2
 10
4982.6010394627419
 20
4572.877390487587
 30
0.0
 11
4982.6010394627419
 21
4571.314890487587
 31
0.0
 12
4977.9135394627419
 22
4572.096140487587
 32
0.0
 13
4977.9135394627419
 23
4572.096140487587
 33
0.0
  0
SOLID
  5
599E
  8
UMCL2
 10
5097.580206129408
 20
4593.096140487587
 30
0.0
 11
5099.246872796075
 21
4593.096140487587
 31
0.0
 12
5098.413539462741
 22
4588.096140487587
 32
0.0
 13
5098.413539462741
 23
4588.096140487587
 33
0.0
  0
LINE
  5
599F
  8
CEN
 10
4541.6386234581769
 20
4848.8104437728671
 30
0.0
 11
4644.6386234581769
 21
4848.8104437728671
 31
0.0
  0
SOLID
  5
59A0
  8
UMCL2
 10
4719.6386234581769
 20
4940.143777106201
 30
0.0
 11
4719.6386234581769
 21
4938.477110439534
 31
0.0
 12
4724.6386234581769
 22
4939.310443772868
 32
0.0
 13
4724.6386234581769
 23
4939.310443772868
 33
0.0
  0
SOLID
  5
59A1
  8
UMCL2
 10
4659.6386234581769
 20
4940.143777106201
 30
0.0
 11
4659.6386234581769
 21
4938.477110439534
 31
0.0
 12
4654.638623458176
 22
4939.310443772868
 32
0.0
 13
4654.638623458176
 23
4939.310443772868
 33
0.0
  0
LINE
  5
59A2
  8
UMCL2
 10
4724.6386234581769
 20
4925.310443772868
 30
0.0
 11
4724.6386234581769
 21
4940.810443772868
 31
0.0
  0
LINE
  5
59A3
  8
UMCL2
 10
4654.638623458176
 20
4925.310443772868
 30
0.0
 11
4654.638623458176
 21
4940.810443772868
 31
0.0
  0
LINE
  5
59A4
  8
CEN
 10
4706.2912759594974
 20
4895.4630962741876
 30
0.0
 11
4720.3621252963549
 21
4909.533945611046
 31
0.0
  0
ARC
  5
59A5
  8
UMCL1
 62
     2
 10
4713.3267006279248
 20
4902.4985209426168
 30
0.0
 40
3.0
 50
297.35626838235851
 51
246.00402759871241
  0
CIRCLE
  5
59A6
  8
UMCL1
 10
4713.3267006279248
 20
4902.4985209426168
 30
0.0
 40
2.5
  0
LINE
  5
59A7
  8
UMCL1
 10
4733.638623458176
 20
4811.3104437728671
 30
0.0
 11
4645.6386234581769
 21
4811.3104437728671
 31
0.0
  0
LINE
  5
59A8
  8
UMCL1
 10
4733.638623458176
 20
4921.310443772868
 30
0.0
 11
4645.6386234581769
 21
4921.310443772868
 31
0.0
  0
LINE
  5
59A9
  8
CEN
 10
4737.6386234581769
 20
4878.810443772868
 30
0.0
 11
4641.6386234581769
 21
4878.810443772868
 31
0.0
  0
LINE
  5
59AA
  8
UMCL2
 10
4654.638623458176
 20
4939.310443772868
 30
0.0
 11
4724.6386234581778
 21
4939.310443772868
 31
0.0
  0
LINE
  5
59AB
  8
CEN
 10
4689.6386234581769
 20
4808.6454237034213
 30
0.0
 11
4689.6386234581769
 21
4924.6454237034213
 31
0.0
  0
LINE
  5
59AC
  8
CEN
 10
4668.1386234581769
 20
4829.3904926610576
 30
0.0
 11
4668.1386234581769
 21
4796.4975793257299
 31
0.0
  0
ARC
  5
59AD
  8
UMCL1
 10
4675.4998393903452
 20
4806.9655451005474
 30
0.0
 40
4.3448986723201113
 50
55.615752531968383
 51
124.3842474680316
  0
ARC
  5
59AE
  8
UMCL1
 10
4675.4998393903452
 20
4807.6553424451877
 30
0.0
 40
4.3448986723201113
 50
235.61575253196841
 51
304.38424746803162
  0
LINE
  5
59AF
  8
UMCL1
 10
4676.6386234581769
 20
4803.310443772868
 30
0.0
 11
4659.6386234581769
 21
4803.310443772868
 31
0.0
  0
LINE
  5
59B0
  8
UMCL1
 10
4645.6386234581769
 20
4811.3104437728671
 30
0.0
 11
4644.6386234581769
 21
4812.310443772868
 31
0.0
  0
ARC
  5
59B1
  8
UMCL1
 10
4668.1386234581769
 20
4795.0696331514191
 30
0.0
 40
16.24081062144808
 50
72.412046226036338
 51
107.5879537739636
  0
ARC
  5
59B2
  8
UMCL1
 10
4668.1386234581769
 20
4819.551254394315
 30
0.0
 40
16.24081062144808
 50
252.4120462259867
 51
287.5879537739637
  0
LINE
  5
59B3
  8
UMCL1
 10
4659.6386234581769
 20
4803.310443772868
 30
0.0
 11
4658.3236688819534
 21
4804.0696331514218
 31
0.0
  0
LINE
  5
59B4
  8
UMCL1
 10
4659.6386234581769
 20
4811.3104437728671
 30
0.0
 11
4658.3236688819534
 21
4810.5512543943132
 31
0.0
  0
ARC
  5
59B5
  8
UMCL1
 10
4660.7774075260077
 20
4807.6553424451877
 30
0.0
 40
4.3448986723201113
 50
235.61575253196841
 51
304.38424746803162
  0
ARC
  5
59B6
  8
UMCL1
 10
4660.7774075260077
 20
4806.9655451005474
 30
0.0
 40
4.3448986723201113
 50
55.615752531968383
 51
124.3842474680316
  0
LINE
  5
59B7
  8
UMCL1
 10
4663.2311461700647
 20
4804.0696331514218
 30
0.0
 11
4663.2311461700647
 21
4810.5512543943132
 31
0.0
  0
LINE
  5
59B8
  8
UMCL1
 10
4658.3236688819534
 20
4804.0696331514218
 30
0.0
 11
4658.3236688819534
 21
4810.5512543943132
 31
0.0
  0
LINE
  5
59B9
  8
UMCL1
 10
4673.0461007462891
 20
4804.0696331514218
 30
0.0
 11
4673.0461007462891
 21
4810.5512543943132
 31
0.0
  0
LINE
  5
59BA
  8
UMCL1
 10
4676.6386234581769
 20
4811.3104437728671
 30
0.0
 11
4677.9535780344004
 21
4810.5512543943132
 31
0.0
  0
LINE
  5
59BB
  8
UMCL1
 10
4676.6386234581769
 20
4803.310443772868
 30
0.0
 11
4677.9535780344004
 21
4804.0696331514218
 31
0.0
  0
LINE
  5
59BC
  8
UMCL1
 10
4677.9535780344004
 20
4804.0696331514218
 30
0.0
 11
4677.9535780344004
 21
4810.5512543943132
 31
0.0
  0
ARC
  5
59BD
  8
UMCL1
 10
4689.6386234581769
 20
4878.810443772868
 30
0.0
 40
15.0
 50
195.46600995341291
 51
164.53399004658701
  0
CIRCLE
  5
59BE
  8
UMCL1
 10
4689.6386234581769
 20
4878.810443772868
 30
0.0
 40
12.0
  0
CIRCLE
  5
59BF
  8
UMCL1
 10
4689.6386234581769
 20
4878.810443772868
 30
0.0
 40
3.399999999999999
  0
ARC
  5
59C0
  8
UMCL1
 62
     2
 10
4689.6386234581769
 20
4878.810443772868
 30
0.0
 40
4.0
 50
250.18686942893771
 51
210.78620825906759
  0
LINE
  5
59C1
  8
UMCL1
 10
4674.6386234581769
 20
4874.810443772868
 30
0.0
 11
4674.6386234581769
 21
4882.810443772868
 31
0.0
  0
LINE
  5
59C2
  8
HIDDEN
 10
4681.6386234581769
 20
4874.810443772868
 30
0.0
 11
4681.6386234581769
 21
4882.810443772868
 31
0.0
  0
LINE
  5
59C3
  8
HIDDEN
 10
4678.324914959192
 20
4874.810443772868
 30
0.0
 11
4681.6386234581769
 21
4874.810443772868
 31
0.0
  0
LINE
  5
59C4
  8
UMCL1
 10
4678.324914959192
 20
4874.810443772868
 30
0.0
 11
4674.6386234581769
 21
4874.810443772868
 31
0.0
  0
LINE
  5
59C5
  8
HIDDEN
 10
4678.324914959192
 20
4882.810443772868
 30
0.0
 11
4681.6386234581769
 21
4882.810443772868
 31
0.0
  0
LINE
  5
59C6
  8
UMCL1
 10
4678.324914959192
 20
4882.810443772868
 30
0.0
 11
4674.6386234581769
 21
4882.810443772868
 31
0.0
  0
CIRCLE
  5
59C7
  8
UMCL1
 10
4654.638623458176
 20
4913.810443772868
 30
0.0
 40
3.399999999999999
  0
ARC
  5
59C8
  8
UMCL1
 62
     2
 10
4654.638623458176
 20
4913.810443772868
 30
0.0
 40
4.0
 50
156.62661036295489
 51
117.295953353016
  0
LINE
  5
59C9
  8
CEN
 10
4654.638623458176
 20
4923.1340916129448
 30
0.0
 11
4654.638623458176
 21
4904.4867959327903
 31
0.0
  0
LINE
  5
59CA
  8
CEN
 10
4663.9622712982537
 20
4913.810443772868
 30
0.0
 11
4645.3149756180983
 21
4913.810443772868
 31
0.0
  0
LINE
  5
59CB
  8
UMCL1
 10
4644.6386234581769
 20
4920.310443772868
 30
0.0
 11
4645.6386234581769
 21
4921.310443772868
 31
0.0
  0
POLYLINE
  5
59CC
  8
UMCL1
 66
     1
 10
0.0
 20
0.0
 30
0.0
 70
     1
  0
VERTEX
  5
655F
  8
UMCL1
 10
4688.1952477852028
 20
4914.810443772868
 30
0.0
  0
VERTEX
  5
6560
  8
UMCL1
 10
4686.7518721122278
 20
4912.3104437728671
 30
0.0
  0
VERTEX
  5
6561
  8
UMCL1
 10
4688.1952477852028
 20
4909.8104437728671
 30
0.0
  0
VERTEX
  5
6562
  8
UMCL1
 10
4691.081999131151
 20
4909.8104437728671
 30
0.0
  0
VERTEX
  5
6563
  8
UMCL1
 10
4692.525374804125
 20
4912.3104437728671
 30
0.0
  0
VERTEX
  5
6564
  8
UMCL1
 10
4691.081999131151
 20
4914.810443772868
 30
0.0
  0
SEQEND
  5
6565
  8
UMCL1
  0
CIRCLE
  5
59CD
  8
UMCL1
 10
4689.6386234581769
 20
4912.3104437728671
 30
0.0
 40
4.5
  0
CIRCLE
  5
59CE
  8
UMCL1
 10
4689.6386234581769
 20
4912.3104437728671
 30
0.0
 40
5.0
  0
CIRCLE
  5
59CF
  8
UMCL1
 10
4689.6386234581769
 20
4912.3104437728671
 30
0.0
 40
5.5
  0
LINE
  5
59D0
  8
UMCL1
 10
4733.638623458176
 20
4811.3104437728671
 30
0.0
 11
4734.638623458176
 21
4812.310443772868
 31
0.0
  0
LINE
  5
59D1
  8
UMCL2
 10
4749.3653154895073
 20
4938.5371358041994
 30
0.0
 11
4807.1573991838331
 21
4938.5371358041994
 31
0.0
  0
ARC
  5
59D2
  8
UMCL1
 10
4738.9835221304957
 20
4892.9492278406979
 30
0.0
 40
4.3448986723201113
 50
145.61575253196841
 51
214.38424746803159
  0
ARC
  5
59D3
  8
UMCL1
 10
4738.2937247858563
 20
4892.9492278406979
 30
0.0
 40
4.3448986723201113
 50
325.61575253196838
 51
34.384247468031631
  0
LINE
  5
59D4
  8
UMCL1
 10
4742.638623458176
 20
4908.810443772868
 30
0.0
 11
4742.638623458176
 21
4891.8104437728671
 31
0.0
  0
LINE
  5
59D5
  8
UMCL1
 10
4741.8794340796221
 20
4890.4954891966436
 30
0.0
 11
4735.3978128367316
 21
4890.4954891966436
 31
0.0
  0
CIRCLE
  5
59D6
  8
UMCL1
 10
4723.1386234581769
 20
4878.810443772868
 30
0.0
 40
5.5
  0
CIRCLE
  5
59D7
  8
UMCL1
 10
4723.1386234581769
 20
4878.810443772868
 30
0.0
 40
5.0
  0
CIRCLE
  5
59D8
  8
UMCL1
 10
4723.1386234581769
 20
4878.810443772868
 30
0.0
 40
4.5
  0
POLYLINE
  5
59D9
  8
UMCL1
 66
     1
 10
0.0
 20
0.0
 30
0.0
 70
     1
  0
VERTEX
  5
6566
  8
UMCL1
 10
4721.6952477852019
 20
4881.310443772868
 30
0.0
  0
VERTEX
  5
6567
  8
UMCL1
 10
4720.2518721122278
 20
4878.810443772868
 30
0.0
  0
VERTEX
  5
6568
  8
UMCL1
 10
4721.6952477852019
 20
4876.310443772868
 30
0.0
  0
VERTEX
  5
6569
  8
UMCL1
 10
4724.581999131151
 20
4876.310443772868
 30
0.0
  0
VERTEX
  5
656A
  8
UMCL1
 10
4726.025374804125
 20
4878.810443772868
 30
0.0
  0
VERTEX
  5
656B
  8
UMCL1
 10
4724.581999131151
 20
4881.310443772868
 30
0.0
  0
SEQEND
  5
656C
  8
UMCL1
  0
LINE
  5
59DA
  8
UMCL1
 10
4734.638623458176
 20
4891.8104437728671
 30
0.0
 11
4735.3978128367316
 21
4890.4954891966436
 31
0.0
  0
LINE
  5
59DB
  8
UMCL1
 10
4742.638623458176
 20
4891.8104437728671
 30
0.0
 11
4741.8794340796221
 21
4890.4954891966436
 31
0.0
  0
LINE
  5
59DC
  8
UMCL1
 10
4741.8794340796221
 20
4910.1253983490906
 30
0.0
 11
4735.3978128367316
 21
4910.1253983490906
 31
0.0
  0
LINE
  5
59DD
  8
UMCL1
 10
4741.8794340796221
 20
4895.4029664847558
 30
0.0
 11
4735.3978128367316
 21
4895.4029664847558
 31
0.0
  0
LINE
  5
59DE
  8
UMCL1
 10
4741.8794340796221
 20
4905.2179210609802
 30
0.0
 11
4735.3978128367316
 21
4905.2179210609802
 31
0.0
  0
LINE
  5
59DF
  8
CEN
 10
4724.5492235675993
 20
4900.310443772868
 30
0.0
 11
4748.3492198149688
 21
4900.310443772868
 31
0.0
  0
LINE
  5
59E0
  8
UMCL2
 10
4749.3653154895073
 20
4938.5371358041994
 30
0.0
 11
4727.4670505829226
 21
4916.6388708976137
 31
0.0
  0
LINE
  5
59E1
  8
CEN
 10
4724.6386234581769
 20
4923.1340916129448
 30
0.0
 11
4724.6386234581769
 21
4904.4867959327903
 31
0.0
  0
ARC
  5
59E2
  8
UMCL1
 62
     2
 10
4724.6386234581769
 20
4913.810443772868
 30
0.0
 40
4.0
 50
156.62661036295489
 51
117.295953353016
  0
CIRCLE
  5
59E3
  8
UMCL1
 10
4724.6386234581769
 20
4913.810443772868
 30
0.0
 40
3.399999999999999
  0
SOLID
  5
59E4
  8
UMCL2
 10
4730.4133288378671
 20
4920.7636604545341
 30
0.0
 11
4731.591840139844
 21
4919.5851491525573
 31
0.0
 12
4727.4670505829217
 22
4916.6388708976128
 32
0.0
 13
4727.4670505829217
 23
4916.6388708976128
 33
0.0
  0
LINE
  5
59E5
  8
CEN
 10
4733.9622712982546
 20
4913.810443772868
 30
0.0
 11
4715.3149756180992
 21
4913.810443772868
 31
0.0
  0
ARC
  5
59E6
  8
UMCL1
 10
4750.8794340796239
 20
4900.310443772868
 30
0.0
 40
16.24081062144808
 50
162.4120462260363
 51
197.58795377396359
  0
LINE
  5
59E7
  8
UMCL1
 10
4734.638623458176
 20
4908.810443772868
 30
0.0
 11
4735.3978128367316
 21
4910.1253983490906
 31
0.0
  0
ARC
  5
59E8
  8
UMCL1
 10
4738.9835221304957
 20
4907.6716597050363
 30
0.0
 40
4.3448986723201113
 50
145.61575253196841
 51
214.38424746803159
  0
LINE
  5
59E9
  8
UMCL1
 10
4734.638623458176
 20
4920.310443772868
 30
0.0
 11
4733.638623458176
 21
4921.310443772868
 31
0.0
  0
ARC
  5
59EA
  8
UMCL1
 10
4726.397812836728
 20
4900.310443772868
 30
0.0
 40
16.24081062144808
 50
342.41204622598673
 51
17.587953773963662
  0
LINE
  5
59EB
  8
UMCL1
 10
4742.638623458176
 20
4908.810443772868
 30
0.0
 11
4741.8794340796221
 21
4910.1253983490906
 31
0.0
  0
ARC
  5
59EC
  8
UMCL1
 10
4738.2937247858563
 20
4907.6716597050363
 30
0.0
 40
4.3448986723201113
 50
325.61575253196838
 51
34.384247468031631
  0
TEXT
  5
59ED
  8
UMCL2
 10
4685.5904280181912
 20
4941.7104437728667
 30
0.0
 40
6.0
  1
70
 41
0.85
 51
15.0
  7
ROMANS
  0
LINE
  5
59EE
  8
UMCL2
 10
4678.9498192059
 20
4947.1767746195383
 30
0.0
 11
4683.7771321562504
 21
4947.1767746195383
 31
0.0
  0
LINE
  5
59EF
  8
UMCL2
 10
4683.7771321562504
 20
4947.1767746195383
 30
0.0
 11
4683.7771321562504
 21
4942.3152078693338
 31
0.0
  0
LINE
  5
59F0
  8
UMCL2
 10
4683.7771321562504
 20
4942.3152078693338
 30
0.0
 11
4678.9498192059
 21
4942.3152078693338
 31
0.0
  0
LINE
  5
59F1
  8
UMCL2
 10
4678.9498192059
 20
4942.3152078693338
 30
0.0
 11
4678.9498192059
 21
4947.1767746195383
 31
0.0
  0
TEXT
  5
59F2
  8
UMCL2
 10
4752.094028678197
 20
4941.937135804199
 30
0.0
 40
6.0
  1
2x4-M8x15dp
 41
0.85
 51
15.0
  7
ROMANS
  0
LINE
  5
59F3
  8
UMCL1
 10
4832.638623458176
 20
4871.153471277953
 30
0.0
 11
4832.638623458176
 21
4826.467416267782
 31
0.0
  0
LINE
  5
59F4
  8
UMCL1
 10
4806.6386234581769
 20
4826.810443772868
 30
0.0
 11
4832.638623458176
 21
4826.810443772868
 31
0.0
  0
LINE
  5
59F5
  8
UMCL1
 10
4806.6386234581769
 20
4870.8104437728671
 30
0.0
 11
4832.638623458176
 21
4870.8104437728671
 31
0.0
  0
LINE
  5
59F6
  8
HIDDEN
 10
4644.6386234581769
 20
4867.310443772868
 30
0.0
 11
4572.6386234581769
 21
4867.310443772868
 31
0.0
  0
LINE
  5
59F7
  8
HIDDEN
 10
4551.3645456653467
 20
4826.8104437728671
 30
0.0
 11
4551.8886234581769
 21
4836.810443772868
 31
0.0
  0
LINE
  5
59F8
  8
HIDDEN
 10
4550.5645456653474
 20
4826.8104437728671
 30
0.0
 11
4551.0886234581758
 21
4836.810443772868
 31
0.0
  0
LINE
  5
59F9
  8
HIDDEN
 10
4563.9127012510071
 20
4826.8104437728671
 30
0.0
 11
4563.3886234581769
 21
4836.810443772868
 31
0.0
  0
LINE
  5
59FA
  8
HIDDEN
 10
4564.7127012510073
 20
4826.8104437728671
 30
0.0
 11
4564.1886234581771
 21
4836.810443772868
 31
0.0
  0
LINE
  5
59FB
  8
UMCL1
 10
4572.6386234581769
 20
4870.8104437728671
 30
0.0
 11
4546.6386234581769
 21
4870.8104437728671
 31
0.0
  0
LINE
  5
59FC
  8
UMCL1
 10
4572.6386234581769
 20
4826.810443772868
 30
0.0
 11
4546.6386234581769
 21
4826.810443772868
 31
0.0
  0
LINE
  5
59FD
  8
UMCL1
 10
4572.6386234581769
 20
4870.8104437728671
 30
0.0
 11
4572.6386234581769
 21
4826.810443772868
 31
0.0
  0
LINE
  5
59FE
  8
UMCL1
 10
4546.6386234581769
 20
4870.8104437728671
 30
0.0
 11
4546.6386234581769
 21
4826.810443772868
 31
0.0
  0
LINE
  5
59FF
  8
UMCL1
 10
4644.6386234581769
 20
4812.310443772868
 30
0.0
 11
4644.6386234581769
 21
4920.310443772868
 31
0.0
  0
LINE
  5
5A00
  8
UMCL1
 10
4734.638623458176
 20
4812.310443772868
 30
0.0
 11
4734.638623458176
 21
4920.310443772868
 31
0.0
  0
LINE
  5
5A01
  8
CEN
 10
4542.8431716563537
 20
4635.5961404875879
 30
0.0
 11
4836.6386234581778
 21
4635.5961404875879
 31
0.0
  0
LINE
  5
5A02
  8
UMCL2
 10
4730.6386234581778
 20
4585.896140487589
 30
0.0
 11
4730.6386234581778
 21
4570.0961404875879
 31
0.0
  0
TEXT
  5
5A03
  8
UMCL2
 10
4681.7650006172016
 20
4574.4961404875876
 30
0.0
 40
6.0
  1
\U+220582
 41
0.85
 51
15.0
  7
ROMANS
  0
LINE
  5
5A04
  8
UMCL2
 10
4648.6386234581769
 20
4585.896140487589
 30
0.0
 11
4648.6386234581769
 21
4570.0961404875879
 31
0.0
  0
LINE
  5
5A05
  8
UMCL2
 10
4648.6386234581769
 20
4572.096140487587
 30
0.0
 11
4730.6386234581778
 21
4572.096140487587
 31
0.0
  0
SOLID
  5
5A06
  8
UMCL2
 10
4653.6386234581769
 20
4572.929473820921
 30
0.0
 11
4653.6386234581769
 21
4571.262807154254
 31
0.0
 12
4648.6386234581769
 22
4572.096140487587
 32
0.0
 13
4648.6386234581769
 23
4572.096140487587
 33
0.0
  0
SOLID
  5
5A07
  8
UMCL2
 10
4725.6386234581769
 20
4572.929473820921
 30
0.0
 11
4725.6386234581769
 21
4571.262807154254
 31
0.0
 12
4730.6386234581778
 22
4572.096140487587
 32
0.0
 13
4730.6386234581778
 23
4572.096140487587
 33
0.0
  0
CIRCLE
  5
5A08
  8
UMCL1
 10
4711.1386234581769
 20
4616.096140487587
 30
0.0
 40
5.0
  0
LINE
  5
5A09
  8
UMCL1
 10
4730.3386234581758
 20
4683.096140487587
 30
0.0
 11
4648.9386234581771
 21
4683.096140487587
 31
0.0
  0
LINE
  5
5A0A
  8
CEN
 10
4700.1386234581769
 20
4616.096140487587
 30
0.0
 11
4722.1386234581769
 21
4616.096140487587
 31
0.0
  0
LINE
  5
5A0B
  8
UMCL1
 10
4648.9386234581771
 20
4588.0961404875879
 30
0.0
 11
4730.3386234581758
 21
4588.0961404875879
 31
0.0
  0
LINE
  5
5A0C
  8
UMCL1
 10
4733.638623458176
 20
4673.0961404875889
 30
0.0
 11
4645.6386234581778
 21
4673.096140487587
 31
0.0
  0
LINE
  5
5A0D
  8
UMCL1
 10
4733.6386234581751
 20
4598.0961404875861
 30
0.0
 11
4645.6386234581778
 21
4598.0961404875861
 31
0.0
  0
LINE
  5
5A0E
  8
UMCL1
 10
4674.6386234581769
 20
4722.9961404875867
 30
0.0
 11
4674.6386234581778
 21
4686.9961404875867
 31
0.0
  0
LINE
  5
5A0F
  8
UMCL1
 10
4701.638623458176
 20
4725.4961404875876
 30
0.0
 11
4701.638623458176
 21
4684.9961404875867
 31
0.0
  0
LINE
  5
5A10
  8
UMCL1
 10
4677.6386234581769
 20
4725.4961404875876
 30
0.0
 11
4677.6386234581769
 21
4684.9961404875867
 31
0.0
  0
LINE
  5
5A11
  8
HIDDEN
 10
4681.6386234581769
 20
4722.9961404875867
 30
0.0
 11
4681.6386234581769
 21
4686.9961404875867
 31
0.0
  0
SOLID
  5
5A12
  8
UMCL2
 10
4631.8052901248439
 20
4691.9961404875876
 30
0.0
 11
4633.4719567915108
 21
4691.9961404875876
 31
0.0
 12
4632.638623458176
 22
4686.9961404875867
 32
0.0
 13
4632.638623458176
 23
4686.9961404875867
 33
0.0
  0
LINE
  5
5A13
  8
UMCL2
 10
4616.6386234581769
 20
4667.9423859499047
 30
0.0
 11
4616.6386234581769
 21
4725.9961404875867
 31
0.0
  0
LINE
  5
5A14
  8
UMCL2
 10
4632.638623458176
 20
4686.9961404875867
 30
0.0
 11
4632.638623458176
 21
4740.5555192618604
 31
0.0
  0
LINE
  5
5A15
  8
CEN
 10
4689.6386234581769
 20
4728.9961404875867
 30
0.0
 11
4689.6386234581769
 21
4585.0961404875879
 31
0.0
  0
LINE
  5
5A16
  8
UMCL2
 10
4646.4386234581771
 20
4683.096140487587
 30
0.0
 11
4614.1386234581769
 21
4683.096140487587
 31
0.0
  0
LINE
  5
5A17
  8
UMCL2
 10
4674.6206124775217
 20
4683.9961404875876
 30
0.0
 11
4614.1386234581769
 21
4683.9961404875876
 31
0.0
  0
LINE
  5
5A18
  8
UMCL2
 10
4672.6386234581778
 20
4686.9961404875867
 30
0.0
 11
4630.1386234581769
 21
4686.9961404875867
 31
0.0
  0
TEXT
  5
5A19
  8
UMCL2
 10
4614.2386234581763
 20
4670.4748967249006
 30
0.0
 40
6.0
  1
1
 50
90.0
 41
0.85
 51
15.0
  7
ROMANS
  0
SOLID
  5
5A1A
  8
UMCL2
 10
4615.8052901248439
 20
4688.9961404875876
 30
0.0
 11
4617.4719567915108
 21
4688.9961404875876
 31
0.0
 12
4616.6386234581769
 22
4683.9961404875876
 32
0.0
 13
4616.6386234581769
 23
4683.9961404875876
 33
0.0
  0
SOLID
  5
5A1B
  8
UMCL2
 10
4615.8052901248439
 20
4678.0961404875879
 30
0.0
 11
4617.4719567915108
 21
4678.0961404875879
 31
0.0
 12
4616.6386234581769
 22
4683.096140487587
 32
0.0
 13
4616.6386234581769
 23
4683.096140487587
 33
0.0
  0
LINE
  5
5A1C
  8
UMCL1
 10
4644.6386234581778
 20
4672.0961404875879
 30
0.0
 11
4644.6386234581778
 21
4599.0961404875879
 31
0.0
  0
LINE
  5
5A1D
  8
CEN
 10
4679.1386234581778
 20
4616.096140487587
 30
0.0
 11
4657.1386234581778
 21
4616.096140487587
 31
0.0
  0
POLYLINE
  5
5A1E
  8
UMCL1
 66
     1
 10
0.0
 20
0.0
 30
0.0
 70
     1
  0
VERTEX
  5
656D
  8
UMCL1
 10
4673.0461007462891
 20
4624.5961404875879
 30
0.0
  0
VERTEX
  5
656E
  8
UMCL1
 10
4677.9535780344013
 20
4616.096140487587
 30
0.0
  0
VERTEX
  5
656F
  8
UMCL1
 10
4673.0461007462891
 20
4607.5961404875879
 30
0.0
  0
VERTEX
  5
6570
  8
UMCL1
 10
4663.2311461700647
 20
4607.5961404875879
 30
0.0
  0
VERTEX
  5
6571
  8
UMCL1
 10
4658.3236688819534
 20
4616.096140487587
 30
0.0
  0
VERTEX
  5
6572
  8
UMCL1
 10
4663.2311461700647
 20
4624.5961404875879
 30
0.0
  0
SEQEND
  5
6573
  8
UMCL1
  0
CIRCLE
  5
5A1F
  8
UMCL1
 10
4668.1386234581778
 20
4616.096140487587
 30
0.0
 40
8.5
  0
LINE
  5
5A20
  8
CEN
 10
4668.1386234581778
 20
4627.0961404875879
 30
0.0
 11
4668.1386234581778
 21
4605.0961404875879
 31
0.0
  0
LINE
  5
5A21
  8
HIDDEN
 10
4650.6386234581769
 20
4598.096140487587
 30
0.0
 11
4650.6386234581769
 21
4613.0961404875879
 31
0.0
  0
LINE
  5
5A22
  8
HIDDEN
 10
4658.6386234581778
 20
4598.096140487587
 30
0.0
 11
4658.6386234581778
 21
4613.0961404875879
 31
0.0
  0
LINE
  5
5A23
  8
HIDDEN
 10
4651.3886234581769
 20
4598.096140487587
 30
0.0
 11
4651.3886234581769
 21
4617.0961404875879
 31
0.0
  0
LINE
  5
5A24
  8
HIDDEN
 10
4657.888623458176
 20
4598.096140487587
 30
0.0
 11
4657.888623458176
 21
4617.0961404875879
 31
0.0
  0
LINE
  5
5A25
  8
CEN
 10
4654.6386234581778
 20
4593.7288371999639
 30
0.0
 11
4654.6386234581778
 21
4623.5446544961942
 31
0.0
  0
LINE
  5
5A26
  8
UMCL1
 10
4648.6386234581769
 20
4597.7961404875869
 30
0.0
 11
4648.6386234581769
 21
4588.3961404875881
 31
0.0
  0
LINE
  5
5A27
  8
CEN
 10
4656.1386234581778
 20
4584.9286735851174
 30
0.0
 11
4656.1386234581778
 21
4603.1868297872934
 31
0.0
  0
LINE
  5
5A28
  8
UMCL1
 10
4648.9386234581771
 20
4588.0961404875879
 30
0.0
 11
4648.6386234581769
 21
4588.3961404875881
 31
0.0
  0
LINE
  5
5A29
  8
UMCL1
 10
4648.6386234581769
 20
4597.7961404875869
 30
0.0
 11
4648.9386234581771
 21
4598.096140487587
 31
0.0
  0
LINE
  5
5A2A
  8
UMCL1
 10
4645.6386234581778
 20
4598.096140487587
 30
0.0
 11
4644.6386234581778
 21
4599.0961404875879
 31
0.0
  0
LINE
  5
5A2B
  8
HIDDEN
 10
4650.6386234581769
 20
4613.0961404875879
 30
0.0
 11
4658.638623458176
 21
4613.0961404875879
 31
0.0
  0
LINE
  5
5A2C
  8
HIDDEN
 10
4651.3886234581769
 20
4617.0961404875879
 30
0.0
 11
4657.888623458176
 21
4617.0961404875879
 31
0.0
  0
LINE
  5
5A2D
  8
HIDDEN
 10
4657.888623458176
 20
4617.0961404875879
 30
0.0
 11
4654.638623458176
 21
4619.096140487587
 31
0.0
  0
LINE
  5
5A2E
  8
HIDDEN
 10
4654.638623458176
 20
4619.096140487587
 30
0.0
 11
4651.3886234581769
 21
4617.0961404875879
 31
0.0
  0
CIRCLE
  5
5A2F
  8
UMCL1
 10
4668.1386234581778
 20
4616.096140487587
 30
0.0
 40
5.0
  0
CIRCLE
  5
5A30
  8
UMCL1
 10
4668.1386234581778
 20
4616.096140487587
 30
0.0
 40
4.0
  0
ARC
  5
5A31
  8
UMCL1
 62
     2
 10
4668.1386234581778
 20
4616.096140487587
 30
0.0
 40
4.25
 50
331.27318810696659
 51
289.77677394721798
  0
POLYLINE
  5
5A32
  8
UMCL1
 66
     1
 10
0.0
 20
0.0
 30
0.0
 70
     1
  0
VERTEX
  5
6574
  8
UMCL1
 10
4665.6386234581769
 20
4617.539516160562
 30
0.0
  0
VERTEX
  5
6575
  8
UMCL1
 10
4668.1386234581778
 20
4618.9828918335352
 30
0.0
  0
VERTEX
  5
6576
  8
UMCL1
 10
4670.6386234581769
 20
4617.539516160562
 30
0.0
  0
VERTEX
  5
6577
  8
UMCL1
 10
4670.6386234581769
 20
4614.652764814613
 30
0.0
  0
VERTEX
  5
6578
  8
UMCL1
 10
4668.1386234581778
 20
4613.2093891416398
 30
0.0
  0
VERTEX
  5
6579
  8
UMCL1
 10
4665.6386234581769
 20
4614.652764814613
 30
0.0
  0
SEQEND
  5
657A
  8
UMCL1
  0
LINE
  5
5A33
  8
CEN
 10
4672.8919813114444
 20
4690.9961404875867
 30
0.0
 11
4683.8919813114444
 21
4690.9961404875867
 31
0.0
  0
LINE
  5
5A34
  8
HIDDEN
 10
4650.6386234581769
 20
4673.096140487587
 30
0.0
 11
4650.6386234581769
 21
4658.0961404875879
 31
0.0
  0
LINE
  5
5A35
  8
HIDDEN
 10
4658.6386234581778
 20
4673.096140487587
 30
0.0
 11
4658.6386234581778
 21
4658.0961404875879
 31
0.0
  0
LINE
  5
5A36
  8
HIDDEN
 10
4651.3886234581769
 20
4673.096140487587
 30
0.0
 11
4651.3886234581769
 21
4654.096140487587
 31
0.0
  0
LINE
  5
5A37
  8
HIDDEN
 10
4657.888623458176
 20
4673.096140487587
 30
0.0
 11
4657.888623458176
 21
4654.096140487587
 31
0.0
  0
LINE
  5
5A38
  8
CEN
 10
4654.6386234581778
 20
4677.463443775212
 30
0.0
 11
4654.6386234581778
 21
4647.6476264789808
 31
0.0
  0
LINE
  5
5A39
  8
HIDDEN
 10
4650.6386234581769
 20
4658.0961404875879
 30
0.0
 11
4658.638623458176
 21
4658.0961404875879
 31
0.0
  0
LINE
  5
5A3A
  8
HIDDEN
 10
4651.3886234581769
 20
4654.096140487587
 30
0.0
 11
4657.888623458176
 21
4654.096140487587
 31
0.0
  0
LINE
  5
5A3B
  8
HIDDEN
 10
4657.888623458176
 20
4654.096140487587
 30
0.0
 11
4654.638623458176
 21
4652.0961404875879
 31
0.0
  0
LINE
  5
5A3C
  8
HIDDEN
 10
4654.638623458176
 20
4652.0961404875879
 30
0.0
 11
4651.3886234581769
 21
4654.096140487587
 31
0.0
  0
LINE
  5
5A3D
  8
UMCL1
 10
4648.6386234581769
 20
4673.396140487589
 30
0.0
 11
4648.6386234581769
 21
4682.7961404875878
 31
0.0
  0
LINE
  5
5A3E
  8
CEN
 10
4656.1386234581778
 20
4686.2636073900594
 30
0.0
 11
4656.1386234581778
 21
4668.0054511878834
 31
0.0
  0
LINE
  5
5A3F
  8
UMCL1
 10
4648.6386234581769
 20
4673.396140487589
 30
0.0
 11
4648.9386234581771
 21
4673.096140487587
 31
0.0
  0
LINE
  5
5A40
  8
UMCL1
 10
4645.6386234581778
 20
4673.096140487587
 30
0.0
 11
4644.6386234581778
 21
4672.0961404875879
 31
0.0
  0
LINE
  5
5A41
  8
UMCL1
 10
4648.6386234581769
 20
4682.7961404875878
 30
0.0
 11
4648.9386234581771
 21
4683.096140487587
 31
0.0
  0
LINE
  5
5A42
  8
UMCL1
 10
4677.6386234581769
 20
4684.9961404875867
 30
0.0
 11
4701.638623458176
 21
4684.9961404875867
 31
0.0
  0
LINE
  5
5A43
  8
UMCL1
 10
4675.1386234581769
 20
4683.9961404875876
 30
0.0
 11
4704.1386234581769
 21
4683.9961404875876
 31
0.0
  0
LINE
  5
5A44
  8
UMCL1
 10
4704.638623458176
 20
4683.4961404875867
 30
0.0
 11
4674.6386234581769
 21
4683.4961404875867
 31
0.0
  0
LINE
  5
5A45
  8
HIDDEN
 10
4681.6386234581769
 20
4686.9961404875867
 30
0.0
 11
4677.6386234581769
 21
4686.9961404875867
 31
0.0
  0
LINE
  5
5A46
  8
UMCL1
 10
4677.6386234581769
 20
4686.9961404875867
 30
0.0
 11
4674.6386234581778
 21
4686.9961404875867
 31
0.0
  0
LINE
  5
5A47
  8
UMCL1
 10
4674.6386234581769
 20
4683.4961404875867
 30
0.0
 11
4674.6386234581769
 21
4683.096140487587
 31
0.0
  0
ARC
  5
5A48
  8
UMCL1
 10
4677.6386234581769
 20
4684.4961404875876
 30
0.0
 40
0.5
 50
270.0
 51
90.0
  0
LINE
  5
5A49
  8
UMCL1
 10
4674.6386234581769
 20
4683.4961404875867
 30
0.0
 11
4675.1386234581769
 21
4683.9961404875876
 31
0.0
  0
LINE
  5
5A4A
  8
UMCL1
 10
4704.638623458176
 20
4683.4961404875867
 30
0.0
 11
4704.638623458176
 21
4683.096140487587
 31
0.0
  0
ARC
  5
5A4B
  8
UMCL1
 10
4701.638623458176
 20
4684.4961404875876
 30
0.0
 40
0.5
 50
90.0
 51
270.0
  0
LINE
  5
5A4C
  8
UMCL1
 10
4704.638623458176
 20
4683.4961404875867
 30
0.0
 11
4704.1386234581769
 21
4683.9961404875876
 31
0.0
  0
LINE
  5
5A4D
  8
UMCL2
 10
4676.8686333735568
 20
4725.9961404875867
 30
0.0
 11
4614.1386234581769
 21
4725.9961404875867
 31
0.0
  0
LINE
  5
5A4E
  8
UMCL2
 10
4672.638623458176
 20
4722.9961404875867
 30
0.0
 11
4630.1386234581778
 21
4722.9961404875867
 31
0.0
  0
SOLID
  5
5A4F
  8
UMCL2
 10
4631.8052901248439
 20
4717.9961404875876
 30
0.0
 11
4633.4719567915108
 21
4717.9961404875876
 31
0.0
 12
4632.6386234581769
 22
4722.9961404875867
 32
0.0
 13
4632.6386234581769
 23
4722.9961404875867
 33
0.0
  0
TEXT
  5
5A50
  8
UMCL2
 10
4614.2386234581763
 20
4699.967449977903
 30
0.0
 40
6.0
  1
42
 50
90.0
 41
0.85
 51
15.0
  7
ROMANS
  0
TEXT
  5
5A51
  8
UMCL2
 10
4630.2386234581772
 20
4699.8228391678877
 30
0.0
 40
6.0
  1
36
 50
90.0
 41
0.85
 51
15.0
  7
ROMANS
  0
SOLID
  5
5A52
  8
UMCL2
 10
4615.8052901248439
 20
4720.9961404875876
 30
0.0
 11
4617.4719567915108
 21
4720.9961404875876
 31
0.0
 12
4616.6386234581769
 22
4725.9961404875867
 32
0.0
 13
4616.6386234581769
 23
4725.9961404875867
 33
0.0
  0
SOLID
  5
5A53
  8
UMCL2
 10
4631.8052901248439
 20
4730.9961404875876
 30
0.0
 11
4633.4719567915108
 21
4730.9961404875876
 31
0.0
 12
4632.638623458176
 22
4725.9961404875876
 32
0.0
 13
4632.638623458176
 23
4725.9961404875876
 33
0.0
  0
TEXT
  5
5A54
  8
UMCL2
 10
4630.2386234581772
 20
4732.9715025670066
 30
0.0
 40
6.0
  1
3
 50
90.0
 41
0.85
 51
15.0
  7
ROMANS
  0
LINE
  5
5A55
  8
CEN
 10
4672.8919813114444
 20
4718.9961404875867
 30
0.0
 11
4683.8919813114444
 21
4718.9961404875867
 31
0.0
  0
LINE
  5
5A56
  8
HIDDEN
 10
4685.6386234581769
 20
4725.9961404875867
 30
0.0
 11
4685.6386234581769
 21
4709.9961404875876
 31
0.0
  0
LINE
  5
5A57
  8
HIDDEN
 10
4693.6386234581778
 20
4725.9961404875867
 30
0.0
 11
4693.6386234581778
 21
4709.9961404875876
 31
0.0
  0
LINE
  5
5A58
  8
HIDDEN
 10
4686.3886234581769
 20
4725.9961404875867
 30
0.0
 11
4686.3886234581769
 21
4705.9961404875867
 31
0.0
  0
LINE
  5
5A59
  8
HIDDEN
 10
4692.888623458176
 20
4725.9961404875867
 30
0.0
 11
4692.888623458176
 21
4705.9961404875867
 31
0.0
  0
LINE
  5
5A5A
  8
HIDDEN
 10
4685.6386234581769
 20
4709.9961404875876
 30
0.0
 11
4693.638623458176
 21
4709.9961404875876
 31
0.0
  0
LINE
  5
5A5B
  8
HIDDEN
 10
4692.888623458176
 20
4705.9961404875867
 30
0.0
 11
4689.6386234581769
 21
4703.9961404875867
 31
0.0
  0
LINE
  5
5A5C
  8
HIDDEN
 10
4686.3886234581769
 20
4705.9961404875867
 30
0.0
 11
4692.888623458176
 21
4705.9961404875867
 31
0.0
  0
LINE
  5
5A5D
  8
HIDDEN
 10
4689.6386234581769
 20
4703.9961404875867
 30
0.0
 11
4686.3886234581769
 21
4705.9961404875867
 31
0.0
  0
LINE
  5
5A5E
  8
UMCL2
 10
4674.6386234581769
 20
4741.9961404875876
 30
0.0
 11
4701.638623458176
 21
4741.9961404875876
 31
0.0
  0
LINE
  5
5A5F
  8
UMCL1
 10
4701.638623458176
 20
4725.4961404875876
 30
0.0
 11
4677.6386234581769
 21
4725.4961404875876
 31
0.0
  0
LINE
  5
5A60
  8
UMCL1
 10
4678.1386234581769
 20
4725.9961404875867
 30
0.0
 11
4701.138623458176
 21
4725.9961404875867
 31
0.0
  0
SOLID
  5
5A61
  8
UMCL2
 10
4692.3961443363451
 20
4728.6132388056631
 30
0.0
 11
4693.0958777974411
 21
4727.5774429360908
 31
0.0
 12
4689.6386234581769
 22
4725.9961404875867
 32
0.0
 13
4689.6386234581769
 23
4725.9961404875867
 33
0.0
  0
LINE
  5
5A62
  8
UMCL2
 10
4674.6386234581769
 20
4724.4533635598073
 30
0.0
 11
4674.6386234581769
 21
4743.9961404875867
 31
0.0
  0
LINE
  5
5A63
  8
HIDDEN
 10
4681.6386234581769
 20
4722.9961404875867
 30
0.0
 11
4677.6386234581769
 21
4722.9961404875867
 31
0.0
  0
LINE
  5
5A64
  8
UMCL1
 10
4677.6386234581769
 20
4722.9961404875867
 30
0.0
 11
4674.6386234581778
 21
4722.9961404875867
 31
0.0
  0
LINE
  5
5A65
  8
UMCL1
 10
4678.1386234581769
 20
4725.9961404875867
 30
0.0
 11
4677.6386234581769
 21
4725.4961404875876
 31
0.0
  0
SOLID
  5
5A66
  8
UMCL2
 10
4679.6386234581769
 20
4742.8294738209206
 30
0.0
 11
4679.6386234581769
 21
4741.1628071542536
 31
0.0
 12
4674.6386234581769
 22
4741.9961404875876
 32
0.0
 13
4674.6386234581769
 23
4741.9961404875876
 33
0.0
  0
LINE
  5
5A67
  8
UMCL2
 10
4701.638623458176
 20
4727.4961404875867
 30
0.0
 11
4701.638623458176
 21
4743.9961404875867
 31
0.0
  0
LINE
  5
5A68
  8
UMCL1
 10
4701.638623458176
 20
4725.4961404875876
 30
0.0
 11
4701.138623458176
 21
4725.9961404875867
 31
0.0
  0
SOLID
  5
5A69
  8
UMCL2
 10
4696.638623458176
 20
4742.8294738209206
 30
0.0
 11
4696.638623458176
 21
4741.1628071542536
 31
0.0
 12
4701.638623458176
 22
4741.9961404875876
 32
0.0
 13
4701.638623458176
 23
4741.9961404875876
 33
0.0
  0
LINE
  5
5A6A
  8
UMCL1
 10
4734.638623458176
 20
4672.0961404875879
 30
0.0
 11
4734.638623458176
 21
4599.0961404875879
 31
0.0
  0
LINE
  5
5A6B
  8
CEN
 10
4711.1386234581769
 20
4627.0961404875879
 30
0.0
 11
4711.1386234581769
 21
4605.0961404875879
 31
0.0
  0
LINE
  5
5A6C
  8
HIDDEN
 10
4721.3886234581769
 20
4598.096140487587
 30
0.0
 11
4721.3886234581769
 21
4617.0961404875879
 31
0.0
  0
LINE
  5
5A6D
  8
HIDDEN
 10
4727.8886234581769
 20
4598.096140487587
 30
0.0
 11
4727.8886234581769
 21
4617.0961404875879
 31
0.0
  0
LINE
  5
5A6E
  8
HIDDEN
 10
4720.6386234581769
 20
4598.096140487587
 30
0.0
 11
4720.6386234581769
 21
4613.0961404875879
 31
0.0
  0
LINE
  5
5A6F
  8
HIDDEN
 10
4728.6386234581769
 20
4598.096140487587
 30
0.0
 11
4728.6386234581769
 21
4613.0961404875879
 31
0.0
  0
LINE
  5
5A70
  8
CEN
 10
4724.6386234581778
 20
4593.7288371999639
 30
0.0
 11
4724.6386234581778
 21
4623.5446544961942
 31
0.0
  0
LINE
  5
5A71
  8
UMCL1
 10
4730.6386234581769
 20
4597.7961404875869
 30
0.0
 11
4730.6386234581769
 21
4588.3961404875881
 31
0.0
  0
LINE
  5
5A72
  8
CEN
 10
4723.1386234581769
 20
4584.9286735851174
 30
0.0
 11
4723.1386234581769
 21
4603.1868297872916
 31
0.0
  0
LINE
  5
5A73
  8
UMCL1
 10
4730.6386234581769
 20
4588.3961404875881
 30
0.0
 11
4730.3386234581758
 21
4588.0961404875879
 31
0.0
  0
LINE
  5
5A74
  8
UMCL1
 10
4730.6386234581769
 20
4597.7961404875869
 30
0.0
 11
4730.3386234581776
 21
4598.096140487587
 31
0.0
  0
LINE
  5
5A75
  8
UMCL1
 10
4733.638623458176
 20
4598.096140487587
 30
0.0
 11
4734.638623458176
 21
4599.0961404875879
 31
0.0
  0
LINE
  5
5A76
  8
HIDDEN
 10
4721.3886234581769
 20
4617.0961404875879
 30
0.0
 11
4724.6386234581778
 21
4619.096140487587
 31
0.0
  0
LINE
  5
5A77
  8
HIDDEN
 10
4727.8886234581769
 20
4617.0961404875879
 30
0.0
 11
4721.3886234581769
 21
4617.0961404875879
 31
0.0
  0
LINE
  5
5A78
  8
HIDDEN
 10
4728.6386234581769
 20
4613.0961404875879
 30
0.0
 11
4720.6386234581769
 21
4613.0961404875879
 31
0.0
  0
ARC
  5
5A79
  8
UMCL1
 62
     2
 10
4711.1386234581769
 20
4616.096140487587
 30
0.0
 40
4.25
 50
250.223226052782
 51
208.72681189303341
  0
CIRCLE
  5
5A7A
  8
UMCL1
 10
4711.1386234581769
 20
4616.096140487587
 30
0.0
 40
4.0
  0
POLYLINE
  5
5A7B
  8
UMCL1
 66
     1
 10
0.0
 20
0.0
 30
0.0
 70
     1
  0
VERTEX
  5
657B
  8
UMCL1
 10
4713.6386234581769
 20
4617.539516160562
 30
0.0
  0
VERTEX
  5
657C
  8
UMCL1
 10
4711.1386234581769
 20
4618.9828918335352
 30
0.0
  0
VERTEX
  5
657D
  8
UMCL1
 10
4708.6386234581769
 20
4617.539516160562
 30
0.0
  0
VERTEX
  5
657E
  8
UMCL1
 10
4708.6386234581769
 20
4614.652764814613
 30
0.0
  0
VERTEX
  5
657F
  8
UMCL1
 10
4711.1386234581769
 20
4613.2093891416398
 30
0.0
  0
VERTEX
  5
6580
  8
UMCL1
 10
4713.6386234581769
 20
4614.652764814613
 30
0.0
  0
SEQEND
  5
6581
  8
UMCL1
  0
LINE
  5
5A7C
  8
HIDDEN
 10
4724.6386234581778
 20
4619.096140487587
 30
0.0
 11
4727.8886234581769
 21
4617.0961404875879
 31
0.0
  0
LINE
  5
5A7D
  8
HIDDEN
 10
4728.6386234581769
 20
4673.096140487587
 30
0.0
 11
4728.6386234581769
 21
4658.0961404875879
 31
0.0
  0
LINE
  5
5A7E
  8
HIDDEN
 10
4720.6386234581769
 20
4673.096140487587
 30
0.0
 11
4720.6386234581769
 21
4658.0961404875879
 31
0.0
  0
LINE
  5
5A7F
  8
HIDDEN
 10
4727.8886234581769
 20
4673.096140487587
 30
0.0
 11
4727.8886234581769
 21
4654.096140487587
 31
0.0
  0
LINE
  5
5A80
  8
HIDDEN
 10
4721.3886234581769
 20
4673.096140487587
 30
0.0
 11
4721.3886234581769
 21
4654.096140487587
 31
0.0
  0
LINE
  5
5A81
  8
CEN
 10
4724.6386234581778
 20
4677.463443775212
 30
0.0
 11
4724.6386234581778
 21
4647.6476264789808
 31
0.0
  0
LINE
  5
5A82
  8
HIDDEN
 10
4728.6386234581769
 20
4658.0961404875879
 30
0.0
 11
4720.6386234581769
 21
4658.0961404875879
 31
0.0
  0
LINE
  5
5A83
  8
HIDDEN
 10
4727.8886234581769
 20
4654.096140487587
 30
0.0
 11
4721.3886234581769
 21
4654.096140487587
 31
0.0
  0
LINE
  5
5A84
  8
HIDDEN
 10
4721.3886234581769
 20
4654.096140487587
 30
0.0
 11
4724.6386234581778
 21
4652.0961404875879
 31
0.0
  0
LINE
  5
5A85
  8
HIDDEN
 10
4724.6386234581778
 20
4652.0961404875879
 30
0.0
 11
4727.8886234581769
 21
4654.096140487587
 31
0.0
  0
LINE
  5
5A86
  8
UMCL1
 10
4730.6386234581769
 20
4673.396140487589
 30
0.0
 11
4730.6386234581769
 21
4682.7961404875878
 31
0.0
  0
LINE
  5
5A87
  8
CEN
 10
4723.1386234581769
 20
4686.2636073900594
 30
0.0
 11
4723.1386234581769
 21
4668.0054511878834
 31
0.0
  0
LINE
  5
5A88
  8
UMCL1
 10
4730.6386234581769
 20
4673.396140487589
 30
0.0
 11
4730.3386234581776
 21
4673.096140487587
 31
0.0
  0
LINE
  5
5A89
  8
UMCL1
 10
4733.638623458176
 20
4673.096140487587
 30
0.0
 11
4734.638623458176
 21
4672.0961404875879
 31
0.0
  0
LINE
  5
5A8A
  8
UMCL1
 10
4730.6386234581769
 20
4682.7961404875878
 30
0.0
 11
4730.3386234581776
 21
4683.096140487587
 31
0.0
  0
LINE
  5
5A8B
  8
UMCL2
 10
5050.4641455226474
 20
4683.096140487587
 30
0.0
 11
5084.413539462741
 21
4683.096140487587
 31
0.0
  0
LINE
  5
5A8C
  8
UMCL2
 10
4954.003539462743
 20
4657.6656653007749
 30
0.0
 11
4901.9268338770871
 21
4657.6656653007749
 31
0.0
  0
LINE
  5
5A8D
  8
UMCL2
 10
4950.4147902499308
 20
4652.1656653007749
 30
0.0
 11
4918.413539462741
 21
4652.1656653007749
 31
0.0
  0
LINE
  5
5A8E
  8
CEN
 10
4937.4135394627419
 20
4635.5961404875879
 30
0.0
 11
5053.0957036686877
 21
4635.5961404875879
 31
0.0
  0
LINE
  5
5A8F
  8
UMCL1
  6
CENTER
 62
     3
 10
4952.8208777600221
 20
4616.096294177195
 30
0.0
 11
4929.5969563921062
 21
4616.096294177195
 31
0.0
  0
LINE
  5
5A90
  8
UMCL1
 10
4932.4135394627419
 20
4607.5962941771941
 30
0.0
 11
4940.4135394627419
 21
4607.5962941771941
 31
0.0
  0
LINE
  5
5A91
  8
UMCL1
 10
4933.1727288412967
 20
4616.096294177195
 30
0.0
 11
4939.6543500841863
 21
4616.096294177195
 31
0.0
  0
LINE
  5
5A92
  8
UMCL1
 10
4932.4135394627419
 20
4624.5962941771941
 30
0.0
 11
4940.4135394627419
 21
4624.5962941771941
 31
0.0
  0
LINE
  5
5A93
  8
UMCL2
 10
4954.003539462743
 20
4613.6656653007758
 30
0.0
 11
4901.9268338770871
 21
4613.6656653007758
 31
0.0
  0
LINE
  5
5A94
  8
UMCL2
 10
4950.4147902499308
 20
4619.1656653007749
 30
0.0
 11
4918.413539462741
 21
4619.1656653007749
 31
0.0
  0
TEXT
  5
5A95
  8
UMCL2
 10
4918.0135394627414
 20
4632.1830851625191
 30
0.0
 40
6.0
  1
33
 50
90.0
 41
0.85
 51
15.0
  7
ROMANS
  0
TEXT
  5
5A96
  8
UMCL2
 10
4901.5268338770884
 20
4632.361291036339
 30
0.0
 40
6.0
  1
44
 50
90.0
 41
0.85
 51
15.0
  7
ROMANS
  0
LINE
  5
5A97
  8
UMCL2
 10
4903.926833877088
 20
4657.6656653007749
 30
0.0
 11
4903.926833877088
 21
4613.6656653007758
 31
0.0
  0
LINE
  5
5A98
  8
UMCL2
 10
4920.413539462741
 20
4652.1656653007749
 30
0.0
 11
4920.413539462741
 21
4619.1656653007749
 31
0.0
  0
SOLID
  5
5A99
  8
UMCL2
 10
4904.8501672104221
 20
4618.6656653007758
 30
0.0
 11
4903.1835005437542
 21
4618.6656653007758
 31
0.0
 12
4904.0168338770882
 22
4613.6656653007758
 32
0.0
 13
4904.0168338770882
 23
4613.6656653007758
 33
0.0
  0
LINE
  5
5A9A
  8
UMCL2
 10
4896.0605030304168
 20
4625.969685326264
 30
0.0
 11
4896.0605030304168
 21
4630.7969982766144
 31
0.0
  0
LINE
  5
5A9B
  8
UMCL2
 10
4896.0605030304168
 20
4630.7969982766144
 30
0.0
 11
4900.9220697806204
 21
4630.7969982766144
 31
0.0
  0
LINE
  5
5A9C
  8
UMCL2
 10
4900.9220697806204
 20
4630.7969982766144
 30
0.0
 11
4900.9220697806204
 21
4625.969685326264
 31
0.0
  0
LINE
  5
5A9D
  8
UMCL2
 10
4900.9220697806204
 20
4625.969685326264
 30
0.0
 11
4896.0605030304168
 21
4625.969685326264
 31
0.0
  0
LINE
  5
5A9E
  8
UMCL2
 10
4912.5472086160698
 20
4625.1013320717602
 30
0.0
 11
4912.5472086160698
 21
4629.9286450221089
 31
0.0
  0
LINE
  5
5A9F
  8
UMCL2
 10
4912.5472086160698
 20
4629.9286450221089
 30
0.0
 11
4917.4087753662752
 21
4629.9286450221089
 31
0.0
  0
LINE
  5
5AA0
  8
UMCL2
 10
4917.4087753662752
 20
4629.9286450221089
 30
0.0
 11
4917.4087753662752
 21
4625.1013320717602
 31
0.0
  0
LINE
  5
5AA1
  8
UMCL2
 10
4917.4087753662752
 20
4625.1013320717602
 30
0.0
 11
4912.5472086160698
 21
4625.1013320717602
 31
0.0
  0
SOLID
  5
5AA2
  8
UMCL2
 10
4921.246872796075
 20
4624.165665300774
 30
0.0
 11
4919.580206129408
 21
4624.165665300774
 31
0.0
 12
4920.413539462741
 22
4619.1656653007749
 32
0.0
 13
4920.413539462741
 23
4619.1656653007749
 33
0.0
  0
ARC
  5
5AA3
  8
UMCL1
 10
4944.689046101149
 20
4620.346294177195
 30
0.0
 40
12.275506638406471
 50
159.7438419996069
 51
200.25615800039299
  0
LINE
  5
5AA4
  8
UMCL1
 10
4932.4135394627419
 20
4607.5962941771941
 30
0.0
 11
4932.4135394627419
 21
4624.5962941771941
 31
0.0
  0
ARC
  5
5AA5
  8
UMCL1
 10
4944.689046101149
 20
4611.846294177195
 30
0.0
 40
12.275506638406471
 50
159.7438419996069
 51
200.25615800039299
  0
SOLID
  5
5AA6
  8
UMCL2
 10
4904.7601672104211
 20
4652.6656653007758
 30
0.0
 11
4903.093500543755
 21
4652.6656653007758
 31
0.0
 12
4903.926833877088
 22
4657.6656653007749
 32
0.0
 13
4903.926833877088
 23
4657.6656653007749
 33
0.0
  0
SOLID
  5
5AA7
  8
UMCL2
 10
4921.246872796075
 20
4647.165665300774
 30
0.0
 11
4919.580206129408
 21
4647.165665300774
 31
0.0
 12
4920.413539462741
 22
4652.1656653007749
 32
0.0
 13
4920.413539462741
 23
4652.1656653007749
 33
0.0
  0
LINE
  5
5AA8
  8
HIDDEN
 10
5011.9135394627419
 20
4726.096140487587
 30
0.0
 11
5011.9135394627419
 21
4690.9961404875867
 31
0.0
  0
LINE
  5
5AA9
  8
UMCL1
 10
5019.913539462741
 20
4725.5961404875879
 30
0.0
 11
5019.913539462741
 21
4684.9961404875867
 31
0.0
  0
TEXT
  5
5AAA
  8
UMCL2
 10
5064.0135394627423
 20
4687.1701520698807
 30
0.0
 40
6.0
  1
10
 50
90.0
 41
0.85
 51
15.0
  7
ROMANS
  0
LINE
  5
5AAB
  8
HIDDEN
 10
5003.9135394627419
 20
4726.096140487587
 30
0.0
 11
5003.9135394627419
 21
4690.9961404875867
 31
0.0
  0
LINE
  5
5AAC
  8
UMCL1
 10
4995.9135394627419
 20
4725.5961404875879
 30
0.0
 11
4995.9135394627419
 21
4684.9961404875867
 31
0.0
  0
LINE
  5
5AAD
  8
CEN
 10
5007.9135394627419
 20
4729.096140487587
 30
0.0
 11
5007.9135394627419
 21
4585.0961404875879
 31
0.0
  0
LINE
  5
5AAE
  8
CEN
 10
4985.0035394627412
 20
4652.1656653007758
 30
0.0
 11
5004.0035394627421
 21
4652.1656653007758
 31
0.0
  0
LINE
  5
5AAF
  8
UMCL1
 10
5048.6135394627418
 20
4683.096140487587
 30
0.0
 11
4967.213539462743
 21
4683.096140487587
 31
0.0
  0
LINE
  5
5AB0
  8
UMCL1
 10
5049.413539462741
 20
4673.0961404875889
 30
0.0
 11
4941.4135394627419
 21
4673.096140487587
 31
0.0
  0
LINE
  5
5AB1
  8
UMCL1
 10
5022.913539462741
 20
4683.4961404875867
 30
0.0
 11
4992.9135394627419
 21
4683.4961404875867
 31
0.0
  0
LINE
  5
5AB2
  8
UMCL1
 10
4993.4135394627419
 20
4683.9961404875876
 30
0.0
 11
5022.4135394627419
 21
4683.9961404875876
 31
0.0
  0
LINE
  5
5AB3
  8
UMCL1
 10
4995.9135394627419
 20
4684.9961404875867
 30
0.0
 11
5019.913539462741
 21
4684.9961404875867
 31
0.0
  0
LINE
  5
5AB4
  8
CEN
 10
5002.4135394627419
 20
4690.9961404875867
 30
0.0
 11
5013.4135394627419
 21
4690.9961404875867
 31
0.0
  0
ARC
  5
5AB5
  8
HIDDEN
 10
5007.9135394627419
 20
4690.9961404875867
 30
0.0
 40
4.0
 50
180.0
 51
0.0
  0
LINE
  5
5AB6
  8
CEN
 10
5004.0035394627421
 20
4619.1656653007749
 30
0.0
 11
4985.0035394627412
 21
4619.1656653007749
 31
0.0
  0
LINE
  5
5AB7
  8
UMCL1
 10
5049.4135394627392
 20
4598.0961404875861
 30
0.0
 11
4941.4135394627401
 21
4598.096140487587
 31
0.0
  0
LINE
  5
5AB8
  8
UMCL1
 10
4967.2135394627412
 20
4588.0961404875879
 30
0.0
 11
5048.6135394627418
 21
4588.0961404875879
 31
0.0
  0
ARC
  5
5AB9
  8
UMCL1
 10
4941.4135394627401
 20
4635.5961404875879
 30
0.0
 40
1.5
 50
131.81031489579831
 51
228.18968510420169
  0
LINE
  5
5ABA
  8
CEN
 10
4977.9135394627419
 20
4668.8264686798238
 30
0.0
 11
4977.9135394627419
 21
4609.6656653007749
 31
0.0
  0
LINE
  5
5ABB
  8
UMCL1
 10
4940.4135394627419
 20
4672.0961404875879
 30
0.0
 11
4940.413539462741
 21
4599.0961404875879
 31
0.0
  0
LINE
  5
5ABC
  8
CEN
 10
4961.5035394627412
 20
4610.0769160879654
 30
0.0
 11
4961.5035394627412
 21
4628.2544145135853
 31
0.0
  0
LINE
  5
5ABD
  8
UMCL1
 10
4940.413539462741
 20
4599.0961404875879
 30
0.0
 11
4941.4135394627401
 21
4598.096140487587
 31
0.0
  0
LINE
  5
5ABE
  8
UMCL1
 10
4966.913539462741
 20
4597.7961404875869
 30
0.0
 11
4966.913539462741
 21
4588.3961404875881
 31
0.0
  0
LINE
  5
5ABF
  8
UMCL1
 10
4967.2135394627412
 20
4588.0961404875879
 30
0.0
 11
4966.913539462741
 21
4588.3961404875881
 31
0.0
  0
LINE
  5
5AC0
  8
UMCL1
 10
4966.913539462741
 20
4597.7961404875869
 30
0.0
 11
4967.2135394627412
 21
4598.096140487587
 31
0.0
  0
LINE
  5
5AC1
  8
CEN
 10
4952.4147902499308
 20
4619.1656653007749
 30
0.0
 11
4970.5922886755498
 21
4619.1656653007749
 31
0.0
  0
ARC
  5
5AC2
  8
UMCL1
 10
4928.1380328243349
 20
4620.346294177195
 30
0.0
 40
12.27550663840649
 50
339.74384199960701
 51
20.256158000393039
  0
ARC
  5
5AC3
  8
UMCL1
 10
4928.1380328243349
 20
4611.846294177195
 30
0.0
 40
12.27550663840649
 50
339.74384199960701
 51
20.256158000393039
  0
LINE
  5
5AC4
  8
CEN
 10
4974.4135394627419
 20
4584.9286735851174
 30
0.0
 11
4974.4135394627428
 21
4603.1868297872934
 31
0.0
  0
LINE
  5
5AC5
  8
CEN
 10
4961.5035394627412
 20
4643.0769160879663
 30
0.0
 11
4961.5035394627412
 21
4661.2544145135853
 31
0.0
  0
LINE
  5
5AC6
  8
CEN
 10
4952.4147902499308
 20
4652.1656653007749
 30
0.0
 11
4970.5922886755507
 21
4652.1656653007749
 31
0.0
  0
LINE
  5
5AC7
  8
UMCL1
 10
4940.4135394627419
 20
4672.0961404875879
 30
0.0
 11
4941.4135394627419
 21
4673.096140487587
 31
0.0
  0
LINE
  5
5AC8
  8
UMCL1
 10
4966.913539462741
 20
4673.396140487589
 30
0.0
 11
4966.913539462741
 21
4682.7961404875878
 31
0.0
  0
LINE
  5
5AC9
  8
UMCL1
 10
4966.913539462741
 20
4682.7961404875878
 30
0.0
 11
4967.213539462743
 21
4683.096140487587
 31
0.0
  0
LINE
  5
5ACA
  8
UMCL2
 10
4977.8235394627409
 20
4635.5961404875879
 30
0.0
 11
4978.0035394627421
 21
4635.5961404875879
 31
0.0
  0
LINE
  5
5ACB
  8
UMCL2
 10
4977.9135394627419
 20
4635.5061404875878
 30
0.0
 11
4977.9135394627419
 21
4635.6861404875881
 31
0.0
  0
LINE
  5
5ACC
  8
CEN
 10
4974.4135394627419
 20
4686.2636073900594
 30
0.0
 11
4974.4135394627428
 21
4668.0054511878834
 31
0.0
  0
ARC
  5
5ACD
  8
UMCL1
 10
4995.9135394627419
 20
4684.4961404875876
 30
0.0
 40
0.5
 50
270.0
 51
90.0
  0
LINE
  5
5ACE
  8
UMCL1
 10
4992.9135394627419
 20
4683.4961404875867
 30
0.0
 11
4993.4135394627419
 21
4683.9961404875876
 31
0.0
  0
LINE
  5
5ACF
  8
UMCL1
 10
4992.9135394627419
 20
4683.4961404875867
 30
0.0
 11
4992.9135394627419
 21
4683.096140487587
 31
0.0
  0
TEXT
  5
5AD0
  8
UMCL2
 10
5064.0135394627423
 20
4629.6160747565673
 30
0.0
 40
6.0
  1
75
 50
90.0
 41
0.85
 51
15.0
  7
ROMANS
  0
LINE
  5
5AD1
  8
UMCL1
 10
5050.413539462741
 20
4672.0961404875879
 30
0.0
 11
5050.413539462741
 21
4599.0961404875879
 31
0.0
  0
CIRCLE
  5
5AD2
  8
UMCL1
 10
5029.413539462741
 20
4616.096140487587
 30
0.0
 40
8.5
  0
POLYLINE
  5
5AD3
  8
UMCL1
 66
     1
 10
0.0
 20
0.0
 30
0.0
 70
     1
  0
VERTEX
  5
6582
  8
UMCL1
 10
5024.5060621746297
 20
4624.5961404875879
 30
0.0
  0
VERTEX
  5
6583
  8
UMCL1
 10
5019.5985848865184
 20
4616.096140487587
 30
0.0
  0
VERTEX
  5
6584
  8
UMCL1
 10
5024.5060621746297
 20
4607.5961404875879
 30
0.0
  0
VERTEX
  5
6585
  8
UMCL1
 10
5034.3210167508532
 20
4607.5961404875879
 30
0.0
  0
VERTEX
  5
6586
  8
UMCL1
 10
5039.2284940389654
 20
4616.096140487587
 30
0.0
  0
VERTEX
  5
6587
  8
UMCL1
 10
5034.3210167508532
 20
4624.5961404875879
 30
0.0
  0
SEQEND
  5
6588
  8
UMCL1
  0
LINE
  5
5AD4
  8
CEN
 10
5018.413539462741
 20
4616.096140487587
 30
0.0
 11
5040.4135394627419
 21
4616.096140487587
 31
0.0
  0
LINE
  5
5AD5
  8
CEN
 10
5029.413539462741
 20
4627.0961404875879
 30
0.0
 11
5029.413539462741
 21
4605.0961404875879
 31
0.0
  0
LINE
  5
5AD6
  8
CEN
 10
4994.5035394627421
 20
4628.6656653007749
 30
0.0
 11
4994.5035394627421
 21
4609.6656653007749
 31
0.0
  0
ARC
  5
5AD7
  8
UMCL1
 62
     2
 10
5029.413539462741
 20
4616.096140487587
 30
0.0
 40
4.25
 50
250.223226052782
 51
208.72681189303341
  0
CIRCLE
  5
5AD8
  8
UMCL1
 10
5029.413539462741
 20
4616.096140487587
 30
0.0
 40
4.0
  0
POLYLINE
  5
5AD9
  8
UMCL1
 66
     1
 10
0.0
 20
0.0
 30
0.0
 70
     1
  0
VERTEX
  5
6589
  8
UMCL1
 10
5031.9135394627419
 20
4617.539516160562
 30
0.0
  0
VERTEX
  5
658A
  8
UMCL1
 10
5029.413539462741
 20
4618.9828918335352
 30
0.0
  0
VERTEX
  5
658B
  8
UMCL1
 10
5026.9135394627419
 20
4617.539516160562
 30
0.0
  0
VERTEX
  5
658C
  8
UMCL1
 10
5026.9135394627419
 20
4614.652764814613
 30
0.0
  0
VERTEX
  5
658D
  8
UMCL1
 10
5029.413539462741
 20
4613.2093891416398
 30
0.0
  0
VERTEX
  5
658E
  8
UMCL1
 10
5031.9135394627419
 20
4614.652764814613
 30
0.0
  0
SEQEND
  5
658F
  8
UMCL1
  0
CIRCLE
  5
5ADA
  8
UMCL1
 10
5029.413539462741
 20
4616.096140487587
 30
0.0
 40
5.0
  0
LINE
  5
5ADB
  8
HIDDEN
 10
5046.9135394627419
 20
4598.096140487587
 30
0.0
 11
5046.9135394627419
 21
4613.0961404875879
 31
0.0
  0
LINE
  5
5ADC
  8
HIDDEN
 10
5038.913539462741
 20
4598.096140487587
 30
0.0
 11
5038.913539462741
 21
4613.0961404875879
 31
0.0
  0
LINE
  5
5ADD
  8
HIDDEN
 10
5046.1635394627419
 20
4598.096140487587
 30
0.0
 11
5046.1635394627419
 21
4617.0961404875879
 31
0.0
  0
LINE
  5
5ADE
  8
HIDDEN
 10
5039.6635394627419
 20
4598.096140487587
 30
0.0
 11
5039.6635394627419
 21
4617.0961404875879
 31
0.0
  0
LINE
  5
5ADF
  8
CEN
 10
5042.913539462741
 20
4593.7288371999639
 30
0.0
 11
5042.913539462741
 21
4623.5446544961942
 31
0.0
  0
LINE
  5
5AE0
  8
UMCL2
 10
5052.413539462741
 20
4598.0961404875861
 30
0.0
 11
5068.413539462741
 21
4598.0961404875861
 31
0.0
  0
LINE
  5
5AE1
  8
UMCL1
 10
5048.913539462741
 20
4597.7961404875869
 30
0.0
 11
5048.913539462741
 21
4588.3961404875881
 31
0.0
  0
LINE
  5
5AE2
  8
CEN
 10
5041.413539462741
 20
4584.9286735851174
 30
0.0
 11
5041.413539462741
 21
4603.1868297872916
 31
0.0
  0
LINE
  5
5AE3
  8
UMCL1
 10
5048.913539462741
 20
4588.3961404875881
 30
0.0
 11
5048.6135394627418
 21
4588.0961404875879
 31
0.0
  0
LINE
  5
5AE4
  8
UMCL1
 10
5048.913539462741
 20
4597.7961404875869
 30
0.0
 11
5048.6135394627408
 21
4598.0961404875861
 31
0.0
  0
LINE
  5
5AE5
  8
UMCL1
 10
5049.413539462741
 20
4598.096140487587
 30
0.0
 11
5050.413539462741
 21
4599.0961404875879
 31
0.0
  0
SOLID
  5
5AE6
  8
UMCL2
 10
5065.580206129408
 20
4583.096140487587
 30
0.0
 11
5067.246872796075
 21
4583.096140487587
 31
0.0
 12
5066.4135394627401
 22
4588.096140487587
 32
0.0
 13
5066.4135394627401
 23
4588.096140487587
 33
0.0
  0
SOLID
  5
5AE7
  8
UMCL2
 10
5065.580206129408
 20
4603.096140487587
 30
0.0
 11
5067.246872796075
 21
4603.096140487587
 31
0.0
 12
5066.4135394627401
 22
4598.0961404875861
 32
0.0
 13
5066.4135394627401
 23
4598.0961404875861
 33
0.0
  0
LINE
  5
5AE8
  8
HIDDEN
 10
5042.9135394627419
 20
4619.096140487587
 30
0.0
 11
5046.1635394627419
 21
4617.0961404875879
 31
0.0
  0
LINE
  5
5AE9
  8
HIDDEN
 10
5046.163539462741
 20
4617.0961404875879
 30
0.0
 11
5039.6635394627419
 21
4617.0961404875879
 31
0.0
  0
LINE
  5
5AEA
  8
HIDDEN
 10
5046.9135394627419
 20
4613.0961404875879
 30
0.0
 11
5038.9135394627419
 21
4613.0961404875879
 31
0.0
  0
LINE
  5
5AEB
  8
HIDDEN
 10
5039.6635394627419
 20
4617.0961404875879
 30
0.0
 11
5042.9135394627419
 21
4619.096140487587
 31
0.0
  0
LINE
  5
5AEC
  8
CEN
 10
4994.5035394627421
 20
4661.6656653007758
 30
0.0
 11
4994.5035394627421
 21
4642.6656653007758
 31
0.0
  0
ARC
  5
5AED
  8
UMCL1
 10
5019.913539462741
 20
4684.4961404875876
 30
0.0
 40
0.5
 50
90.0
 51
270.0
  0
LINE
  5
5AEE
  8
UMCL1
 10
5022.913539462741
 20
4683.4961404875867
 30
0.0
 11
5022.4135394627419
 21
4683.9961404875876
 31
0.0
  0
LINE
  5
5AEF
  8
UMCL1
 10
5022.913539462741
 20
4683.4961404875867
 30
0.0
 11
5022.913539462741
 21
4683.096140487587
 31
0.0
  0
LINE
  5
5AF0
  8
HIDDEN
 10
5039.6635394627419
 20
4673.096140487587
 30
0.0
 11
5039.6635394627419
 21
4654.096140487587
 31
0.0
  0
LINE
  5
5AF1
  8
HIDDEN
 10
5046.1635394627419
 20
4673.096140487587
 30
0.0
 11
5046.1635394627419
 21
4654.096140487587
 31
0.0
  0
LINE
  5
5AF2
  8
HIDDEN
 10
5038.913539462741
 20
4673.096140487587
 30
0.0
 11
5038.913539462741
 21
4658.0961404875879
 31
0.0
  0
LINE
  5
5AF3
  8
HIDDEN
 10
5046.9135394627419
 20
4673.096140487587
 30
0.0
 11
5046.9135394627419
 21
4658.0961404875879
 31
0.0
  0
LINE
  5
5AF4
  8
CEN
 10
5042.913539462741
 20
4677.463443775212
 30
0.0
 11
5042.913539462741
 21
4647.6476264789808
 31
0.0
  0
LINE
  5
5AF5
  8
HIDDEN
 10
5042.9135394627419
 20
4652.0961404875879
 30
0.0
 11
5046.1635394627419
 21
4654.096140487587
 31
0.0
  0
LINE
  5
5AF6
  8
HIDDEN
 10
5046.163539462741
 20
4654.096140487587
 30
0.0
 11
5039.6635394627419
 21
4654.096140487587
 31
0.0
  0
LINE
  5
5AF7
  8
HIDDEN
 10
5046.9135394627419
 20
4658.0961404875879
 30
0.0
 11
5038.9135394627419
 21
4658.0961404875879
 31
0.0
  0
LINE
  5
5AF8
  8
HIDDEN
 10
5039.6635394627419
 20
4654.096140487587
 30
0.0
 11
5042.9135394627419
 21
4652.0961404875879
 31
0.0
  0
LINE
  5
5AF9
  8
UMCL2
 10
5052.413539462741
 20
4673.0961404875889
 30
0.0
 11
5068.413539462741
 21
4673.0961404875889
 31
0.0
  0
LINE
  5
5AFA
  8
UMCL1
 10
5048.913539462741
 20
4673.396140487589
 30
0.0
 11
5048.913539462741
 21
4682.7961404875878
 31
0.0
  0
LINE
  5
5AFB
  8
CEN
 10
5041.413539462741
 20
4686.2636073900594
 30
0.0
 11
5041.413539462741
 21
4668.0054511878834
 31
0.0
  0
LINE
  5
5AFC
  8
UMCL1
 10
5048.913539462741
 20
4673.396140487589
 30
0.0
 11
5048.6135394627418
 21
4673.096140487587
 31
0.0
  0
LINE
  5
5AFD
  8
UMCL1
 10
5049.413539462741
 20
4673.096140487587
 30
0.0
 11
5050.413539462741
 21
4672.0961404875879
 31
0.0
  0
LINE
  5
5AFE
  8
UMCL1
 10
5048.913539462741
 20
4682.7961404875878
 30
0.0
 11
5048.6135394627418
 21
4683.096140487587
 31
0.0
  0
SOLID
  5
5AFF
  8
UMCL2
 10
5065.580206129408
 20
4668.0961404875879
 30
0.0
 11
5067.246872796075
 21
4668.0961404875879
 31
0.0
 12
5066.4135394627401
 22
4673.0961404875889
 32
0.0
 13
5066.4135394627401
 23
4673.0961404875889
 33
0.0
  0
SOLID
  5
5B00
  8
UMCL2
 10
5065.580206129408
 20
4688.0961404875879
 30
0.0
 11
5067.246872796075
 21
4688.0961404875879
 31
0.0
 12
5066.4135394627401
 22
4683.096140487587
 32
0.0
 13
5066.4135394627401
 23
4683.096140487587
 33
0.0
  0
LINE
  5
5B01
  8
UMCL2
 10
5019.913539462741
 20
4742.0961404875861
 30
0.0
 11
4995.9135394627419
 21
4742.0961404875861
 31
0.0
  0
LINE
  5
5B02
  8
HIDDEN
 10
5003.9135394627419
 20
4709.9961404875876
 30
0.0
 11
5011.9135394627419
 21
4709.9961404875876
 31
0.0
  0
ARC
  5
5B03
  8
HIDDEN
 10
5007.9135394627419
 20
4718.9961404875867
 30
0.0
 40
4.0
 50
0.0
 51
180.0
  0
LINE
  5
5B04
  8
UMCL1
 10
4996.4135394627419
 20
4726.096140487587
 30
0.0
 11
5019.4135394627428
 21
4726.096140487587
 31
0.0
  0
LINE
  5
5B05
  8
UMCL1
 10
5019.913539462741
 20
4725.5961404875879
 30
0.0
 11
4995.9135394627419
 21
4725.5961404875879
 31
0.0
  0
LINE
  5
5B06
  8
CEN
 10
5002.4135394627419
 20
4718.9961404875867
 30
0.0
 11
5013.4135394627419
 21
4718.9961404875867
 31
0.0
  0
LINE
  5
5B07
  8
UMCL2
 10
5021.8648213964279
 20
4699.8151543307722
 30
0.0
 11
4981.0586997933106
 21
4699.8151543307722
 31
0.0
  0
TEXT
  5
5B08
  8
UMCL2
 10
4984.7926789513695
 20
4701.929513657723
 30
0.0
 40
6.0
  1
8
 41
0.85
 51
15.0
  7
ROMANS
  0
SOLID
  5
5B09
  8
UMCL2
 10
4998.913539462741
 20
4700.6484876641052
 30
0.0
 11
4998.913539462741
 21
4698.9818209974392
 31
0.0
 12
5003.9135394627419
 22
4699.8151543307722
 32
0.0
 13
5003.9135394627419
 23
4699.8151543307722
 33
0.0
  0
LINE
  5
5B0A
  8
UMCL2
 10
4995.9135394627419
 20
4727.596140487587
 30
0.0
 11
4995.9135394627419
 21
4744.096140487587
 31
0.0
  0
LINE
  5
5B0B
  8
UMCL1
 10
4996.4135394627419
 20
4726.096140487587
 30
0.0
 11
4995.9135394627419
 21
4725.5961404875879
 31
0.0
  0
SOLID
  5
5B0C
  8
UMCL2
 10
5000.9135394627419
 20
4742.929473820921
 30
0.0
 11
5000.9135394627419
 21
4741.262807154254
 31
0.0
 12
4995.9135394627419
 22
4742.0961404875861
 32
0.0
 13
4995.9135394627419
 23
4742.0961404875861
 33
0.0
  0
LINE
  5
5B0D
  8
HIDDEN
 10
5011.1635394627419
 20
4726.096140487587
 30
0.0
 11
5011.1635394627419
 21
4705.9961404875867
 31
0.0
  0
LINE
  5
5B0E
  8
HIDDEN
 10
5004.6635394627419
 20
4726.096140487587
 30
0.0
 11
5004.6635394627419
 21
4705.9961404875867
 31
0.0
  0
LINE
  5
5B0F
  8
HIDDEN
 10
5007.9135394627419
 20
4703.9961404875867
 30
0.0
 11
5004.6635394627419
 21
4705.9961404875867
 31
0.0
  0
LINE
  5
5B10
  8
HIDDEN
 10
5011.1635394627419
 20
4705.9961404875867
 30
0.0
 11
5007.9135394627419
 21
4703.9961404875867
 31
0.0
  0
SOLID
  5
5B11
  8
UMCL2
 10
5016.913539462741
 20
4700.6484876641052
 30
0.0
 11
5016.913539462741
 21
4698.9818209974392
 31
0.0
 12
5011.9135394627419
 22
4699.8151543307722
 32
0.0
 13
5011.9135394627419
 23
4699.8151543307722
 33
0.0
  0
LINE
  5
5B12
  8
HIDDEN
 10
5004.6635394627419
 20
4705.9961404875867
 30
0.0
 11
5011.1635394627419
 21
4705.9961404875867
 31
0.0
  0
LINE
  5
5B13
  8
UMCL2
 10
5019.913539462741
 20
4727.596140487587
 30
0.0
 11
5019.913539462741
 21
4744.096140487587
 31
0.0
  0
LINE
  5
5B14
  8
UMCL1
 10
5019.913539462741
 20
4725.5961404875879
 30
0.0
 11
5019.4135394627428
 21
4726.096140487587
 31
0.0
  0
SOLID
  5
5B15
  8
UMCL2
 10
5014.9135394627419
 20
4742.929473820921
 30
0.0
 11
5014.9135394627419
 21
4741.262807154254
 31
0.0
 12
5019.913539462741
 22
4742.0961404875861
 32
0.0
 13
5019.913539462741
 23
4742.0961404875861
 33
0.0
  0
LINE
  5
5B16
  8
UMCL2
 10
5082.413539462741
 20
4588.0961404875879
 30
0.0
 11
5082.413539462741
 21
4726.096140487587
 31
0.0
  0
TEXT
  5
5B17
  8
UMCL2
 10
5080.0135394627423
 20
4629.6799118334011
 30
0.0
 40
6.0
  1
95
 50
90.0
 41
0.85
 51
15.0
  7
ROMANS
  0
SOLID
  5
5B18
  8
UMCL2
 10
5081.580206129408
 20
4593.096140487587
 30
0.0
 11
5083.246872796075
 21
4593.096140487587
 31
0.0
 12
5082.413539462741
 22
4588.0961404875879
 32
0.0
 13
5082.413539462741
 23
4588.0961404875879
 33
0.0
  0
SOLID
  5
5B19
  8
UMCL2
 10
5081.580206129408
 20
4688.0961404875879
 30
0.0
 11
5083.2468727960741
 21
4688.0961404875879
 31
0.0
 12
5082.413539462741
 22
4683.096140487587
 32
0.0
 13
5082.413539462741
 23
4683.096140487587
 33
0.0
  0
SOLID
  5
5B1A
  8
UMCL2
 10
5081.580206129408
 20
4678.0961404875879
 30
0.0
 11
5083.2468727960741
 21
4678.0961404875879
 31
0.0
 12
5082.413539462741
 22
4683.096140487587
 32
0.0
 13
5082.413539462741
 23
4683.096140487587
 33
0.0
  0
TEXT
  5
5B1B
  8
UMCL2
 10
5080.0135394627423
 20
4699.3097398817927
 30
0.0
 40
6.0
  1
43
 50
90.0
 41
0.85
 51
15.0
  7
ROMANS
  0
SOLID
  5
5B1C
  8
UMCL2
 10
5081.580206129408
 20
4721.096140487587
 30
0.0
 11
5083.246872796075
 21
4721.096140487587
 31
0.0
 12
5082.413539462741
 22
4726.096140487587
 32
0.0
 13
5082.413539462741
 23
4726.096140487587
 33
0.0
  0
TEXT
  5
5B1D
  8
UMCL2
 10
5064.0135394627423
 20
4571.1532529502992
 30
0.0
 40
6.0
  1
10
 50
90.0
 41
0.85
 51
15.0
  7
ROMANS
  0
LINE
  5
5B1E
  8
UMCL2
 10
5066.4135394627401
 20
4570.0369222540667
 30
0.0
 11
5066.4135394627401
 21
4701.0512828762794
 31
0.0
  0
LINE
  5
5B1F
  8
UMCL2
 10
5021.9135394627419
 20
4726.096140487587
 30
0.0
 11
5100.413539462741
 21
4726.096140487587
 31
0.0
  0
LINE
  5
5B20
  8
UMCL2
 10
5050.413539462741
 20
4588.096140487587
 30
0.0
 11
5100.413539462741
 21
4588.096140487587
 31
0.0
  0
LINE
  5
5B21
  8
UMCL1
  6
CONTINUOUS
 10
4956.0035394627412
 20
4657.6656653007749
 30
0.0
 11
5000.0035394627421
 21
4657.6656653007749
 31
0.0
  0
LINE
  5
5B22
  8
UMCL1
  6
CONTINUOUS
 10
4956.0035394627412
 20
4657.6656653007749
 30
0.0
 11
4956.0035394627412
 21
4613.665665300774
 31
0.0
  0
LINE
  5
5B23
  8
UMCL1
  6
CONTINUOUS
 10
5000.0035394627421
 20
4657.6656653007749
 30
0.0
 11
5000.0035394627421
 21
4613.665665300774
 31
0.0
  0
LINE
  5
5B24
  8
UMCL1
  6
CONTINUOUS
 10
4956.0035394627412
 20
4613.665665300774
 30
0.0
 11
5000.0035394627421
 21
4613.665665300774
 31
0.0
  0
POLYLINE
  5
5B25
  8
UMCL1
 66
     1
 10
0.0
 20
0.0
 30
0.0
 70
     1
  0
VERTEX
  5
6590
  8
UMCL1
 10
4956.5035394627412
 20
4649.2789139548277
 30
0.0
  0
VERTEX
  5
6591
  8
UMCL1
 10
4961.5035394627412
 20
4646.3921626088786
 30
0.0
  0
VERTEX
  5
6592
  8
UMCL1
 10
4966.5035394627412
 20
4649.2789139548277
 30
0.0
  0
VERTEX
  5
6593
  8
UMCL1
 10
4966.5035394627412
 20
4655.0524166467239
 30
0.0
  0
VERTEX
  5
6594
  8
UMCL1
 10
4961.5035394627412
 20
4657.9391679926721
 30
0.0
  0
VERTEX
  5
6595
  8
UMCL1
 10
4956.5035394627412
 20
4655.0524166467239
 30
0.0
  0
SEQEND
  5
6596
  8
UMCL1
  0
CIRCLE
  5
5B26
  8
UMCL1
 10
4961.5035394627412
 20
4652.1656653007749
 30
0.0
 40
5.0000000000001128
  0
CIRCLE
  5
5B27
  8
UMCL1
 10
4961.5035394627412
 20
4652.1656653007749
 30
0.0
 40
3.0
  0
ARC
  5
5B28
  8
UMCL1
 62
     2
 10
4961.5035394627412
 20
4652.1656653007749
 30
0.0
 40
2.6000000000000001
 50
74.499538825254973
 51
16.325557586237561
  0
CIRCLE
  5
5B29
  8
UMCL1
 10
4961.5035394627412
 20
4652.1656653007749
 30
0.0
 40
2.0
  0
ARC
  5
5B2A
  8
UMCL1
 62
     2
 10
4994.5035394627421
 20
4652.1656653007758
 30
0.0
 40
2.6000000000000001
 50
74.499538825254973
 51
16.325557586237561
  0
CIRCLE
  5
5B2B
  8
UMCL1
 10
4994.5035394627421
 20
4652.1656653007758
 30
0.0
 40
3.0
  0
CIRCLE
  5
5B2C
  8
UMCL1
 10
4994.5035394627421
 20
4652.1656653007758
 30
0.0
 40
5.0000000000001128
  0
POLYLINE
  5
5B2D
  8
UMCL1
 66
     1
 10
0.0
 20
0.0
 30
0.0
 70
     1
  0
VERTEX
  5
6597
  8
UMCL1
 10
4989.5035394627421
 20
4649.2789139548277
 30
0.0
  0
VERTEX
  5
6598
  8
UMCL1
 10
4994.5035394627412
 20
4646.3921626088786
 30
0.0
  0
VERTEX
  5
6599
  8
UMCL1
 10
4999.5035394627412
 20
4649.2789139548277
 30
0.0
  0
VERTEX
  5
659A
  8
UMCL1
 10
4999.5035394627412
 20
4655.0524166467239
 30
0.0
  0
VERTEX
  5
659B
  8
UMCL1
 10
4994.5035394627412
 20
4657.9391679926721
 30
0.0
  0
VERTEX
  5
659C
  8
UMCL1
 10
4989.5035394627421
 20
4655.0524166467239
 30
0.0
  0
SEQEND
  5
659D
  8
UMCL1
  0
CIRCLE
  5
5B2E
  8
UMCL1
 10
4994.5035394627421
 20
4652.1656653007758
 30
0.0
 40
2.0
  0
POLYLINE
  5
5B2F
  8
UMCL1
 66
     1
 10
0.0
 20
0.0
 30
0.0
 70
     1
  0
VERTEX
  5
659E
  8
UMCL1
 10
4989.5035394627421
 20
4616.2789139548258
 30
0.0
  0
VERTEX
  5
659F
  8
UMCL1
 10
4994.5035394627412
 20
4613.3921626088777
 30
0.0
  0
VERTEX
  5
65A0
  8
UMCL1
 10
4999.5035394627412
 20
4616.2789139548258
 30
0.0
  0
VERTEX
  5
65A1
  8
UMCL1
 10
4999.5035394627412
 20
4622.052416646723
 30
0.0
  0
VERTEX
  5
65A2
  8
UMCL1
 10
4994.5035394627412
 20
4624.9391679926703
 30
0.0
  0
VERTEX
  5
65A3
  8
UMCL1
 10
4989.5035394627421
 20
4622.052416646723
 30
0.0
  0
SEQEND
  5
65A4
  8
UMCL1
  0
CIRCLE
  5
5B30
  8
UMCL1
 10
4994.5035394627421
 20
4619.1656653007749
 30
0.0
 40
5.0000000000001128
  0
CIRCLE
  5
5B31
  8
UMCL1
 10
4994.5035394627421
 20
4619.1656653007749
 30
0.0
 40
3.0
  0
ARC
  5
5B32
  8
UMCL1
 62
     2
 10
4994.5035394627421
 20
4619.1656653007749
 30
0.0
 40
2.6000000000000001
 50
74.499538825254973
 51
16.325557586237561
  0
CIRCLE
  5
5B33
  8
UMCL1
 10
4994.5035394627421
 20
4619.1656653007749
 30
0.0
 40
2.0
  0
ARC
  5
5B34
  8
UMCL1
 62
     2
 10
4961.5035394627412
 20
4619.1656653007749
 30
0.0
 40
2.6000000000000001
 50
74.499538825254973
 51
16.325557586237561
  0
CIRCLE
  5
5B35
  8
UMCL1
 10
4961.5035394627412
 20
4619.1656653007749
 30
0.0
 40
3.0
  0
CIRCLE
  5
5B36
  8
UMCL1
 10
4961.5035394627412
 20
4619.1656653007749
 30
0.0
 40
5.0000000000001128
  0
POLYLINE
  5
5B37
  8
UMCL1
 66
     1
 10
0.0
 20
0.0
 30
0.0
 70
     1
  0
VERTEX
  5
65A5
  8
UMCL1
 10
4956.5035394627412
 20
4616.2789139548258
 30
0.0
  0
VERTEX
  5
65A6
  8
UMCL1
 10
4961.5035394627412
 20
4613.3921626088777
 30
0.0
  0
VERTEX
  5
65A7
  8
UMCL1
 10
4966.5035394627412
 20
4616.2789139548258
 30
0.0
  0
VERTEX
  5
65A8
  8
UMCL1
 10
4966.5035394627412
 20
4622.052416646723
 30
0.0
  0
VERTEX
  5
65A9
  8
UMCL1
 10
4961.5035394627412
 20
4624.9391679926703
 30
0.0
  0
VERTEX
  5
65AA
  8
UMCL1
 10
4956.5035394627412
 20
4622.052416646723
 30
0.0
  0
SEQEND
  5
65AB
  8
UMCL1
  0
CIRCLE
  5
5B38
  8
UMCL1
 10
4961.5035394627412
 20
4619.1656653007749
 30
0.0
 40
2.0
  0
LINE
  5
5B39
  8
HIDDEN
 10
4734.638623458176
 20
4654.096140487587
 30
0.0
 11
4806.6386234581769
 21
4654.096140487587
 31
0.0
  0
LINE
  5
5B3A
  8
UMCL1
 10
4806.6386234581769
 20
4657.5961404875879
 30
0.0
 11
4806.6386234581769
 21
4613.5961404875879
 31
0.0
  0
LINE
  5
5B3B
  8
UMCL1
 10
4832.6386234581769
 20
4657.9391679926721
 30
0.0
 11
4832.6386234581769
 21
4613.5961404875879
 31
0.0
  0
LINE
  5
5B3C
  8
UMCL1
 10
4806.6386234581769
 20
4613.5961404875879
 30
0.0
 11
4832.6386234581769
 21
4613.5961404875879
 31
0.0
  0
LINE
  5
5B3D
  8
UMCL1
 10
4806.6386234581769
 20
4657.5961404875879
 30
0.0
 11
4832.6386234581769
 21
4657.5961404875879
 31
0.0
  0
LINE
  5
5B3E
  8
CEN
 10
4734.6386234581769
 20
4652.0961404875879
 30
0.0
 11
4842.6386234581778
 21
4652.0961404875879
 31
0.0
  0
LINE
  5
5B3F
  8
UMCL1
 10
4734.6386234581769
 20
4655.0961404875879
 30
0.0
 11
4806.6386234581769
 21
4655.0961404875879
 31
0.0
  0
LINE
  5
5B40
  8
UMCL1
 10
4734.6386234581769
 20
4649.0961404875879
 30
0.0
 11
4806.6386234581769
 21
4649.0961404875879
 31
0.0
  0
LINE
  5
5B41
  8
UMCL1
 10
4838.192041470792
 20
4657.9391679926721
 30
0.0
 11
4834.0852054455627
 21
4657.9391679926721
 31
0.0
  0
LINE
  5
5B42
  8
UMCL1
 10
4838.192041470792
 20
4655.0524166467239
 30
0.0
 11
4834.0852054455627
 21
4655.0524166467239
 31
0.0
  0
LINE
  5
5B43
  8
UMCL1
 10
4838.6386234581769
 20
4657.1656653007758
 30
0.0
 11
4838.192041470792
 21
4657.9391679926721
 31
0.0
  0
LINE
  5
5B44
  8
UMCL1
 10
4833.6386234581778
 20
4657.9391679926721
 30
0.0
 11
4833.6386234581769
 21
4646.2531129825029
 31
0.0
  0
LINE
  5
5B45
  8
UMCL1
 10
4838.6386234581769
 20
4657.1656653007758
 30
0.0
 11
4838.6386234581769
 21
4647.0266156743992
 31
0.0
  0
ARC
  5
5B46
  8
UMCL1
 10
4836.0828007097543
 20
4656.495792319698
 30
0.0
 40
2.5558227484234459
 50
325.61575253196838
 51
34.384247468031631
  0
ARC
  5
5B47
  8
UMCL1
 10
4836.0828007097543
 20
4647.6964886554761
 30
0.0
 40
2.5558227484234459
 50
325.61575253196838
 51
34.384247468031631
  0
LINE
  5
5B48
  8
UMCL1
 10
4838.6386234581769
 20
4647.0266156743992
 30
0.0
 11
4838.192041470792
 21
4646.2531129825029
 31
0.0
  0
LINE
  5
5B49
  8
UMCL1
 10
4838.192041470792
 20
4649.1398643284519
 30
0.0
 11
4834.0852054455627
 21
4649.1398643284519
 31
0.0
  0
LINE
  5
5B4A
  8
UMCL1
 10
4838.192041470792
 20
4646.2531129825029
 30
0.0
 11
4834.0852054455627
 21
4646.2531129825029
 31
0.0
  0
ARC
  5
5B4B
  8
UMCL1
 10
4828.6303781045381
 20
4652.0961404875879
 30
0.0
 40
10.00824535363974
 50
342.81943120861661
 51
17.180568791383411
  0
ARC
  5
5B4C
  8
UMCL1
 10
4843.6468688118166
 20
4652.0961404875879
 30
0.0
 40
10.00824535363974
 50
162.81943120861649
 51
197.18056879138339
  0
LINE
  5
5B4D
  8
UMCL1
 10
4833.6386234581778
 20
4647.0266156743992
 30
0.0
 11
4834.0852054455627
 21
4646.2531129825029
 31
0.0
  0
ARC
  5
5B4E
  8
UMCL1
 10
4836.1944462066012
 20
4647.6964886554761
 30
0.0
 40
2.5558227484234459
 50
145.61575253196841
 51
214.38424746803159
  0
ARC
  5
5B4F
  8
UMCL1
 10
4836.1944462066012
 20
4656.495792319698
 30
0.0
 40
2.5558227484234459
 50
145.61575253196841
 51
214.38424746803159
  0
LINE
  5
5B50
  8
UMCL1
 10
4833.6386234581778
 20
4657.1656653007758
 30
0.0
 11
4834.0852054455627
 21
4657.9391679926721
 31
0.0
  0
LINE
  5
5B51
  8
UMCL1
 10
4833.6386234581778
 20
4657.9391679926721
 30
0.0
 11
4832.6386234581769
 21
4657.9391679926721
 31
0.0
  0
LINE
  5
5B52
  8
UMCL1
 10
4833.6386234581778
 20
4646.2531129825029
 30
0.0
 11
4832.6386234581769
 21
4646.2531129825029
 31
0.0
  0
LINE
  5
5B53
  8
UMCL1
 10
4838.6386234581769
 20
4614.0266156744001
 30
0.0
 11
4838.6386234581769
 21
4624.1656653007749
 31
0.0
  0
LINE
  5
5B54
  8
UMCL1
 10
4833.6386234581778
 20
4613.2531129825038
 30
0.0
 11
4833.6386234581769
 21
4624.9391679926721
 31
0.0
  0
ARC
  5
5B55
  8
UMCL1
 10
4843.6468688118166
 20
4619.096140487587
 30
0.0
 40
10.00824535363974
 50
162.81943120861649
 51
197.18056879138339
  0
ARC
  5
5B56
  8
UMCL1
 10
4828.6303781045381
 20
4619.096140487587
 30
0.0
 40
10.00824535363974
 50
342.81943120861661
 51
17.180568791383411
  0
LINE
  5
5B57
  8
UMCL1
 10
4833.6386234581778
 20
4624.9391679926721
 30
0.0
 11
4832.6386234581769
 21
4624.9391679926721
 31
0.0
  0
LINE
  5
5B58
  8
UMCL1
 10
4838.192041470792
 20
4622.0524166467239
 30
0.0
 11
4834.0852054455627
 21
4622.0524166467239
 31
0.0
  0
LINE
  5
5B59
  8
UMCL1
 10
4838.192041470792
 20
4624.9391679926721
 30
0.0
 11
4834.0852054455627
 21
4624.9391679926721
 31
0.0
  0
LINE
  5
5B5A
  8
UMCL1
 10
4833.6386234581778
 20
4624.1656653007749
 30
0.0
 11
4834.0852054455627
 21
4624.9391679926721
 31
0.0
  0
ARC
  5
5B5B
  8
UMCL1
 10
4836.1944462066012
 20
4623.4957923196971
 30
0.0
 40
2.5558227484234459
 50
145.61575253196841
 51
214.38424746803159
  0
LINE
  5
5B5C
  8
UMCL1
 10
4838.6386234581769
 20
4624.1656653007749
 30
0.0
 11
4838.192041470792
 21
4624.9391679926721
 31
0.0
  0
ARC
  5
5B5D
  8
UMCL1
 10
4836.0828007097543
 20
4623.4957923196971
 30
0.0
 40
2.5558227484234459
 50
325.61575253196838
 51
34.384247468031631
  0
LINE
  5
5B5E
  8
UMCL1
 10
4833.6386234581778
 20
4613.2531129825038
 30
0.0
 11
4832.6386234581769
 21
4613.2531129825038
 31
0.0
  0
LINE
  5
5B5F
  8
UMCL1
 10
4838.192041470792
 20
4616.139864328451
 30
0.0
 11
4834.0852054455627
 21
4616.139864328451
 31
0.0
  0
LINE
  5
5B60
  8
UMCL1
 10
4838.192041470792
 20
4613.2531129825038
 30
0.0
 11
4834.0852054455627
 21
4613.2531129825038
 31
0.0
  0
ARC
  5
5B61
  8
UMCL1
 10
4836.1944462066012
 20
4614.6964886554779
 30
0.0
 40
2.5558227484234459
 50
145.61575253196841
 51
214.38424746803159
  0
LINE
  5
5B62
  8
UMCL1
 10
4833.6386234581778
 20
4614.0266156744001
 30
0.0
 11
4834.0852054455627
 21
4613.2531129825038
 31
0.0
  0
ARC
  5
5B63
  8
UMCL1
 10
4836.0828007097543
 20
4614.6964886554779
 30
0.0
 40
2.5558227484234459
 50
325.61575253196838
 51
34.384247468031631
  0
LINE
  5
5B64
  8
UMCL1
 10
4838.6386234581769
 20
4614.0266156744001
 30
0.0
 11
4838.192041470792
 21
4613.2531129825038
 31
0.0
  0
LINE
  5
5B65
  8
HIDDEN
 10
4734.638623458176
 20
4617.0961404875879
 30
0.0
 11
4806.6386234581769
 21
4617.0961404875879
 31
0.0
  0
LINE
  5
5B66
  8
UMCL1
 10
4734.6386234581769
 20
4616.096140487587
 30
0.0
 11
4806.6386234581769
 21
4616.096140487587
 31
0.0
  0
LINE
  5
5B67
  8
CEN
 10
4734.6386234581769
 20
4619.096140487587
 30
0.0
 11
4842.6386234581778
 21
4619.096140487587
 31
0.0
  0
LINE
  5
5B68
  8
UMCL1
 10
4734.6386234581769
 20
4622.096140487587
 30
0.0
 11
4806.6386234581769
 21
4622.096140487587
 31
0.0
  0
LINE
  5
5B69
  8
CEN
 10
4644.6386234581769
 20
4619.096140487587
 30
0.0
 11
4535.7241362788554
 21
4619.096140487587
 31
0.0
  0
LINE
  5
5B6A
  8
CEN
 10
4644.6386234581769
 20
4652.0961404875879
 30
0.0
 11
4535.7241362788554
 21
4652.0961404875879
 31
0.0
  0
LINE
  5
5B6B
  8
UMCL1
 10
4572.6386234581769
 20
4657.5961404875879
 30
0.0
 11
4546.6386234581769
 21
4657.5961404875879
 31
0.0
  0
LINE
  5
5B6C
  8
UMCL1
 10
4572.6386234581769
 20
4613.5961404875879
 30
0.0
 11
4546.6386234581769
 21
4613.5961404875879
 31
0.0
  0
LINE
  5
5B6D
  8
UMCL1
 10
4572.6386234581769
 20
4657.5961404875879
 30
0.0
 11
4572.6386234581769
 21
4613.5961404875879
 31
0.0
  0
LINE
  5
5B6E
  8
UMCL1
 10
4644.6386234581769
 20
4622.096140487587
 30
0.0
 11
4572.6386234581769
 21
4622.096140487587
 31
0.0
  0
LINE
  5
5B6F
  8
UMCL1
 10
4644.6386234581769
 20
4616.096140487587
 30
0.0
 11
4572.6386234581769
 21
4616.096140487587
 31
0.0
  0
LINE
  5
5B70
  8
HIDDEN
 10
4644.6386234581778
 20
4617.0961404875879
 30
0.0
 11
4572.6386234581769
 21
4617.0961404875879
 31
0.0
  0
LINE
  5
5B71
  8
HIDDEN
 10
4644.6386234581778
 20
4654.096140487587
 30
0.0
 11
4572.6386234581769
 21
4654.096140487587
 31
0.0
  0
LINE
  5
5B72
  8
UMCL1
 10
4644.6386234581769
 20
4649.0961404875879
 30
0.0
 11
4572.6386234581769
 21
4649.0961404875879
 31
0.0
  0
LINE
  5
5B73
  8
UMCL1
 10
4644.6386234581769
 20
4655.0961404875879
 30
0.0
 11
4572.6386234581769
 21
4655.0961404875879
 31
0.0
  0
LINE
  5
5B74
  8
UMCL1
 10
4546.6386234581769
 20
4657.9391679926721
 30
0.0
 11
4546.6386234581769
 21
4613.5961404875879
 31
0.0
  0
ARC
  5
5B75
  8
UMCL1
 10
4550.6468688118157
 20
4619.096140487587
 30
0.0
 40
10.00824535363974
 50
162.81943120861649
 51
197.18056879138339
  0
ARC
  5
5B76
  8
UMCL1
 10
4535.6303781045372
 20
4619.096140487587
 30
0.0
 40
10.00824535363974
 50
342.81943120861661
 51
17.180568791383411
  0
LINE
  5
5B77
  8
UMCL1
 10
4545.638623458176
 20
4613.2531129825038
 30
0.0
 11
4545.638623458176
 21
4624.9391679926721
 31
0.0
  0
LINE
  5
5B78
  8
UMCL1
 10
4540.6386234581769
 20
4614.0266156744001
 30
0.0
 11
4540.6386234581769
 21
4624.1656653007749
 31
0.0
  0
LINE
  5
5B79
  8
UMCL1
 10
4545.638623458176
 20
4613.2531129825038
 30
0.0
 11
4546.6386234581769
 21
4613.2531129825038
 31
0.0
  0
LINE
  5
5B7A
  8
UMCL1
 10
4540.6386234581769
 20
4614.0266156744001
 30
0.0
 11
4541.0852054455609
 21
4613.2531129825038
 31
0.0
  0
ARC
  5
5B7B
  8
UMCL1
 10
4543.1944462066012
 20
4614.6964886554779
 30
0.0
 40
2.5558227484234459
 50
145.61575253196841
 51
214.38424746803159
  0
LINE
  5
5B7C
  8
UMCL1
 10
4545.638623458176
 20
4614.0266156744001
 30
0.0
 11
4545.192041470792
 21
4613.2531129825038
 31
0.0
  0
ARC
  5
5B7D
  8
UMCL1
 10
4543.0828007097534
 20
4614.6964886554779
 30
0.0
 40
2.5558227484234459
 50
325.61575253196838
 51
34.384247468031631
  0
LINE
  5
5B7E
  8
UMCL1
 10
4541.0852054455609
 20
4613.2531129825038
 30
0.0
 11
4545.192041470792
 21
4613.2531129825038
 31
0.0
  0
LINE
  5
5B7F
  8
UMCL1
 10
4541.0852054455609
 20
4616.139864328451
 30
0.0
 11
4545.192041470792
 21
4616.139864328451
 31
0.0
  0
LINE
  5
5B80
  8
UMCL1
 10
4545.638623458176
 20
4624.9391679926721
 30
0.0
 11
4546.6386234581769
 21
4624.9391679926721
 31
0.0
  0
ARC
  5
5B81
  8
UMCL1
 10
4543.1944462066012
 20
4623.4957923196971
 30
0.0
 40
2.5558227484234459
 50
145.61575253196841
 51
214.38424746803159
  0
LINE
  5
5B82
  8
UMCL1
 10
4540.6386234581769
 20
4624.1656653007749
 30
0.0
 11
4541.0852054455609
 21
4624.9391679926721
 31
0.0
  0
ARC
  5
5B83
  8
UMCL1
 10
4543.0828007097534
 20
4623.4957923196971
 30
0.0
 40
2.5558227484234459
 50
325.61575253196838
 51
34.384247468031631
  0
LINE
  5
5B84
  8
UMCL1
 10
4545.638623458176
 20
4624.1656653007749
 30
0.0
 11
4545.192041470792
 21
4624.9391679926721
 31
0.0
  0
LINE
  5
5B85
  8
UMCL1
 10
4541.0852054455609
 20
4624.9391679926721
 30
0.0
 11
4545.192041470792
 21
4624.9391679926721
 31
0.0
  0
LINE
  5
5B86
  8
UMCL1
 10
4541.0852054455609
 20
4622.0524166467239
 30
0.0
 11
4545.192041470792
 21
4622.0524166467239
 31
0.0
  0
LINE
  5
5B87
  8
UMCL1
 10
4540.6386234581769
 20
4657.1656653007758
 30
0.0
 11
4540.6386234581769
 21
4647.0266156743992
 31
0.0
  0
LINE
  5
5B88
  8
UMCL1
 10
4545.638623458176
 20
4657.9391679926721
 30
0.0
 11
4545.638623458176
 21
4646.2531129825029
 31
0.0
  0
ARC
  5
5B89
  8
UMCL1
 10
4535.6303781045372
 20
4652.0961404875879
 30
0.0
 40
10.00824535363974
 50
342.81943120861661
 51
17.180568791383411
  0
ARC
  5
5B8A
  8
UMCL1
 10
4550.6468688118157
 20
4652.0961404875879
 30
0.0
 40
10.00824535363974
 50
162.81943120861649
 51
197.18056879138339
  0
LINE
  5
5B8B
  8
UMCL1
 10
4545.638623458176
 20
4646.2531129825029
 30
0.0
 11
4546.6386234581769
 21
4646.2531129825029
 31
0.0
  0
LINE
  5
5B8C
  8
UMCL1
 10
4541.0852054455609
 20
4649.1398643284519
 30
0.0
 11
4545.192041470792
 21
4649.1398643284519
 31
0.0
  0
LINE
  5
5B8D
  8
UMCL1
 10
4541.0852054455609
 20
4646.2531129825029
 30
0.0
 11
4545.192041470792
 21
4646.2531129825029
 31
0.0
  0
LINE
  5
5B8E
  8
UMCL1
 10
4545.638623458176
 20
4647.0266156743992
 30
0.0
 11
4545.192041470792
 21
4646.2531129825029
 31
0.0
  0
ARC
  5
5B8F
  8
UMCL1
 10
4543.0828007097534
 20
4647.6964886554761
 30
0.0
 40
2.5558227484234459
 50
325.61575253196838
 51
34.384247468031631
  0
LINE
  5
5B90
  8
UMCL1
 10
4540.6386234581769
 20
4647.0266156743992
 30
0.0
 11
4541.0852054455609
 21
4646.2531129825029
 31
0.0
  0
ARC
  5
5B91
  8
UMCL1
 10
4543.1944462066012
 20
4647.6964886554761
 30
0.0
 40
2.5558227484234459
 50
145.61575253196841
 51
214.38424746803159
  0
LINE
  5
5B92
  8
UMCL1
 10
4545.638623458176
 20
4657.9391679926721
 30
0.0
 11
4546.6386234581769
 21
4657.9391679926721
 31
0.0
  0
LINE
  5
5B93
  8
UMCL1
 10
4541.0852054455609
 20
4655.0524166467239
 30
0.0
 11
4545.192041470792
 21
4655.0524166467239
 31
0.0
  0
LINE
  5
5B94
  8
UMCL1
 10
4541.0852054455609
 20
4657.9391679926721
 30
0.0
 11
4545.192041470792
 21
4657.9391679926721
 31
0.0
  0
ARC
  5
5B95
  8
UMCL1
 10
4543.0828007097534
 20
4656.495792319698
 30
0.0
 40
2.5558227484234459
 50
325.61575253196838
 51
34.384247468031631
  0
LINE
  5
5B96
  8
UMCL1
 10
4545.638623458176
 20
4657.1656653007758
 30
0.0
 11
4545.192041470792
 21
4657.9391679926721
 31
0.0
  0
ARC
  5
5B97
  8
UMCL1
 10
4543.1944462066012
 20
4656.495792319698
 30
0.0
 40
2.5558227484234459
 50
145.61575253196841
 51
214.38424746803159
  0
LINE
  5
5B98
  8
UMCL1
 10
4540.6386234581769
 20
4657.1656653007758
 30
0.0
 11
4541.0852054455609
 21
4657.9391679926721
 31
0.0
  0
LINE
  5
5B99
  8
UMCL1
 10
4838.6386234581769
 20
4870.3799685860558
 30
0.0
 11
4838.6386234581769
 21
4860.2409189596792
 31
0.0
  0
LINE
  5
5B9A
  8
UMCL1
 10
4833.6386234581769
 20
4871.153471277953
 30
0.0
 11
4833.6386234581769
 21
4859.4674162677829
 31
0.0
  0
LINE
  5
5B9B
  8
UMCL1
 10
4833.6386234581769
 20
4859.4674162677829
 30
0.0
 11
4832.638623458176
 21
4859.4674162677829
 31
0.0
  0
LINE
  5
5B9C
  8
UMCL1
 10
4833.6386234581769
 20
4871.153471277953
 30
0.0
 11
4832.638623458176
 21
4871.153471277953
 31
0.0
  0
LINE
  5
5B9D
  8
UMCL1
 10
4838.6386234581769
 20
4870.3799685860558
 30
0.0
 11
4833.6386234581769
 21
4870.3799685860558
 31
0.0
  0
ARC
  5
5B9E
  8
UMCL1
 10
4841.0554652884157
 20
4867.8452061794605
 30
0.0
 40
7.4168418302387566
 50
160.01600439257339
 51
199.98399560742661
  0
ARC
  5
5B9F
  8
UMCL1
 10
4831.2217816279381
 20
4867.8452061794605
 30
0.0
 40
7.4168418302387318
 50
340.01600439257339
 51
19.983995607426589
  0
LINE
  5
5BA0
  8
UMCL1
 10
4838.6386234581769
 20
4860.2409189596792
 30
0.0
 11
4833.6386234581769
 21
4860.2409189596792
 31
0.0
  0
ARC
  5
5BA1
  8
UMCL1
 10
4841.0554652884157
 20
4862.7756813662727
 30
0.0
 40
7.4168418302387566
 50
160.01600439257339
 51
199.98399560742661
  0
ARC
  5
5BA2
  8
UMCL1
 10
4831.2217816279381
 20
4862.7756813662727
 30
0.0
 40
7.4168418302387318
 50
340.01600439257339
 51
19.983995607426589
  0
ARC
  5
5BA3
  8
UMCL1
 10
4831.2217816279381
 20
4834.8452061794624
 30
0.0
 40
7.4168418302387318
 50
340.01600439257339
 51
19.983995607426589
  0
ARC
  5
5BA4
  8
UMCL1
 10
4841.0554652884157
 20
4834.8452061794624
 30
0.0
 40
7.4168418302387566
 50
160.01600439257339
 51
199.98399560742661
  0
LINE
  5
5BA5
  8
UMCL1
 10
4838.6386234581769
 20
4827.2409189596792
 30
0.0
 11
4838.6386234581769
 21
4837.3799685860558
 31
0.0
  0
LINE
  5
5BA6
  8
UMCL1
 10
4833.6386234581769
 20
4826.4674162677838
 30
0.0
 11
4833.6386234581769
 21
4838.1534712779512
 31
0.0
  0
LINE
  5
5BA7
  8
UMCL1
 10
4833.6386234581769
 20
4838.1534712779512
 30
0.0
 11
4832.638623458176
 21
4838.1534712779512
 31
0.0
  0
LINE
  5
5BA8
  8
UMCL1
 10
4838.6386234581769
 20
4837.3799685860558
 30
0.0
 11
4833.6386234581769
 21
4837.3799685860558
 31
0.0
  0
LINE
  5
5BA9
  8
UMCL1
 10
4833.6386234581769
 20
4826.467416267782
 30
0.0
 11
4832.638623458176
 21
4826.467416267782
 31
0.0
  0
ARC
  5
5BAA
  8
UMCL1
 10
4831.2217816279381
 20
4829.7756813662736
 30
0.0
 40
7.4168418302387318
 50
340.01600439257339
 51
19.983995607426589
  0
ARC
  5
5BAB
  8
UMCL1
 10
4841.0554652884157
 20
4829.7756813662736
 30
0.0
 40
7.4168418302387566
 50
160.01600439257339
 51
199.98399560742661
  0
LINE
  5
5BAC
  8
UMCL1
 10
4838.6386234581769
 20
4827.2409189596792
 30
0.0
 11
4833.6386234581769
 21
4827.2409189596792
 31
0.0
  0
ARC
  5
5BAD
  8
UMCL1
 10
4548.0554652884157
 20
4862.7756813662727
 30
0.0
 40
7.4168418302387318
 50
160.01600439257339
 51
199.98399560742661
  0
ARC
  5
5BAE
  8
UMCL1
 10
4538.221781627939
 20
4862.7756813662727
 30
0.0
 40
7.4168418302387566
 50
340.01600439257339
 51
19.983995607426589
  0
LINE
  5
5BAF
  8
UMCL1
 10
4540.6386234581769
 20
4870.3799685860558
 30
0.0
 11
4540.6386234581769
 21
4860.2409189596792
 31
0.0
  0
LINE
  5
5BB0
  8
UMCL1
 10
4545.6386234581769
 20
4871.153471277953
 30
0.0
 11
4545.6386234581769
 21
4859.4674162677829
 31
0.0
  0
LINE
  5
5BB1
  8
UMCL1
 10
4545.6386234581769
 20
4859.4674162677829
 30
0.0
 11
4546.6386234581769
 21
4859.4674162677829
 31
0.0
  0
LINE
  5
5BB2
  8
UMCL1
 10
4540.6386234581769
 20
4860.2409189596792
 30
0.0
 11
4545.6386234581769
 21
4860.2409189596792
 31
0.0
  0
LINE
  5
5BB3
  8
UMCL1
 10
4545.6386234581769
 20
4871.153471277953
 30
0.0
 11
4546.6386234581769
 21
4871.153471277953
 31
0.0
  0
ARC
  5
5BB4
  8
UMCL1
 10
4548.0554652884157
 20
4867.8452061794605
 30
0.0
 40
7.4168418302387318
 50
160.01600439257339
 51
199.98399560742661
  0
ARC
  5
5BB5
  8
UMCL1
 10
4538.221781627939
 20
4867.8452061794605
 30
0.0
 40
7.4168418302387566
 50
340.01600439257339
 51
19.983995607426589
  0
LINE
  5
5BB6
  8
UMCL1
 10
4540.6386234581769
 20
4870.3799685860558
 30
0.0
 11
4545.6386234581769
 21
4870.3799685860558
 31
0.0
  0
LINE
  5
5BB7
  8
UMCL1
 10
4541.0852054455618
 20
4865.310443772868
 30
0.0
 11
4545.192041470792
 21
4865.310443772868
 31
0.0
  0
LINE
  5
5BB8
  8
UMCL1
 10
4545.6386234581769
 20
4826.4674162677838
 30
0.0
 11
4545.6386234581769
 21
4838.1534712779512
 31
0.0
  0
LINE
  5
5BB9
  8
UMCL1
 10
4545.6386234581769
 20
4826.467416267782
 30
0.0
 11
4546.6386234581769
 21
4826.467416267782
 31
0.0
  0
LINE
  5
5BBA
  8
UMCL1
 10
4545.6386234581769
 20
4838.1534712779512
 30
0.0
 11
4546.6386234581769
 21
4838.1534712779512
 31
0.0
  0
LINE
  5
5BBB
  8
UMCL1
 10
4541.0852054455618
 20
4832.310443772868
 30
0.0
 11
4545.192041470792
 21
4832.310443772868
 31
0.0
  0
LINE
  5
5BBC
  8
UMCL1
 10
4540.6386234581769
 20
4827.2409189596792
 30
0.0
 11
4545.6386234581769
 21
4827.2409189596792
 31
0.0
  0
ARC
  5
5BBD
  8
UMCL1
 10
4538.221781627939
 20
4829.7756813662736
 30
0.0
 40
7.4168418302387566
 50
340.01600439257339
 51
19.983995607426589
  0
ARC
  5
5BBE
  8
UMCL1
 10
4548.0554652884157
 20
4829.7756813662736
 30
0.0
 40
7.4168418302387318
 50
160.01600439257339
 51
199.98399560742661
  0
LINE
  5
5BBF
  8
UMCL1
 10
4540.6386234581769
 20
4837.3799685860558
 30
0.0
 11
4545.6386234581769
 21
4837.3799685860558
 31
0.0
  0
LINE
  5
5BC0
  8
UMCL1
 10
4540.6386234581769
 20
4827.2409189596792
 30
0.0
 11
4540.6386234581769
 21
4837.3799685860558
 31
0.0
  0
ARC
  5
5BC1
  8
UMCL1
 10
4538.221781627939
 20
4834.8452061794624
 30
0.0
 40
7.4168418302387566
 50
340.01600439257339
 51
19.983995607426589
  0
ARC
  5
5BC2
  8
UMCL1
 10
4548.0554652884157
 20
4834.8452061794624
 30
0.0
 40
7.4168418302387318
 50
160.01600439257339
 51
199.98399560742661
  0
LINE
  5
5BC3
  8
CEN
 10
4644.6386234581769
 20
4865.310443772868
 30
0.0
 11
4536.6386234581778
 21
4865.310443772868
 31
0.0
  0
LINE
  5
5BC4
  8
UMCL2
 10
4546.6386234581769
 20
4540.096140487587
 30
0.0
 11
4832.638623458176
 21
4540.096140487587
 31
0.0
  0
LINE
  5
5BC5
  8
UMCL2
 10
4522.5603359733414
 20
4556.0961404875879
 30
0.0
 11
4856.1389431070984
 21
4556.0961404875879
 31
0.0
  0
LINE
  5
5BC6
  8
UMCL2
 10
4546.6386234581769
 20
4611.5961404875879
 30
0.0
 11
4546.6386234581769
 21
4538.0961404875879
 31
0.0
  0
SOLID
  5
5BC7
  8
UMCL2
 10
4551.6386234581769
 20
4540.929473820921
 30
0.0
 11
4551.6386234581769
 21
4539.2628071542549
 31
0.0
 12
4546.6386234581769
 22
4540.096140487587
 32
0.0
 13
4546.6386234581769
 23
4540.096140487587
 33
0.0
  0
LINE
  5
5BC8
  8
UMCL2
 10
4537.6386234581769
 20
4614.6462210226518
 30
0.0
 11
4537.6386234581769
 21
4554.0961404875879
 31
0.0
  0
TEXT
  5
5BC9
  8
UMCL2
 10
4524.9309732138654
 20
4557.6628071542536
 30
0.0
 40
6.0
  1
9
 41
0.85
 51
15.0
  7
ROMANS
  0
SOLID
  5
5BCA
  8
UMCL2
 10
4532.6386234581769
 20
4556.929473820921
 30
0.0
 11
4532.6386234581769
 21
4555.2628071542549
 31
0.0
 12
4537.6386234581769
 22
4556.0961404875879
 32
0.0
 13
4537.6386234581769
 23
4556.0961404875879
 33
0.0
  0
SOLID
  5
5BCB
  8
UMCL2
 10
4551.5746234581766
 20
4556.9301404875878
 30
0.0
 11
4551.5746234581766
 21
4555.2634738209217
 31
0.0
 12
4546.5746234581757
 22
4556.0968071542538
 32
0.0
 13
4546.5746234581757
 23
4556.0968071542538
 33
0.0
  0
LINE
  5
5BCC
  8
UMCL2
 10
4572.6386234581769
 20
4611.5961404875879
 30
0.0
 11
4572.6386234581769
 21
4554.0961404875879
 31
0.0
  0
SOLID
  5
5BCD
  8
UMCL2
 10
4567.6386234581769
 20
4556.929473820921
 30
0.0
 11
4567.6386234581769
 21
4555.2628071542549
 31
0.0
 12
4572.6386234581769
 22
4556.0961404875879
 32
0.0
 13
4572.6386234581769
 23
4556.0961404875879
 33
0.0
  0
TEXT
  5
5BCE
  8
UMCL2
 10
4554.8835404239599
 20
4558.4941404875881
 30
0.0
 40
6.0
  1
26
 41
0.85
 51
15.0
  7
ROMANS
  0
SOLID
  5
5BCF
  8
UMCL2
 10
4577.638623458176
 20
4556.929473820921
 30
0.0
 11
4577.638623458176
 21
4555.2628071542549
 31
0.0
 12
4572.6386234581769
 22
4556.0961404875879
 32
0.0
 13
4572.6386234581769
 23
4556.0961404875879
 33
0.0
  0
TEXT
  5
5BD0
  8
UMCL2
 10
4603.8036622130739
 20
4558.4961404875867
 30
0.0
 40
6.0
  1
72
 41
0.85
 51
15.0
  7
ROMANS
  0
TEXT
  5
5BD1
  8
UMCL2
 10
4681.9335314086029
 20
4542.4961404875876
 30
0.0
 40
6.0
  1
286
 41
0.85
 51
15.0
  7
ROMANS
  0
LINE
  5
5BD2
  8
UMCL2
 10
4644.6386234581778
 20
4596.9034377563421
 30
0.0
 11
4644.6386234581778
 21
4554.0961404875879
 31
0.0
  0
SOLID
  5
5BD3
  8
UMCL2
 10
4649.6386234581769
 20
4556.929473820921
 30
0.0
 11
4649.6386234581769
 21
4555.2628071542549
 31
0.0
 12
4644.6386234581778
 22
4556.0961404875879
 32
0.0
 13
4644.6386234581778
 23
4556.0961404875879
 33
0.0
  0
SOLID
  5
5BD4
  8
UMCL2
 10
4639.6386234581778
 20
4556.929473820921
 30
0.0
 11
4639.6386234581778
 21
4555.2628071542549
 31
0.0
 12
4644.6386234581778
 22
4556.0961404875879
 32
0.0
 13
4644.6386234581778
 23
4556.0961404875879
 33
0.0
  0
TEXT
  5
5BD5
  8
UMCL2
 10
4684.3740311936172
 20
4558.4961404875867
 30
0.0
 40
6.0
  1
90
 41
0.85
 51
15.0
  7
ROMANS
  0
LINE
  5
5BD6
  8
UMCL2
 10
4734.638623458176
 20
4596.9034377563421
 30
0.0
 11
4734.638623458176
 21
4554.0961404875879
 31
0.0
  0
SOLID
  5
5BD7
  8
UMCL2
 10
4739.638623458176
 20
4556.929473820921
 30
0.0
 11
4739.638623458176
 21
4555.2628071542549
 31
0.0
 12
4734.638623458176
 22
4556.0961404875879
 32
0.0
 13
4734.638623458176
 23
4556.0961404875879
 33
0.0
  0
SOLID
  5
5BD8
  8
UMCL2
 10
4729.6386234581769
 20
4556.929473820921
 30
0.0
 11
4729.6386234581769
 21
4555.2628071542549
 31
0.0
 12
4734.638623458176
 22
4556.0961404875879
 32
0.0
 13
4734.638623458176
 23
4556.0961404875879
 33
0.0
  0
LINE
  5
5BD9
  8
UMCL1
 10
4537.6386234581769
 20
4654.2961404875869
 30
0.0
 11
4537.6386234581769
 21
4649.8961404875863
 31
0.0
  0
LINE
  5
5BDA
  8
UMCL1
 10
4538.4386234581762
 20
4655.0961404875879
 30
0.0
 11
4538.4386234581762
 21
4649.0961404875879
 31
0.0
  0
LINE
  5
5BDB
  8
UMCL1
 10
4540.6386234581769
 20
4655.0961404875879
 30
0.0
 11
4538.4386234581762
 21
4655.0961404875879
 31
0.0
  0
LINE
  5
5BDC
  8
UMCL1
 10
4540.6386234581769
 20
4649.0961404875879
 30
0.0
 11
4538.4386234581762
 21
4649.0961404875879
 31
0.0
  0
LINE
  5
5BDD
  8
UMCL1
 10
4538.4386234581762
 20
4655.0961404875879
 30
0.0
 11
4537.6386234581769
 21
4654.2961404875869
 31
0.0
  0
LINE
  5
5BDE
  8
UMCL1
 10
4537.6386234581769
 20
4649.8961404875863
 30
0.0
 11
4538.4386234581762
 21
4649.0961404875879
 31
0.0
  0
LINE
  5
5BDF
  8
UMCL1
 62
     2
 10
4540.6386234581769
 20
4654.4961404875867
 30
0.0
 11
4537.8386234581767
 21
4654.4961404875867
 31
0.0
  0
LINE
  5
5BE0
  8
UMCL1
 62
     2
 10
4540.6386234581769
 20
4649.6961404875874
 30
0.0
 11
4537.8386234581767
 21
4649.6961404875874
 31
0.0
  0
LINE
  5
5BE1
  8
UMCL1
 10
4538.4386234581762
 20
4616.096140487587
 30
0.0
 11
4538.4386234581762
 21
4622.096140487587
 31
0.0
  0
LINE
  5
5BE2
  8
UMCL1
 10
4537.6386234581769
 20
4616.8961404875881
 30
0.0
 11
4537.6386234581769
 21
4621.2961404875869
 31
0.0
  0
LINE
  5
5BE3
  8
UMCL1
 62
     2
 10
4540.6386234581769
 20
4621.4961404875876
 30
0.0
 11
4537.8386234581767
 21
4621.4961404875876
 31
0.0
  0
LINE
  5
5BE4
  8
UMCL1
 10
4540.6386234581769
 20
4622.096140487587
 30
0.0
 11
4538.4386234581762
 21
4622.096140487587
 31
0.0
  0
LINE
  5
5BE5
  8
UMCL1
 10
4537.6386234581769
 20
4621.2961404875869
 30
0.0
 11
4538.4386234581762
 21
4622.096140487587
 31
0.0
  0
LINE
  5
5BE6
  8
UMCL1
 62
     2
 10
4540.6386234581769
 20
4616.6961404875883
 30
0.0
 11
4537.8386234581767
 21
4616.6961404875883
 31
0.0
  0
LINE
  5
5BE7
  8
UMCL1
 10
4540.6386234581769
 20
4616.096140487587
 30
0.0
 11
4538.4386234581762
 21
4616.096140487587
 31
0.0
  0
LINE
  5
5BE8
  8
UMCL1
 10
4538.4386234581762
 20
4616.096140487587
 30
0.0
 11
4537.6386234581769
 21
4616.8961404875881
 31
0.0
  0
LINE
  5
5BE9
  8
UMCL1
 10
4838.6386234581769
 20
4655.0961404875879
 30
0.0
 11
4840.8386234581767
 21
4655.0961404875879
 31
0.0
  0
LINE
  5
5BEA
  8
UMCL1
 62
     2
 10
4838.6386234581769
 20
4654.4961404875867
 30
0.0
 11
4841.4386234581771
 21
4654.4961404875867
 31
0.0
  0
LINE
  5
5BEB
  8
UMCL1
 10
4840.8386234581767
 20
4655.0961404875879
 30
0.0
 11
4840.8386234581767
 21
4649.0961404875879
 31
0.0
  0
LINE
  5
5BEC
  8
UMCL1
 10
4841.6386234581769
 20
4654.2961404875869
 30
0.0
 11
4841.6386234581769
 21
4649.8961404875863
 31
0.0
  0
LINE
  5
5BED
  8
UMCL1
 10
4841.6386234581769
 20
4649.8961404875863
 30
0.0
 11
4840.8386234581767
 21
4649.0961404875879
 31
0.0
  0
LINE
  5
5BEE
  8
UMCL1
 10
4840.8386234581767
 20
4655.0961404875879
 30
0.0
 11
4841.6386234581769
 21
4654.2961404875869
 31
0.0
  0
LINE
  5
5BEF
  8
UMCL1
 10
4838.6386234581769
 20
4649.0961404875879
 30
0.0
 11
4840.8386234581767
 21
4649.0961404875879
 31
0.0
  0
LINE
  5
5BF0
  8
UMCL1
 62
     2
 10
4838.6386234581769
 20
4649.6961404875874
 30
0.0
 11
4841.4386234581771
 21
4649.6961404875874
 31
0.0
  0
LINE
  5
5BF1
  8
UMCL1
 62
     2
 10
4838.6386234581769
 20
4616.6961404875883
 30
0.0
 11
4841.4386234581771
 21
4616.6961404875883
 31
0.0
  0
LINE
  5
5BF2
  8
UMCL1
 10
4838.6386234581769
 20
4616.096140487587
 30
0.0
 11
4840.8386234581767
 21
4616.096140487587
 31
0.0
  0
LINE
  5
5BF3
  8
UMCL1
 10
4841.6386234581769
 20
4616.8961404875881
 30
0.0
 11
4841.6386234581769
 21
4621.2961404875869
 31
0.0
  0
LINE
  5
5BF4
  8
UMCL1
 10
4840.8386234581767
 20
4616.096140487587
 30
0.0
 11
4840.8386234581767
 21
4622.096140487587
 31
0.0
  0
LINE
  5
5BF5
  8
UMCL1
 10
4840.8386234581767
 20
4616.096140487587
 30
0.0
 11
4841.6386234581769
 21
4616.8961404875881
 31
0.0
  0
LINE
  5
5BF6
  8
UMCL1
 10
4841.6386234581769
 20
4621.2961404875869
 30
0.0
 11
4840.8386234581767
 21
4622.096140487587
 31
0.0
  0
LINE
  5
5BF7
  8
UMCL1
 10
4838.6386234581769
 20
4622.096140487587
 30
0.0
 11
4840.8386234581767
 21
4622.096140487587
 31
0.0
  0
LINE
  5
5BF8
  8
UMCL1
 62
     2
 10
4838.6386234581769
 20
4621.4961404875876
 30
0.0
 11
4841.4386234581771
 21
4621.4961404875876
 31
0.0
  0
LINE
  5
5BF9
  8
UMCL2
 10
4841.6386234581769
 20
4613.8817575344956
 30
0.0
 11
4841.6386234581769
 21
4554.0961404875879
 31
0.0
  0
LINE
  5
5BFA
  8
UMCL2
 10
4832.638623458176
 20
4611.5961404875879
 30
0.0
 11
4832.638623458176
 21
4538.0961404875879
 31
0.0
  0
LINE
  5
5BFB
  8
UMCL2
 10
4806.6386234581769
 20
4611.5961404875879
 30
0.0
 11
4806.6386234581769
 21
4554.0961404875879
 31
0.0
  0
SOLID
  5
5BFC
  8
UMCL2
 10
4846.6386234581769
 20
4556.929473820921
 30
0.0
 11
4846.6386234581769
 21
4555.2628071542549
 31
0.0
 12
4841.6386234581769
 22
4556.0961404875879
 32
0.0
 13
4841.6386234581769
 23
4556.0961404875879
 33
0.0
  0
SOLID
  5
5BFD
  8
UMCL2
 10
4827.6386234581769
 20
4540.929473820921
 30
0.0
 11
4827.6386234581769
 21
4539.2628071542549
 31
0.0
 12
4832.638623458176
 22
4540.096140487587
 32
0.0
 13
4832.638623458176
 23
4540.096140487587
 33
0.0
  0
SOLID
  5
5BFE
  8
UMCL2
 10
4827.6866234581767
 20
4556.9274738209224
 30
0.0
 11
4827.6866234581767
 21
4555.2608071542536
 31
0.0
 12
4832.6866234581776
 22
4556.0941404875884
 32
0.0
 13
4832.6866234581776
 23
4556.0941404875884
 33
0.0
  0
SOLID
  5
5BFF
  8
UMCL2
 10
4811.638623458176
 20
4556.929473820921
 30
0.0
 11
4811.638623458176
 21
4555.2628071542549
 31
0.0
 12
4806.6386234581769
 22
4556.0961404875879
 32
0.0
 13
4806.6386234581769
 23
4556.0961404875879
 33
0.0
  0
SOLID
  5
5C00
  8
UMCL2
 10
4801.6386234581778
 20
4556.929473820921
 30
0.0
 11
4801.6386234581778
 21
4555.2628071542549
 31
0.0
 12
4806.6386234581769
 22
4556.0961404875879
 32
0.0
 13
4806.6386234581769
 23
4556.0961404875879
 33
0.0
  0
TEXT
  5
5C01
  8
UMCL2
 10
4813.8914060068673
 20
4558.3264061664959
 30
0.0
 40
6.0
  1
26
 41
0.85
 51
15.0
  7
ROMANS
  0
SOLID
  5
5C02
  8
UMCL2
 10
4815.2894179008863
 20
4645.2877246736934
 30
0.0
 11
4813.9724167635077
 21
4644.2663110542808
 31
0.0
 12
4817.6951581904323
 22
4640.8260144518499
 32
0.0
 13
4817.6951581904323
 23
4640.8260144518499
 33
0.0
  0
LINE
  5
5C03
  8
UMCL2
 10
4793.2428948347724
 20
4672.3545333974307
 30
0.0
 11
4817.6951581904314
 21
4640.8260144518499
 31
0.0
  0
LINE
  5
5C04
  8
UMCL2
 10
4748.3618068453252
 20
4672.3545333974307
 30
0.0
 11
4793.2428948347724
 21
4672.3545333974307
 31
0.0
  0
TEXT
  5
5C05
  8
UMCL2
 10
4749.619612297226
 20
4674.9268392423146
 30
0.0
 40
6.0
  1
2-PT 1/4
 41
0.85
 51
15.0
  7
ROMANS
  0
LINE
  5
5C06
  8
HIDDEN
 10
4965.2388955574897
 20
4641.7853044380263
 30
0.0
 11
4965.2388955574897
 21
4629.5460261635253
 31
0.0
  0
LINE
  5
5C07
  8
HIDDEN
 10
4956.0730642759299
 20
4629.0656653007763
 30
0.0
 11
4965.2388955574897
 21
4629.5460261635253
 31
0.0
  0
LINE
  5
5C08
  8
HIDDEN
 10
4956.0730642759299
 20
4629.9656653007751
 30
0.0
 11
4965.2388955574897
 21
4630.446026163524
 31
0.0
  0
LINE
  5
5C09
  8
HIDDEN
 10
4956.0730642759299
 20
4642.2656653007753
 30
0.0
 11
4965.2388955574897
 21
4641.7853044380263
 31
0.0
  0
LINE
  5
5C0A
  8
HIDDEN
 10
4956.0730642759299
 20
4641.3656653007747
 30
0.0
 11
4965.2388955574897
 21
4640.8853044380248
 31
0.0
  0
LINE
  5
5C0B
  8
CEN
 10
4972.9135394627428
 20
4677.463443775212
 30
0.0
 11
4972.9135394627428
 21
4647.6476264789808
 31
0.0
  0
LINE
  5
5C0C
  8
HIDDEN
 10
4968.9135394627428
 20
4673.096140487587
 30
0.0
 11
4968.9135394627428
 21
4658.0961404875879
 31
0.0
  0
LINE
  5
5C0D
  8
HIDDEN
 10
4976.9135394627419
 20
4673.096140487587
 30
0.0
 11
4976.9135394627419
 21
4658.0961404875879
 31
0.0
  0
LINE
  5
5C0E
  8
HIDDEN
 10
4969.6635394627419
 20
4673.096140487587
 30
0.0
 11
4969.6635394627419
 21
4654.096140487587
 31
0.0
  0
LINE
  5
5C0F
  8
HIDDEN
 10
4976.1635394627419
 20
4673.096140487587
 30
0.0
 11
4976.1635394627419
 21
4654.096140487587
 31
0.0
  0
LINE
  5
5C10
  8
HIDDEN
 10
4968.9135394627419
 20
4658.0961404875879
 30
0.0
 11
4976.9135394627419
 21
4658.0961404875879
 31
0.0
  0
LINE
  5
5C11
  8
HIDDEN
 10
4969.6635394627428
 20
4654.096140487587
 30
0.0
 11
4976.1635394627419
 21
4654.096140487587
 31
0.0
  0
LINE
  5
5C12
  8
HIDDEN
 10
4972.9135394627419
 20
4652.0961404875879
 30
0.0
 11
4969.6635394627419
 21
4654.096140487587
 31
0.0
  0
LINE
  5
5C13
  8
HIDDEN
 10
4976.1635394627419
 20
4654.096140487587
 30
0.0
 11
4972.9135394627419
 21
4652.0961404875879
 31
0.0
  0
LINE
  5
5C14
  8
CEN
 10
4972.9135394627428
 20
4593.7288371999639
 30
0.0
 11
4972.9135394627428
 21
4623.5446544961942
 31
0.0
  0
LINE
  5
5C15
  8
HIDDEN
 10
4976.1635394627419
 20
4598.096140487587
 30
0.0
 11
4976.1635394627419
 21
4617.0961404875879
 31
0.0
  0
LINE
  5
5C16
  8
HIDDEN
 10
4969.6635394627419
 20
4598.096140487587
 30
0.0
 11
4969.6635394627419
 21
4617.0961404875879
 31
0.0
  0
LINE
  5
5C17
  8
HIDDEN
 10
4976.9135394627419
 20
4598.096140487587
 30
0.0
 11
4976.9135394627419
 21
4613.0961404875879
 31
0.0
  0
LINE
  5
5C18
  8
HIDDEN
 10
4968.9135394627428
 20
4598.096140487587
 30
0.0
 11
4968.9135394627428
 21
4613.0961404875879
 31
0.0
  0
LINE
  5
5C19
  8
HIDDEN
 10
4968.9135394627419
 20
4613.0961404875879
 30
0.0
 11
4976.9135394627419
 21
4613.0961404875879
 31
0.0
  0
LINE
  5
5C1A
  8
HIDDEN
 10
4969.6635394627428
 20
4617.0961404875879
 30
0.0
 11
4976.1635394627419
 21
4617.0961404875879
 31
0.0
  0
LINE
  5
5C1B
  8
HIDDEN
 10
4972.9135394627419
 20
4619.096140487587
 30
0.0
 11
4969.6635394627419
 21
4617.0961404875879
 31
0.0
  0
LINE
  5
5C1C
  8
HIDDEN
 10
4976.1635394627419
 20
4617.0961404875879
 30
0.0
 11
4972.9135394627419
 21
4619.096140487587
 31
0.0
  0
ARC
  5
5C1D
  8
UMCL1
 62
     2
 10
4557.6386234581769
 20
4635.5961404875879
 30
0.0
 40
6.5499999999999989
 50
76.808406561052081
 51
17.812050157624729
  0
CIRCLE
  5
5C1E
  8
UMCL1
 10
4557.6386234581769
 20
4635.5961404875879
 30
0.0
 40
5.75
  0
LINE
  5
5C1F
  8
UMCL1
 10
4744.6386234581769
 20
4904.3104437728653
 30
0.0
 11
4743.6386234581769
 21
4905.3104437728653
 31
0.0
  0
LINE
  5
5C20
  8
UMCL1
 10
4743.6386234581769
 20
4895.3104437728653
 30
0.0
 11
4743.6386234581769
 21
4905.3104437728653
 31
0.0
  0
LINE
  5
5C21
  8
UMCL1
 10
4744.6386234581769
 20
4896.3104437728653
 30
0.0
 11
4743.6386234581769
 21
4895.3104437728653
 31
0.0
  0
LINE
  5
5C22
  8
UMCL1
 10
4744.6386234581769
 20
4896.3104437728653
 30
0.0
 11
4744.6386234581769
 21
4904.3104437728653
 31
0.0
  0
LINE
  5
5C23
  8
HIDDEN
 10
4740.6386234581769
 20
4901.7538194458402
 30
0.0
 11
4744.6386234581769
 21
4901.7538194458402
 31
0.0
  0
LINE
  5
5C24
  8
HIDDEN
 10
4740.6386234581769
 20
4903.1971951188143
 30
0.0
 11
4744.6386234581769
 21
4903.1971951188143
 31
0.0
  0
LINE
  5
5C25
  8
HIDDEN
 10
4740.6386234581769
 20
4897.4236924269171
 30
0.0
 11
4744.6386234581769
 21
4897.4236924269171
 31
0.0
  0
LINE
  5
5C26
  8
HIDDEN
 10
4740.6386234581769
 20
4898.8670680998921
 30
0.0
 11
4744.6386234581769
 21
4898.8670680998921
 31
0.0
  0
LINE
  5
5C27
  8
HIDDEN
 10
4740.6386234581769
 20
4903.1971951188143
 30
0.0
 11
4739.971956791509
 21
4900.3104437728653
 31
0.0
  0
LINE
  5
5C28
  8
HIDDEN
 10
4740.6386234581769
 20
4897.4236924269171
 30
0.0
 11
4740.6386234581769
 21
4903.1971951188143
 31
0.0
  0
LINE
  5
5C29
  8
HIDDEN
 10
4740.6386234581769
 20
4897.4236924269171
 30
0.0
 11
4739.971956791509
 21
4900.3104437728653
 31
0.0
  0
LINE
  5
5C2A
  8
HIDDEN
 10
4742.638623458176
 20
4896.0604437728634
 30
0.0
 11
4744.3886234581751
 21
4896.0604437728634
 31
0.0
  0
LINE
  5
5C2B
  8
HIDDEN
 10
4742.638623458176
 20
4904.5604437728643
 30
0.0
 11
4744.3886234581769
 21
4904.5604437728643
 31
0.0
  0
LINE
  5
5C2C
  8
UMCL1
 10
4742.638623458176
 20
4905.3104437728653
 30
0.0
 11
4743.6386234581769
 21
4905.3104437728653
 31
0.0
  0
LINE
  5
5C2D
  8
UMCL1
 10
4742.638623458176
 20
4895.3104437728634
 30
0.0
 11
4743.6386234581751
 21
4895.3104437728634
 31
0.0
  0
LINE
  5
5C2E
  8
UMCL1
 62
     2
 10
4838.6386234581769
 20
4862.9104437728683
 30
0.0
 11
4841.4386234581762
 21
4862.9104437728683
 31
0.0
  0
LINE
  5
5C2F
  8
UMCL1
 10
4838.6386234581769
 20
4862.310443772868
 30
0.0
 11
4840.8386234581767
 21
4862.310443772868
 31
0.0
  0
LINE
  5
5C30
  8
UMCL1
 10
4840.8386234581767
 20
4868.310443772868
 30
0.0
 11
4841.638623458176
 21
4867.5104437728678
 31
0.0
  0
LINE
  5
5C31
  8
UMCL1
 10
4841.638623458176
 20
4863.1104437728682
 30
0.0
 11
4840.8386234581767
 21
4862.310443772868
 31
0.0
  0
LINE
  5
5C32
  8
UMCL1
 10
4841.638623458176
 20
4867.5104437728678
 30
0.0
 11
4841.638623458176
 21
4863.1104437728682
 31
0.0
  0
LINE
  5
5C33
  8
UMCL1
 10
4840.8386234581767
 20
4868.310443772868
 30
0.0
 11
4840.8386234581767
 21
4862.310443772868
 31
0.0
  0
LINE
  5
5C34
  8
UMCL1
 62
     2
 10
4838.6386234581769
 20
4867.7104437728667
 30
0.0
 11
4841.4386234581762
 21
4867.7104437728667
 31
0.0
  0
LINE
  5
5C35
  8
UMCL1
 10
4838.6386234581769
 20
4868.310443772868
 30
0.0
 11
4840.8386234581767
 21
4868.310443772868
 31
0.0
  0
LINE
  5
5C36
  8
UMCL1
 10
4838.6386234581769
 20
4835.310443772868
 30
0.0
 11
4840.8386234581767
 21
4835.310443772868
 31
0.0
  0
LINE
  5
5C37
  8
UMCL1
 62
     2
 10
4838.6386234581769
 20
4834.7104437728667
 30
0.0
 11
4841.4386234581762
 21
4834.7104437728667
 31
0.0
  0
LINE
  5
5C38
  8
UMCL1
 10
4840.8386234581767
 20
4835.310443772868
 30
0.0
 11
4840.8386234581767
 21
4829.310443772868
 31
0.0
  0
LINE
  5
5C39
  8
UMCL1
 10
4841.638623458176
 20
4834.5104437728678
 30
0.0
 11
4841.638623458176
 21
4830.1104437728682
 31
0.0
  0
LINE
  5
5C3A
  8
UMCL1
 10
4841.638623458176
 20
4830.1104437728682
 30
0.0
 11
4840.8386234581767
 21
4829.310443772868
 31
0.0
  0
LINE
  5
5C3B
  8
UMCL1
 10
4840.8386234581767
 20
4835.310443772868
 30
0.0
 11
4841.638623458176
 21
4834.5104437728678
 31
0.0
  0
LINE
  5
5C3C
  8
UMCL1
 10
4838.6386234581769
 20
4829.310443772868
 30
0.0
 11
4840.8386234581767
 21
4829.310443772868
 31
0.0
  0
LINE
  5
5C3D
  8
UMCL1
 62
     2
 10
4838.6386234581769
 20
4829.9104437728674
 30
0.0
 11
4841.4386234581762
 21
4829.9104437728674
 31
0.0
  0
LINE
  5
5C3E
  8
UMCL1
 10
4540.6386234581769
 20
4868.310443772868
 30
0.0
 11
4538.438623458178
 21
4868.310443772868
 31
0.0
  0
LINE
  5
5C3F
  8
UMCL1
 62
     2
 10
4540.6386234581769
 20
4867.7104437728667
 30
0.0
 11
4537.8386234581767
 21
4867.7104437728667
 31
0.0
  0
LINE
  5
5C40
  8
UMCL1
 10
4538.438623458178
 20
4868.310443772868
 30
0.0
 11
4538.438623458178
 21
4862.310443772868
 31
0.0
  0
LINE
  5
5C41
  8
UMCL1
 10
4537.6386234581769
 20
4867.5104437728678
 30
0.0
 11
4537.6386234581769
 21
4863.1104437728682
 31
0.0
  0
LINE
  5
5C42
  8
UMCL1
 10
4537.6386234581769
 20
4863.1104437728682
 30
0.0
 11
4538.438623458178
 21
4862.310443772868
 31
0.0
  0
LINE
  5
5C43
  8
UMCL1
 10
4538.438623458178
 20
4868.310443772868
 30
0.0
 11
4537.6386234581769
 21
4867.5104437728678
 31
0.0
  0
LINE
  5
5C44
  8
UMCL1
 10
4540.6386234581769
 20
4862.310443772868
 30
0.0
 11
4538.438623458178
 21
4862.310443772868
 31
0.0
  0
LINE
  5
5C45
  8
UMCL1
 62
     2
 10
4540.6386234581769
 20
4862.9104437728683
 30
0.0
 11
4537.8386234581767
 21
4862.9104437728683
 31
0.0
  0
LINE
  5
5C46
  8
UMCL1
 62
     2
 10
4540.6386234581769
 20
4829.9104437728674
 30
0.0
 11
4537.8386234581767
 21
4829.9104437728674
 31
0.0
  0
LINE
  5
5C47
  8
UMCL1
 10
4540.6386234581769
 20
4829.310443772868
 30
0.0
 11
4538.438623458178
 21
4829.310443772868
 31
0.0
  0
LINE
  5
5C48
  8
UMCL1
 10
4538.438623458178
 20
4835.310443772868
 30
0.0
 11
4537.6386234581769
 21
4834.5104437728678
 31
0.0
  0
LINE
  5
5C49
  8
UMCL1
 10
4537.6386234581769
 20
4830.1104437728682
 30
0.0
 11
4538.438623458178
 21
4829.310443772868
 31
0.0
  0
LINE
  5
5C4A
  8
UMCL1
 10
4537.6386234581769
 20
4834.5104437728678
 30
0.0
 11
4537.6386234581769
 21
4830.1104437728682
 31
0.0
  0
LINE
  5
5C4B
  8
UMCL1
 10
4538.438623458178
 20
4835.310443772868
 30
0.0
 11
4538.438623458178
 21
4829.310443772868
 31
0.0
  0
LINE
  5
5C4C
  8
UMCL1
 62
     2
 10
4540.6386234581769
 20
4834.7104437728667
 30
0.0
 11
4537.8386234581767
 21
4834.7104437728667
 31
0.0
  0
LINE
  5
5C4D
  8
UMCL1
 10
4540.6386234581769
 20
4835.310443772868
 30
0.0
 11
4538.438623458178
 21
4835.310443772868
 31
0.0
  0
LINE
  5
5C4E
  8
CEN
 10
4557.6386234581769
 20
4824.6923059910041
 30
0.0
 11
4557.6386234581769
 21
4841.2382465403234
 31
0.0
  0
LINE
  5
5C4F
  8
CEN
 10
4557.6386234581769
 20
4646.9569154238034
 30
0.0
 11
4557.6386234581769
 21
4624.2353655513716
 31
0.0
  0
TEXT
  5
5C50
  8
UMCL2
 10
4768.4116573364527
 20
4558.4961404875867
 30
0.0
 40
6.0
  1
72
 41
0.85
 51
15.0
  7
ROMANS
  0
TEXT
  5
5C51
  8
UMCL2
 10
4848.984641657973
 20
4557.6634738209214
 30
0.0
 40
6.0
  1
9
 41
0.85
 51
15.0
  7
ROMANS
  0
LINE
  5
5C52
  8
UMCL1
 10
4644.6386234581769
 20
4868.3104437728671
 30
0.0
 11
4572.6386234581769
 21
4868.310443772868
 31
0.0
  0
LINE
  5
5C53
  8
UMCL1
 10
4644.6386234581769
 20
4862.3104437728671
 30
0.0
 11
4572.6386234581769
 21
4862.310443772868
 31
0.0
  0
LINE
  5
5C54
  8
UMCL1
 10
4644.6386234581769
 20
4829.310443772868
 30
0.0
 11
4572.6386234581769
 21
4829.310443772868
 31
0.0
  0
LINE
  5
5C55
  8
HIDDEN
 10
4644.6386234581769
 20
4830.310443772868
 30
0.0
 11
4572.6386234581769
 21
4830.310443772868
 31
0.0
  0
LINE
  5
5C56
  8
CEN
 10
4644.6386234581769
 20
4832.3104437728671
 30
0.0
 11
4536.6386234581778
 21
4832.310443772868
 31
0.0
  0
LINE
  5
5C57
  8
UMCL1
 10
4644.6386234581769
 20
4835.310443772868
 30
0.0
 11
4572.6386234581769
 21
4835.310443772868
 31
0.0
  0
LINE
  5
5C58
  8
UMCL1
 10
4734.638623458176
 20
4868.3104437728671
 30
0.0
 11
4806.6386234581769
 21
4868.310443772868
 31
0.0
  0
LINE
  5
5C59
  8
HIDDEN
 10
4734.638623458176
 20
4867.310443772868
 30
0.0
 11
4806.6386234581769
 21
4867.310443772868
 31
0.0
  0
LINE
  5
5C5A
  8
CEN
 10
4734.638623458176
 20
4865.310443772868
 30
0.0
 11
4842.6386234581769
 21
4865.310443772868
 31
0.0
  0
LINE
  5
5C5B
  8
UMCL1
 10
4734.638623458176
 20
4862.3104437728671
 30
0.0
 11
4806.6386234581769
 21
4862.310443772868
 31
0.0
  0
LINE
  5
5C5C
  8
UMCL1
 10
4734.638623458176
 20
4835.310443772868
 30
0.0
 11
4806.6386234581769
 21
4835.310443772868
 31
0.0
  0
LINE
  5
5C5D
  8
CEN
 10
4734.638623458176
 20
4832.3104437728671
 30
0.0
 11
4842.6386234581769
 21
4832.310443772868
 31
0.0
  0
LINE
  5
5C5E
  8
HIDDEN
 10
4734.638623458176
 20
4830.310443772868
 30
0.0
 11
4806.6386234581769
 21
4830.310443772868
 31
0.0
  0
LINE
  5
5C5F
  8
UMCL1
 10
4734.638623458176
 20
4829.310443772868
 30
0.0
 11
4806.6386234581769
 21
4829.310443772868
 31
0.0
  0
LINE
  5
5C60
  8
CEN
 10
4711.1386234581778
 20
4829.3904926610576
 30
0.0
 11
4711.1386234581778
 21
4807.310443772868
 31
0.0
  0
LINE
  5
5C61
  8
UMCL1
 10
4806.6386234581769
 20
4870.8104437728671
 30
0.0
 11
4806.6386234581769
 21
4826.810443772868
 31
0.0
  0
CIRCLE
  5
5C62
  8
UMCL1
 10
4689.6386234581769
 20
4878.810443772868
 30
0.0
 40
41.0
  0
CIRCLE
  5
5C63
  8
CEN
 10
4689.6386234581769
 20
4878.810443772868
 30
0.0
 40
33.5
  0
LINE
  5
5C64
  8
CEN
 10
4672.9859709568573
 20
4862.1577912715456
 30
0.0
 11
4658.9151216199998
 21
4848.08694193469
 31
0.0
  0
CIRCLE
  5
5C65
  8
UMCL1
 10
4665.9505462884281
 20
4855.1223666031192
 30
0.0
 40
2.5
  0
ARC
  5
5C66
  8
UMCL1
 62
     2
 10
4665.9505462884281
 20
4855.1223666031192
 30
0.0
 40
3.0
 50
297.35626838235851
 51
246.00402759871241
  0
LINE
  5
5C67
  8
CEN
 10
4734.638623458176
 20
4848.810443772868
 30
0.0
 11
4837.6386234581769
 21
4848.810443772868
 31
0.0
  0
CIRCLE
  5
5C68
  8
UMCL1
 10
4689.6386234581769
 20
4845.310443772868
 30
0.0
 40
5.5
  0
CIRCLE
  5
5C69
  8
UMCL1
 10
4689.6386234581769
 20
4845.310443772868
 30
0.0
 40
5.0
  0
CIRCLE
  5
5C6A
  8
UMCL1
 10
4689.6386234581769
 20
4845.310443772868
 30
0.0
 40
4.5
  0
POLYLINE
  5
5C6B
  8
UMCL1
 66
     1
 10
0.0
 20
0.0
 30
0.0
 70
     1
  0
VERTEX
  5
65AC
  8
UMCL1
 10
4688.1952477852037
 20
4847.810443772868
 30
0.0
  0
VERTEX
  5
65AD
  8
UMCL1
 10
4686.7518721122278
 20
4845.310443772868
 30
0.0
  0
VERTEX
  5
65AE
  8
UMCL1
 10
4688.1952477852037
 20
4842.810443772868
 30
0.0
  0
VERTEX
  5
65AF
  8
UMCL1
 10
4691.0819991311519
 20
4842.810443772868
 30
0.0
  0
VERTEX
  5
65B0
  8
UMCL1
 10
4692.5253748041259
 20
4845.310443772868
 30
0.0
  0
VERTEX
  5
65B1
  8
UMCL1
 10
4691.0819991311519
 20
4847.810443772868
 30
0.0
  0
SEQEND
  5
65B2
  8
UMCL1
  0
POLYLINE
  5
5C6C
  8
UMCL1
 66
     1
 10
0.0
 20
0.0
 30
0.0
 70
     1
  0
VERTEX
  5
65B3
  8
UMCL1
 10
4654.6952477852028
 20
4881.3104437728671
 30
0.0
  0
VERTEX
  5
65B4
  8
UMCL1
 10
4653.2518721122278
 20
4878.8104437728662
 30
0.0
  0
VERTEX
  5
65B5
  8
UMCL1
 10
4654.6952477852028
 20
4876.3104437728671
 30
0.0
  0
VERTEX
  5
65B6
  8
UMCL1
 10
4657.581999131151
 20
4876.3104437728671
 30
0.0
  0
VERTEX
  5
65B7
  8
UMCL1
 10
4659.025374804125
 20
4878.8104437728662
 30
0.0
  0
VERTEX
  5
65B8
  8
UMCL1
 10
4657.581999131151
 20
4881.3104437728671
 30
0.0
  0
SEQEND
  5
65B9
  8
UMCL1
  0
CIRCLE
  5
5C6D
  8
UMCL1
 10
4656.138623458176
 20
4878.810443772868
 30
0.0
 40
4.5
  0
CIRCLE
  5
5C6E
  8
UMCL1
 10
4656.138623458176
 20
4878.810443772868
 30
0.0
 40
5.0
  0
CIRCLE
  5
5C6F
  8
UMCL1
 10
4656.138623458176
 20
4878.810443772868
 30
0.0
 40
5.5
  0
CIRCLE
  5
5C70
  8
UMCL1
 10
4689.6386234581769
 20
4878.810443772868
 30
0.0
 40
20.0
  0
LINE
  5
5C71
  8
CEN
 10
4663.9622712982537
 20
4843.810443772868
 30
0.0
 11
4645.3149756180983
 21
4843.810443772868
 31
0.0
  0
LINE
  5
5C72
  8
CEN
 10
4654.638623458176
 20
4834.4867959327894
 30
0.0
 11
4654.638623458176
 21
4853.1340916129457
 31
0.0
  0
LINE
  5
5C73
  8
CEN
 10
4724.6386234581769
 20
4834.4867959327894
 30
0.0
 11
4724.6386234581769
 21
4853.1340916129457
 31
0.0
  0
LINE
  5
5C74
  8
CEN
 10
4733.9622712982546
 20
4843.810443772868
 30
0.0
 11
4715.3149756180992
 21
4843.810443772868
 31
0.0
  0
ARC
  5
5C75
  8
UMCL1
 62
     2
 10
4654.638623458176
 20
4843.810443772868
 30
0.0
 40
4.0
 50
156.62661036295489
 51
117.295953353016
  0
CIRCLE
  5
5C76
  8
UMCL1
 10
4654.638623458176
 20
4843.810443772868
 30
0.0
 40
3.399999999999999
  0
CIRCLE
  5
5C77
  8
UMCL1
 10
4724.6386234581769
 20
4843.810443772868
 30
0.0
 40
3.399999999999999
  0
ARC
  5
5C78
  8
UMCL1
 62
     2
 10
4724.6386234581769
 20
4843.810443772868
 30
0.0
 40
4.0
 50
156.62661036295489
 51
117.295953353016
  0
LINE
  5
5C79
  8
UMCL1
 10
4565.638623458176
 20
4870.8104437728671
 30
0.0
 11
4563.5386234581756
 21
4870.8104437728671
 31
0.0
  0
LINE
  5
5C7A
  8
UMCL1
 10
4553.638623458176
 20
4870.8104437728671
 30
0.0
 11
4559.638623458176
 21
4870.8104437728671
 31
0.0
  0
LINE
  5
5C7B
  8
UMCL1
 10
4553.6386234581742
 20
4874.8139051375802
 30
0.0
 11
4565.638623458176
 21
4874.8139051375802
 31
0.0
  0
LINE
  5
5C7C
  8
UMCL1
 10
4565.638623458176
 20
4874.8139051375802
 30
0.0
 11
4566.5668266884513
 21
4874.4760667904111
 31
0.0
  0
LINE
  5
5C7D
  8
UMCL1
 10
4566.5668266884513
 20
4874.4760667904111
 30
0.0
 11
4566.5668266884513
 21
4871.0104437728678
 31
0.0
  0
LINE
  5
5C7E
  8
UMCL1
 10
4565.638623458176
 20
4871.0104437728678
 30
0.0
 11
4565.638623458176
 21
4870.8104437728671
 31
0.0
  0
LINE
  5
5C7F
  8
UMCL1
 10
4552.7104202278997
 20
4871.0104437728678
 30
0.0
 11
4566.5668266884513
 21
4871.0104437728669
 31
0.0
  0
LINE
  5
5C80
  8
UMCL1
 10
4553.638623458176
 20
4874.8139051375802
 30
0.0
 11
4552.7104202278997
 21
4874.4760667904111
 31
0.0
  0
LINE
  5
5C81
  8
UMCL1
 10
4552.7104202278997
 20
4874.4760667904111
 30
0.0
 11
4552.7104202278997
 21
4871.0104437728678
 31
0.0
  0
LINE
  5
5C82
  8
UMCL1
 10
4553.638623458176
 20
4871.0104437728678
 30
0.0
 11
4553.638623458176
 21
4870.8104437728671
 31
0.0
  0
LINE
  5
5C83
  8
UMCL1
 10
4555.9332761870564
 20
4871.0104437728678
 30
0.0
 11
4555.9332761870564
 21
4874.4760667904111
 31
0.0
  0
ARC
  5
5C84
  8
UMCL1
 10
4554.3218482074781
 20
4870.8234093307201
 30
0.0
 40
3.992318455634094
 50
66.1945626177138
 51
113.8054373822862
  0
LINE
  5
5C85
  8
UMCL1
 10
4556.6570131549997
 20
4871.0104437728678
 30
0.0
 11
4556.6570131549997
 21
4874.4760667904111
 31
0.0
  0
LINE
  5
5C86
  8
UMCL1
 10
4555.9332761870564
 20
4874.4760667904111
 30
0.0
 11
4556.6570131549997
 21
4874.4760667904111
 31
0.0
  0
ARC
  5
5C87
  8
UMCL1
 10
4559.638623458176
 20
4861.487805800045
 30
0.0
 40
13.326099337533821
 50
77.071076092191333
 51
102.9289239078087
  0
LINE
  5
5C88
  8
UMCL1
 10
4563.3439707292964
 20
4871.0104437728678
 30
0.0
 11
4563.3439707292964
 21
4874.4760667904111
 31
0.0
  0
ARC
  5
5C89
  8
UMCL1
 10
4564.9553987088739
 20
4870.8234093307201
 30
0.0
 40
3.992318455634094
 50
66.1945626177138
 51
113.8054373822862
  0
LINE
  5
5C8A
  8
UMCL1
 10
4562.6202337613522
 20
4871.0104437728678
 30
0.0
 11
4562.6202337613522
 21
4874.4760667904111
 31
0.0
  0
LINE
  5
5C8B
  8
UMCL1
 10
4556.6386234581769
 20
4874.8139051375783
 30
0.0
 11
4556.6386234581769
 21
4876.0139051375781
 31
0.0
  0
LINE
  5
5C8C
  8
UMCL1
 62
     2
 10
4557.2386234581763
 20
4874.8139051375783
 30
0.0
 11
4557.2386234581772
 21
4876.6139051375776
 31
0.0
  0
LINE
  5
5C8D
  8
UMCL1
 10
4556.6386234581769
 20
4876.0139051375781
 30
0.0
 11
4562.6386234581769
 21
4876.0139051375781
 31
0.0
  0
LINE
  5
5C8E
  8
UMCL1
 10
4557.4386234581771
 20
4876.8139051375783
 30
0.0
 11
4561.8386234581767
 21
4876.8139051375783
 31
0.0
  0
LINE
  5
5C8F
  8
UMCL1
 10
4561.8386234581767
 20
4876.8139051375783
 30
0.0
 11
4562.6386234581769
 21
4876.0139051375781
 31
0.0
  0
LINE
  5
5C90
  8
UMCL1
 10
4556.6386234581769
 20
4876.0139051375781
 30
0.0
 11
4557.4386234581771
 21
4876.8139051375783
 31
0.0
  0
LINE
  5
5C91
  8
UMCL1
 10
4562.6386234581769
 20
4874.8139051375783
 30
0.0
 11
4562.6386234581769
 21
4876.0139051375781
 31
0.0
  0
LINE
  5
5C92
  8
UMCL1
 62
     2
 10
4562.0386234581756
 20
4874.8139051375783
 30
0.0
 11
4562.0386234581756
 21
4876.6139051375776
 31
0.0
  0
LINE
  5
5C93
  8
UMCL1
 10
4565.638623458176
 20
4657.5961404875889
 30
0.0
 11
4563.5386234581756
 21
4657.5961404875889
 31
0.0
  0
LINE
  5
5C94
  8
UMCL1
 10
4553.638623458176
 20
4657.5961404875879
 30
0.0
 11
4559.638623458176
 21
4657.5961404875879
 31
0.0
  0
LINE
  5
5C95
  8
UMCL1
 10
4553.6386234581742
 20
4661.5996018523001
 30
0.0
 11
4565.638623458176
 21
4661.599601852301
 31
0.0
  0
LINE
  5
5C96
  8
UMCL1
 10
4565.638623458176
 20
4661.599601852301
 30
0.0
 11
4566.5668266884513
 21
4661.2617635051311
 31
0.0
  0
LINE
  5
5C97
  8
UMCL1
 10
4566.5668266884513
 20
4661.2617635051311
 30
0.0
 11
4566.5668266884513
 21
4657.7961404875878
 31
0.0
  0
LINE
  5
5C98
  8
UMCL1
 10
4565.638623458176
 20
4657.7961404875878
 30
0.0
 11
4565.638623458176
 21
4657.5961404875879
 31
0.0
  0
LINE
  5
5C99
  8
UMCL1
 10
4552.7104202278997
 20
4657.7961404875878
 30
0.0
 11
4566.5668266884513
 21
4657.7961404875878
 31
0.0
  0
LINE
  5
5C9A
  8
UMCL1
 10
4553.638623458176
 20
4661.599601852301
 30
0.0
 11
4552.7104202278997
 21
4661.2617635051311
 31
0.0
  0
LINE
  5
5C9B
  8
UMCL1
 10
4552.7104202278997
 20
4661.2617635051311
 30
0.0
 11
4552.7104202278997
 21
4657.7961404875878
 31
0.0
  0
LINE
  5
5C9C
  8
UMCL1
 10
4553.638623458176
 20
4657.7961404875878
 30
0.0
 11
4553.638623458176
 21
4657.5961404875879
 31
0.0
  0
LINE
  5
5C9D
  8
UMCL1
 10
4555.9332761870564
 20
4657.7961404875878
 30
0.0
 11
4555.9332761870564
 21
4661.2617635051311
 31
0.0
  0
ARC
  5
5C9E
  8
UMCL1
 10
4554.3218482074781
 20
4657.6091060454401
 30
0.0
 40
3.992318455634094
 50
66.1945626177138
 51
113.8054373822862
  0
LINE
  5
5C9F
  8
UMCL1
 10
4556.6570131549997
 20
4657.7961404875878
 30
0.0
 11
4556.6570131549997
 21
4661.2617635051311
 31
0.0
  0
LINE
  5
5CA0
  8
UMCL1
 10
4555.9332761870564
 20
4661.2617635051311
 30
0.0
 11
4556.6570131549997
 21
4661.2617635051311
 31
0.0
  0
ARC
  5
5CA1
  8
UMCL1
 10
4559.638623458176
 20
4648.2735025147667
 30
0.0
 40
13.326099337533821
 50
77.071076092191333
 51
102.9289239078087
  0
LINE
  5
5CA2
  8
UMCL1
 10
4563.3439707292946
 20
4657.7961404875878
 30
0.0
 11
4563.3439707292946
 21
4661.2617635051311
 31
0.0
  0
ARC
  5
5CA3
  8
UMCL1
 10
4564.9553987088739
 20
4657.6091060454401
 30
0.0
 40
3.992318455634094
 50
66.1945626177138
 51
113.8054373822862
  0
LINE
  5
5CA4
  8
UMCL1
 10
4562.6202337613522
 20
4657.7961404875878
 30
0.0
 11
4562.6202337613522
 21
4661.2617635051311
 31
0.0
  0
LINE
  5
5CA5
  8
UMCL1
 10
4825.6386234581769
 20
4657.5961404875879
 30
0.0
 11
4823.5386234581756
 21
4657.5961404875879
 31
0.0
  0
LINE
  5
5CA6
  8
UMCL1
 10
4813.6386234581769
 20
4657.5961404875879
 30
0.0
 11
4819.6386234581769
 21
4657.5961404875879
 31
0.0
  0
LINE
  5
5CA7
  8
UMCL1
 10
4813.6386234581742
 20
4661.5996018523001
 30
0.0
 11
4825.6386234581769
 21
4661.5996018523001
 31
0.0
  0
LINE
  5
5CA8
  8
UMCL1
 10
4825.6386234581769
 20
4661.5996018523001
 30
0.0
 11
4826.5668266884522
 21
4661.2617635051292
 31
0.0
  0
LINE
  5
5CA9
  8
UMCL1
 10
4826.5668266884522
 20
4661.2617635051292
 30
0.0
 11
4826.5668266884522
 21
4657.7961404875878
 31
0.0
  0
LINE
  5
5CAA
  8
UMCL1
 10
4825.6386234581769
 20
4657.7961404875878
 30
0.0
 11
4825.6386234581769
 21
4657.5961404875879
 31
0.0
  0
LINE
  5
5CAB
  8
UMCL1
 10
4812.7104202279006
 20
4657.7961404875878
 30
0.0
 11
4826.5668266884522
 21
4657.7961404875869
 31
0.0
  0
LINE
  5
5CAC
  8
UMCL1
 10
4813.6386234581769
 20
4661.5996018523001
 30
0.0
 11
4812.7104202279006
 21
4661.2617635051292
 31
0.0
  0
LINE
  5
5CAD
  8
UMCL1
 10
4812.7104202279006
 20
4661.2617635051292
 30
0.0
 11
4812.7104202279006
 21
4657.7961404875878
 31
0.0
  0
LINE
  5
5CAE
  8
UMCL1
 10
4813.6386234581769
 20
4657.7961404875878
 30
0.0
 11
4813.6386234581769
 21
4657.5961404875879
 31
0.0
  0
LINE
  5
5CAF
  8
UMCL1
 10
4815.9332761870573
 20
4657.7961404875878
 30
0.0
 11
4815.9332761870573
 21
4661.2617635051292
 31
0.0
  0
ARC
  5
5CB0
  8
UMCL1
 10
4814.321848207479
 20
4657.6091060454401
 30
0.0
 40
3.992318455634094
 50
66.1945626177138
 51
113.8054373822862
  0
LINE
  5
5CB1
  8
UMCL1
 10
4816.6570131550006
 20
4657.7961404875878
 30
0.0
 11
4816.6570131550006
 21
4661.2617635051292
 31
0.0
  0
LINE
  5
5CB2
  8
UMCL1
 10
4815.9332761870573
 20
4661.2617635051292
 30
0.0
 11
4816.6570131550006
 21
4661.2617635051292
 31
0.0
  0
ARC
  5
5CB3
  8
UMCL1
 10
4819.6386234581769
 20
4648.2735025147667
 30
0.0
 40
13.326099337533821
 50
77.071076092191333
 51
102.9289239078087
  0
LINE
  5
5CB4
  8
UMCL1
 10
4823.3439707292973
 20
4657.7961404875878
 30
0.0
 11
4823.3439707292973
 21
4661.2617635051292
 31
0.0
  0
ARC
  5
5CB5
  8
UMCL1
 10
4824.9553987088739
 20
4657.6091060454401
 30
0.0
 40
3.992318455634094
 50
66.1945626177138
 51
113.8054373822862
  0
LINE
  5
5CB6
  8
UMCL1
 10
4822.6202337613531
 20
4657.7961404875878
 30
0.0
 11
4822.6202337613531
 21
4661.2617635051292
 31
0.0
  0
LINE
  5
5CB7
  8
UMCL1
 10
5004.0070008274542
 20
4641.5961404875898
 30
0.0
 11
5004.0070008274542
 21
4629.5961404875879
 31
0.0
  0
LINE
  5
5CB8
  8
UMCL1
 10
5000.203539462741
 20
4641.5961404875879
 30
0.0
 11
5000.203539462741
 21
4629.5961404875879
 31
0.0
  0
LINE
  5
5CB9
  8
UMCL1
 10
5004.0070008274542
 20
4641.5961404875879
 30
0.0
 11
5000.0035394627421
 21
4641.5961404875879
 31
0.0
  0
ARC
  5
5CBA
  8
UMCL1
 10
4992.0685473978792
 20
4638.7761404875882
 30
0.0
 40
11.93845342957454
 50
346.33695265356511
 51
13.66304734643497
  0
LINE
  5
5CBB
  8
UMCL1
 10
5000.203539462741
 20
4635.2324035196434
 30
0.0
 11
5003.6691624802843
 21
4635.2324035196434
 31
0.0
  0
LINE
  5
5CBC
  8
UMCL1
 10
5000.203539462741
 20
4635.9561404875867
 30
0.0
 11
5003.6691624802843
 21
4635.9561404875867
 31
0.0
  0
LINE
  5
5CBD
  8
UMCL1
 62
     2
 10
5004.0070008274542
 20
4637.3461404875879
 30
0.0
 11
5006.2535394627421
 21
4637.3461404875879
 31
0.0
  0
LINE
  5
5CBE
  8
UMCL1
 10
5004.0070008274542
 20
4637.5961404875879
 30
0.0
 11
5006.0035394627421
 21
4637.5961404875879
 31
0.0
  0
LINE
  5
5CBF
  8
UMCL1
 10
5004.0070008274542
 20
4633.5961404875879
 30
0.0
 11
5006.0035394627421
 21
4633.5961404875879
 31
0.0
  0
LINE
  5
5CC0
  8
UMCL1
 62
     2
 10
5004.0070008274542
 20
4633.846140487587
 30
0.0
 11
5006.2535394627421
 21
4633.846140487587
 31
0.0
  0
LINE
  5
5CC1
  8
UMCL1
 10
5006.0035394627421
 20
4633.5961404875879
 30
0.0
 11
5006.5035394627421
 21
4634.0961404875879
 31
0.0
  0
LINE
  5
5CC2
  8
UMCL1
 10
5006.0035394627421
 20
4637.5961404875879
 30
0.0
 11
5006.5035394627421
 21
4637.0961404875879
 31
0.0
  0
LINE
  5
5CC3
  8
UMCL1
 10
5006.5035394627421
 20
4634.0961404875879
 30
0.0
 11
5006.5035394627421
 21
4637.0961404875879
 31
0.0
  0
LINE
  5
5CC4
  8
UMCL1
 10
5006.0035394627421
 20
4633.5961404875879
 30
0.0
 11
5006.0035394627421
 21
4637.5961404875879
 31
0.0
  0
LINE
  5
5CC5
  8
UMCL1
 10
5003.6691624802843
 20
4635.9561404875867
 30
0.0
 11
5003.6691624802843
 21
4635.2324035196434
 31
0.0
  0
LINE
  5
5CC6
  8
UMCL1
 10
5004.0070008274542
 20
4629.5961404875879
 30
0.0
 11
5000.0035394627421
 21
4629.5961404875879
 31
0.0
  0
ARC
  5
5CC7
  8
UMCL1
 10
4992.0685473978792
 20
4632.4161404875858
 30
0.0
 40
11.93845342957454
 50
346.33695265356511
 51
13.66304734643497
  0
LINE
  5
5CC8
  8
UMCL1
 10
4971.983064275928
 20
4661.7591266654863
 30
0.0
 11
4983.9830642759289
 21
4661.7591266654881
 31
0.0
  0
LINE
  5
5CC9
  8
UMCL1
 10
4971.9830642759298
 20
4657.9556653007749
 30
0.0
 11
4983.9830642759289
 21
4657.9556653007739
 31
0.0
  0
LINE
  5
5CCA
  8
UMCL1
 10
4971.9830642759298
 20
4661.7591266654863
 30
0.0
 11
4971.9830642759298
 21
4657.7556653007759
 31
0.0
  0
ARC
  5
5CCB
  8
UMCL1
 10
4974.8030642759286
 20
4649.8206732359131
 30
0.0
 40
11.93845342957454
 50
76.336952653565021
 51
103.66304734643499
  0
LINE
  5
5CCC
  8
UMCL1
 10
4978.3468012438734
 20
4657.9556653007749
 30
0.0
 11
4978.3468012438734
 21
4661.4212883183181
 31
0.0
  0
LINE
  5
5CCD
  8
UMCL1
 10
4977.6230642759301
 20
4657.9556653007749
 30
0.0
 11
4977.6230642759301
 21
4661.4212883183181
 31
0.0
  0
LINE
  5
5CCE
  8
UMCL1
 10
4977.6230642759301
 20
4661.4212883183181
 30
0.0
 11
4978.3468012438734
 21
4661.4212883183181
 31
0.0
  0
LINE
  5
5CCF
  8
UMCL1
 10
4983.9830642759289
 20
4661.7591266654863
 30
0.0
 11
4983.9830642759289
 21
4657.7556653007759
 31
0.0
  0
ARC
  5
5CD0
  8
UMCL1
 10
4981.163064275931
 20
4649.8206732359131
 30
0.0
 40
11.93845342957454
 50
76.336952653565021
 51
103.66304734643499
  0
LINE
  5
5CD1
  8
CEN
 10
4700.1386234581769
 20
4650.0961404875879
 30
0.0
 11
4722.1386234581769
 21
4650.0961404875879
 31
0.0
  0
ARC
  5
5CD2
  8
UMCL1
 62
     2
 10
4711.1386234581769
 20
4650.0961404875879
 30
0.0
 40
5.8499999999999988
 50
78.663539029705234
 51
11.13734741442387
  0
CIRCLE
  5
5CD3
  8
UMCL1
 10
4711.1386234581769
 20
4650.0961404875879
 30
0.0
 40
5.6499999999999986
  0
CIRCLE
  5
5CD4
  8
UMCL1
 10
4711.1386234581769
 20
4650.0961404875879
 30
0.0
 40
6.6499999999999986
  0
POLYLINE
  5
5CD5
  8
UMCL1
 66
     1
 10
0.0
 20
0.0
 30
0.0
 70
     1
  0
VERTEX
  5
65BA
  8
UMCL1
 10
4709.4065726506087
 20
4653.0961404875879
 30
0.0
  0
VERTEX
  5
65BB
  8
UMCL1
 10
4707.6745218430387
 20
4650.0961404875879
 30
0.0
  0
VERTEX
  5
65BC
  8
UMCL1
 10
4709.4065726506087
 20
4647.0961404875879
 30
0.0
  0
VERTEX
  5
65BD
  8
UMCL1
 10
4712.8706742657459
 20
4647.0961404875879
 30
0.0
  0
VERTEX
  5
65BE
  8
UMCL1
 10
4714.602725073315
 20
4650.0961404875879
 30
0.0
  0
VERTEX
  5
65BF
  8
UMCL1
 10
4712.8706742657459
 20
4653.0961404875879
 30
0.0
  0
SEQEND
  5
65C0
  8
UMCL1
  0
LINE
  5
5CD6
  8
CEN
 10
4711.1386234581769
 20
4661.0961404875879
 30
0.0
 11
4711.1386234581769
 21
4639.0961404875879
 31
0.0
  0
LINE
  5
5CD7
  8
CEN
 10
4663.8539119526267
 20
4900.310443772868
 30
0.0
 11
4640.0539157052581
 21
4900.310443772868
 31
0.0
  0
LINE
  5
5CD8
  8
HIDDEN
 10
4704.0176716750302
 20
4812.310443772868
 30
0.0
 11
4718.2595752413235
 21
4812.310443772868
 31
0.0
  0
LINE
  5
5CD9
  8
HIDDEN
 10
4717.7886234581756
 20
4821.2967391204138
 30
0.0
 11
4718.3038202472544
 21
4811.4661987669369
 31
0.0
  0
LINE
  5
5CDA
  8
HIDDEN
 10
4716.9886234581772
 20
4821.2967391204138
 30
0.0
 11
4717.4994136236028
 21
4811.5502821551472
 31
0.0
  0
LINE
  5
5CDB
  8
HIDDEN
 10
4705.2886234581756
 20
4821.2967391204138
 30
0.0
 11
4704.7778332927492
 21
4811.5502821551481
 31
0.0
  0
LINE
  5
5CDC
  8
HIDDEN
 10
4704.4886234581772
 20
4821.2967391204138
 30
0.0
 11
4703.9734266690984
 21
4811.466198766936
 31
0.0
  0
LINE
  5
5CDD
  8
HIDDEN
 10
4705.331400120328
 20
4821.2967391204138
 30
0.0
 11
4716.9458467960258
 21
4821.2967391204138
 31
0.0
  0
LINE
  5
5CDE
  8
HIDDEN
 10
4704.4362156788939
 20
4820.2967391204138
 30
0.0
 11
4717.8410312374581
 21
4820.2967391204138
 31
0.0
  0
LINE
  5
5CDF
  8
HIDDEN
 10
4717.7886234581783
 20
4821.2967391204138
 30
0.0
 11
4704.4886234581772
 21
4821.2967391204138
 31
0.0
  0
LINE
  5
5CE0
  8
HIDDEN
 10
4704.4362156788939
 20
4820.2967391204138
 30
0.0
 11
4705.4362156788939
 21
4821.2967391204138
 31
0.0
  0
LINE
  5
5CE1
  8
HIDDEN
 10
4717.8410312374581
 20
4820.2967391204138
 30
0.0
 11
4716.8410312374599
 21
4821.2967391204138
 31
0.0
  0
LINE
  5
5CE2
  8
HIDDEN
 10
4704.0176716750302
 20
4812.310443772868
 30
0.0
 11
4705.0176716750302
 21
4811.3104437728671
 31
0.0
  0
LINE
  5
5CE3
  8
HIDDEN
 10
4703.8176716750313
 20
4811.3104437728671
 30
0.0
 11
4704.4176716750299
 21
4811.9104437728674
 31
0.0
  0
LINE
  5
5CE4
  8
HIDDEN
 10
4718.2595752413235
 20
4812.310443772868
 30
0.0
 11
4717.2595752413235
 21
4811.3104437728671
 31
0.0
  0
LINE
  5
5CE5
  8
HIDDEN
 10
4718.4595752413243
 20
4811.3104437728671
 30
0.0
 11
4717.8595752413248
 21
4811.9104437728674
 31
0.0
  0
LINE
  5
5CE6
  8
HIDDEN
 10
4645.6386234581769
 20
4907.4313955560146
 30
0.0
 11
4645.6386234581769
 21
4893.1894919897222
 31
0.0
  0
LINE
  5
5CE7
  8
HIDDEN
 10
4654.6249188057218
 20
4893.6604437728693
 30
0.0
 11
4644.7943784522458
 21
4893.1452469837914
 31
0.0
  0
LINE
  5
5CE8
  8
HIDDEN
 10
4654.6249188057218
 20
4894.4604437728676
 30
0.0
 11
4644.8784618404552
 21
4893.9496536074421
 31
0.0
  0
LINE
  5
5CE9
  8
HIDDEN
 10
4654.6249188057218
 20
4906.1604437728683
 30
0.0
 11
4644.8784618404579
 21
4906.6712339382957
 31
0.0
  0
LINE
  5
5CEA
  8
HIDDEN
 10
4654.6249188057218
 20
4906.9604437728676
 30
0.0
 11
4644.7943784522449
 21
4907.4756405619473
 31
0.0
  0
LINE
  5
5CEB
  8
HIDDEN
 10
4654.6249188057218
 20
4906.1176671107169
 30
0.0
 11
4654.6249188057218
 21
4894.5032204350191
 31
0.0
  0
LINE
  5
5CEC
  8
HIDDEN
 10
4653.6249188057218
 20
4907.0128515521519
 30
0.0
 11
4653.6249188057218
 21
4893.6080359935859
 31
0.0
  0
LINE
  5
5CED
  8
HIDDEN
 10
4654.6249188057218
 20
4893.6604437728683
 30
0.0
 11
4654.6249188057218
 21
4906.9604437728676
 31
0.0
  0
LINE
  5
5CEE
  8
HIDDEN
 10
4653.6249188057218
 20
4907.0128515521519
 30
0.0
 11
4654.6249188057218
 21
4906.012851552151
 31
0.0
  0
LINE
  5
5CEF
  8
HIDDEN
 10
4653.6249188057218
 20
4893.6080359935859
 30
0.0
 11
4654.6249188057218
 21
4894.6080359935859
 31
0.0
  0
LINE
  5
5CF0
  8
HIDDEN
 10
4645.6386234581769
 20
4907.4313955560146
 30
0.0
 11
4644.6386234581769
 21
4906.4313955560146
 31
0.0
  0
LINE
  5
5CF1
  8
HIDDEN
 10
4644.6386234581769
 20
4907.6313955560136
 30
0.0
 11
4645.2386234581772
 21
4907.031395556015
 31
0.0
  0
LINE
  5
5CF2
  8
HIDDEN
 10
4645.6386234581769
 20
4893.1894919897222
 30
0.0
 11
4644.6386234581769
 21
4894.1894919897204
 31
0.0
  0
LINE
  5
5CF3
  8
HIDDEN
 10
4644.6386234581769
 20
4892.9894919897206
 30
0.0
 11
4645.2386234581772
 21
4893.589491989721
 31
0.0
  0
CIRCLE
  5
5CF4
  8
UMCL1
 10
4559.6386234581769
 20
4848.810443772868
 30
0.0
 40
6.0
  0
POLYLINE
  5
5CF5
  8
UMCL1
 66
     1
 10
0.0
 20
0.0
 30
0.0
 70
     1
  0
VERTEX
  5
65C1
  8
UMCL1
 10
4556.1745218430387
 20
4854.810443772868
 30
0.0
  0
VERTEX
  5
65C2
  8
UMCL1
 10
4552.7104202279006
 20
4848.810443772868
 30
0.0
  0
VERTEX
  5
65C3
  8
UMCL1
 10
4556.1745218430387
 20
4842.810443772868
 30
0.0
  0
VERTEX
  5
65C4
  8
UMCL1
 10
4563.1027250733141
 20
4842.810443772868
 30
0.0
  0
VERTEX
  5
65C5
  8
UMCL1
 10
4566.5668266884522
 20
4848.810443772868
 30
0.0
  0
VERTEX
  5
65C6
  8
UMCL1
 10
4563.1027250733141
 20
4854.810443772868
 30
0.0
  0
SEQEND
  5
65C7
  8
UMCL1
  0
LINE
  5
5CF6
  8
HIDDEN
 10
4827.912701251008
 20
4826.8104437728671
 30
0.0
 11
4827.388623458176
 21
4836.810443772868
 31
0.0
  0
LINE
  5
5CF7
  8
HIDDEN
 10
4828.7127012510073
 20
4826.8104437728671
 30
0.0
 11
4828.1886234581771
 21
4836.810443772868
 31
0.0
  0
LINE
  5
5CF8
  8
HIDDEN
 10
4815.3645456653458
 20
4826.8104437728671
 30
0.0
 11
4815.8886234581769
 21
4836.810443772868
 31
0.0
  0
LINE
  5
5CF9
  8
HIDDEN
 10
4814.5645456653474
 20
4826.8104437728671
 30
0.0
 11
4815.0886234581767
 21
4836.810443772868
 31
0.0
  0
LINE
  5
5CFA
  8
CEN
 10
4821.6386234581769
 20
4824.6923059910041
 30
0.0
 11
4821.6386234581769
 21
4841.2382465403234
 31
0.0
  0
LINE
  5
5CFB
  8
UMCL1
 10
4813.6386234581778
 20
4870.8104437728671
 30
0.0
 11
4815.7386234581782
 21
4870.8104437728671
 31
0.0
  0
LINE
  5
5CFC
  8
UMCL1
 10
4825.6386234581778
 20
4870.8104437728671
 30
0.0
 11
4819.6386234581778
 21
4870.8104437728671
 31
0.0
  0
LINE
  5
5CFD
  8
UMCL1
 10
4825.6386234581787
 20
4874.8139051375802
 30
0.0
 11
4813.6386234581778
 21
4874.8139051375802
 31
0.0
  0
LINE
  5
5CFE
  8
UMCL1
 10
4813.6386234581778
 20
4874.8139051375802
 30
0.0
 11
4812.7104202279033
 21
4874.4760667904111
 31
0.0
  0
LINE
  5
5CFF
  8
UMCL1
 10
4812.7104202279033
 20
4874.4760667904111
 30
0.0
 11
4812.7104202279033
 21
4871.0104437728678
 31
0.0
  0
LINE
  5
5D00
  8
UMCL1
 10
4813.6386234581778
 20
4871.0104437728678
 30
0.0
 11
4813.6386234581778
 21
4870.8104437728671
 31
0.0
  0
LINE
  5
5D01
  8
UMCL1
 10
4826.5668266884531
 20
4871.0104437728678
 30
0.0
 11
4812.7104202279033
 21
4871.0104437728669
 31
0.0
  0
LINE
  5
5D02
  8
UMCL1
 10
4825.6386234581778
 20
4874.8139051375802
 30
0.0
 11
4826.5668266884531
 21
4874.4760667904111
 31
0.0
  0
LINE
  5
5D03
  8
UMCL1
 10
4826.5668266884531
 20
4874.4760667904111
 30
0.0
 11
4826.5668266884531
 21
4871.0104437728678
 31
0.0
  0
LINE
  5
5D04
  8
UMCL1
 10
4825.6386234581778
 20
4871.0104437728678
 30
0.0
 11
4825.6386234581778
 21
4870.8104437728671
 31
0.0
  0
LINE
  5
5D05
  8
UMCL1
 10
4823.3439707292982
 20
4871.0104437728678
 30
0.0
 11
4823.3439707292982
 21
4874.4760667904111
 31
0.0
  0
ARC
  5
5D06
  8
UMCL1
 10
4824.9553987088757
 20
4870.8234093307201
 30
0.0
 40
3.992318455634094
 50
66.1945626177138
 51
113.8054373822862
  0
LINE
  5
5D07
  8
UMCL1
 10
4822.620233761354
 20
4871.0104437728678
 30
0.0
 11
4822.620233761354
 21
4874.4760667904111
 31
0.0
  0
LINE
  5
5D08
  8
UMCL1
 10
4823.3439707292982
 20
4874.4760667904111
 30
0.0
 11
4822.620233761354
 21
4874.4760667904111
 31
0.0
  0
ARC
  5
5D09
  8
UMCL1
 10
4819.6386234581778
 20
4861.487805800045
 30
0.0
 40
13.326099337533821
 50
77.071076092191333
 51
102.9289239078087
  0
LINE
  5
5D0A
  8
UMCL1
 10
4815.9332761870592
 20
4871.0104437728678
 30
0.0
 11
4815.9332761870592
 21
4874.4760667904111
 31
0.0
  0
ARC
  5
5D0B
  8
UMCL1
 10
4814.3218482074799
 20
4870.8234093307201
 30
0.0
 40
3.992318455634094
 50
66.1945626177138
 51
113.8054373822862
  0
LINE
  5
5D0C
  8
UMCL1
 10
4816.6570131550006
 20
4871.0104437728678
 30
0.0
 11
4816.6570131550006
 21
4874.4760667904111
 31
0.0
  0
LINE
  5
5D0D
  8
UMCL1
 10
4822.6386234581769
 20
4874.8139051375783
 30
0.0
 11
4822.6386234581769
 21
4876.0139051375781
 31
0.0
  0
LINE
  5
5D0E
  8
UMCL1
 62
     2
 10
4822.0386234581774
 20
4874.8139051375783
 30
0.0
 11
4822.0386234581774
 21
4876.6139051375776
 31
0.0
  0
LINE
  5
5D0F
  8
UMCL1
 10
4822.6386234581769
 20
4876.0139051375781
 30
0.0
 11
4816.6386234581769
 21
4876.0139051375781
 31
0.0
  0
LINE
  5
5D10
  8
UMCL1
 10
4821.8386234581776
 20
4876.8139051375783
 30
0.0
 11
4817.4386234581771
 21
4876.8139051375783
 31
0.0
  0
LINE
  5
5D11
  8
UMCL1
 10
4817.4386234581771
 20
4876.8139051375783
 30
0.0
 11
4816.6386234581769
 21
4876.0139051375781
 31
0.0
  0
LINE
  5
5D12
  8
UMCL1
 10
4822.6386234581769
 20
4876.0139051375781
 30
0.0
 11
4821.8386234581776
 21
4876.8139051375783
 31
0.0
  0
LINE
  5
5D13
  8
UMCL1
 10
4816.6386234581769
 20
4874.8139051375783
 30
0.0
 11
4816.6386234581769
 21
4876.0139051375781
 31
0.0
  0
LINE
  5
5D14
  8
UMCL1
 62
     2
 10
4817.2386234581772
 20
4874.8139051375783
 30
0.0
 11
4817.2386234581772
 21
4876.6139051375776
 31
0.0
  0
CIRCLE
  5
5D15
  8
UMCL1
 10
4819.6386234581769
 20
4848.810443772868
 30
0.0
 40
6.0
  0
POLYLINE
  5
5D16
  8
UMCL1
 66
     1
 10
0.0
 20
0.0
 30
0.0
 70
     1
  0
VERTEX
  5
65C8
  8
UMCL1
 10
4823.102725073315
 20
4854.810443772868
 30
0.0
  0
VERTEX
  5
65C9
  8
UMCL1
 10
4826.5668266884531
 20
4848.810443772868
 30
0.0
  0
VERTEX
  5
65CA
  8
UMCL1
 10
4823.102725073315
 20
4842.810443772868
 30
0.0
  0
VERTEX
  5
65CB
  8
UMCL1
 10
4816.1745218430397
 20
4842.810443772868
 30
0.0
  0
VERTEX
  5
65CC
  8
UMCL1
 10
4812.7104202279006
 20
4848.810443772868
 30
0.0
  0
VERTEX
  5
65CD
  8
UMCL1
 10
4816.1745218430397
 20
4854.810443772868
 30
0.0
  0
SEQEND
  5
65CE
  8
UMCL1
  0
CIRCLE
  5
5D17
  8
UMCL1
 10
4821.6386234581769
 20
4635.5961404875879
 30
0.0
 40
5.75
  0
LINE
  5
5D18
  8
CEN
 10
4821.6386234581769
 20
4646.9569154238034
 30
0.0
 11
4821.6386234581769
 21
4624.2353655513716
 31
0.0
  0
LINE
  5
5D19
  8
UMCL1
 10
4813.6386234581778
 20
4657.5961404875889
 30
0.0
 11
4815.7386234581791
 21
4657.5961404875889
 31
0.0
  0
LINE
  5
5D1A
  8
UMCL1
 10
4825.6386234581778
 20
4657.5961404875879
 30
0.0
 11
4819.6386234581778
 21
4657.5961404875879
 31
0.0
  0
LINE
  5
5D1B
  8
UMCL1
 10
4825.6386234581796
 20
4661.5996018523001
 30
0.0
 11
4813.6386234581778
 21
4661.599601852301
 31
0.0
  0
LINE
  5
5D1C
  8
UMCL1
 10
4813.6386234581778
 20
4661.599601852301
 30
0.0
 11
4812.7104202279043
 21
4661.2617635051311
 31
0.0
  0
LINE
  5
5D1D
  8
UMCL1
 10
4812.7104202279043
 20
4661.2617635051311
 30
0.0
 11
4812.7104202279043
 21
4657.7961404875878
 31
0.0
  0
LINE
  5
5D1E
  8
UMCL1
 10
4813.6386234581778
 20
4657.7961404875878
 30
0.0
 11
4813.6386234581778
 21
4657.5961404875879
 31
0.0
  0
LINE
  5
5D1F
  8
UMCL1
 10
4826.5668266884541
 20
4657.7961404875878
 30
0.0
 11
4812.7104202279043
 21
4657.7961404875878
 31
0.0
  0
LINE
  5
5D20
  8
UMCL1
 10
4825.6386234581778
 20
4661.599601852301
 30
0.0
 11
4826.5668266884541
 21
4661.2617635051311
 31
0.0
  0
LINE
  5
5D21
  8
UMCL1
 10
4826.5668266884541
 20
4661.2617635051311
 30
0.0
 11
4826.5668266884541
 21
4657.7961404875878
 31
0.0
  0
LINE
  5
5D22
  8
UMCL1
 10
4825.6386234581778
 20
4657.7961404875878
 30
0.0
 11
4825.6386234581778
 21
4657.5961404875879
 31
0.0
  0
LINE
  5
5D23
  8
UMCL1
 10
4823.3439707292982
 20
4657.7961404875878
 30
0.0
 11
4823.3439707292982
 21
4661.2617635051311
 31
0.0
  0
ARC
  5
5D24
  8
UMCL1
 10
4824.9553987088757
 20
4657.6091060454401
 30
0.0
 40
3.992318455634094
 50
66.1945626177138
 51
113.8054373822862
  0
LINE
  5
5D25
  8
UMCL1
 10
4822.6202337613549
 20
4657.7961404875878
 30
0.0
 11
4822.6202337613549
 21
4661.2617635051311
 31
0.0
  0
LINE
  5
5D26
  8
UMCL1
 10
4823.3439707292982
 20
4661.2617635051311
 30
0.0
 11
4822.6202337613549
 21
4661.2617635051311
 31
0.0
  0
ARC
  5
5D27
  8
UMCL1
 10
4819.6386234581778
 20
4648.2735025147667
 30
0.0
 40
13.326099337533821
 50
77.071076092191333
 51
102.9289239078087
  0
LINE
  5
5D28
  8
UMCL1
 10
4815.9332761870601
 20
4657.7961404875878
 30
0.0
 11
4815.9332761870601
 21
4661.2617635051311
 31
0.0
  0
ARC
  5
5D29
  8
UMCL1
 10
4814.3218482074799
 20
4657.6091060454401
 30
0.0
 40
3.992318455634094
 50
66.1945626177138
 51
113.8054373822862
  0
LINE
  5
5D2A
  8
UMCL1
 10
4816.6570131550016
 20
4657.7961404875878
 30
0.0
 11
4816.6570131550016
 21
4661.2617635051311
 31
0.0
  0
ARC
  5
5D2B
  8
UMCL1
 62
     2
 10
4821.6386234581769
 20
4635.5961404875879
 30
0.0
 40
6.5499999999999989
 50
76.808406561052081
 51
17.812050157624729
  0
LINE
  5
60E0
  8
UMCL2
 10
5134.7740513891204
 20
3973.800972628399
 30
0.0
 11
5134.7740513891204
 21
4111.8009726283999
 31
0.0
  0
SOLID
  5
60E1
  8
UMCL2
 10
5133.9407180557864
 20
4106.800972628399
 30
0.0
 11
5135.6073847224543
 21
4106.800972628399
 31
0.0
 12
5134.7740513891204
 22
4111.8009726283999
 32
0.0
 13
5134.7740513891204
 23
4111.8009726283999
 33
0.0
  0
TEXT
  5
60E2
  8
UMCL2
 10
5132.3740513891198
 20
4035.4285390999312
 30
0.0
 40
6.0
  1
138
 50
90.0
 41
0.85
 51
15.0
  7
ROMANS
  0
TEXT
  5
60E3
  8
UMCL2
 10
4683.3381449501203
 20
4130.1009726283992
 30
0.0
 40
6.0
  1
27
 41
0.85
 51
15.0
  7
ROMANS
  0
LINE
  5
60E4
  8
UMCL2
 10
4731.4991353845553
 20
4070.8009726283999
 30
0.0
 11
4731.4991353845553
 21
4145.7009726283986
 31
0.0
  0
LINE
  5
60E5
  8
UMCL2
 10
4649.4991353845553
 20
4070.8009726283999
 30
0.0
 11
4649.4991353845553
 21
4145.7009726283986
 31
0.0
  0
LINE
  5
60E6
  8
UMCL2
 10
4731.4991353845553
 20
4143.7009726283986
 30
0.0
 11
4649.4991353845553
 21
4143.7009726283986
 31
0.0
  0
SOLID
  5
60E7
  8
UMCL2
 10
4726.4991353845553
 20
4144.5343059617326
 30
0.0
 11
4726.4991353845553
 21
4142.8676392950647
 31
0.0
 12
4731.4991353845553
 22
4143.7009726283986
 32
0.0
 13
4731.4991353845553
 23
4143.7009726283986
 33
0.0
  0
SOLID
  5
60E8
  8
UMCL2
 10
4654.4991353845553
 20
4144.5343059617326
 30
0.0
 11
4654.4991353845553
 21
4142.8676392950647
 31
0.0
 12
4649.4991353845553
 22
4143.7009726283986
 32
0.0
 13
4649.4991353845553
 23
4143.7009726283986
 33
0.0
  0
TEXT
  5
60E9
  8
UMCL2
 10
4682.562687345795
 20
4146.1009726283983
 30
0.0
 40
6.0
  1
\U+220582
 41
0.85
 51
15.0
  7
ROMANS
  0
TEXT
  5
60EA
  8
UMCL2
 10
5036.4775307681184
 20
4130.2009726284005
 30
0.0
 40
6.0
  1
\U+220524
 41
0.85
 51
15.0
  7
ROMANS
  0
LINE
  5
60EB
  8
UMCL2
 10
5086.7740513891204
 20
3981.8009726283981
 30
0.0
 11
5086.7740513891194
 21
3939.8009726283999
 31
0.0
  0
LINE
  5
60EC
  8
UMCL2
 10
4976.7740513891213
 20
3981.8009726283999
 30
0.0
 11
4976.7740513891204
 21
3939.8009726283999
 31
0.0
  0
LINE
  5
60ED
  8
UMCL2
 10
5086.7740513891194
 20
3941.8009726283999
 30
0.0
 11
4976.7740513891204
 21
3941.8009726283999
 31
0.0
  0
SOLID
  5
60EE
  8
UMCL2
 10
5082.0865513891194
 20
3942.5822226283999
 30
0.0
 11
5082.0865513891194
 21
3941.0197226283999
 31
0.0
 12
5086.7740513891194
 22
3941.8009726283999
 32
0.0
 13
5086.7740513891194
 23
3941.8009726283999
 33
0.0
  0
SOLID
  5
60EF
  8
UMCL2
 10
4981.4615513891204
 20
3942.5822226283999
 30
0.0
 11
4981.4615513891204
 21
3941.0197226283999
 31
0.0
 12
4976.7740513891204
 22
3941.800972628399
 32
0.0
 13
4976.7740513891204
 23
3941.800972628399
 33
0.0
  0
TEXT
  5
60F0
  8
UMCL2
 10
5023.6451743195794
 20
3944.2009726283991
 30
0.0
 40
6.0
  1
110
 41
0.85
 51
15.0
  7
ROMANS
  0
LINE
  5
60F1
  8
UMCL2
 10
5044.2740513891204
 20
3968.3009726283999
 30
0.0
 11
5044.2740513891204
 21
3955.300972628399
 31
0.0
  0
LINE
  5
60F2
  8
UMCL2
 10
5014.2740513891204
 20
3957.800972628399
 30
0.0
 11
5086.7740513891204
 21
3957.800972628399
 31
0.0
  0
SOLID
  5
60F3
  8
UMCL2
 10
5039.5865513891204
 20
3958.582222628399
 30
0.0
 11
5039.5865513891204
 21
3957.019722628399
 31
0.0
 12
5044.2740513891204
 22
3957.800972628399
 32
0.0
 13
5044.2740513891204
 23
3957.800972628399
 33
0.0
  0
TEXT
  5
60F4
  8
UMCL2
 10
5023.6784833981201
 20
3960.2009726283991
 30
0.0
 40
6.0
  1
30
 41
0.85
 51
15.0
  7
ROMANS
  0
LINE
  5
60F5
  8
UMCL2
 10
4738.231483341352
 20
4143.9466322446024
 30
0.0
 11
4690.4991353845553
 21
4111.7009726283986
 31
0.0
  0
LINE
  5
60F6
  8
UMCL2
 10
4738.231483341352
 20
4143.9466322446024
 30
0.0
 11
4781.5474211520404
 21
4143.9466322446024
 31
0.0
  0
TEXT
  5
60F7
  8
UMCL2
 10
4744.6260935625533
 20
4147.346632244602
 30
0.0
 40
6.0
  1
M8x15dp
 41
0.85
 51
15.0
  7
ROMANS
  0
SOLID
  5
60F8
  8
UMCL2
 10
4880.1454136394996
 20
4041.9257621853212
 30
0.0
 11
4881.3239249414783
 21
4040.747250883343
 31
0.0
 12
4877.199135384556
 22
4037.800972628399
 32
0.0
 13
4877.199135384556
 23
4037.800972628399
 33
0.0
  0
LINE
  5
60F9
  8
UMCL2
 10
4897.8717204515588
 20
4058.4735576954022
 30
0.0
 11
4877.199135384556
 21
4037.800972628399
 31
0.0
  0
LINE
  5
60FA
  8
UMCL2
 10
4897.8717204515588
 20
4058.4735576954022
 30
0.0
 11
4934.1659036683968
 21
4058.4735576954022
 31
0.0
  0
TEXT
  5
60FB
  8
UMCL2
 10
4899.8912896436477
 20
4059.6572345936961
 30
0.0
 40
6.0
  1
M6x1.0P
 41
0.85
 51
15.0
  7
ROMANS
  0
TEXT
  5
60FC
  8
UMCL2
 10
5055.9610637897858
 20
3960.2009726283991
 30
0.0
 40
6.0
  1
42.5
 41
0.85
 51
15.0
  7
ROMANS
  0
SOLID
  5
60FD
  8
UMCL2
 10
5048.9615513891194
 20
3958.582222628399
 30
0.0
 11
5048.9615513891194
 21
3957.019722628399
 31
0.0
 12
5044.2740513891204
 22
3957.800972628399
 32
0.0
 13
5044.2740513891204
 23
3957.800972628399
 33
0.0
  0
SOLID
  5
60FE
  8
UMCL2
 10
5082.0865513891194
 20
3958.582222628399
 30
0.0
 11
5082.0865513891194
 21
3957.019722628399
 31
0.0
 12
5086.7740513891194
 22
3957.800972628399
 32
0.0
 13
5086.7740513891194
 23
3957.800972628399
 33
0.0
  0
LINE
  5
60FF
  8
UMCL2
 10
5014.2740513891204
 20
3991.7339730300118
 30
0.0
 11
5014.2740513891213
 21
3955.800972628399
 31
0.0
  0
SOLID
  5
6100
  8
UMCL2
 10
5018.9615513891213
 20
3958.582222628399
 30
0.0
 11
5018.9615513891213
 21
3957.019722628399
 31
0.0
 12
5014.2740513891204
 22
3957.800972628399
 32
0.0
 13
5014.2740513891204
 23
3957.800972628399
 33
0.0
  0
SOLID
  5
6101
  8
UMCL2
 10
5133.9407180557864
 20
3978.800972628399
 30
0.0
 11
5135.6073847224543
 21
3978.800972628399
 31
0.0
 12
5134.7740513891204
 22
3973.800972628399
 32
0.0
 13
5134.7740513891204
 23
3973.800972628399
 33
0.0
  0
LINE
  5
6102
  8
CEN
 10
4506.9991353845553
 20
4234.5152759136781
 30
0.0
 11
4645.4991353845562
 21
4234.5152759136781
 31
0.0
  0
SOLID
  5
6103
  8
UMCL2
 10
4720.4991353845562
 20
4325.848609247013
 30
0.0
 11
4720.4991353845562
 21
4324.181942580346
 31
0.0
 12
4725.4991353845553
 22
4325.015275913679
 32
0.0
 13
4725.4991353845553
 23
4325.015275913679
 33
0.0
  0
SOLID
  5
6104
  8
UMCL2
 10
4660.4991353845553
 20
4325.848609247013
 30
0.0
 11
4660.4991353845553
 21
4324.181942580346
 31
0.0
 12
4655.4991353845544
 22
4325.015275913679
 32
0.0
 13
4655.4991353845544
 23
4325.015275913679
 33
0.0
  0
LINE
  5
6105
  8
UMCL2
 10
4725.4991353845562
 20
4311.0152759136799
 30
0.0
 11
4725.4991353845562
 21
4326.515275913679
 31
0.0
  0
LINE
  5
6106
  8
UMCL2
 10
4655.4991353845544
 20
4311.0152759136799
 30
0.0
 11
4655.4991353845544
 21
4326.515275913679
 31
0.0
  0
LINE
  5
6107
  8
CEN
 10
4707.1517878858767
 20
4281.1679284149996
 30
0.0
 11
4721.2226372227333
 21
4295.238777751857
 31
0.0
  0
ARC
  5
6108
  8
UMCL1
 62
     2
 10
4714.187212554305
 20
4288.2033530834278
 30
0.0
 40
3.0
 50
297.35626838237039
 51
246.00402759871241
  0
CIRCLE
  5
6109
  8
UMCL1
 10
4714.187212554305
 20
4288.2033530834278
 30
0.0
 40
2.5
  0
LINE
  5
610A
  8
UMCL1
 10
4734.4991353845553
 20
4197.0152759136781
 30
0.0
 11
4646.4991353845562
 21
4197.0152759136781
 31
0.0
  0
LINE
  5
610B
  8
UMCL1
 10
4734.4991353845553
 20
4307.015275913679
 30
0.0
 11
4646.4991353845553
 21
4307.015275913679
 31
0.0
  0
LINE
  5
610C
  8
CEN
 10
4738.4991353845562
 20
4264.515275913679
 30
0.0
 11
4642.4991353845553
 21
4264.515275913679
 31
0.0
  0
LINE
  5
610D
  8
UMCL2
 10
4655.4991353845544
 20
4325.015275913679
 30
0.0
 11
4725.4991353845562
 21
4325.015275913679
 31
0.0
  0
LINE
  5
610E
  8
CEN
 10
4690.4991353845553
 20
4194.3502558442333
 30
0.0
 11
4690.4991353845553
 21
4310.3502558442333
 31
0.0
  0
LINE
  5
610F
  8
CEN
 10
4668.9991353845553
 20
4215.0953248018686
 30
0.0
 11
4668.9991353845553
 21
4182.202411466541
 31
0.0
  0
ARC
  5
6110
  8
UMCL1
 10
4676.3603513167236
 20
4192.6703772413593
 30
0.0
 40
4.3448986723201113
 50
55.615752531968383
 51
124.3842474680316
  0
ARC
  5
6111
  8
UMCL1
 10
4676.3603513167236
 20
4193.3601745859996
 30
0.0
 40
4.3448986723201113
 50
235.61575253196841
 51
304.38424746803162
  0
LINE
  5
6112
  8
UMCL1
 10
4677.4991353845562
 20
4189.0152759136799
 30
0.0
 11
4660.4991353845553
 21
4189.0152759136781
 31
0.0
  0
LINE
  5
6113
  8
UMCL1
 10
4646.4991353845562
 20
4197.0152759136781
 30
0.0
 11
4645.4991353845562
 21
4198.015275913679
 31
0.0
  0
ARC
  5
6114
  8
UMCL1
 10
4668.9991353845562
 20
4180.7744652922302
 30
0.0
 40
16.24081062144808
 50
72.412046226036338
 51
107.5879537739636
  0
ARC
  5
6115
  8
UMCL1
 10
4668.9991353845562
 20
4205.2560865351279
 30
0.0
 40
16.24081062144808
 50
252.4120462259867
 51
287.5879537739637
  0
LINE
  5
6116
  8
UMCL1
 10
4660.4991353845553
 20
4189.0152759136781
 30
0.0
 11
4659.1841808083309
 21
4189.7744652922338
 31
0.0
  0
LINE
  5
6117
  8
UMCL1
 10
4660.4991353845553
 20
4197.0152759136781
 30
0.0
 11
4659.1841808083309
 21
4196.2560865351243
 31
0.0
  0
ARC
  5
6118
  8
UMCL1
 10
4661.637919452387
 20
4193.3601745859996
 30
0.0
 40
4.3448986723201113
 50
235.61575253196841
 51
304.38424746803162
  0
ARC
  5
6119
  8
UMCL1
 10
4661.637919452387
 20
4192.6703772413593
 30
0.0
 40
4.3448986723201113
 50
55.615752531968383
 51
124.3842474680316
  0
LINE
  5
611A
  8
UMCL1
 10
4664.091658096444
 20
4189.7744652922338
 30
0.0
 11
4664.091658096444
 21
4196.2560865351243
 31
0.0
  0
LINE
  5
611B
  8
UMCL1
 10
4659.1841808083309
 20
4189.7744652922338
 30
0.0
 11
4659.1841808083309
 21
4196.2560865351243
 31
0.0
  0
LINE
  5
611C
  8
UMCL1
 10
4673.9066126726684
 20
4189.7744652922338
 30
0.0
 11
4673.9066126726684
 21
4196.2560865351243
 31
0.0
  0
LINE
  5
611D
  8
UMCL1
 10
4677.4991353845562
 20
4197.0152759136781
 30
0.0
 11
4678.8140899607797
 21
4196.2560865351243
 31
0.0
  0
LINE
  5
611E
  8
UMCL1
 10
4677.4991353845562
 20
4189.0152759136781
 30
0.0
 11
4678.8140899607797
 21
4189.7744652922338
 31
0.0
  0
LINE
  5
611F
  8
UMCL1
 10
4678.8140899607797
 20
4189.7744652922338
 30
0.0
 11
4678.8140899607797
 21
4196.2560865351243
 31
0.0
  0
ARC
  5
6120
  8
UMCL1
 10
4690.4991353845553
 20
4264.515275913679
 30
0.0
 40
15.0
 50
195.46600995343809
 51
164.53399004656191
  0
CIRCLE
  5
6121
  8
UMCL1
 10
4690.4991353845553
 20
4264.515275913679
 30
0.0
 40
12.0
  0
CIRCLE
  5
6122
  8
UMCL1
 10
4690.4991353845553
 20
4264.515275913679
 30
0.0
 40
3.399999999999999
  0
ARC
  5
6123
  8
UMCL1
 62
     2
 10
4690.4991353845553
 20
4264.515275913679
 30
0.0
 40
4.0
 50
250.18686942893771
 51
210.78620825906759
  0
LINE
  5
6124
  8
UMCL1
 10
4675.4991353845562
 20
4260.515275913679
 30
0.0
 11
4675.4991353845562
 21
4268.515275913679
 31
0.0
  0
LINE
  5
6125
  8
HIDDEN
 10
4682.4991353845553
 20
4260.515275913679
 30
0.0
 11
4682.4991353845553
 21
4268.515275913679
 31
0.0
  0
LINE
  5
6126
  8
HIDDEN
 10
4679.1854268855714
 20
4260.515275913679
 30
0.0
 11
4682.4991353845553
 21
4260.515275913679
 31
0.0
  0
LINE
  5
6127
  8
UMCL1
 10
4679.1854268855714
 20
4260.515275913679
 30
0.0
 11
4675.4991353845562
 21
4260.515275913679
 31
0.0
  0
LINE
  5
6128
  8
HIDDEN
 10
4679.1854268855714
 20
4268.515275913679
 30
0.0
 11
4682.4991353845553
 21
4268.515275913679
 31
0.0
  0
LINE
  5
6129
  8
UMCL1
 10
4679.1854268855714
 20
4268.515275913679
 30
0.0
 11
4675.4991353845562
 21
4268.515275913679
 31
0.0
  0
CIRCLE
  5
612A
  8
UMCL1
 10
4655.4991353845544
 20
4299.515275913679
 30
0.0
 40
3.399999999999999
  0
ARC
  5
612B
  8
UMCL1
 62
     2
 10
4655.4991353845544
 20
4299.515275913679
 30
0.0
 40
4.0
 50
156.62661036295489
 51
117.295953353016
  0
LINE
  5
612C
  8
CEN
 10
4655.4991353845544
 20
4308.8389237537567
 30
0.0
 11
4655.4991353845544
 21
4290.1916280736023
 31
0.0
  0
LINE
  5
612D
  8
CEN
 10
4664.8227832246339
 20
4299.515275913679
 30
0.0
 11
4646.1754875444776
 21
4299.515275913679
 31
0.0
  0
LINE
  5
612E
  8
UMCL1
 10
4645.4991353845562
 20
4306.0152759136781
 30
0.0
 11
4646.4991353845553
 21
4307.015275913679
 31
0.0
  0
POLYLINE
  5
612F
  8
UMCL1
 66
     1
 10
0.0
 20
0.0
 30
0.0
 70
     1
  0
VERTEX
  5
65CF
  8
UMCL1
 10
4689.0557597115812
 20
4300.515275913679
 30
0.0
  0
VERTEX
  5
65D0
  8
UMCL1
 10
4687.6123840386072
 20
4298.015275913679
 30
0.0
  0
VERTEX
  5
65D1
  8
UMCL1
 10
4689.0557597115812
 20
4295.515275913679
 30
0.0
  0
VERTEX
  5
65D2
  8
UMCL1
 10
4691.9425110575294
 20
4295.515275913679
 30
0.0
  0
VERTEX
  5
65D3
  8
UMCL1
 10
4693.3858867305044
 20
4298.015275913679
 30
0.0
  0
VERTEX
  5
65D4
  8
UMCL1
 10
4691.9425110575294
 20
4300.515275913679
 30
0.0
  0
SEQEND
  5
65D5
  8
UMCL1
  0
CIRCLE
  5
6130
  8
UMCL1
 10
4690.4991353845553
 20
4298.015275913679
 30
0.0
 40
4.5
  0
CIRCLE
  5
6131
  8
UMCL1
 10
4690.4991353845553
 20
4298.015275913679
 30
0.0
 40
5.0
  0
CIRCLE
  5
6132
  8
UMCL1
 10
4690.4991353845553
 20
4298.015275913679
 30
0.0
 40
5.5
  0
LINE
  5
6133
  8
UMCL1
 10
4734.4991353845553
 20
4197.0152759136781
 30
0.0
 11
4735.4991353845553
 21
4198.015275913679
 31
0.0
  0
LINE
  5
6134
  8
UMCL2
 10
4750.2258274158867
 20
4324.2419679450104
 30
0.0
 11
4808.0179111102116
 21
4324.2419679450104
 31
0.0
  0
ARC
  5
6135
  8
UMCL1
 10
4739.8440340568759
 20
4278.6540599815107
 30
0.0
 40
4.3448986723201113
 50
145.61575253194681
 51
214.38424746803159
  0
ARC
  5
6136
  8
UMCL1
 10
4739.1542367122347
 20
4278.6540599815107
 30
0.0
 40
4.3448986723201113
 50
325.61575253196838
 51
34.384247468053132
  0
LINE
  5
6137
  8
UMCL1
 10
4743.4991353845553
 20
4294.515275913679
 30
0.0
 11
4743.4991353845553
 21
4277.515275913679
 31
0.0
  0
LINE
  5
6138
  8
UMCL1
 10
4742.7399460059996
 20
4276.2003213374546
 30
0.0
 11
4736.2583247631101
 21
4276.2003213374546
 31
0.0
  0
CIRCLE
  5
6139
  8
UMCL1
 10
4723.9991353845553
 20
4264.515275913679
 30
0.0
 40
5.5
  0
CIRCLE
  5
613A
  8
UMCL1
 10
4723.9991353845553
 20
4264.515275913679
 30
0.0
 40
5.0
  0
CIRCLE
  5
613B
  8
UMCL1
 10
4723.9991353845553
 20
4264.515275913679
 30
0.0
 40
4.5
  0
POLYLINE
  5
613C
  8
UMCL1
 66
     1
 10
0.0
 20
0.0
 30
0.0
 70
     1
  0
VERTEX
  5
65D6
  8
UMCL1
 10
4722.5557597115821
 20
4267.015275913679
 30
0.0
  0
VERTEX
  5
65D7
  8
UMCL1
 10
4721.1123840386072
 20
4264.515275913679
 30
0.0
  0
VERTEX
  5
65D8
  8
UMCL1
 10
4722.5557597115812
 20
4262.015275913679
 30
0.0
  0
VERTEX
  5
65D9
  8
UMCL1
 10
4725.4425110575303
 20
4262.015275913679
 30
0.0
  0
VERTEX
  5
65DA
  8
UMCL1
 10
4726.8858867305044
 20
4264.515275913679
 30
0.0
  0
VERTEX
  5
65DB
  8
UMCL1
 10
4725.4425110575303
 20
4267.015275913679
 30
0.0
  0
SEQEND
  5
65DC
  8
UMCL1
  0
LINE
  5
613D
  8
UMCL1
 10
4735.4991353845553
 20
4277.515275913679
 30
0.0
 11
4736.2583247631101
 21
4276.2003213374546
 31
0.0
  0
LINE
  5
613E
  8
UMCL1
 10
4743.4991353845553
 20
4277.515275913679
 30
0.0
 11
4742.7399460059996
 21
4276.2003213374546
 31
0.0
  0
LINE
  5
613F
  8
UMCL1
 10
4742.7399460059996
 20
4295.8302304899044
 30
0.0
 11
4736.2583247631101
 21
4295.8302304899044
 31
0.0
  0
LINE
  5
6140
  8
UMCL1
 10
4742.7399460059996
 20
4281.1077986255668
 30
0.0
 11
4736.2583247631101
 21
4281.1077986255668
 31
0.0
  0
LINE
  5
6141
  8
UMCL1
 10
4742.7399460059996
 20
4290.9227532017912
 30
0.0
 11
4736.2583247631101
 21
4290.9227532017912
 31
0.0
  0
LINE
  5
6142
  8
CEN
 10
4725.4097354939777
 20
4286.015275913679
 30
0.0
 11
4749.2097317413472
 21
4286.015275913679
 31
0.0
  0
LINE
  5
6143
  8
UMCL2
 10
4750.2258274158867
 20
4324.2419679450104
 30
0.0
 11
4728.327562509302
 21
4302.3437030384257
 31
0.0
  0
LINE
  5
6144
  8
CEN
 10
4725.4991353845562
 20
4308.8389237537567
 30
0.0
 11
4725.4991353845562
 21
4290.1916280736023
 31
0.0
  0
ARC
  5
6145
  8
UMCL1
 62
     2
 10
4725.4991353845553
 20
4299.515275913679
 30
0.0
 40
4.0
 50
156.62661036295489
 51
117.295953353016
  0
CIRCLE
  5
6146
  8
UMCL1
 10
4725.4991353845562
 20
4299.515275913679
 30
0.0
 40
3.399999999999999
  0
SOLID
  5
6147
  8
UMCL2
 10
4731.2738407642446
 20
4306.468492595347
 30
0.0
 11
4732.4523520662233
 21
4305.2899812933692
 31
0.0
 12
4728.327562509302
 22
4302.3437030384248
 32
0.0
 13
4728.327562509302
 23
4302.3437030384248
 33
0.0
  0
LINE
  5
6148
  8
CEN
 10
4734.822783224633
 20
4299.515275913679
 30
0.0
 11
4716.1754875444776
 21
4299.515275913679
 31
0.0
  0
ARC
  5
6149
  8
UMCL1
 10
4751.7399460060033
 20
4286.015275913679
 30
0.0
 40
16.24081062144808
 50
162.41204622601151
 51
197.58795377398849
  0
LINE
  5
614A
  8
UMCL1
 10
4735.4991353845553
 20
4294.515275913679
 30
0.0
 11
4736.2583247631101
 21
4295.8302304899044
 31
0.0
  0
ARC
  5
614B
  8
UMCL1
 10
4739.8440340568759
 20
4293.3764918458473
 30
0.0
 40
4.3448986723201113
 50
145.61575253196841
 51
214.38424746805319
  0
LINE
  5
614C
  8
UMCL1
 10
4735.4991353845553
 20
4306.0152759136781
 30
0.0
 11
4734.4991353845553
 21
4307.015275913679
 31
0.0
  0
ARC
  5
614D
  8
UMCL1
 10
4727.2583247631073
 20
4286.015275913679
 30
0.0
 40
16.24081062144808
 50
342.41204622601151
 51
17.587953773988499
  0
LINE
  5
614E
  8
UMCL1
 10
4743.4991353845553
 20
4294.515275913679
 30
0.0
 11
4742.7399460059996
 21
4295.8302304899044
 31
0.0
  0
ARC
  5
614F
  8
UMCL1
 10
4739.1542367122347
 20
4293.3764918458473
 30
0.0
 40
4.3448986723201113
 50
325.61575253194678
 51
34.384247468031631
  0
TEXT
  5
6150
  8
UMCL2
 10
4686.4509399445697
 20
4327.4152759136787
 30
0.0
 40
6.0
  1
70
 41
0.85
 51
15.0
  7
ROMANS
  0
LINE
  5
6151
  8
UMCL2
 10
4679.8103311322793
 20
4332.8816067603502
 30
0.0
 11
4684.6376440826289
 21
4332.8816067603502
 31
0.0
  0
LINE
  5
6152
  8
UMCL2
 10
4684.6376440826289
 20
4332.8816067603502
 30
0.0
 11
4684.6376440826289
 21
4328.0200400101467
 31
0.0
  0
LINE
  5
6153
  8
UMCL2
 10
4684.6376440826289
 20
4328.0200400101467
 30
0.0
 11
4679.8103311322793
 21
4328.0200400101467
 31
0.0
  0
LINE
  5
6154
  8
UMCL2
 10
4679.8103311322793
 20
4328.0200400101467
 30
0.0
 11
4679.8103311322793
 21
4332.8816067603502
 31
0.0
  0
TEXT
  5
6155
  8
UMCL2
 10
4752.9545406045763
 20
4327.6419679450109
 30
0.0
 40
6.0
  1
2x4-M8x15dp
 41
0.85
 51
15.0
  7
ROMANS
  0
LINE
  5
6156
  8
UMCL1
 10
4868.9991353845562
 20
4256.8583034187641
 30
0.0
 11
4868.9991353845562
 21
4212.1722484085949
 31
0.0
  0
LINE
  5
6157
  8
UMCL1
 10
4842.9991353845562
 20
4212.515275913679
 30
0.0
 11
4868.9991353845562
 21
4212.515275913679
 31
0.0
  0
LINE
  5
6158
  8
UMCL1
 10
4842.9991353845562
 20
4256.515275913679
 30
0.0
 11
4868.9991353845562
 21
4256.515275913679
 31
0.0
  0
LINE
  5
6159
  8
HIDDEN
 10
4645.4991353845562
 20
4253.015275913679
 30
0.0
 11
4537.9991353845553
 21
4253.015275913679
 31
0.0
  0
LINE
  5
615A
  8
HIDDEN
 10
4516.7250575917251
 20
4212.515275913679
 30
0.0
 11
4517.2491353845553
 21
4222.515275913679
 31
0.0
  0
LINE
  5
615B
  8
HIDDEN
 10
4515.9250575917249
 20
4212.515275913679
 30
0.0
 11
4516.449135384556
 21
4222.515275913679
 31
0.0
  0
LINE
  5
615C
  8
HIDDEN
 10
4529.2732131773864
 20
4212.515275913679
 30
0.0
 11
4528.7491353845553
 21
4222.515275913679
 31
0.0
  0
LINE
  5
615D
  8
HIDDEN
 10
4530.0732131773866
 20
4212.515275913679
 30
0.0
 11
4529.5491353845546
 21
4222.515275913679
 31
0.0
  0
LINE
  5
615E
  8
UMCL1
 10
4537.9991353845553
 20
4256.515275913679
 30
0.0
 11
4511.9991353845553
 21
4256.515275913679
 31
0.0
  0
LINE
  5
615F
  8
UMCL1
 10
4537.9991353845553
 20
4212.515275913679
 30
0.0
 11
4511.9991353845553
 21
4212.515275913679
 31
0.0
  0
LINE
  5
6160
  8
UMCL1
 10
4537.9991353845553
 20
4256.515275913679
 30
0.0
 11
4537.9991353845553
 21
4212.515275913679
 31
0.0
  0
LINE
  5
6161
  8
UMCL1
 10
4511.9991353845553
 20
4256.515275913679
 30
0.0
 11
4511.9991353845553
 21
4212.515275913679
 31
0.0
  0
LINE
  5
6162
  8
UMCL1
 10
4645.4991353845562
 20
4198.015275913679
 30
0.0
 11
4645.4991353845562
 21
4306.0152759136781
 31
0.0
  0
LINE
  5
6163
  8
UMCL1
 10
4735.4991353845562
 20
4198.015275913679
 30
0.0
 11
4735.4991353845553
 21
4306.0152759136781
 31
0.0
  0
LINE
  5
6164
  8
CEN
 10
4508.203683582733
 20
4021.300972628399
 30
0.0
 11
4872.9991353845562
 21
4021.300972628399
 31
0.0
  0
LINE
  5
6165
  8
UMCL2
 10
4731.4991353845562
 20
3971.600972628401
 30
0.0
 11
4731.4991353845562
 21
3955.8009726283999
 31
0.0
  0
TEXT
  5
6166
  8
UMCL2
 10
4682.6255125435819
 20
3960.2009726284
 30
0.0
 40
6.0
  1
\U+220582
 41
0.85
 51
15.0
  7
ROMANS
  0
LINE
  5
6167
  8
UMCL2
 10
4649.4991353845553
 20
3971.600972628401
 30
0.0
 11
4649.4991353845553
 21
3955.8009726283999
 31
0.0
  0
LINE
  5
6168
  8
UMCL2
 10
4649.4991353845553
 20
3957.8009726283999
 30
0.0
 11
4731.4991353845562
 21
3957.8009726283999
 31
0.0
  0
SOLID
  5
6169
  8
UMCL2
 10
4654.4991353845553
 20
3958.6343059617329
 30
0.0
 11
4654.4991353845553
 21
3956.967639295066
 31
0.0
 12
4649.4991353845553
 22
3957.8009726283999
 32
0.0
 13
4649.4991353845553
 23
3957.8009726283999
 33
0.0
  0
SOLID
  5
616A
  8
UMCL2
 10
4726.4991353845562
 20
3958.6343059617329
 30
0.0
 11
4726.4991353845562
 21
3956.967639295066
 31
0.0
 12
4731.4991353845562
 22
3957.8009726283999
 32
0.0
 13
4731.4991353845562
 23
3957.8009726283999
 33
0.0
  0
CIRCLE
  5
616B
  8
UMCL1
 10
4711.9991353845562
 20
4001.800972628399
 30
0.0
 40
5.0
  0
LINE
  5
616C
  8
UMCL1
 10
4731.199135384556
 20
4068.8009726283999
 30
0.0
 11
4649.7991353845564
 21
4068.8009726283999
 31
0.0
  0
LINE
  5
616D
  8
CEN
 10
4700.9991353845562
 20
4001.800972628399
 30
0.0
 11
4722.9991353845562
 21
4001.800972628399
 31
0.0
  0
LINE
  5
616E
  8
UMCL1
 10
4649.7991353845546
 20
3973.8009726283999
 30
0.0
 11
4731.199135384556
 21
3973.8009726283999
 31
0.0
  0
LINE
  5
616F
  8
UMCL1
 10
4734.4991353845553
 20
4058.8009726283999
 30
0.0
 11
4646.4991353845562
 21
4058.800972628399
 31
0.0
  0
LINE
  5
6170
  8
UMCL1
 10
4734.4991353845544
 20
3983.8009726283981
 30
0.0
 11
4646.4991353845571
 21
3983.800972628399
 31
0.0
  0
LINE
  5
6171
  8
UMCL1
 10
4675.4991353845562
 20
4108.7009726283986
 30
0.0
 11
4675.4991353845562
 21
4072.7009726283991
 31
0.0
  0
LINE
  5
6172
  8
UMCL1
 10
4702.4991353845562
 20
4111.2009726283986
 30
0.0
 11
4702.4991353845562
 21
4070.7009726284
 31
0.0
  0
LINE
  5
6173
  8
UMCL1
 10
4678.4991353845562
 20
4111.2009726283986
 30
0.0
 11
4678.4991353845562
 21
4070.7009726284
 31
0.0
  0
LINE
  5
6174
  8
HIDDEN
 10
4682.4991353845553
 20
4108.7009726283986
 30
0.0
 11
4682.4991353845553
 21
4072.7009726283991
 31
0.0
  0
SOLID
  5
6175
  8
UMCL2
 10
4632.6658020512232
 20
4077.7009726284
 30
0.0
 11
4634.3324687178892
 21
4077.7009726284
 31
0.0
 12
4633.4991353845562
 22
4072.7009726283991
 32
0.0
 13
4633.4991353845562
 23
4072.7009726283991
 33
0.0
  0
LINE
  5
6176
  8
UMCL2
 10
4617.4991353845562
 20
4053.6472180907172
 30
0.0
 11
4617.4991353845562
 21
4111.7009726283986
 31
0.0
  0
LINE
  5
6177
  8
UMCL2
 10
4633.4991353845562
 20
4072.7009726283991
 30
0.0
 11
4633.4991353845562
 21
4126.2603514026723
 31
0.0
  0
LINE
  5
6178
  8
CEN
 10
4690.4991353845553
 20
4114.7009726284005
 30
0.0
 11
4690.4991353845553
 21
3970.8009726283999
 31
0.0
  0
LINE
  5
6179
  8
UMCL2
 10
4647.2991353845564
 20
4068.8009726283999
 30
0.0
 11
4614.9991353845562
 21
4068.8009726283999
 31
0.0
  0
LINE
  5
617A
  8
UMCL2
 10
4675.481124403901
 20
4069.7009726283991
 30
0.0
 11
4614.9991353845562
 21
4069.7009726283991
 31
0.0
  0
LINE
  5
617B
  8
UMCL2
 10
4673.4991353845562
 20
4072.7009726283991
 30
0.0
 11
4630.9991353845562
 21
4072.7009726283991
 31
0.0
  0
TEXT
  5
617C
  8
UMCL2
 10
4615.0991353845548
 20
4056.1797288657131
 30
0.0
 40
6.0
  1
1
 50
90.0
 41
0.85
 51
15.0
  7
ROMANS
  0
SOLID
  5
617D
  8
UMCL2
 10
4616.6658020512223
 20
4074.7009726284
 30
0.0
 11
4618.3324687178892
 21
4074.7009726284
 31
0.0
 12
4617.4991353845562
 22
4069.7009726283991
 32
0.0
 13
4617.4991353845562
 23
4069.7009726283991
 33
0.0
  0
SOLID
  5
617E
  8
UMCL2
 10
4616.6658020512223
 20
4063.800972628399
 30
0.0
 11
4618.3324687178892
 21
4063.800972628399
 31
0.0
 12
4617.4991353845562
 22
4068.800972628399
 32
0.0
 13
4617.4991353845562
 23
4068.800972628399
 33
0.0
  0
LINE
  5
617F
  8
UMCL1
 10
4645.4991353845562
 20
4057.800972628399
 30
0.0
 11
4645.4991353845562
 21
3984.8009726283999
 31
0.0
  0
LINE
  5
6180
  8
CEN
 10
4679.9991353845562
 20
4001.800972628399
 30
0.0
 11
4657.9991353845562
 21
4001.800972628399
 31
0.0
  0
POLYLINE
  5
6181
  8
UMCL1
 66
     1
 10
0.0
 20
0.0
 30
0.0
 70
     1
  0
VERTEX
  5
65DD
  8
UMCL1
 10
4673.9066126726684
 20
4010.300972628399
 30
0.0
  0
VERTEX
  5
65DE
  8
UMCL1
 10
4678.8140899607797
 20
4001.800972628399
 30
0.0
  0
VERTEX
  5
65DF
  8
UMCL1
 10
4673.9066126726684
 20
3993.3009726283999
 30
0.0
  0
VERTEX
  5
65E0
  8
UMCL1
 10
4664.091658096444
 20
3993.3009726283999
 30
0.0
  0
VERTEX
  5
65E1
  8
UMCL1
 10
4659.1841808083327
 20
4001.800972628399
 30
0.0
  0
VERTEX
  5
65E2
  8
UMCL1
 10
4664.091658096444
 20
4010.300972628399
 30
0.0
  0
SEQEND
  5
65E3
  8
UMCL1
  0
CIRCLE
  5
6182
  8
UMCL1
 10
4668.9991353845562
 20
4001.800972628399
 30
0.0
 40
8.5
  0
LINE
  5
6183
  8
CEN
 10
4668.9991353845562
 20
4012.8009726283999
 30
0.0
 11
4668.9991353845562
 21
3990.800972628399
 31
0.0
  0
LINE
  5
6184
  8
HIDDEN
 10
4651.4991353845571
 20
3983.8009726283999
 30
0.0
 11
4651.4991353845571
 21
3998.8009726283999
 31
0.0
  0
LINE
  5
6185
  8
HIDDEN
 10
4659.4991353845562
 20
3983.8009726283999
 30
0.0
 11
4659.4991353845562
 21
3998.8009726283999
 31
0.0
  0
LINE
  5
6186
  8
HIDDEN
 10
4652.2491353845562
 20
3983.8009726283999
 30
0.0
 11
4652.2491353845562
 21
4002.800972628399
 31
0.0
  0
LINE
  5
6187
  8
HIDDEN
 10
4658.7491353845562
 20
3983.8009726283999
 30
0.0
 11
4658.7491353845562
 21
4002.800972628399
 31
0.0
  0
LINE
  5
6188
  8
CEN
 10
4655.4991353845562
 20
3979.4336693407772
 30
0.0
 11
4655.4991353845562
 21
4009.2494866370048
 31
0.0
  0
LINE
  5
6189
  8
UMCL1
 10
4649.4991353845553
 20
3983.5009726284002
 30
0.0
 11
4649.4991353845553
 21
3974.1009726284001
 31
0.0
  0
LINE
  5
618A
  8
CEN
 10
4656.9991353845562
 20
3970.6335057259289
 30
0.0
 11
4656.9991353845571
 21
3988.8916619281049
 31
0.0
  0
LINE
  5
618B
  8
UMCL1
 10
4649.7991353845546
 20
3973.8009726283999
 30
0.0
 11
4649.4991353845553
 21
3974.1009726284001
 31
0.0
  0
LINE
  5
618C
  8
UMCL1
 10
4649.4991353845562
 20
3983.5009726283988
 30
0.0
 11
4649.7991353845564
 21
3983.800972628399
 31
0.0
  0
LINE
  5
618D
  8
UMCL1
 10
4646.4991353845562
 20
3983.800972628399
 30
0.0
 11
4645.4991353845562
 21
3984.8009726283999
 31
0.0
  0
LINE
  5
618E
  8
HIDDEN
 10
4651.4991353845571
 20
3998.8009726283999
 30
0.0
 11
4659.4991353845562
 21
3998.8009726283999
 31
0.0
  0
LINE
  5
618F
  8
HIDDEN
 10
4652.2491353845562
 20
4002.800972628399
 30
0.0
 11
4658.7491353845562
 21
4002.800972628399
 31
0.0
  0
LINE
  5
6190
  8
HIDDEN
 10
4658.7491353845562
 20
4002.800972628399
 30
0.0
 11
4655.4991353845562
 21
4004.8009726283999
 31
0.0
  0
LINE
  5
6191
  8
HIDDEN
 10
4655.4991353845562
 20
4004.8009726283999
 30
0.0
 11
4652.2491353845562
 21
4002.800972628399
 31
0.0
  0
CIRCLE
  5
6192
  8
UMCL1
 10
4668.9991353845562
 20
4001.800972628399
 30
0.0
 40
5.0
  0
CIRCLE
  5
6193
  8
UMCL1
 10
4668.9991353845562
 20
4001.800972628399
 30
0.0
 40
4.0
  0
ARC
  5
6194
  8
UMCL1
 62
     2
 10
4668.9991353845562
 20
4001.800972628399
 30
0.0
 40
4.25
 50
331.27318810696659
 51
289.77677394721798
  0
POLYLINE
  5
6195
  8
UMCL1
 66
     1
 10
0.0
 20
0.0
 30
0.0
 70
     1
  0
VERTEX
  5
65E4
  8
UMCL1
 10
4666.4991353845562
 20
4003.2443483013731
 30
0.0
  0
VERTEX
  5
65E5
  8
UMCL1
 10
4668.9991353845562
 20
4004.6877239743471
 30
0.0
  0
VERTEX
  5
65E6
  8
UMCL1
 10
4671.4991353845562
 20
4003.2443483013731
 30
0.0
  0
VERTEX
  5
65E7
  8
UMCL1
 10
4671.4991353845562
 20
4000.3575969554249
 30
0.0
  0
VERTEX
  5
65E8
  8
UMCL1
 10
4668.9991353845562
 20
3998.9142212824509
 30
0.0
  0
VERTEX
  5
65E9
  8
UMCL1
 10
4666.4991353845562
 20
4000.3575969554249
 30
0.0
  0
SEQEND
  5
65EA
  8
UMCL1
  0
LINE
  5
6196
  8
CEN
 10
4673.7524932378228
 20
4076.7009726283991
 30
0.0
 11
4684.7524932378219
 21
4076.7009726283991
 31
0.0
  0
LINE
  5
6197
  8
HIDDEN
 10
4651.4991353845571
 20
4058.800972628399
 30
0.0
 11
4651.4991353845571
 21
4043.8009726283999
 31
0.0
  0
LINE
  5
6198
  8
HIDDEN
 10
4659.4991353845562
 20
4058.800972628399
 30
0.0
 11
4659.4991353845562
 21
4043.8009726283999
 31
0.0
  0
LINE
  5
6199
  8
HIDDEN
 10
4652.2491353845562
 20
4058.800972628399
 30
0.0
 11
4652.2491353845562
 21
4039.8009726283999
 31
0.0
  0
LINE
  5
619A
  8
HIDDEN
 10
4658.7491353845562
 20
4058.800972628399
 30
0.0
 11
4658.7491353845562
 21
4039.8009726283999
 31
0.0
  0
LINE
  5
619B
  8
CEN
 10
4655.4991353845562
 20
4063.168275916023
 30
0.0
 11
4655.4991353845562
 21
4033.3524586197941
 31
0.0
  0
LINE
  5
619C
  8
HIDDEN
 10
4651.4991353845571
 20
4043.8009726283999
 30
0.0
 11
4659.4991353845562
 21
4043.8009726283999
 31
0.0
  0
LINE
  5
619D
  8
HIDDEN
 10
4652.2491353845562
 20
4039.8009726283999
 30
0.0
 11
4658.7491353845562
 21
4039.8009726283999
 31
0.0
  0
LINE
  5
619E
  8
HIDDEN
 10
4658.7491353845562
 20
4039.8009726283999
 30
0.0
 11
4655.4991353845562
 21
4037.800972628399
 31
0.0
  0
LINE
  5
619F
  8
HIDDEN
 10
4655.4991353845562
 20
4037.800972628399
 30
0.0
 11
4652.2491353845562
 21
4039.8009726283999
 31
0.0
  0
LINE
  5
61A0
  8
UMCL1
 10
4649.4991353845562
 20
4059.1009726283992
 30
0.0
 11
4649.4991353845562
 21
4068.5009726284002
 31
0.0
  0
LINE
  5
61A1
  8
CEN
 10
4656.9991353845562
 20
4071.9684395308709
 30
0.0
 11
4656.9991353845571
 21
4053.7102833286949
 31
0.0
  0
LINE
  5
61A2
  8
UMCL1
 10
4649.4991353845562
 20
4059.1009726283992
 30
0.0
 11
4649.7991353845564
 21
4058.800972628399
 31
0.0
  0
LINE
  5
61A3
  8
UMCL1
 10
4646.4991353845562
 20
4058.800972628399
 30
0.0
 11
4645.4991353845562
 21
4057.800972628399
 31
0.0
  0
LINE
  5
61A4
  8
UMCL1
 10
4649.4991353845562
 20
4068.5009726284002
 30
0.0
 11
4649.7991353845564
 21
4068.8009726283999
 31
0.0
  0
LINE
  5
61A5
  8
UMCL1
 10
4678.4991353845562
 20
4070.7009726284
 30
0.0
 11
4702.4991353845562
 21
4070.7009726284
 31
0.0
  0
LINE
  5
61A6
  8
UMCL1
 10
4675.9991353845562
 20
4069.7009726283991
 30
0.0
 11
4704.9991353845562
 21
4069.7009726283991
 31
0.0
  0
LINE
  5
61A7
  8
UMCL1
 10
4705.4991353845562
 20
4069.2009726284
 30
0.0
 11
4675.4991353845562
 21
4069.2009726284
 31
0.0
  0
LINE
  5
61A8
  8
HIDDEN
 10
4682.4991353845553
 20
4072.7009726283991
 30
0.0
 11
4678.4991353845562
 21
4072.7009726283991
 31
0.0
  0
LINE
  5
61A9
  8
UMCL1
 10
4678.4991353845562
 20
4072.7009726283991
 30
0.0
 11
4675.4991353845562
 21
4072.7009726283991
 31
0.0
  0
LINE
  5
61AA
  8
UMCL1
 10
4675.4991353845562
 20
4069.2009726284
 30
0.0
 11
4675.4991353845562
 21
4068.8009726283999
 31
0.0
  0
ARC
  5
61AB
  8
UMCL1
 10
4678.4991353845562
 20
4070.2009726283991
 30
0.0
 40
0.5
 50
270.0
 51
90.0
  0
LINE
  5
61AC
  8
UMCL1
 10
4675.4991353845562
 20
4069.2009726284
 30
0.0
 11
4675.9991353845562
 21
4069.7009726283991
 31
0.0
  0
LINE
  5
61AD
  8
UMCL1
 10
4705.4991353845562
 20
4069.2009726284
 30
0.0
 11
4705.4991353845562
 21
4068.8009726283999
 31
0.0
  0
ARC
  5
61AE
  8
UMCL1
 10
4702.4991353845562
 20
4070.2009726283991
 30
0.0
 40
0.5
 50
90.0
 51
270.0
  0
LINE
  5
61AF
  8
UMCL1
 10
4705.4991353845562
 20
4069.2009726284
 30
0.0
 11
4704.9991353845562
 21
4069.7009726283991
 31
0.0
  0
LINE
  5
61B0
  8
UMCL2
 10
4677.729145299937
 20
4111.7009726283986
 30
0.0
 11
4614.9991353845562
 21
4111.7009726283986
 31
0.0
  0
LINE
  5
61B1
  8
UMCL2
 10
4673.4991353845562
 20
4108.7009726283986
 30
0.0
 11
4630.9991353845562
 21
4108.7009726283986
 31
0.0
  0
SOLID
  5
61B2
  8
UMCL2
 10
4632.6658020512232
 20
4103.7009726283986
 30
0.0
 11
4634.3324687178892
 21
4103.7009726283986
 31
0.0
 12
4633.4991353845562
 22
4108.7009726283986
 32
0.0
 13
4633.4991353845562
 23
4108.7009726283986
 33
0.0
  0
TEXT
  5
61B3
  8
UMCL2
 10
4615.0991353845548
 20
4085.672282118715
 30
0.0
 40
6.0
  1
42
 50
90.0
 41
0.85
 51
15.0
  7
ROMANS
  0
TEXT
  5
61B4
  8
UMCL2
 10
4631.0991353845548
 20
4085.5276713087001
 30
0.0
 40
6.0
  1
36
 50
90.0
 41
0.85
 51
15.0
  7
ROMANS
  0
SOLID
  5
61B5
  8
UMCL2
 10
4616.6658020512223
 20
4106.7009726284005
 30
0.0
 11
4618.3324687178892
 21
4106.7009726284005
 31
0.0
 12
4617.4991353845562
 22
4111.7009726283986
 32
0.0
 13
4617.4991353845562
 23
4111.7009726283986
 33
0.0
  0
SOLID
  5
61B6
  8
UMCL2
 10
4632.6658020512232
 20
4116.7009726283986
 30
0.0
 11
4634.3324687178892
 21
4116.7009726283986
 31
0.0
 12
4633.4991353845562
 22
4111.7009726283986
 32
0.0
 13
4633.4991353845562
 23
4111.7009726283986
 33
0.0
  0
TEXT
  5
61B7
  8
UMCL2
 10
4631.0991353845548
 20
4118.6763347078204
 30
0.0
 40
6.0
  1
3
 50
90.0
 41
0.85
 51
15.0
  7
ROMANS
  0
LINE
  5
61B8
  8
CEN
 10
4673.7524932378228
 20
4104.7009726283986
 30
0.0
 11
4684.7524932378219
 21
4104.7009726283986
 31
0.0
  0
LINE
  5
61B9
  8
HIDDEN
 10
4686.4991353845562
 20
4111.7009726283986
 30
0.0
 11
4686.4991353845562
 21
4095.7009726283991
 31
0.0
  0
LINE
  5
61BA
  8
HIDDEN
 10
4694.4991353845562
 20
4111.7009726283986
 30
0.0
 11
4694.4991353845562
 21
4095.7009726283991
 31
0.0
  0
LINE
  5
61BB
  8
HIDDEN
 10
4687.2491353845562
 20
4111.7009726283986
 30
0.0
 11
4687.2491353845562
 21
4091.7009726283991
 31
0.0
  0
LINE
  5
61BC
  8
HIDDEN
 10
4693.7491353845562
 20
4111.7009726283986
 30
0.0
 11
4693.7491353845562
 21
4091.7009726283991
 31
0.0
  0
LINE
  5
61BD
  8
HIDDEN
 10
4686.4991353845562
 20
4095.7009726283991
 30
0.0
 11
4694.4991353845562
 21
4095.7009726283991
 31
0.0
  0
LINE
  5
61BE
  8
HIDDEN
 10
4693.7491353845562
 20
4091.7009726283991
 30
0.0
 11
4690.4991353845553
 21
4089.7009726283991
 31
0.0
  0
LINE
  5
61BF
  8
HIDDEN
 10
4687.2491353845562
 20
4091.7009726283991
 30
0.0
 11
4693.7491353845562
 21
4091.7009726283991
 31
0.0
  0
LINE
  5
61C0
  8
HIDDEN
 10
4690.4991353845553
 20
4089.7009726283991
 30
0.0
 11
4687.2491353845562
 21
4091.7009726283991
 31
0.0
  0
LINE
  5
61C1
  8
UMCL2
 10
4675.4991353845562
 20
4127.7009726283986
 30
0.0
 11
4702.4991353845562
 21
4127.7009726283986
 31
0.0
  0
LINE
  5
61C2
  8
UMCL1
 10
4702.4991353845562
 20
4111.2009726283986
 30
0.0
 11
4678.4991353845562
 21
4111.2009726283986
 31
0.0
  0
LINE
  5
61C3
  8
UMCL1
 10
4678.9991353845571
 20
4111.7009726283986
 30
0.0
 11
4701.9991353845562
 21
4111.7009726283986
 31
0.0
  0
SOLID
  5
61C4
  8
UMCL2
 10
4693.2566562627244
 20
4114.3180709464759
 30
0.0
 11
4693.9563897238186
 21
4113.2822750769037
 31
0.0
 12
4690.4991353845553
 22
4111.7009726283986
 32
0.0
 13
4690.4991353845553
 23
4111.7009726283986
 33
0.0
  0
LINE
  5
61C5
  8
UMCL2
 10
4675.4991353845562
 20
4110.1581957006183
 30
0.0
 11
4675.4991353845562
 21
4129.7009726283986
 31
0.0
  0
LINE
  5
61C6
  8
HIDDEN
 10
4682.4991353845553
 20
4108.7009726283986
 30
0.0
 11
4678.4991353845562
 21
4108.7009726283986
 31
0.0
  0
LINE
  5
61C7
  8
UMCL1
 10
4678.4991353845562
 20
4108.7009726283986
 30
0.0
 11
4675.4991353845562
 21
4108.7009726283986
 31
0.0
  0
LINE
  5
61C8
  8
UMCL1
 10
4678.9991353845571
 20
4111.7009726283986
 30
0.0
 11
4678.4991353845562
 21
4111.2009726283986
 31
0.0
  0
SOLID
  5
61C9
  8
UMCL2
 10
4680.4991353845571
 20
4128.5343059617326
 30
0.0
 11
4680.4991353845571
 21
4126.8676392950656
 31
0.0
 12
4675.4991353845562
 22
4127.7009726283986
 32
0.0
 13
4675.4991353845562
 23
4127.7009726283986
 33
0.0
  0
LINE
  5
61CA
  8
UMCL2
 10
4702.4991353845562
 20
4113.2009726284005
 30
0.0
 11
4702.4991353845562
 21
4129.7009726283986
 31
0.0
  0
LINE
  5
61CB
  8
UMCL1
 10
4702.4991353845562
 20
4111.2009726283986
 30
0.0
 11
4701.9991353845562
 21
4111.7009726283986
 31
0.0
  0
SOLID
  5
61CC
  8
UMCL2
 10
4697.4991353845562
 20
4128.5343059617326
 30
0.0
 11
4697.4991353845562
 21
4126.8676392950656
 31
0.0
 12
4702.4991353845562
 22
4127.7009726283986
 32
0.0
 13
4702.4991353845562
 23
4127.7009726283986
 33
0.0
  0
LINE
  5
61CD
  8
UMCL1
 10
4735.4991353845562
 20
4057.8009726283999
 30
0.0
 11
4735.4991353845562
 21
3984.8009726283999
 31
0.0
  0
LINE
  5
61CE
  8
CEN
 10
4711.9991353845562
 20
4012.8009726283999
 30
0.0
 11
4711.9991353845562
 21
3990.800972628399
 31
0.0
  0
LINE
  5
61CF
  8
HIDDEN
 10
4722.2491353845562
 20
3983.8009726283999
 30
0.0
 11
4722.2491353845562
 21
4002.800972628399
 31
0.0
  0
LINE
  5
61D0
  8
HIDDEN
 10
4728.7491353845562
 20
3983.8009726283999
 30
0.0
 11
4728.7491353845562
 21
4002.800972628399
 31
0.0
  0
LINE
  5
61D1
  8
HIDDEN
 10
4721.4991353845562
 20
3983.8009726283999
 30
0.0
 11
4721.4991353845562
 21
3998.8009726283999
 31
0.0
  0
LINE
  5
61D2
  8
HIDDEN
 10
4729.4991353845562
 20
3983.8009726283999
 30
0.0
 11
4729.4991353845562
 21
3998.8009726283999
 31
0.0
  0
LINE
  5
61D3
  8
CEN
 10
4725.4991353845562
 20
3979.4336693407772
 30
0.0
 11
4725.4991353845562
 21
4009.2494866370048
 31
0.0
  0
LINE
  5
61D4
  8
UMCL1
 10
4731.4991353845553
 20
3983.5009726284002
 30
0.0
 11
4731.4991353845553
 21
3974.1009726283992
 31
0.0
  0
LINE
  5
61D5
  8
CEN
 10
4723.9991353845553
 20
3970.6335057259289
 30
0.0
 11
4723.9991353845553
 21
3988.891661928104
 31
0.0
  0
LINE
  5
61D6
  8
UMCL1
 10
4731.4991353845553
 20
3974.1009726283992
 30
0.0
 11
4731.199135384556
 21
3973.8009726283999
 31
0.0
  0
LINE
  5
61D7
  8
UMCL1
 10
4731.4991353845562
 20
3983.5009726283988
 30
0.0
 11
4731.199135384556
 21
3983.800972628399
 31
0.0
  0
LINE
  5
61D8
  8
UMCL1
 10
4734.4991353845562
 20
3983.8009726283999
 30
0.0
 11
4735.4991353845562
 21
3984.8009726283999
 31
0.0
  0
LINE
  5
61D9
  8
HIDDEN
 10
4722.2491353845562
 20
4002.800972628399
 30
0.0
 11
4725.4991353845562
 21
4004.8009726283999
 31
0.0
  0
LINE
  5
61DA
  8
HIDDEN
 10
4728.7491353845562
 20
4002.800972628399
 30
0.0
 11
4722.2491353845562
 21
4002.800972628399
 31
0.0
  0
LINE
  5
61DB
  8
HIDDEN
 10
4729.4991353845562
 20
3998.8009726283999
 30
0.0
 11
4721.4991353845562
 21
3998.8009726283999
 31
0.0
  0
ARC
  5
61DC
  8
UMCL1
 62
     2
 10
4711.9991353845562
 20
4001.800972628399
 30
0.0
 40
4.25
 50
250.223226052782
 51
208.72681189303341
  0
CIRCLE
  5
61DD
  8
UMCL1
 10
4711.9991353845562
 20
4001.800972628399
 30
0.0
 40
4.0
  0
POLYLINE
  5
61DE
  8
UMCL1
 66
     1
 10
0.0
 20
0.0
 30
0.0
 70
     1
  0
VERTEX
  5
65EB
  8
UMCL1
 10
4714.4991353845562
 20
4003.2443483013731
 30
0.0
  0
VERTEX
  5
65EC
  8
UMCL1
 10
4711.9991353845562
 20
4004.6877239743471
 30
0.0
  0
VERTEX
  5
65ED
  8
UMCL1
 10
4709.4991353845571
 20
4003.2443483013731
 30
0.0
  0
VERTEX
  5
65EE
  8
UMCL1
 10
4709.4991353845571
 20
4000.3575969554249
 30
0.0
  0
VERTEX
  5
65EF
  8
UMCL1
 10
4711.9991353845562
 20
3998.9142212824509
 30
0.0
  0
VERTEX
  5
65F0
  8
UMCL1
 10
4714.4991353845562
 20
4000.3575969554249
 30
0.0
  0
SEQEND
  5
65F1
  8
UMCL1
  0
LINE
  5
61DF
  8
HIDDEN
 10
4725.4991353845562
 20
4004.8009726283999
 30
0.0
 11
4728.7491353845562
 21
4002.800972628399
 31
0.0
  0
LINE
  5
61E0
  8
HIDDEN
 10
4729.4991353845562
 20
4058.800972628399
 30
0.0
 11
4729.4991353845562
 21
4043.8009726283999
 31
0.0
  0
LINE
  5
61E1
  8
HIDDEN
 10
4721.4991353845562
 20
4058.800972628399
 30
0.0
 11
4721.4991353845562
 21
4043.8009726283999
 31
0.0
  0
LINE
  5
61E2
  8
HIDDEN
 10
4728.7491353845562
 20
4058.800972628399
 30
0.0
 11
4728.7491353845562
 21
4039.8009726283999
 31
0.0
  0
LINE
  5
61E3
  8
HIDDEN
 10
4722.2491353845562
 20
4058.800972628399
 30
0.0
 11
4722.2491353845562
 21
4039.8009726283999
 31
0.0
  0
LINE
  5
61E4
  8
CEN
 10
4725.4991353845562
 20
4063.168275916023
 30
0.0
 11
4725.4991353845562
 21
4033.3524586197941
 31
0.0
  0
LINE
  5
61E5
  8
HIDDEN
 10
4729.4991353845562
 20
4043.8009726283999
 30
0.0
 11
4721.4991353845562
 21
4043.8009726283999
 31
0.0
  0
LINE
  5
61E6
  8
HIDDEN
 10
4728.7491353845562
 20
4039.8009726283999
 30
0.0
 11
4722.2491353845562
 21
4039.8009726283999
 31
0.0
  0
LINE
  5
61E7
  8
HIDDEN
 10
4722.2491353845562
 20
4039.8009726283999
 30
0.0
 11
4725.4991353845562
 21
4037.800972628399
 31
0.0
  0
LINE
  5
61E8
  8
HIDDEN
 10
4725.4991353845562
 20
4037.800972628399
 30
0.0
 11
4728.7491353845562
 21
4039.8009726283999
 31
0.0
  0
LINE
  5
61E9
  8
UMCL1
 10
4731.4991353845562
 20
4059.1009726283992
 30
0.0
 11
4731.4991353845562
 21
4068.5009726283988
 31
0.0
  0
LINE
  5
61EA
  8
CEN
 10
4723.9991353845553
 20
4071.9684395308709
 30
0.0
 11
4723.9991353845553
 21
4053.7102833286949
 31
0.0
  0
LINE
  5
61EB
  8
UMCL1
 10
4731.4991353845562
 20
4059.1009726283992
 30
0.0
 11
4731.199135384556
 21
4058.800972628399
 31
0.0
  0
LINE
  5
61EC
  8
UMCL1
 10
4734.4991353845562
 20
4058.800972628399
 30
0.0
 11
4735.4991353845562
 21
4057.8009726283999
 31
0.0
  0
LINE
  5
61ED
  8
UMCL1
 10
4731.4991353845562
 20
4068.5009726283988
 30
0.0
 11
4731.199135384556
 21
4068.800972628399
 31
0.0
  0
LINE
  5
61EE
  8
UMCL2
 10
5086.8246574490249
 20
4068.8009726283999
 30
0.0
 11
5120.7740513891194
 21
4068.8009726283999
 31
0.0
  0
LINE
  5
61EF
  8
UMCL2
 10
4990.3640513891196
 20
4043.3704974415868
 30
0.0
 11
4938.2873458034674
 21
4043.3704974415868
 31
0.0
  0
LINE
  5
61F0
  8
UMCL2
 10
4986.7753021763101
 20
4037.8704974415868
 30
0.0
 11
4954.7740513891204
 21
4037.8704974415868
 31
0.0
  0
LINE
  5
61F1
  8
CEN
 10
4973.7740513891213
 20
4021.300972628399
 30
0.0
 11
5089.4562155950671
 21
4021.300972628399
 31
0.0
  0
LINE
  5
61F2
  8
CEN
 10
4989.1813896863996
 20
4001.801126318006
 30
0.0
 11
4965.9574683184846
 21
4001.8011263180069
 31
0.0
  0
LINE
  5
61F3
  8
UMCL1
 10
4968.7740513891213
 20
3993.3011263180069
 30
0.0
 11
4976.7740513891213
 21
3993.3011263180069
 31
0.0
  0
LINE
  5
61F4
  8
UMCL1
 10
4969.5332407676751
 20
4001.8011263180069
 30
0.0
 11
4976.0148620105656
 21
4001.8011263180069
 31
0.0
  0
LINE
  5
61F5
  8
UMCL1
 10
4968.7740513891213
 20
4010.3011263180069
 30
0.0
 11
4976.7740513891213
 21
4010.3011263180069
 31
0.0
  0
LINE
  5
61F6
  8
UMCL2
 10
4990.3640513891196
 20
3999.3704974415882
 30
0.0
 11
4938.2873458034665
 21
3999.3704974415882
 31
0.0
  0
LINE
  5
61F7
  8
UMCL2
 10
4986.7753021763101
 20
4004.8704974415859
 30
0.0
 11
4954.7740513891204
 21
4004.8704974415859
 31
0.0
  0
TEXT
  5
61F8
  8
UMCL2
 10
4954.3740513891207
 20
4017.8879173033311
 30
0.0
 40
6.0
  1
33
 50
90.0
 41
0.85
 51
15.0
  7
ROMANS
  0
TEXT
  5
61F9
  8
UMCL2
 10
4937.8873458034668
 20
4018.0661231771519
 30
0.0
 40
6.0
  1
44
 50
90.0
 41
0.85
 51
15.0
  7
ROMANS
  0
LINE
  5
61FA
  8
UMCL2
 10
4940.2873458034683
 20
4043.3704974415868
 30
0.0
 11
4940.2873458034665
 21
3999.3704974415882
 31
0.0
  0
LINE
  5
61FB
  8
UMCL2
 10
4956.7740513891204
 20
4037.8704974415868
 30
0.0
 11
4956.7740513891204
 21
4004.8704974415859
 31
0.0
  0
SOLID
  5
61FC
  8
UMCL2
 10
4941.2106791367996
 20
4004.3704974415882
 30
0.0
 11
4939.5440124701327
 21
4004.3704974415882
 31
0.0
 12
4940.3773458034657
 22
3999.3704974415882
 32
0.0
 13
4940.3773458034657
 23
3999.3704974415882
 33
0.0
  0
LINE
  5
61FD
  8
UMCL2
 10
4932.4210149567953
 20
4011.6745174670759
 30
0.0
 11
4932.4210149567953
 21
4016.5018304174259
 31
0.0
  0
LINE
  5
61FE
  8
UMCL2
 10
4932.4210149567953
 20
4016.5018304174259
 30
0.0
 11
4937.2825817069997
 21
4016.5018304174259
 31
0.0
  0
LINE
  5
61FF
  8
UMCL2
 10
4937.2825817069997
 20
4016.5018304174259
 30
0.0
 11
4937.2825817069997
 21
4011.6745174670759
 31
0.0
  0
LINE
  5
6200
  8
UMCL2
 10
4937.2825817069997
 20
4011.6745174670759
 30
0.0
 11
4932.4210149567953
 21
4011.6745174670759
 31
0.0
  0
LINE
  5
6201
  8
UMCL2
 10
4948.9077205424492
 20
4010.8061642125722
 30
0.0
 11
4948.9077205424492
 21
4015.6334771629208
 31
0.0
  0
LINE
  5
6202
  8
UMCL2
 10
4948.9077205424492
 20
4015.6334771629208
 30
0.0
 11
4953.7692872926527
 21
4015.6334771629208
 31
0.0
  0
LINE
  5
6203
  8
UMCL2
 10
4953.7692872926527
 20
4015.6334771629208
 30
0.0
 11
4953.7692872926527
 21
4010.8061642125722
 31
0.0
  0
LINE
  5
6204
  8
UMCL2
 10
4953.7692872926527
 20
4010.8061642125722
 30
0.0
 11
4948.9077205424492
 21
4010.8061642125722
 31
0.0
  0
SOLID
  5
6205
  8
UMCL2
 10
4957.6073847224543
 20
4009.8704974415859
 30
0.0
 11
4955.9407180557882
 21
4009.8704974415859
 31
0.0
 12
4956.7740513891204
 22
4004.8704974415859
 32
0.0
 13
4956.7740513891204
 23
4004.8704974415859
 33
0.0
  0
ARC
  5
6206
  8
UMCL1
 10
4981.0495580275274
 20
4006.0511263180069
 30
0.0
 40
12.275506638406471
 50
159.74384199958249
 51
200.25615800041751
  0
LINE
  5
6207
  8
UMCL1
 10
4968.7740513891213
 20
3993.3011263180069
 30
0.0
 11
4968.7740513891213
 21
4010.3011263180069
 31
0.0
  0
ARC
  5
6208
  8
UMCL1
 10
4981.0495580275274
 20
3997.5511263180069
 30
0.0
 40
12.275506638406471
 50
159.74384199958249
 51
200.25615800041751
  0
SOLID
  5
6209
  8
UMCL2
 10
4941.1206791368004
 20
4038.3704974415868
 30
0.0
 11
4939.4540124701334
 21
4038.3704974415868
 31
0.0
 12
4940.2873458034683
 22
4043.3704974415868
 32
0.0
 13
4940.2873458034683
 23
4043.3704974415868
 33
0.0
  0
SOLID
  5
620A
  8
UMCL2
 10
4957.6073847224543
 20
4032.8704974415868
 30
0.0
 11
4955.9407180557882
 21
4032.8704974415868
 31
0.0
 12
4956.7740513891204
 22
4037.8704974415868
 32
0.0
 13
4956.7740513891204
 23
4037.8704974415868
 33
0.0
  0
LINE
  5
620B
  8
HIDDEN
 10
5048.2740513891213
 20
4111.8009726283999
 30
0.0
 11
5048.2740513891204
 21
4076.7009726283991
 31
0.0
  0
LINE
  5
620C
  8
UMCL1
 10
5056.2740513891204
 20
4111.300972628399
 30
0.0
 11
5056.2740513891204
 21
4070.7009726284
 31
0.0
  0
TEXT
  5
620D
  8
UMCL2
 10
5100.3740513891198
 20
4072.8749842106931
 30
0.0
 40
6.0
  1
10
 50
90.0
 41
0.85
 51
15.0
  7
ROMANS
  0
LINE
  5
620E
  8
HIDDEN
 10
5040.2740513891204
 20
4111.8009726283999
 30
0.0
 11
5040.2740513891204
 21
4076.7009726283991
 31
0.0
  0
LINE
  5
620F
  8
UMCL1
 10
5032.2740513891204
 20
4111.300972628399
 30
0.0
 11
5032.2740513891204
 21
4070.7009726284
 31
0.0
  0
LINE
  5
6210
  8
CEN
 10
5044.2740513891213
 20
4114.8009726283999
 30
0.0
 11
5044.2740513891204
 21
3970.8009726283999
 31
0.0
  0
LINE
  5
6211
  8
CEN
 10
5021.3640513891196
 20
4037.8704974415868
 30
0.0
 11
5040.3640513891196
 21
4037.8704974415868
 31
0.0
  0
LINE
  5
6212
  8
UMCL1
 10
5084.9740513891211
 20
4068.8009726283999
 30
0.0
 11
5003.5740513891196
 21
4068.8009726283999
 31
0.0
  0
LINE
  5
6213
  8
UMCL1
 10
5085.7740513891194
 20
4058.8009726283999
 30
0.0
 11
4977.7740513891204
 21
4058.800972628399
 31
0.0
  0
LINE
  5
6214
  8
UMCL1
 10
5059.2740513891204
 20
4069.2009726284
 30
0.0
 11
5029.2740513891204
 21
4069.2009726284
 31
0.0
  0
LINE
  5
6215
  8
UMCL1
 10
5029.7740513891213
 20
4069.7009726283991
 30
0.0
 11
5058.7740513891213
 21
4069.7009726283991
 31
0.0
  0
LINE
  5
6216
  8
UMCL1
 10
5032.2740513891204
 20
4070.7009726284
 30
0.0
 11
5056.2740513891204
 21
4070.7009726284
 31
0.0
  0
LINE
  5
6217
  8
CEN
 10
5038.7740513891204
 20
4076.7009726283991
 30
0.0
 11
5049.7740513891204
 21
4076.7009726283991
 31
0.0
  0
ARC
  5
6218
  8
HIDDEN
 10
5044.2740513891204
 20
4076.7009726283991
 30
0.0
 40
4.0
 50
180.0
 51
0.0
  0
LINE
  5
6219
  8
CEN
 10
5040.3640513891196
 20
4004.8704974415868
 30
0.0
 11
5021.3640513891196
 21
4004.8704974415868
 31
0.0
  0
LINE
  5
621A
  8
UMCL1
 10
5085.7740513891176
 20
3983.8009726283981
 30
0.0
 11
4977.7740513891204
 21
3983.800972628399
 31
0.0
  0
LINE
  5
621B
  8
UMCL1
 10
5003.5740513891196
 20
3973.8009726283999
 30
0.0
 11
5084.9740513891211
 21
3973.8009726283999
 31
0.0
  0
ARC
  5
621C
  8
UMCL1
 10
4977.7740513891204
 20
4021.300972628399
 30
0.0
 40
1.5
 50
131.81031489579831
 51
228.18968510420169
  0
LINE
  5
621D
  8
CEN
 10
5014.2740513891213
 20
4054.5313008206358
 30
0.0
 11
5014.2740513891204
 21
3995.3704974415868
 31
0.0
  0
LINE
  5
621E
  8
UMCL1
 10
4976.7740513891213
 20
4057.800972628399
 30
0.0
 11
4976.7740513891213
 21
3984.8009726283999
 31
0.0
  0
LINE
  5
621F
  8
CEN
 10
4997.8640513891196
 20
3995.7817482287769
 30
0.0
 11
4997.8640513891196
 21
4013.9592466543968
 31
0.0
  0
LINE
  5
6220
  8
UMCL1
 10
4976.7740513891213
 20
3984.8009726283999
 30
0.0
 11
4977.7740513891204
 21
3983.800972628399
 31
0.0
  0
LINE
  5
6221
  8
UMCL1
 10
5003.2740513891204
 20
3983.5009726284002
 30
0.0
 11
5003.2740513891204
 21
3974.1009726284001
 31
0.0
  0
LINE
  5
6222
  8
UMCL1
 10
5003.5740513891196
 20
3973.8009726283999
 30
0.0
 11
5003.2740513891204
 21
3974.1009726284001
 31
0.0
  0
LINE
  5
6223
  8
UMCL1
 10
5003.2740513891204
 20
3983.5009726284002
 30
0.0
 11
5003.5740513891196
 21
3983.800972628399
 31
0.0
  0
LINE
  5
6224
  8
CEN
 10
4988.775302176311
 20
4004.8704974415859
 30
0.0
 11
5006.95280060193
 21
4004.8704974415859
 31
0.0
  0
ARC
  5
6225
  8
UMCL1
 10
4964.4985447507133
 20
4006.0511263180069
 30
0.0
 40
12.27550663840649
 50
339.74384199958251
 51
20.256158000417489
  0
ARC
  5
6226
  8
UMCL1
 10
4964.4985447507133
 20
3997.5511263180069
 30
0.0
 40
12.27550663840649
 50
339.74384199958251
 51
20.256158000417489
  0
LINE
  5
6227
  8
CEN
 10
5010.7740513891213
 20
3970.6335057259289
 30
0.0
 11
5010.7740513891213
 21
3988.891661928104
 31
0.0
  0
LINE
  5
6228
  8
CEN
 10
4997.8640513891196
 20
4028.7817482287769
 30
0.0
 11
4997.8640513891196
 21
4046.9592466543968
 31
0.0
  0
LINE
  5
6229
  8
CEN
 10
4988.775302176311
 20
4037.8704974415868
 30
0.0
 11
5006.95280060193
 21
4037.8704974415868
 31
0.0
  0
LINE
  5
622A
  8
UMCL1
 10
4976.7740513891213
 20
4057.800972628399
 30
0.0
 11
4977.7740513891204
 21
4058.800972628399
 31
0.0
  0
LINE
  5
622B
  8
UMCL1
 10
5003.2740513891204
 20
4059.1009726283992
 30
0.0
 11
5003.2740513891204
 21
4068.5009726284002
 31
0.0
  0
LINE
  5
622C
  8
UMCL1
 10
5003.2740513891204
 20
4068.5009726284002
 30
0.0
 11
5003.5740513891196
 21
4068.8009726283999
 31
0.0
  0
LINE
  5
622D
  8
CEN
 10
5014.1840513891211
 20
4021.3009726283999
 30
0.0
 11
5014.3640513891214
 21
4021.3009726283999
 31
0.0
  0
LINE
  5
622E
  8
CEN
 10
5014.2740513891204
 20
4021.2109726283988
 30
0.0
 11
5014.2740513891204
 21
4021.3909726283991
 31
0.0
  0
LINE
  5
622F
  8
CEN
 10
5010.7740513891213
 20
4071.9684395308709
 30
0.0
 11
5010.7740513891213
 21
4053.7102833286949
 31
0.0
  0
ARC
  5
6230
  8
UMCL1
 10
5032.2740513891204
 20
4070.2009726283991
 30
0.0
 40
0.5
 50
270.0
 51
90.0
  0
LINE
  5
6231
  8
UMCL1
 10
5029.2740513891204
 20
4069.2009726284
 30
0.0
 11
5029.7740513891213
 21
4069.7009726283991
 31
0.0
  0
LINE
  5
6232
  8
UMCL1
 10
5029.2740513891204
 20
4069.2009726284
 30
0.0
 11
5029.2740513891204
 21
4068.8009726283999
 31
0.0
  0
TEXT
  5
6233
  8
UMCL2
 10
5100.3740513891198
 20
4015.3209068973788
 30
0.0
 40
6.0
  1
75
 50
90.0
 41
0.85
 51
15.0
  7
ROMANS
  0
LINE
  5
6234
  8
UMCL1
 10
5086.7740513891204
 20
4057.8009726283999
 30
0.0
 11
5086.7740513891204
 21
3984.8009726283999
 31
0.0
  0
CIRCLE
  5
6235
  8
UMCL1
 10
5065.7740513891204
 20
4001.800972628399
 30
0.0
 40
8.5
  0
POLYLINE
  5
6236
  8
UMCL1
 66
     1
 10
0.0
 20
0.0
 30
0.0
 70
     1
  0
VERTEX
  5
65F2
  8
UMCL1
 10
5060.8665741010091
 20
4010.300972628399
 30
0.0
  0
VERTEX
  5
65F3
  8
UMCL1
 10
5055.9590968128969
 20
4001.800972628399
 30
0.0
  0
VERTEX
  5
65F4
  8
UMCL1
 10
5060.8665741010091
 20
3993.3009726283999
 30
0.0
  0
VERTEX
  5
65F5
  8
UMCL1
 10
5070.6815286772326
 20
3993.3009726283999
 30
0.0
  0
VERTEX
  5
65F6
  8
UMCL1
 10
5075.5890059653439
 20
4001.800972628399
 30
0.0
  0
VERTEX
  5
65F7
  8
UMCL1
 10
5070.6815286772326
 20
4010.300972628399
 30
0.0
  0
SEQEND
  5
65F8
  8
UMCL1
  0
LINE
  5
6237
  8
CEN
 10
5054.7740513891204
 20
4001.800972628399
 30
0.0
 11
5076.7740513891204
 21
4001.800972628399
 31
0.0
  0
LINE
  5
6238
  8
CEN
 10
5065.7740513891204
 20
4012.8009726283999
 30
0.0
 11
5065.7740513891204
 21
3990.800972628399
 31
0.0
  0
LINE
  5
6239
  8
CEN
 10
5030.8640513891196
 20
4014.3704974415868
 30
0.0
 11
5030.8640513891196
 21
3995.3704974415868
 31
0.0
  0
ARC
  5
623A
  8
UMCL1
 62
     2
 10
5065.7740513891204
 20
4001.800972628399
 30
0.0
 40
4.25
 50
250.223226052782
 51
208.72681189303341
  0
CIRCLE
  5
623B
  8
UMCL1
 10
5065.7740513891204
 20
4001.800972628399
 30
0.0
 40
4.0
  0
POLYLINE
  5
623C
  8
UMCL1
 66
     1
 10
0.0
 20
0.0
 30
0.0
 70
     1
  0
VERTEX
  5
65F9
  8
UMCL1
 10
5068.2740513891213
 20
4003.2443483013731
 30
0.0
  0
VERTEX
  5
65FA
  8
UMCL1
 10
5065.7740513891204
 20
4004.6877239743471
 30
0.0
  0
VERTEX
  5
65FB
  8
UMCL1
 10
5063.2740513891213
 20
4003.2443483013731
 30
0.0
  0
VERTEX
  5
65FC
  8
UMCL1
 10
5063.2740513891213
 20
4000.3575969554249
 30
0.0
  0
VERTEX
  5
65FD
  8
UMCL1
 10
5065.7740513891204
 20
3998.9142212824509
 30
0.0
  0
VERTEX
  5
65FE
  8
UMCL1
 10
5068.2740513891213
 20
4000.3575969554249
 30
0.0
  0
SEQEND
  5
65FF
  8
UMCL1
  0
CIRCLE
  5
623D
  8
UMCL1
 10
5065.7740513891204
 20
4001.800972628399
 30
0.0
 40
5.0
  0
LINE
  5
623E
  8
HIDDEN
 10
5083.2740513891204
 20
3983.8009726283999
 30
0.0
 11
5083.2740513891204
 21
3998.8009726283999
 31
0.0
  0
LINE
  5
623F
  8
HIDDEN
 10
5075.2740513891204
 20
3983.8009726283999
 30
0.0
 11
5075.2740513891204
 21
3998.8009726283999
 31
0.0
  0
LINE
  5
6240
  8
HIDDEN
 10
5082.5240513891204
 20
3983.8009726283999
 30
0.0
 11
5082.5240513891204
 21
4002.800972628399
 31
0.0
  0
LINE
  5
6241
  8
HIDDEN
 10
5076.0240513891204
 20
3983.8009726283999
 30
0.0
 11
5076.0240513891204
 21
4002.800972628399
 31
0.0
  0
LINE
  5
6242
  8
CEN
 10
5079.2740513891204
 20
3979.4336693407772
 30
0.0
 11
5079.2740513891204
 21
4009.2494866370048
 31
0.0
  0
LINE
  5
6243
  8
UMCL2
 10
5088.7740513891204
 20
3983.800972628399
 30
0.0
 11
5104.7740513891213
 21
3983.800972628399
 31
0.0
  0
LINE
  5
6244
  8
UMCL1
 10
5085.2740513891204
 20
3983.5009726284002
 30
0.0
 11
5085.2740513891204
 21
3974.1009726283992
 31
0.0
  0
LINE
  5
6245
  8
CEN
 10
5077.7740513891204
 20
3970.6335057259289
 30
0.0
 11
5077.7740513891204
 21
3988.891661928104
 31
0.0
  0
LINE
  5
6246
  8
UMCL1
 10
5085.2740513891204
 20
3974.1009726283992
 30
0.0
 11
5084.9740513891211
 21
3973.8009726283999
 31
0.0
  0
LINE
  5
6247
  8
UMCL1
 10
5085.2740513891204
 20
3983.5009726283988
 30
0.0
 11
5084.9740513891211
 21
3983.800972628399
 31
0.0
  0
LINE
  5
6248
  8
UMCL1
 10
5085.7740513891204
 20
3983.8009726283999
 30
0.0
 11
5086.7740513891204
 21
3984.8009726283999
 31
0.0
  0
SOLID
  5
6249
  8
UMCL2
 10
5101.9407180557864
 20
3968.800972628399
 30
0.0
 11
5103.6073847224543
 21
3968.800972628399
 31
0.0
 12
5102.7740513891204
 22
3973.8009726283999
 32
0.0
 13
5102.7740513891204
 23
3973.8009726283999
 33
0.0
  0
SOLID
  5
624A
  8
UMCL2
 10
5101.9407180557864
 20
3988.800972628399
 30
0.0
 11
5103.6073847224543
 21
3988.800972628399
 31
0.0
 12
5102.7740513891204
 22
3983.800972628399
 32
0.0
 13
5102.7740513891204
 23
3983.800972628399
 33
0.0
  0
LINE
  5
624B
  8
HIDDEN
 10
5079.2740513891204
 20
4004.8009726283999
 30
0.0
 11
5082.5240513891204
 21
4002.800972628399
 31
0.0
  0
LINE
  5
624C
  8
HIDDEN
 10
5082.5240513891204
 20
4002.800972628399
 30
0.0
 11
5076.0240513891204
 21
4002.800972628399
 31
0.0
  0
LINE
  5
624D
  8
HIDDEN
 10
5083.2740513891204
 20
3998.8009726283999
 30
0.0
 11
5075.2740513891204
 21
3998.8009726283999
 31
0.0
  0
LINE
  5
624E
  8
HIDDEN
 10
5076.0240513891204
 20
4002.800972628399
 30
0.0
 11
5079.2740513891204
 21
4004.8009726283999
 31
0.0
  0
LINE
  5
624F
  8
CEN
 10
5030.8640513891196
 20
4047.3704974415868
 30
0.0
 11
5030.8640513891196
 21
4028.3704974415882
 31
0.0
  0
ARC
  5
6250
  8
UMCL1
 10
5056.2740513891204
 20
4070.2009726283991
 30
0.0
 40
0.5
 50
90.0
 51
270.0
  0
LINE
  5
6251
  8
UMCL1
 10
5059.2740513891204
 20
4069.2009726284
 30
0.0
 11
5058.7740513891213
 21
4069.7009726283991
 31
0.0
  0
LINE
  5
6252
  8
UMCL1
 10
5059.2740513891204
 20
4069.2009726284
 30
0.0
 11
5059.2740513891204
 21
4068.8009726283999
 31
0.0
  0
LINE
  5
6253
  8
HIDDEN
 10
5076.0240513891204
 20
4058.800972628399
 30
0.0
 11
5076.0240513891204
 21
4039.800972628399
 31
0.0
  0
LINE
  5
6254
  8
HIDDEN
 10
5082.5240513891204
 20
4058.800972628399
 30
0.0
 11
5082.5240513891204
 21
4039.800972628399
 31
0.0
  0
LINE
  5
6255
  8
HIDDEN
 10
5075.2740513891204
 20
4058.800972628399
 30
0.0
 11
5075.2740513891204
 21
4043.800972628399
 31
0.0
  0
LINE
  5
6256
  8
HIDDEN
 10
5083.2740513891204
 20
4058.800972628399
 30
0.0
 11
5083.2740513891204
 21
4043.800972628399
 31
0.0
  0
LINE
  5
6257
  8
CEN
 10
5079.2740513891204
 20
4063.168275916023
 30
0.0
 11
5079.2740513891204
 21
4033.3524586197941
 31
0.0
  0
LINE
  5
6258
  8
HIDDEN
 10
5079.2740513891204
 20
4037.800972628399
 30
0.0
 11
5082.5240513891204
 21
4039.800972628399
 31
0.0
  0
LINE
  5
6259
  8
HIDDEN
 10
5082.5240513891204
 20
4039.800972628399
 30
0.0
 11
5076.0240513891204
 21
4039.800972628399
 31
0.0
  0
LINE
  5
625A
  8
HIDDEN
 10
5083.2740513891204
 20
4043.800972628399
 30
0.0
 11
5075.2740513891204
 21
4043.800972628399
 31
0.0
  0
LINE
  5
625B
  8
HIDDEN
 10
5076.0240513891204
 20
4039.800972628399
 30
0.0
 11
5079.2740513891204
 21
4037.800972628399
 31
0.0
  0
LINE
  5
625C
  8
UMCL2
 10
5088.7740513891204
 20
4058.8009726283999
 30
0.0
 11
5104.7740513891213
 21
4058.8009726283999
 31
0.0
  0
LINE
  5
625D
  8
UMCL1
 10
5085.2740513891204
 20
4059.1009726283992
 30
0.0
 11
5085.2740513891204
 21
4068.5009726283988
 31
0.0
  0
LINE
  5
625E
  8
CEN
 10
5077.7740513891204
 20
4071.9684395308709
 30
0.0
 11
5077.7740513891204
 21
4053.7102833286949
 31
0.0
  0
LINE
  5
625F
  8
UMCL1
 10
5085.2740513891204
 20
4059.1009726283992
 30
0.0
 11
5084.9740513891211
 21
4058.800972628399
 31
0.0
  0
LINE
  5
6260
  8
UMCL1
 10
5085.7740513891204
 20
4058.800972628399
 30
0.0
 11
5086.7740513891204
 21
4057.8009726283999
 31
0.0
  0
LINE
  5
6261
  8
UMCL1
 10
5085.2740513891204
 20
4068.5009726283988
 30
0.0
 11
5084.9740513891211
 21
4068.800972628399
 31
0.0
  0
SOLID
  5
6262
  8
UMCL2
 10
5101.9407180557864
 20
4053.8009726283999
 30
0.0
 11
5103.6073847224543
 21
4053.8009726283999
 31
0.0
 12
5102.7740513891204
 22
4058.8009726283999
 32
0.0
 13
5102.7740513891204
 23
4058.8009726283999
 33
0.0
  0
SOLID
  5
6263
  8
UMCL2
 10
5101.9407180557864
 20
4073.8009726283999
 30
0.0
 11
5103.6073847224543
 21
4073.8009726283999
 31
0.0
 12
5102.7740513891204
 22
4068.8009726283999
 32
0.0
 13
5102.7740513891204
 23
4068.8009726283999
 33
0.0
  0
LINE
  5
6264
  8
UMCL2
 10
5056.2740513891204
 20
4127.8009726283981
 30
0.0
 11
5032.2740513891204
 21
4127.8009726283981
 31
0.0
  0
LINE
  5
6265
  8
HIDDEN
 10
5040.2740513891204
 20
4095.7009726283991
 30
0.0
 11
5048.2740513891204
 21
4095.7009726283991
 31
0.0
  0
ARC
  5
6266
  8
HIDDEN
 10
5044.2740513891204
 20
4104.7009726283986
 30
0.0
 40
4.0
 50
0.0
 51
180.0
  0
LINE
  5
6267
  8
UMCL1
 10
5032.7740513891213
 20
4111.8009726283999
 30
0.0
 11
5055.7740513891204
 21
4111.8009726283999
 31
0.0
  0
LINE
  5
6268
  8
UMCL1
 10
5056.2740513891204
 20
4111.300972628399
 30
0.0
 11
5032.2740513891204
 21
4111.300972628399
 31
0.0
  0
LINE
  5
6269
  8
CEN
 10
5038.7740513891204
 20
4104.7009726283986
 30
0.0
 11
5049.7740513891204
 21
4104.7009726283986
 31
0.0
  0
LINE
  5
626A
  8
UMCL2
 10
5058.2253333228064
 20
4085.5199864715842
 30
0.0
 11
5017.4192117196899
 21
4085.5199864715842
 31
0.0
  0
TEXT
  5
626B
  8
UMCL2
 10
5021.1531908777479
 20
4087.6343457985349
 30
0.0
 40
6.0
  1
8
 41
0.85
 51
15.0
  7
ROMANS
  0
SOLID
  5
626C
  8
UMCL2
 10
5035.2740513891204
 20
4086.3533198049172
 30
0.0
 11
5035.2740513891204
 21
4084.6866531382511
 31
0.0
 12
5040.2740513891204
 22
4085.5199864715842
 32
0.0
 13
5040.2740513891204
 23
4085.5199864715842
 33
0.0
  0
LINE
  5
626D
  8
UMCL2
 10
5032.2740513891204
 20
4113.3009726283999
 30
0.0
 11
5032.2740513891204
 21
4129.800972628399
 31
0.0
  0
LINE
  5
626E
  8
UMCL1
 10
5032.7740513891213
 20
4111.8009726283999
 30
0.0
 11
5032.2740513891204
 21
4111.300972628399
 31
0.0
  0
SOLID
  5
626F
  8
UMCL2
 10
5037.2740513891204
 20
4128.634305961732
 30
0.0
 11
5037.2740513891204
 21
4126.967639295066
 31
0.0
 12
5032.2740513891204
 22
4127.8009726283981
 32
0.0
 13
5032.2740513891204
 23
4127.8009726283981
 33
0.0
  0
LINE
  5
6270
  8
HIDDEN
 10
5047.5240513891213
 20
4111.8009726283999
 30
0.0
 11
5047.5240513891213
 21
4091.7009726283991
 31
0.0
  0
LINE
  5
6271
  8
HIDDEN
 10
5041.0240513891204
 20
4111.8009726283999
 30
0.0
 11
5041.0240513891204
 21
4091.7009726283991
 31
0.0
  0
LINE
  5
6272
  8
HIDDEN
 10
5044.2740513891204
 20
4089.7009726283991
 30
0.0
 11
5041.0240513891204
 21
4091.7009726283991
 31
0.0
  0
LINE
  5
6273
  8
HIDDEN
 10
5047.5240513891213
 20
4091.7009726283991
 30
0.0
 11
5044.2740513891204
 21
4089.7009726283991
 31
0.0
  0
SOLID
  5
6274
  8
UMCL2
 10
5053.2740513891204
 20
4086.3533198049172
 30
0.0
 11
5053.2740513891204
 21
4084.6866531382511
 31
0.0
 12
5048.2740513891204
 22
4085.5199864715842
 32
0.0
 13
5048.2740513891204
 23
4085.5199864715842
 33
0.0
  0
LINE
  5
6275
  8
HIDDEN
 10
5041.0240513891213
 20
4091.7009726283991
 30
0.0
 11
5047.5240513891213
 21
4091.7009726283991
 31
0.0
  0
LINE
  5
6276
  8
UMCL2
 10
5056.2740513891204
 20
4113.3009726283999
 30
0.0
 11
5056.2740513891204
 21
4129.800972628399
 31
0.0
  0
LINE
  5
6277
  8
UMCL1
 10
5056.2740513891204
 20
4111.300972628399
 30
0.0
 11
5055.7740513891204
 21
4111.8009726283999
 31
0.0
  0
SOLID
  5
6278
  8
UMCL2
 10
5051.2740513891204
 20
4128.634305961732
 30
0.0
 11
5051.2740513891204
 21
4126.967639295066
 31
0.0
 12
5056.2740513891204
 22
4127.8009726283981
 32
0.0
 13
5056.2740513891204
 23
4127.8009726283981
 33
0.0
  0
LINE
  5
6279
  8
UMCL2
 10
5118.7740513891194
 20
3973.8009726283999
 30
0.0
 11
5118.7740513891204
 21
4111.8009726283999
 31
0.0
  0
TEXT
  5
627A
  8
UMCL2
 10
5116.3740513891198
 20
4015.384743974214
 30
0.0
 40
6.0
  1
95
 50
90.0
 41
0.85
 51
15.0
  7
ROMANS
  0
SOLID
  5
627B
  8
UMCL2
 10
5117.9407180557882
 20
3978.8009726283999
 30
0.0
 11
5119.6073847224534
 21
3978.8009726283999
 31
0.0
 12
5118.7740513891204
 22
3973.8009726283999
 32
0.0
 13
5118.7740513891204
 23
3973.8009726283999
 33
0.0
  0
SOLID
  5
627C
  8
UMCL2
 10
5117.9407180557882
 20
4073.8009726283999
 30
0.0
 11
5119.6073847224534
 21
4073.8009726283999
 31
0.0
 12
5118.7740513891204
 22
4068.8009726283999
 32
0.0
 13
5118.7740513891204
 23
4068.8009726283999
 33
0.0
  0
SOLID
  5
627D
  8
UMCL2
 10
5117.9407180557882
 20
4063.800972628399
 30
0.0
 11
5119.6073847224534
 21
4063.800972628399
 31
0.0
 12
5118.7740513891204
 22
4068.8009726283999
 32
0.0
 13
5118.7740513891204
 23
4068.8009726283999
 33
0.0
  0
TEXT
  5
627E
  8
UMCL2
 10
5116.3740513891198
 20
4085.0145720226051
 30
0.0
 40
6.0
  1
43
 50
90.0
 41
0.85
 51
15.0
  7
ROMANS
  0
SOLID
  5
627F
  8
UMCL2
 10
5117.9407180557873
 20
4106.800972628399
 30
0.0
 11
5119.6073847224534
 21
4106.800972628399
 31
0.0
 12
5118.7740513891204
 22
4111.8009726283999
 32
0.0
 13
5118.7740513891204
 23
4111.8009726283999
 33
0.0
  0
TEXT
  5
6280
  8
UMCL2
 10
5100.3740513891198
 20
3956.8580850911112
 30
0.0
 40
6.0
  1
10
 50
90.0
 41
0.85
 51
15.0
  7
ROMANS
  0
LINE
  5
6281
  8
UMCL2
 10
5102.7740513891204
 20
3955.74175439488
 30
0.0
 11
5102.7740513891204
 21
4086.7561150170909
 31
0.0
  0
LINE
  5
6282
  8
UMCL2
 10
5058.2740513891204
 20
4111.8009726283999
 30
0.0
 11
5136.7740513891213
 21
4111.8009726283999
 31
0.0
  0
LINE
  5
6283
  8
UMCL2
 10
5086.7740513891194
 20
3973.800972628399
 30
0.0
 11
5136.7740513891213
 21
3973.800972628399
 31
0.0
  0
LINE
  5
6284
  8
UMCL1
  6
CONTINUOUS
 10
4992.3640513891196
 20
4043.3704974415882
 30
0.0
 11
5036.3640513891214
 21
4043.3704974415868
 31
0.0
  0
LINE
  5
6285
  8
UMCL1
  6
CONTINUOUS
 10
4992.3640513891196
 20
4043.3704974415882
 30
0.0
 11
4992.3640513891196
 21
3999.3704974415868
 31
0.0
  0
LINE
  5
6286
  8
UMCL1
  6
CONTINUOUS
 10
5036.3640513891214
 20
4043.3704974415868
 30
0.0
 11
5036.3640513891214
 21
3999.3704974415868
 31
0.0
  0
LINE
  5
6287
  8
UMCL1
  6
CONTINUOUS
 10
4992.3640513891196
 20
3999.3704974415868
 30
0.0
 11
5036.3640513891214
 21
3999.3704974415868
 31
0.0
  0
POLYLINE
  5
6288
  8
UMCL1
 66
     1
 10
0.0
 20
0.0
 30
0.0
 70
     1
  0
VERTEX
  5
6600
  8
UMCL1
 10
4992.8640513891187
 20
4034.9837460956392
 30
0.0
  0
VERTEX
  5
6601
  8
UMCL1
 10
4997.8640513891196
 20
4032.096994749691
 30
0.0
  0
VERTEX
  5
6602
  8
UMCL1
 10
5002.8640513891196
 20
4034.9837460956392
 30
0.0
  0
VERTEX
  5
6603
  8
UMCL1
 10
5002.8640513891196
 20
4040.757248787535
 30
0.0
  0
VERTEX
  5
6604
  8
UMCL1
 10
4997.8640513891196
 20
4043.6440001334831
 30
0.0
  0
VERTEX
  5
6605
  8
UMCL1
 10
4992.8640513891187
 20
4040.757248787535
 30
0.0
  0
SEQEND
  5
6606
  8
UMCL1
  0
CIRCLE
  5
6289
  8
UMCL1
 10
4997.8640513891196
 20
4037.8704974415868
 30
0.0
 40
5.0000000000001128
  0
CIRCLE
  5
628A
  8
UMCL1
 10
4997.8640513891196
 20
4037.8704974415868
 30
0.0
 40
3.0
  0
ARC
  5
628B
  8
UMCL1
 62
     2
 10
4997.8640513891196
 20
4037.8704974415868
 30
0.0
 40
2.6000000000000001
 50
74.499538825254973
 51
16.325557586212561
  0
CIRCLE
  5
628C
  8
UMCL1
 10
4997.8640513891196
 20
4037.8704974415868
 30
0.0
 40
2.0
  0
ARC
  5
628D
  8
UMCL1
 62
     2
 10
5030.8640513891196
 20
4037.8704974415868
 30
0.0
 40
2.6000000000000001
 50
74.499538825254973
 51
16.325557586212561
  0
CIRCLE
  5
628E
  8
UMCL1
 10
5030.8640513891196
 20
4037.8704974415868
 30
0.0
 40
3.0
  0
CIRCLE
  5
628F
  8
UMCL1
 10
5030.8640513891196
 20
4037.8704974415868
 30
0.0
 40
5.0000000000001128
  0
POLYLINE
  5
6290
  8
UMCL1
 66
     1
 10
0.0
 20
0.0
 30
0.0
 70
     1
  0
VERTEX
  5
6607
  8
UMCL1
 10
5025.8640513891196
 20
4034.9837460956392
 30
0.0
  0
VERTEX
  5
6608
  8
UMCL1
 10
5030.8640513891196
 20
4032.096994749691
 30
0.0
  0
VERTEX
  5
6609
  8
UMCL1
 10
5035.8640513891196
 20
4034.9837460956392
 30
0.0
  0
VERTEX
  5
660A
  8
UMCL1
 10
5035.8640513891196
 20
4040.757248787535
 30
0.0
  0
VERTEX
  5
660B
  8
UMCL1
 10
5030.8640513891196
 20
4043.6440001334831
 30
0.0
  0
VERTEX
  5
660C
  8
UMCL1
 10
5025.8640513891196
 20
4040.757248787535
 30
0.0
  0
SEQEND
  5
660D
  8
UMCL1
  0
CIRCLE
  5
6291
  8
UMCL1
 10
5030.8640513891196
 20
4037.8704974415868
 30
0.0
 40
2.0
  0
POLYLINE
  5
6292
  8
UMCL1
 66
     1
 10
0.0
 20
0.0
 30
0.0
 70
     1
  0
VERTEX
  5
660E
  8
UMCL1
 10
5025.8640513891196
 20
4001.9837460956378
 30
0.0
  0
VERTEX
  5
660F
  8
UMCL1
 10
5030.8640513891196
 20
3999.096994749691
 30
0.0
  0
VERTEX
  5
6610
  8
UMCL1
 10
5035.8640513891196
 20
4001.9837460956378
 30
0.0
  0
VERTEX
  5
6611
  8
UMCL1
 10
5035.8640513891196
 20
4007.757248787535
 30
0.0
  0
VERTEX
  5
6612
  8
UMCL1
 10
5030.8640513891196
 20
4010.6440001334831
 30
0.0
  0
VERTEX
  5
6613
  8
UMCL1
 10
5025.8640513891196
 20
4007.757248787535
 30
0.0
  0
SEQEND
  5
6614
  8
UMCL1
  0
CIRCLE
  5
6293
  8
UMCL1
 10
5030.8640513891196
 20
4004.8704974415868
 30
0.0
 40
5.0000000000001128
  0
CIRCLE
  5
6294
  8
UMCL1
 10
5030.8640513891196
 20
4004.8704974415868
 30
0.0
 40
3.0
  0
ARC
  5
6295
  8
UMCL1
 62
     2
 10
5030.8640513891196
 20
4004.8704974415868
 30
0.0
 40
2.6000000000000001
 50
74.499538825254973
 51
16.325557586212561
  0
CIRCLE
  5
6296
  8
UMCL1
 10
5030.8640513891196
 20
4004.8704974415868
 30
0.0
 40
2.0
  0
ARC
  5
6297
  8
UMCL1
 62
     2
 10
4997.8640513891196
 20
4004.8704974415859
 30
0.0
 40
2.6000000000000001
 50
74.499538825254973
 51
16.325557586212561
  0
CIRCLE
  5
6298
  8
UMCL1
 10
4997.8640513891196
 20
4004.8704974415859
 30
0.0
 40
3.0
  0
CIRCLE
  5
6299
  8
UMCL1
 10
4997.8640513891196
 20
4004.8704974415859
 30
0.0
 40
5.0000000000001128
  0
POLYLINE
  5
629A
  8
UMCL1
 66
     1
 10
0.0
 20
0.0
 30
0.0
 70
     1
  0
VERTEX
  5
6615
  8
UMCL1
 10
4992.8640513891187
 20
4001.9837460956378
 30
0.0
  0
VERTEX
  5
6616
  8
UMCL1
 10
4997.8640513891196
 20
3999.096994749691
 30
0.0
  0
VERTEX
  5
6617
  8
UMCL1
 10
5002.8640513891196
 20
4001.9837460956378
 30
0.0
  0
VERTEX
  5
6618
  8
UMCL1
 10
5002.8640513891196
 20
4007.757248787535
 30
0.0
  0
VERTEX
  5
6619
  8
UMCL1
 10
4997.8640513891196
 20
4010.6440001334831
 30
0.0
  0
VERTEX
  5
661A
  8
UMCL1
 10
4992.8640513891187
 20
4007.757248787535
 30
0.0
  0
SEQEND
  5
661B
  8
UMCL1
  0
CIRCLE
  5
629B
  8
UMCL1
 10
4997.8640513891196
 20
4004.8704974415859
 30
0.0
 40
2.0
  0
LINE
  5
629C
  8
HIDDEN
 10
4735.4991353845562
 20
4039.800972628399
 30
0.0
 11
4842.9991353845562
 21
4039.8009726283999
 31
0.0
  0
LINE
  5
629D
  8
UMCL1
 10
4842.9991353845562
 20
4043.3009726283999
 30
0.0
 11
4842.9991353845562
 21
3999.300972628399
 31
0.0
  0
LINE
  5
629E
  8
UMCL1
 10
4868.9991353845562
 20
4043.6440001334831
 30
0.0
 11
4868.9991353845562
 21
3999.300972628399
 31
0.0
  0
LINE
  5
629F
  8
UMCL1
 10
4842.9991353845562
 20
3999.3009726283999
 30
0.0
 11
4868.9991353845562
 21
3999.300972628399
 31
0.0
  0
LINE
  5
62A0
  8
UMCL1
 10
4842.9991353845562
 20
4043.3009726283999
 30
0.0
 11
4868.9991353845562
 21
4043.3009726283999
 31
0.0
  0
LINE
  5
62A1
  8
CEN
 10
4735.4991353845562
 20
4037.800972628399
 30
0.0
 11
4878.9991353845571
 21
4037.800972628399
 31
0.0
  0
LINE
  5
62A2
  8
UMCL1
 10
4735.4991353845562
 20
4040.800972628399
 30
0.0
 11
4842.9991353845562
 21
4040.800972628399
 31
0.0
  0
LINE
  5
62A3
  8
UMCL1
 10
4735.4991353845562
 20
4034.800972628399
 30
0.0
 11
4842.9991353845562
 21
4034.800972628399
 31
0.0
  0
LINE
  5
62A4
  8
UMCL1
 10
4874.5525533971722
 20
4043.644000133484
 30
0.0
 11
4870.4457173719411
 21
4043.644000133484
 31
0.0
  0
LINE
  5
62A5
  8
UMCL1
 10
4874.5525533971722
 20
4040.757248787535
 30
0.0
 11
4870.4457173719411
 21
4040.757248787535
 31
0.0
  0
LINE
  5
62A6
  8
UMCL1
 10
4874.9991353845562
 20
4042.8704974415882
 30
0.0
 11
4874.5525533971722
 21
4043.644000133484
 31
0.0
  0
LINE
  5
62A7
  8
UMCL1
 10
4869.9991353845562
 20
4043.6440001334831
 30
0.0
 11
4869.9991353845562
 21
4031.9579451233139
 31
0.0
  0
LINE
  5
62A8
  8
UMCL1
 10
4874.9991353845562
 20
4042.8704974415882
 30
0.0
 11
4874.9991353845562
 21
4032.7314478152111
 31
0.0
  0
ARC
  5
62A9
  8
UMCL1
 10
4872.4433126361319
 20
4042.2006244605091
 30
0.0
 40
2.5558227484234459
 50
325.61575253194678
 51
34.384247468053132
  0
ARC
  5
62AA
  8
UMCL1
 10
4872.4433126361319
 20
4033.4013207962889
 30
0.0
 40
2.5558227484234459
 50
325.61575253194678
 51
34.384247468053132
  0
LINE
  5
62AB
  8
UMCL1
 10
4874.9991353845562
 20
4032.7314478152111
 30
0.0
 11
4874.5525533971722
 21
4031.9579451233139
 31
0.0
  0
LINE
  5
62AC
  8
UMCL1
 10
4874.5525533971722
 20
4034.844696469263
 30
0.0
 11
4870.4457173719411
 21
4034.844696469263
 31
0.0
  0
LINE
  5
62AD
  8
UMCL1
 10
4874.5525533971722
 20
4031.9579451233139
 30
0.0
 11
4870.4457173719411
 21
4031.9579451233139
 31
0.0
  0
ARC
  5
62AE
  8
UMCL1
 10
4864.9908900309174
 20
4037.800972628399
 30
0.0
 40
10.00824535363974
 50
342.81943120861661
 51
17.180568791383411
  0
ARC
  5
62AF
  8
UMCL1
 10
4880.0073807381959
 20
4037.800972628399
 30
0.0
 40
10.00824535363974
 50
162.81943120861649
 51
197.18056879138339
  0
LINE
  5
62B0
  8
UMCL1
 10
4869.9991353845562
 20
4032.7314478152111
 30
0.0
 11
4870.4457173719411
 21
4031.9579451233139
 31
0.0
  0
ARC
  5
62B1
  8
UMCL1
 10
4872.5549581329797
 20
4033.4013207962889
 30
0.0
 40
2.5558227484234459
 50
145.61575253194681
 51
214.38424746805319
  0
ARC
  5
62B2
  8
UMCL1
 10
4872.5549581329797
 20
4042.2006244605091
 30
0.0
 40
2.5558227484234459
 50
145.61575253194681
 51
214.38424746805319
  0
LINE
  5
62B3
  8
UMCL1
 10
4869.9991353845562
 20
4042.8704974415882
 30
0.0
 11
4870.4457173719411
 21
4043.644000133484
 31
0.0
  0
LINE
  5
62B4
  8
UMCL1
 10
4869.9991353845562
 20
4043.644000133484
 30
0.0
 11
4868.9991353845562
 21
4043.644000133484
 31
0.0
  0
LINE
  5
62B5
  8
UMCL1
 10
4869.9991353845562
 20
4031.9579451233139
 30
0.0
 11
4868.9991353845562
 21
4031.9579451233139
 31
0.0
  0
LINE
  5
62B6
  8
UMCL1
 10
4874.9991353845562
 20
3999.7314478152121
 30
0.0
 11
4874.9991353845562
 21
4009.8704974415882
 31
0.0
  0
LINE
  5
62B7
  8
UMCL1
 10
4869.9991353845562
 20
3998.9579451233149
 30
0.0
 11
4869.9991353845562
 21
4010.644000133484
 31
0.0
  0
ARC
  5
62B8
  8
UMCL1
 10
4880.0073807381959
 20
4004.8009726283999
 30
0.0
 40
10.00824535363974
 50
162.81943120861649
 51
197.18056879138339
  0
ARC
  5
62B9
  8
UMCL1
 10
4864.9908900309174
 20
4004.8009726283999
 30
0.0
 40
10.00824535363974
 50
342.81943120861661
 51
17.180568791383411
  0
LINE
  5
62BA
  8
UMCL1
 10
4869.9991353845562
 20
4010.644000133484
 30
0.0
 11
4868.9991353845562
 21
4010.644000133484
 31
0.0
  0
LINE
  5
62BB
  8
UMCL1
 10
4874.5525533971722
 20
4007.7572487875359
 30
0.0
 11
4870.4457173719411
 21
4007.7572487875359
 31
0.0
  0
LINE
  5
62BC
  8
UMCL1
 10
4874.5525533971722
 20
4010.644000133484
 30
0.0
 11
4870.4457173719411
 21
4010.644000133484
 31
0.0
  0
LINE
  5
62BD
  8
UMCL1
 10
4869.9991353845562
 20
4009.8704974415882
 30
0.0
 11
4870.4457173719411
 21
4010.644000133484
 31
0.0
  0
ARC
  5
62BE
  8
UMCL1
 10
4872.5549581329797
 20
4009.20062446051
 30
0.0
 40
2.5558227484234459
 50
145.61575253194681
 51
214.38424746805319
  0
LINE
  5
62BF
  8
UMCL1
 10
4874.9991353845562
 20
4009.8704974415882
 30
0.0
 11
4874.5525533971722
 21
4010.644000133484
 31
0.0
  0
ARC
  5
62C0
  8
UMCL1
 10
4872.4433126361319
 20
4009.20062446051
 30
0.0
 40
2.5558227484234459
 50
325.61575253194678
 51
34.384247468053132
  0
LINE
  5
62C1
  8
UMCL1
 10
4869.9991353845562
 20
3998.9579451233149
 30
0.0
 11
4868.9991353845562
 21
3998.9579451233149
 31
0.0
  0
LINE
  5
62C2
  8
UMCL1
 10
4874.5525533971722
 20
4001.844696469263
 30
0.0
 11
4870.4457173719411
 21
4001.844696469263
 31
0.0
  0
LINE
  5
62C3
  8
UMCL1
 10
4874.5525533971722
 20
3998.9579451233149
 30
0.0
 11
4870.4457173719411
 21
3998.9579451233149
 31
0.0
  0
ARC
  5
62C4
  8
UMCL1
 10
4872.5549581329797
 20
4000.4013207962889
 30
0.0
 40
2.5558227484234459
 50
145.61575253194681
 51
214.38424746805319
  0
LINE
  5
62C5
  8
UMCL1
 10
4869.9991353845562
 20
3999.7314478152121
 30
0.0
 11
4870.4457173719411
 21
3998.9579451233149
 31
0.0
  0
ARC
  5
62C6
  8
UMCL1
 10
4872.4433126361319
 20
4000.4013207962889
 30
0.0
 40
2.5558227484234459
 50
325.61575253194678
 51
34.384247468053132
  0
LINE
  5
62C7
  8
UMCL1
 10
4874.9991353845562
 20
3999.7314478152121
 30
0.0
 11
4874.5525533971722
 21
3998.9579451233149
 31
0.0
  0
LINE
  5
62C8
  8
HIDDEN
 10
4735.4991353845562
 20
4002.800972628399
 30
0.0
 11
4842.9991353845562
 21
4002.800972628399
 31
0.0
  0
LINE
  5
62C9
  8
UMCL1
 10
4735.4991353845562
 20
4001.800972628399
 30
0.0
 11
4842.9991353845562
 21
4001.800972628399
 31
0.0
  0
LINE
  5
62CA
  8
CEN
 10
4735.4991353845562
 20
4004.800972628399
 30
0.0
 11
4878.9991353845571
 21
4004.800972628399
 31
0.0
  0
LINE
  5
62CB
  8
UMCL1
 10
4735.4991353845562
 20
4007.800972628399
 30
0.0
 11
4842.9991353845562
 21
4007.800972628399
 31
0.0
  0
LINE
  5
62CC
  8
CEN
 10
4645.4991353845562
 20
4004.800972628399
 30
0.0
 11
4501.0846482052339
 21
4004.800972628399
 31
0.0
  0
LINE
  5
62CD
  8
CEN
 10
4645.4991353845562
 20
4037.800972628399
 30
0.0
 11
4501.0846482052339
 21
4037.800972628399
 31
0.0
  0
LINE
  5
62CE
  8
UMCL1
 10
4537.9991353845553
 20
4043.3009726283999
 30
0.0
 11
4511.9991353845553
 21
4043.3009726283999
 31
0.0
  0
LINE
  5
62CF
  8
UMCL1
 10
4537.9991353845553
 20
3999.3009726283999
 30
0.0
 11
4511.9991353845553
 21
3999.300972628399
 31
0.0
  0
LINE
  5
62D0
  8
UMCL1
 10
4537.9991353845553
 20
4043.3009726283999
 30
0.0
 11
4537.9991353845553
 21
3999.300972628399
 31
0.0
  0
LINE
  5
62D1
  8
UMCL1
 10
4645.4991353845562
 20
4007.800972628399
 30
0.0
 11
4537.9991353845553
 21
4007.800972628399
 31
0.0
  0
LINE
  5
62D2
  8
UMCL1
 10
4645.4991353845562
 20
4001.800972628399
 30
0.0
 11
4537.9991353845553
 21
4001.800972628399
 31
0.0
  0
LINE
  5
62D3
  8
HIDDEN
 10
4645.4991353845562
 20
4002.800972628399
 30
0.0
 11
4537.9991353845553
 21
4002.800972628399
 31
0.0
  0
LINE
  5
62D4
  8
HIDDEN
 10
4645.4991353845562
 20
4039.800972628399
 30
0.0
 11
4537.9991353845553
 21
4039.8009726283999
 31
0.0
  0
LINE
  5
62D5
  8
UMCL1
 10
4645.4991353845562
 20
4034.800972628399
 30
0.0
 11
4537.9991353845553
 21
4034.800972628399
 31
0.0
  0
LINE
  5
62D6
  8
UMCL1
 10
4645.4991353845562
 20
4040.800972628399
 30
0.0
 11
4537.9991353845553
 21
4040.800972628399
 31
0.0
  0
LINE
  5
62D7
  8
UMCL1
 10
4511.9991353845553
 20
4043.6440001334831
 30
0.0
 11
4511.9991353845553
 21
3999.300972628399
 31
0.0
  0
ARC
  5
62D8
  8
UMCL1
 10
4516.0073807381941
 20
4004.8009726283999
 30
0.0
 40
10.00824535363974
 50
162.81943120861649
 51
197.18056879138339
  0
ARC
  5
62D9
  8
UMCL1
 10
4500.9908900309147
 20
4004.8009726283999
 30
0.0
 40
10.00824535363974
 50
342.81943120861661
 51
17.180568791383411
  0
LINE
  5
62DA
  8
UMCL1
 10
4510.9991353845553
 20
3998.9579451233149
 30
0.0
 11
4510.9991353845562
 21
4010.644000133484
 31
0.0
  0
LINE
  5
62DB
  8
UMCL1
 10
4505.9991353845553
 20
3999.7314478152121
 30
0.0
 11
4505.9991353845553
 21
4009.8704974415882
 31
0.0
  0
LINE
  5
62DC
  8
UMCL1
 10
4510.9991353845553
 20
3998.9579451233149
 30
0.0
 11
4511.9991353845553
 21
3998.9579451233149
 31
0.0
  0
LINE
  5
62DD
  8
UMCL1
 10
4505.9991353845553
 20
3999.7314478152121
 30
0.0
 11
4506.4457173719411
 21
3998.9579451233149
 31
0.0
  0
ARC
  5
62DE
  8
UMCL1
 10
4508.5549581329778
 20
4000.4013207962889
 30
0.0
 40
2.5558227484234459
 50
145.61575253194681
 51
214.38424746805319
  0
LINE
  5
62DF
  8
UMCL1
 10
4510.9991353845553
 20
3999.7314478152121
 30
0.0
 11
4510.5525533971713
 21
3998.9579451233149
 31
0.0
  0
ARC
  5
62E0
  8
UMCL1
 10
4508.4433126361309
 20
4000.4013207962889
 30
0.0
 40
2.5558227484234459
 50
325.61575253194678
 51
34.384247468053132
  0
LINE
  5
62E1
  8
UMCL1
 10
4506.4457173719411
 20
3998.9579451233149
 30
0.0
 11
4510.5525533971713
 21
3998.9579451233149
 31
0.0
  0
LINE
  5
62E2
  8
UMCL1
 10
4506.4457173719411
 20
4001.844696469263
 30
0.0
 11
4510.5525533971713
 21
4001.844696469263
 31
0.0
  0
LINE
  5
62E3
  8
UMCL1
 10
4510.9991353845553
 20
4010.644000133484
 30
0.0
 11
4511.9991353845553
 21
4010.644000133484
 31
0.0
  0
ARC
  5
62E4
  8
UMCL1
 10
4508.5549581329778
 20
4009.20062446051
 30
0.0
 40
2.5558227484234459
 50
145.61575253194681
 51
214.38424746805319
  0
LINE
  5
62E5
  8
UMCL1
 10
4505.9991353845553
 20
4009.8704974415882
 30
0.0
 11
4506.4457173719411
 21
4010.644000133484
 31
0.0
  0
ARC
  5
62E6
  8
UMCL1
 10
4508.4433126361309
 20
4009.20062446051
 30
0.0
 40
2.5558227484234459
 50
325.61575253194678
 51
34.384247468053132
  0
LINE
  5
62E7
  8
UMCL1
 10
4510.9991353845553
 20
4009.8704974415882
 30
0.0
 11
4510.5525533971713
 21
4010.644000133484
 31
0.0
  0
LINE
  5
62E8
  8
UMCL1
 10
4506.4457173719411
 20
4010.644000133484
 30
0.0
 11
4510.5525533971713
 21
4010.644000133484
 31
0.0
  0
LINE
  5
62E9
  8
UMCL1
 10
4506.4457173719411
 20
4007.7572487875359
 30
0.0
 11
4510.5525533971713
 21
4007.7572487875359
 31
0.0
  0
LINE
  5
62EA
  8
UMCL1
 10
4505.9991353845553
 20
4042.8704974415882
 30
0.0
 11
4505.9991353845553
 21
4032.7314478152111
 31
0.0
  0
LINE
  5
62EB
  8
UMCL1
 10
4510.9991353845553
 20
4043.6440001334831
 30
0.0
 11
4510.9991353845562
 21
4031.9579451233139
 31
0.0
  0
ARC
  5
62EC
  8
UMCL1
 10
4500.9908900309147
 20
4037.800972628399
 30
0.0
 40
10.00824535363974
 50
342.81943120861661
 51
17.180568791383411
  0
ARC
  5
62ED
  8
UMCL1
 10
4516.0073807381941
 20
4037.800972628399
 30
0.0
 40
10.00824535363974
 50
162.81943120861649
 51
197.18056879138339
  0
LINE
  5
62EE
  8
UMCL1
 10
4510.9991353845553
 20
4031.9579451233139
 30
0.0
 11
4511.9991353845553
 21
4031.9579451233139
 31
0.0
  0
LINE
  5
62EF
  8
UMCL1
 10
4506.4457173719411
 20
4034.844696469263
 30
0.0
 11
4510.5525533971713
 21
4034.844696469263
 31
0.0
  0
LINE
  5
62F0
  8
UMCL1
 10
4506.4457173719411
 20
4031.9579451233139
 30
0.0
 11
4510.5525533971713
 21
4031.9579451233139
 31
0.0
  0
LINE
  5
62F1
  8
UMCL1
 10
4510.9991353845553
 20
4032.7314478152111
 30
0.0
 11
4510.5525533971713
 21
4031.9579451233139
 31
0.0
  0
ARC
  5
62F2
  8
UMCL1
 10
4508.4433126361309
 20
4033.4013207962889
 30
0.0
 40
2.5558227484234459
 50
325.61575253194678
 51
34.384247468053132
  0
LINE
  5
62F3
  8
UMCL1
 10
4505.9991353845553
 20
4032.7314478152111
 30
0.0
 11
4506.4457173719411
 21
4031.9579451233139
 31
0.0
  0
ARC
  5
62F4
  8
UMCL1
 10
4508.5549581329778
 20
4033.4013207962889
 30
0.0
 40
2.5558227484234459
 50
145.61575253194681
 51
214.38424746805319
  0
LINE
  5
62F5
  8
UMCL1
 10
4510.9991353845553
 20
4043.644000133484
 30
0.0
 11
4511.9991353845553
 21
4043.644000133484
 31
0.0
  0
LINE
  5
62F6
  8
UMCL1
 10
4506.4457173719411
 20
4040.757248787535
 30
0.0
 11
4510.5525533971713
 21
4040.757248787535
 31
0.0
  0
LINE
  5
62F7
  8
UMCL1
 10
4506.4457173719411
 20
4043.644000133484
 30
0.0
 11
4510.5525533971713
 21
4043.644000133484
 31
0.0
  0
ARC
  5
62F8
  8
UMCL1
 10
4508.4433126361309
 20
4042.2006244605091
 30
0.0
 40
2.5558227484234459
 50
325.61575253194678
 51
34.384247468053132
  0
LINE
  5
62F9
  8
UMCL1
 10
4510.9991353845553
 20
4042.8704974415882
 30
0.0
 11
4510.5525533971713
 21
4043.644000133484
 31
0.0
  0
ARC
  5
62FA
  8
UMCL1
 10
4508.5549581329778
 20
4042.2006244605091
 30
0.0
 40
2.5558227484234459
 50
145.61575253194681
 51
214.38424746805319
  0
LINE
  5
62FB
  8
UMCL1
 10
4505.9991353845553
 20
4042.8704974415882
 30
0.0
 11
4506.4457173719411
 21
4043.644000133484
 31
0.0
  0
LINE
  5
62FC
  8
UMCL1
 10
4874.9991353845553
 20
4256.0848007268678
 30
0.0
 11
4874.9991353845553
 21
4245.9457511004912
 31
0.0
  0
LINE
  5
62FD
  8
UMCL1
 10
4869.9991353845553
 20
4256.8583034187641
 30
0.0
 11
4869.9991353845553
 21
4245.1722484085949
 31
0.0
  0
LINE
  5
62FE
  8
UMCL1
 10
4869.9991353845553
 20
4245.1722484085949
 30
0.0
 11
4868.9991353845553
 21
4245.1722484085949
 31
0.0
  0
LINE
  5
62FF
  8
UMCL1
 10
4869.9991353845553
 20
4256.8583034187641
 30
0.0
 11
4868.9991353845553
 21
4256.8583034187641
 31
0.0
  0
LINE
  5
6300
  8
UMCL1
 10
4874.9991353845553
 20
4256.0848007268678
 30
0.0
 11
4869.9991353845553
 21
4256.0848007268678
 31
0.0
  0
ARC
  5
6301
  8
UMCL1
 10
4877.4159772147941
 20
4253.5500383202734
 30
0.0
 40
7.4168418302387566
 50
160.01600439259789
 51
199.98399560740211
  0
ARC
  5
6302
  8
UMCL1
 10
4867.5822935543174
 20
4253.5500383202734
 30
0.0
 40
7.4168418302387318
 50
340.01600439259789
 51
19.9839956074021
  0
LINE
  5
6303
  8
UMCL1
 10
4874.9991353845553
 20
4245.9457511004912
 30
0.0
 11
4869.9991353845553
 21
4245.9457511004912
 31
0.0
  0
ARC
  5
6304
  8
UMCL1
 10
4877.4159772147941
 20
4248.4805135070847
 30
0.0
 40
7.4168418302387566
 50
160.01600439259789
 51
199.98399560740211
  0
ARC
  5
6305
  8
UMCL1
 10
4867.5822935543174
 20
4248.4805135070847
 30
0.0
 40
7.4168418302387318
 50
340.01600439259789
 51
19.9839956074021
  0
ARC
  5
6306
  8
UMCL1
 10
4867.5822935543174
 20
4220.5500383202734
 30
0.0
 40
7.4168418302387318
 50
340.01600439259789
 51
19.9839956074021
  0
ARC
  5
6307
  8
UMCL1
 10
4877.4159772147941
 20
4220.5500383202734
 30
0.0
 40
7.4168418302387566
 50
160.01600439259789
 51
199.98399560740211
  0
LINE
  5
6308
  8
UMCL1
 10
4874.9991353845553
 20
4212.9457511004912
 30
0.0
 11
4874.9991353845553
 21
4223.0848007268669
 31
0.0
  0
LINE
  5
6309
  8
UMCL1
 10
4869.9991353845553
 20
4212.1722484085949
 30
0.0
 11
4869.9991353845553
 21
4223.8583034187641
 31
0.0
  0
LINE
  5
630A
  8
UMCL1
 10
4869.9991353845553
 20
4223.8583034187641
 30
0.0
 11
4868.9991353845553
 21
4223.8583034187641
 31
0.0
  0
LINE
  5
630B
  8
UMCL1
 10
4874.9991353845553
 20
4223.0848007268669
 30
0.0
 11
4869.9991353845553
 21
4223.0848007268669
 31
0.0
  0
LINE
  5
630C
  8
UMCL1
 10
4869.9991353845553
 20
4212.1722484085949
 30
0.0
 11
4868.9991353845553
 21
4212.1722484085949
 31
0.0
  0
ARC
  5
630D
  8
UMCL1
 10
4867.5822935543174
 20
4215.4805135070856
 30
0.0
 40
7.4168418302387318
 50
340.01600439259789
 51
19.9839956074021
  0
ARC
  5
630E
  8
UMCL1
 10
4877.4159772147941
 20
4215.4805135070856
 30
0.0
 40
7.4168418302387566
 50
160.01600439259789
 51
199.98399560740211
  0
LINE
  5
630F
  8
UMCL1
 10
4874.9991353845553
 20
4212.9457511004912
 30
0.0
 11
4869.9991353845553
 21
4212.9457511004921
 31
0.0
  0
ARC
  5
6310
  8
UMCL1
 10
4513.415977214795
 20
4248.4805135070847
 30
0.0
 40
7.4168418302387318
 50
160.01600439259789
 51
199.98399560740211
  0
ARC
  5
6311
  8
UMCL1
 10
4503.5822935543174
 20
4248.4805135070847
 30
0.0
 40
7.4168418302387566
 50
340.01600439259789
 51
19.9839956074021
  0
LINE
  5
6312
  8
UMCL1
 10
4505.9991353845562
 20
4256.0848007268678
 30
0.0
 11
4505.9991353845562
 21
4245.9457511004912
 31
0.0
  0
LINE
  5
6313
  8
UMCL1
 10
4510.9991353845562
 20
4256.8583034187641
 30
0.0
 11
4510.9991353845562
 21
4245.1722484085949
 31
0.0
  0
LINE
  5
6314
  8
UMCL1
 10
4510.9991353845562
 20
4245.1722484085949
 30
0.0
 11
4511.9991353845562
 21
4245.1722484085949
 31
0.0
  0
LINE
  5
6315
  8
UMCL1
 10
4505.9991353845562
 20
4245.9457511004912
 30
0.0
 11
4510.9991353845562
 21
4245.9457511004912
 31
0.0
  0
LINE
  5
6316
  8
UMCL1
 10
4510.9991353845562
 20
4256.8583034187641
 30
0.0
 11
4511.9991353845562
 21
4256.8583034187641
 31
0.0
  0
ARC
  5
6317
  8
UMCL1
 10
4513.415977214795
 20
4253.5500383202734
 30
0.0
 40
7.4168418302387318
 50
160.01600439259789
 51
199.98399560740211
  0
ARC
  5
6318
  8
UMCL1
 10
4503.5822935543174
 20
4253.5500383202734
 30
0.0
 40
7.4168418302387566
 50
340.01600439259789
 51
19.9839956074021
  0
LINE
  5
6319
  8
UMCL1
 10
4505.9991353845562
 20
4256.0848007268678
 30
0.0
 11
4510.9991353845562
 21
4256.0848007268678
 31
0.0
  0
LINE
  5
631A
  8
UMCL1
 10
4506.4457173719411
 20
4251.015275913679
 30
0.0
 11
4510.5525533971713
 21
4251.015275913679
 31
0.0
  0
LINE
  5
631B
  8
UMCL1
 10
4510.9991353845562
 20
4212.1722484085949
 30
0.0
 11
4510.9991353845562
 21
4223.8583034187641
 31
0.0
  0
LINE
  5
631C
  8
UMCL1
 10
4510.9991353845562
 20
4212.1722484085949
 30
0.0
 11
4511.9991353845562
 21
4212.1722484085949
 31
0.0
  0
LINE
  5
631D
  8
UMCL1
 10
4510.9991353845562
 20
4223.8583034187641
 30
0.0
 11
4511.9991353845562
 21
4223.8583034187641
 31
0.0
  0
LINE
  5
631E
  8
UMCL1
 10
4506.4457173719411
 20
4218.0152759136781
 30
0.0
 11
4510.5525533971713
 21
4218.0152759136781
 31
0.0
  0
LINE
  5
631F
  8
UMCL1
 10
4505.9991353845562
 20
4212.9457511004912
 30
0.0
 11
4510.9991353845562
 21
4212.9457511004921
 31
0.0
  0
ARC
  5
6320
  8
UMCL1
 10
4503.5822935543174
 20
4215.4805135070856
 30
0.0
 40
7.4168418302387566
 50
340.01600439259789
 51
19.9839956074021
  0
ARC
  5
6321
  8
UMCL1
 10
4513.415977214795
 20
4215.4805135070856
 30
0.0
 40
7.4168418302387318
 50
160.01600439259789
 51
199.98399560740211
  0
LINE
  5
6322
  8
UMCL1
 10
4505.9991353845562
 20
4223.0848007268669
 30
0.0
 11
4510.9991353845562
 21
4223.0848007268669
 31
0.0
  0
LINE
  5
6323
  8
UMCL1
 10
4505.9991353845562
 20
4212.9457511004912
 30
0.0
 11
4505.9991353845562
 21
4223.0848007268669
 31
0.0
  0
ARC
  5
6324
  8
UMCL1
 10
4503.5822935543174
 20
4220.5500383202734
 30
0.0
 40
7.4168418302387566
 50
340.01600439259789
 51
19.9839956074021
  0
ARC
  5
6325
  8
UMCL1
 10
4513.415977214795
 20
4220.5500383202734
 30
0.0
 40
7.4168418302387318
 50
160.01600439259789
 51
199.98399560740211
  0
LINE
  5
6326
  8
CEN
 10
4645.4991353845562
 20
4251.0152759136809
 30
0.0
 11
4501.9991353845562
 21
4251.015275913679
 31
0.0
  0
LINE
  5
6327
  8
UMCL2
 10
4511.9991353845553
 20
3925.8009726283999
 30
0.0
 11
4868.9991353845562
 21
3925.8009726283999
 31
0.0
  0
LINE
  5
6328
  8
UMCL2
 10
4487.9208478997198
 20
3941.8009726283999
 30
0.0
 11
4892.4994550334777
 21
3941.8009726283999
 31
0.0
  0
LINE
  5
6329
  8
UMCL2
 10
4511.9991353845553
 20
3997.3009726283999
 30
0.0
 11
4511.9991353845553
 21
3923.8009726283999
 31
0.0
  0
SOLID
  5
632A
  8
UMCL2
 10
4516.9991353845553
 20
3926.6343059617329
 30
0.0
 11
4516.9991353845553
 21
3924.9676392950669
 31
0.0
 12
4511.9991353845553
 22
3925.8009726283999
 32
0.0
 13
4511.9991353845553
 23
3925.8009726283999
 33
0.0
  0
LINE
  5
632B
  8
UMCL2
 10
4502.9991353845553
 20
4000.3510531634629
 30
0.0
 11
4502.9991353845553
 21
3939.8009726283999
 31
0.0
  0
TEXT
  5
632C
  8
UMCL2
 10
4490.291485140242
 20
3943.367639295067
 30
0.0
 40
6.0
  1
9
 41
0.85
 51
15.0
  7
ROMANS
  0
SOLID
  5
632D
  8
UMCL2
 10
4497.9991353845562
 20
3942.6343059617329
 30
0.0
 11
4497.9991353845562
 21
3940.9676392950669
 31
0.0
 12
4502.9991353845553
 22
3941.8009726283999
 32
0.0
 13
4502.9991353845553
 23
3941.8009726283999
 33
0.0
  0
SOLID
  5
632E
  8
UMCL2
 10
4516.935135384555
 20
3942.6349726284002
 30
0.0
 11
4516.935135384555
 21
3940.9683059617341
 31
0.0
 12
4511.935135384555
 22
3941.8016392950672
 32
0.0
 13
4511.935135384555
 23
3941.8016392950672
 33
0.0
  0
LINE
  5
632F
  8
UMCL2
 10
4537.9991353845553
 20
3997.3009726283999
 30
0.0
 11
4537.9991353845553
 21
3939.8009726283999
 31
0.0
  0
SOLID
  5
6330
  8
UMCL2
 10
4532.9991353845562
 20
3942.6343059617329
 30
0.0
 11
4532.9991353845562
 21
3940.9676392950669
 31
0.0
 12
4537.9991353845553
 22
3941.8009726283999
 32
0.0
 13
4537.9991353845553
 23
3941.8009726283999
 33
0.0
  0
TEXT
  5
6331
  8
UMCL2
 10
4520.2440523503392
 20
3944.1989726284
 30
0.0
 40
6.0
  1
26
 41
0.85
 51
15.0
  7
ROMANS
  0
SOLID
  5
6332
  8
UMCL2
 10
4542.9991353845553
 20
3942.6343059617329
 30
0.0
 11
4542.9991353845553
 21
3940.9676392950669
 31
0.0
 12
4537.9991353845553
 22
3941.8009726283999
 32
0.0
 13
4537.9991353845553
 23
3941.8009726283999
 33
0.0
  0
TEXT
  5
6333
  8
UMCL2
 10
4581.0667168930549
 20
3944.2009726284
 30
0.0
 40
6.0
  1
107.5
 41
0.85
 51
15.0
  7
ROMANS
  0
TEXT
  5
6334
  8
UMCL2
 10
4682.7940433349822
 20
3928.2009726284
 30
0.0
 40
6.0
  1
357
 41
0.85
 51
15.0
  7
ROMANS
  0
LINE
  5
6335
  8
UMCL2
 10
4645.4991353845562
 20
3982.6082698971541
 30
0.0
 11
4645.4991353845562
 21
3939.8009726283999
 31
0.0
  0
SOLID
  5
6336
  8
UMCL2
 10
4650.4991353845553
 20
3942.6343059617329
 30
0.0
 11
4650.4991353845553
 21
3940.9676392950669
 31
0.0
 12
4645.4991353845562
 22
3941.8009726283999
 32
0.0
 13
4645.4991353845562
 23
3941.8009726283999
 33
0.0
  0
SOLID
  5
6337
  8
UMCL2
 10
4640.4991353845562
 20
3942.6343059617329
 30
0.0
 11
4640.4991353845562
 21
3940.9676392950669
 31
0.0
 12
4645.4991353845562
 22
3941.8009726283999
 32
0.0
 13
4645.4991353845562
 23
3941.8009726283999
 33
0.0
  0
TEXT
  5
6338
  8
UMCL2
 10
4685.2345431199956
 20
3944.2009726284
 30
0.0
 40
6.0
  1
90
 41
0.85
 51
15.0
  7
ROMANS
  0
LINE
  5
6339
  8
UMCL2
 10
4735.4991353845562
 20
3982.6082698971541
 30
0.0
 11
4735.4991353845562
 21
3939.8009726283999
 31
0.0
  0
SOLID
  5
633A
  8
UMCL2
 10
4740.4991353845553
 20
3942.6343059617329
 30
0.0
 11
4740.4991353845553
 21
3940.9676392950669
 31
0.0
 12
4735.4991353845562
 22
3941.8009726283999
 32
0.0
 13
4735.4991353845562
 23
3941.8009726283999
 33
0.0
  0
SOLID
  5
633B
  8
UMCL2
 10
4730.4991353845562
 20
3942.6343059617329
 30
0.0
 11
4730.4991353845562
 21
3940.9676392950669
 31
0.0
 12
4735.4991353845562
 22
3941.8009726283999
 32
0.0
 13
4735.4991353845562
 23
3941.8009726283999
 33
0.0
  0
LINE
  5
633C
  8
UMCL1
 10
4502.9991353845553
 20
4040.0009726283988
 30
0.0
 11
4502.9991353845553
 21
4035.6009726284001
 31
0.0
  0
LINE
  5
633D
  8
UMCL1
 10
4503.7991353845546
 20
4040.800972628399
 30
0.0
 11
4503.7991353845546
 21
4034.800972628399
 31
0.0
  0
LINE
  5
633E
  8
UMCL1
 10
4505.9991353845553
 20
4040.800972628399
 30
0.0
 11
4503.7991353845546
 21
4040.800972628399
 31
0.0
  0
LINE
  5
633F
  8
UMCL1
 10
4505.9991353845553
 20
4034.800972628399
 30
0.0
 11
4503.7991353845546
 21
4034.800972628399
 31
0.0
  0
LINE
  5
6340
  8
UMCL1
 10
4503.7991353845546
 20
4040.800972628399
 30
0.0
 11
4502.9991353845553
 21
4040.0009726283988
 31
0.0
  0
LINE
  5
6341
  8
UMCL1
 10
4502.9991353845553
 20
4035.6009726284001
 30
0.0
 11
4503.7991353845546
 21
4034.800972628399
 31
0.0
  0
LINE
  5
6342
  8
UMCL1
 62
     2
 10
4505.9991353845553
 20
4040.2009726284
 30
0.0
 11
4503.1991353845551
 21
4040.2009726283991
 31
0.0
  0
LINE
  5
6343
  8
UMCL1
 62
     2
 10
4505.9991353845553
 20
4035.4009726283998
 30
0.0
 11
4503.199135384556
 21
4035.4009726283998
 31
0.0
  0
LINE
  5
6344
  8
UMCL1
 10
4503.7991353845546
 20
4001.800972628399
 30
0.0
 11
4503.7991353845546
 21
4007.800972628399
 31
0.0
  0
LINE
  5
6345
  8
UMCL1
 10
4502.9991353845553
 20
4002.6009726283992
 30
0.0
 11
4502.9991353845553
 21
4007.0009726283988
 31
0.0
  0
LINE
  5
6346
  8
UMCL1
 62
     2
 10
4505.9991353845553
 20
4007.2009726283991
 30
0.0
 11
4503.199135384556
 21
4007.2009726283991
 31
0.0
  0
LINE
  5
6347
  8
UMCL1
 10
4505.9991353845553
 20
4007.800972628399
 30
0.0
 11
4503.7991353845546
 21
4007.800972628399
 31
0.0
  0
LINE
  5
6348
  8
UMCL1
 10
4502.9991353845553
 20
4007.0009726283988
 30
0.0
 11
4503.7991353845546
 21
4007.800972628399
 31
0.0
  0
LINE
  5
6349
  8
UMCL1
 62
     2
 10
4505.9991353845553
 20
4002.4009726283989
 30
0.0
 11
4503.1991353845551
 21
4002.4009726283989
 31
0.0
  0
LINE
  5
634A
  8
UMCL1
 10
4505.9991353845553
 20
4001.800972628399
 30
0.0
 11
4503.7991353845546
 21
4001.800972628399
 31
0.0
  0
LINE
  5
634B
  8
UMCL1
 10
4503.7991353845546
 20
4001.800972628399
 30
0.0
 11
4502.9991353845553
 21
4002.6009726283992
 31
0.0
  0
LINE
  5
634C
  8
UMCL1
 10
4874.9991353845562
 20
4040.800972628399
 30
0.0
 11
4877.199135384556
 21
4040.800972628399
 31
0.0
  0
LINE
  5
634D
  8
UMCL1
 62
     2
 10
4874.9991353845562
 20
4040.2009726284
 30
0.0
 11
4877.7991353845564
 21
4040.2009726283991
 31
0.0
  0
LINE
  5
634E
  8
UMCL1
 10
4877.199135384556
 20
4040.800972628399
 30
0.0
 11
4877.199135384556
 21
4034.800972628399
 31
0.0
  0
LINE
  5
634F
  8
UMCL1
 10
4877.9991353845553
 20
4040.0009726283988
 30
0.0
 11
4877.9991353845553
 21
4035.6009726284001
 31
0.0
  0
LINE
  5
6350
  8
UMCL1
 10
4877.9991353845553
 20
4035.6009726284001
 30
0.0
 11
4877.199135384556
 21
4034.800972628399
 31
0.0
  0
LINE
  5
6351
  8
UMCL1
 10
4877.199135384556
 20
4040.800972628399
 30
0.0
 11
4877.9991353845553
 21
4040.0009726283988
 31
0.0
  0
LINE
  5
6352
  8
UMCL1
 10
4874.9991353845562
 20
4034.800972628399
 30
0.0
 11
4877.199135384556
 21
4034.800972628399
 31
0.0
  0
LINE
  5
6353
  8
UMCL1
 62
     2
 10
4874.9991353845562
 20
4035.4009726283998
 30
0.0
 11
4877.7991353845564
 21
4035.4009726283998
 31
0.0
  0
LINE
  5
6354
  8
UMCL1
 62
     2
 10
4874.9991353845562
 20
4002.4009726283989
 30
0.0
 11
4877.7991353845564
 21
4002.4009726283989
 31
0.0
  0
LINE
  5
6355
  8
UMCL1
 10
4874.9991353845562
 20
4001.800972628399
 30
0.0
 11
4877.199135384556
 21
4001.800972628399
 31
0.0
  0
LINE
  5
6356
  8
UMCL1
 10
4877.9991353845553
 20
4002.6009726283992
 30
0.0
 11
4877.9991353845553
 21
4007.0009726283988
 31
0.0
  0
LINE
  5
6357
  8
UMCL1
 10
4877.199135384556
 20
4001.800972628399
 30
0.0
 11
4877.199135384556
 21
4007.800972628399
 31
0.0
  0
LINE
  5
6358
  8
UMCL1
 10
4877.199135384556
 20
4001.800972628399
 30
0.0
 11
4877.9991353845553
 21
4002.6009726283992
 31
0.0
  0
LINE
  5
6359
  8
UMCL1
 10
4877.9991353845553
 20
4007.0009726283988
 30
0.0
 11
4877.199135384556
 21
4007.800972628399
 31
0.0
  0
LINE
  5
635A
  8
UMCL1
 10
4874.9991353845562
 20
4007.800972628399
 30
0.0
 11
4877.199135384556
 21
4007.800972628399
 31
0.0
  0
LINE
  5
635B
  8
UMCL1
 62
     2
 10
4874.9991353845562
 20
4007.2009726283991
 30
0.0
 11
4877.7991353845564
 21
4007.2009726283991
 31
0.0
  0
LINE
  5
635C
  8
UMCL2
 10
4877.9991353845553
 20
3999.5865896753089
 30
0.0
 11
4877.9991353845553
 21
3939.8009726283999
 31
0.0
  0
LINE
  5
635D
  8
UMCL2
 10
4868.9991353845562
 20
3997.3009726283999
 30
0.0
 11
4868.9991353845562
 21
3923.8009726283999
 31
0.0
  0
LINE
  5
635E
  8
UMCL2
 10
4842.9991353845562
 20
3997.3009726283999
 30
0.0
 11
4842.9991353845562
 21
3939.8009726283999
 31
0.0
  0
SOLID
  5
635F
  8
UMCL2
 10
4882.9991353845553
 20
3942.6343059617329
 30
0.0
 11
4882.9991353845553
 21
3940.9676392950669
 31
0.0
 12
4877.9991353845553
 22
3941.8009726283999
 32
0.0
 13
4877.9991353845553
 23
3941.8009726283999
 33
0.0
  0
SOLID
  5
6360
  8
UMCL2
 10
4863.9991353845553
 20
3926.6343059617329
 30
0.0
 11
4863.9991353845553
 21
3924.9676392950669
 31
0.0
 12
4868.9991353845553
 22
3925.8009726283999
 32
0.0
 13
4868.9991353845553
 23
3925.8009726283999
 33
0.0
  0
SOLID
  5
6361
  8
UMCL2
 10
4864.047135384556
 20
3942.632305961733
 30
0.0
 11
4864.047135384556
 21
3940.9656392950669
 31
0.0
 12
4869.047135384556
 22
3941.7989726284
 32
0.0
 13
4869.047135384556
 23
3941.7989726284
 33
0.0
  0
SOLID
  5
6362
  8
UMCL2
 10
4847.9991353845562
 20
3942.6343059617329
 30
0.0
 11
4847.9991353845562
 21
3940.9676392950669
 31
0.0
 12
4842.9991353845562
 22
3941.8009726283999
 32
0.0
 13
4842.9991353845562
 23
3941.8009726283999
 33
0.0
  0
SOLID
  5
6363
  8
UMCL2
 10
4837.9991353845562
 20
3942.6343059617329
 30
0.0
 11
4837.9991353845562
 21
3940.9676392950669
 31
0.0
 12
4842.9991353845562
 22
3941.8009726283999
 32
0.0
 13
4842.9991353845562
 23
3941.8009726283999
 33
0.0
  0
TEXT
  5
6364
  8
UMCL2
 10
4850.2519179332457
 20
3944.0312383073092
 30
0.0
 40
6.0
  1
26
 41
0.85
 51
15.0
  7
ROMANS
  0
SOLID
  5
6365
  8
UMCL2
 10
4851.6499298272647
 20
4030.992556814505
 30
0.0
 11
4850.3329286898861
 21
4029.9711431950932
 31
0.0
 12
4854.0556701168098
 22
4026.5308465926619
 32
0.0
 13
4854.0556701168098
 23
4026.5308465926619
 33
0.0
  0
LINE
  5
6366
  8
UMCL2
 10
4829.6034067611508
 20
4058.0593655382431
 30
0.0
 11
4854.0556701168098
 21
4026.5308465926619
 31
0.0
  0
LINE
  5
6367
  8
UMCL2
 10
4784.7223187717054
 20
4058.0593655382431
 30
0.0
 11
4829.6034067611508
 21
4058.0593655382431
 31
0.0
  0
TEXT
  5
6368
  8
UMCL2
 10
4785.9801242236053
 20
4060.631671383127
 30
0.0
 40
6.0
  1
2-PT 1/4
 41
0.85
 51
15.0
  7
ROMANS
  0
LINE
  5
6369
  8
HIDDEN
 10
5001.5994074838691
 20
4027.4901365788378
 30
0.0
 11
5001.5994074838691
 21
4015.2508583043359
 31
0.0
  0
LINE
  5
636A
  8
HIDDEN
 10
4992.4335762023093
 20
4014.7704974415869
 30
0.0
 11
5001.5994074838691
 21
4015.2508583043359
 31
0.0
  0
LINE
  5
636B
  8
HIDDEN
 10
4992.4335762023093
 20
4015.670497441587
 30
0.0
 11
5001.5994074838691
 21
4016.1508583043369
 31
0.0
  0
LINE
  5
636C
  8
HIDDEN
 10
4992.4335762023093
 20
4027.9704974415872
 30
0.0
 11
5001.5994074838691
 21
4027.4901365788378
 31
0.0
  0
LINE
  5
636D
  8
HIDDEN
 10
4992.4335762023093
 20
4027.0704974415871
 30
0.0
 11
5001.5994074838691
 21
4026.5901365788382
 31
0.0
  0
LINE
  5
636E
  8
CEN
 10
5009.2740513891213
 20
4063.168275916023
 30
0.0
 11
5009.2740513891213
 21
4033.3524586197941
 31
0.0
  0
LINE
  5
636F
  8
HIDDEN
 10
5005.2740513891222
 20
4058.800972628399
 30
0.0
 11
5005.2740513891222
 21
4043.800972628399
 31
0.0
  0
LINE
  5
6370
  8
HIDDEN
 10
5013.2740513891213
 20
4058.800972628399
 30
0.0
 11
5013.2740513891213
 21
4043.800972628399
 31
0.0
  0
LINE
  5
6371
  8
HIDDEN
 10
5006.0240513891222
 20
4058.800972628399
 30
0.0
 11
5006.0240513891222
 21
4039.800972628399
 31
0.0
  0
LINE
  5
6372
  8
HIDDEN
 10
5012.5240513891213
 20
4058.800972628399
 30
0.0
 11
5012.5240513891213
 21
4039.800972628399
 31
0.0
  0
LINE
  5
6373
  8
HIDDEN
 10
5005.2740513891222
 20
4043.800972628399
 30
0.0
 11
5013.2740513891213
 21
4043.800972628399
 31
0.0
  0
LINE
  5
6374
  8
HIDDEN
 10
5006.0240513891222
 20
4039.800972628399
 30
0.0
 11
5012.5240513891213
 21
4039.800972628399
 31
0.0
  0
LINE
  5
6375
  8
HIDDEN
 10
5009.2740513891213
 20
4037.800972628399
 30
0.0
 11
5006.0240513891222
 21
4039.800972628399
 31
0.0
  0
LINE
  5
6376
  8
HIDDEN
 10
5012.5240513891213
 20
4039.800972628399
 30
0.0
 11
5009.2740513891213
 21
4037.800972628399
 31
0.0
  0
LINE
  5
6377
  8
CEN
 10
5009.2740513891213
 20
3979.4336693407772
 30
0.0
 11
5009.2740513891213
 21
4009.2494866370048
 31
0.0
  0
LINE
  5
6378
  8
HIDDEN
 10
5012.5240513891213
 20
3983.8009726283999
 30
0.0
 11
5012.5240513891213
 21
4002.800972628399
 31
0.0
  0
LINE
  5
6379
  8
HIDDEN
 10
5006.0240513891222
 20
3983.8009726283999
 30
0.0
 11
5006.0240513891222
 21
4002.800972628399
 31
0.0
  0
LINE
  5
637A
  8
HIDDEN
 10
5013.2740513891213
 20
3983.8009726283999
 30
0.0
 11
5013.2740513891213
 21
3998.8009726283999
 31
0.0
  0
LINE
  5
637B
  8
HIDDEN
 10
5005.2740513891222
 20
3983.8009726283999
 30
0.0
 11
5005.2740513891222
 21
3998.8009726283999
 31
0.0
  0
LINE
  5
637C
  8
HIDDEN
 10
5005.2740513891222
 20
3998.8009726283999
 30
0.0
 11
5013.2740513891213
 21
3998.8009726283999
 31
0.0
  0
LINE
  5
637D
  8
HIDDEN
 10
5006.0240513891222
 20
4002.800972628399
 30
0.0
 11
5012.5240513891213
 21
4002.800972628399
 31
0.0
  0
LINE
  5
637E
  8
HIDDEN
 10
5009.2740513891213
 20
4004.8009726283999
 30
0.0
 11
5006.0240513891222
 21
4002.800972628399
 31
0.0
  0
LINE
  5
637F
  8
HIDDEN
 10
5012.5240513891213
 20
4002.800972628399
 30
0.0
 11
5009.2740513891213
 21
4004.8009726283999
 31
0.0
  0
ARC
  5
6380
  8
UMCL1
 62
     2
 10
4522.9991353845553
 20
4021.300972628399
 30
0.0
 40
6.5499999999999989
 50
76.808406561052081
 51
17.812050157649541
  0
CIRCLE
  5
6381
  8
UMCL1
 10
4522.9991353845553
 20
4021.300972628399
 30
0.0
 40
5.75
  0
LINE
  5
6382
  8
UMCL1
 10
4745.4991353845553
 20
4290.0152759136772
 30
0.0
 11
4744.4991353845571
 21
4291.0152759136772
 31
0.0
  0
LINE
  5
6383
  8
UMCL1
 10
4744.4991353845571
 20
4281.0152759136763
 30
0.0
 11
4744.4991353845571
 21
4291.0152759136772
 31
0.0
  0
LINE
  5
6384
  8
UMCL1
 10
4745.4991353845553
 20
4282.0152759136781
 30
0.0
 11
4744.4991353845571
 21
4281.0152759136763
 31
0.0
  0
LINE
  5
6385
  8
UMCL1
 10
4745.4991353845553
 20
4282.0152759136763
 30
0.0
 11
4745.4991353845553
 21
4290.0152759136772
 31
0.0
  0
LINE
  5
6386
  8
HIDDEN
 10
4741.4991353845553
 20
4287.4586515866513
 30
0.0
 11
4745.4991353845553
 21
4287.4586515866513
 31
0.0
  0
LINE
  5
6387
  8
HIDDEN
 10
4741.4991353845553
 20
4288.9020272596254
 30
0.0
 11
4745.4991353845553
 21
4288.9020272596254
 31
0.0
  0
LINE
  5
6388
  8
HIDDEN
 10
4741.4991353845553
 20
4283.1285245677291
 30
0.0
 11
4745.4991353845553
 21
4283.1285245677291
 31
0.0
  0
LINE
  5
6389
  8
HIDDEN
 10
4741.4991353845553
 20
4284.5719002407031
 30
0.0
 11
4745.4991353845553
 21
4284.5719002407031
 31
0.0
  0
LINE
  5
638A
  8
HIDDEN
 10
4741.4991353845553
 20
4288.9020272596254
 30
0.0
 11
4740.8324687178892
 21
4286.0152759136772
 31
0.0
  0
LINE
  5
638B
  8
HIDDEN
 10
4741.4991353845553
 20
4283.1285245677291
 30
0.0
 11
4741.4991353845553
 21
4288.9020272596254
 31
0.0
  0
LINE
  5
638C
  8
HIDDEN
 10
4741.4991353845553
 20
4283.1285245677291
 30
0.0
 11
4740.8324687178892
 21
4286.0152759136772
 31
0.0
  0
LINE
  5
638D
  8
UMCL1
 62
     2
 10
4743.4991353845553
 20
4281.7652759136754
 30
0.0
 11
4745.2491353845526
 21
4281.7652759136754
 31
0.0
  0
LINE
  5
638E
  8
UMCL1
 62
     2
 10
4743.4991353845553
 20
4290.2652759136772
 30
0.0
 11
4745.2491353845571
 21
4290.2652759136772
 31
0.0
  0
LINE
  5
638F
  8
UMCL1
 10
4743.4991353845553
 20
4291.0152759136772
 30
0.0
 11
4744.4991353845571
 21
4291.0152759136772
 31
0.0
  0
LINE
  5
6390
  8
UMCL1
 10
4743.4991353845553
 20
4281.0152759136754
 30
0.0
 11
4744.4991353845526
 21
4281.0152759136754
 31
0.0
  0
LINE
  5
6391
  8
UMCL1
 62
     2
 10
4874.9991353845553
 20
4248.6152759136794
 30
0.0
 11
4877.7991353845564
 21
4248.6152759136794
 31
0.0
  0
LINE
  5
6392
  8
UMCL1
 10
4874.9991353845553
 20
4248.015275913679
 30
0.0
 11
4877.1991353845551
 21
4248.015275913679
 31
0.0
  0
LINE
  5
6393
  8
UMCL1
 10
4877.1991353845551
 20
4254.015275913679
 30
0.0
 11
4877.9991353845553
 21
4253.2152759136798
 31
0.0
  0
LINE
  5
6394
  8
UMCL1
 10
4877.9991353845553
 20
4248.8152759136801
 30
0.0
 11
4877.1991353845551
 21
4248.015275913679
 31
0.0
  0
LINE
  5
6395
  8
UMCL1
 10
4877.9991353845553
 20
4253.2152759136798
 30
0.0
 11
4877.9991353845553
 21
4248.8152759136801
 31
0.0
  0
LINE
  5
6396
  8
UMCL1
 10
4877.1991353845551
 20
4254.015275913679
 30
0.0
 11
4877.1991353845551
 21
4248.015275913679
 31
0.0
  0
LINE
  5
6397
  8
UMCL1
 62
     2
 10
4874.9991353845553
 20
4253.4152759136787
 30
0.0
 11
4877.7991353845564
 21
4253.4152759136778
 31
0.0
  0
LINE
  5
6398
  8
UMCL1
 10
4874.9991353845553
 20
4254.015275913679
 30
0.0
 11
4877.1991353845551
 21
4254.015275913679
 31
0.0
  0
LINE
  5
6399
  8
UMCL1
 10
4874.9991353845553
 20
4221.0152759136781
 30
0.0
 11
4877.1991353845551
 21
4221.0152759136781
 31
0.0
  0
LINE
  5
639A
  8
UMCL1
 62
     2
 10
4874.9991353845553
 20
4220.4152759136787
 30
0.0
 11
4877.7991353845564
 21
4220.4152759136787
 31
0.0
  0
LINE
  5
639B
  8
UMCL1
 10
4877.1991353845551
 20
4221.0152759136781
 30
0.0
 11
4877.1991353845551
 21
4215.015275913679
 31
0.0
  0
LINE
  5
639C
  8
UMCL1
 10
4877.9991353845553
 20
4220.2152759136789
 30
0.0
 11
4877.9991353845553
 21
4215.8152759136801
 31
0.0
  0
LINE
  5
639D
  8
UMCL1
 10
4877.9991353845553
 20
4215.8152759136801
 30
0.0
 11
4877.1991353845551
 21
4215.015275913679
 31
0.0
  0
LINE
  5
639E
  8
UMCL1
 10
4877.1991353845551
 20
4221.0152759136781
 30
0.0
 11
4877.9991353845553
 21
4220.2152759136789
 31
0.0
  0
LINE
  5
639F
  8
UMCL1
 10
4874.9991353845553
 20
4215.015275913679
 30
0.0
 11
4877.1991353845551
 21
4215.015275913679
 31
0.0
  0
LINE
  5
63A0
  8
UMCL1
 62
     2
 10
4874.9991353845553
 20
4215.6152759136803
 30
0.0
 11
4877.7991353845564
 21
4215.6152759136803
 31
0.0
  0
LINE
  5
63A1
  8
UMCL1
 10
4505.9991353845562
 20
4254.015275913679
 30
0.0
 11
4503.7991353845564
 21
4254.015275913679
 31
0.0
  0
LINE
  5
63A2
  8
UMCL1
 62
     2
 10
4505.9991353845562
 20
4253.4152759136787
 30
0.0
 11
4503.1991353845569
 21
4253.4152759136778
 31
0.0
  0
LINE
  5
63A3
  8
UMCL1
 10
4503.7991353845564
 20
4254.015275913679
 30
0.0
 11
4503.7991353845564
 21
4248.015275913679
 31
0.0
  0
LINE
  5
63A4
  8
UMCL1
 10
4502.9991353845553
 20
4253.2152759136798
 30
0.0
 11
4502.9991353845553
 21
4248.8152759136801
 31
0.0
  0
LINE
  5
63A5
  8
UMCL1
 10
4502.9991353845553
 20
4248.8152759136801
 30
0.0
 11
4503.7991353845564
 21
4248.015275913679
 31
0.0
  0
LINE
  5
63A6
  8
UMCL1
 10
4503.7991353845564
 20
4254.015275913679
 30
0.0
 11
4502.9991353845553
 21
4253.2152759136798
 31
0.0
  0
LINE
  5
63A7
  8
UMCL1
 10
4505.9991353845562
 20
4248.015275913679
 30
0.0
 11
4503.7991353845564
 21
4248.015275913679
 31
0.0
  0
LINE
  5
63A8
  8
UMCL1
 62
     2
 10
4505.9991353845562
 20
4248.6152759136794
 30
0.0
 11
4503.1991353845569
 21
4248.6152759136794
 31
0.0
  0
LINE
  5
63A9
  8
UMCL1
 62
     2
 10
4505.9991353845562
 20
4215.6152759136803
 30
0.0
 11
4503.1991353845569
 21
4215.6152759136803
 31
0.0
  0
LINE
  5
63AA
  8
UMCL1
 10
4505.9991353845562
 20
4215.015275913679
 30
0.0
 11
4503.7991353845564
 21
4215.015275913679
 31
0.0
  0
LINE
  5
63AB
  8
UMCL1
 10
4503.7991353845564
 20
4221.0152759136781
 30
0.0
 11
4502.9991353845553
 21
4220.2152759136789
 31
0.0
  0
LINE
  5
63AC
  8
UMCL1
 10
4502.9991353845553
 20
4215.8152759136801
 30
0.0
 11
4503.7991353845564
 21
4215.015275913679
 31
0.0
  0
LINE
  5
63AD
  8
UMCL1
 10
4502.9991353845553
 20
4220.2152759136789
 30
0.0
 11
4502.9991353845553
 21
4215.8152759136801
 31
0.0
  0
LINE
  5
63AE
  8
UMCL1
 10
4503.7991353845564
 20
4221.0152759136781
 30
0.0
 11
4503.7991353845564
 21
4215.015275913679
 31
0.0
  0
LINE
  5
63AF
  8
UMCL1
 62
     2
 10
4505.9991353845562
 20
4220.4152759136787
 30
0.0
 11
4503.1991353845569
 21
4220.4152759136787
 31
0.0
  0
LINE
  5
63B0
  8
UMCL1
 10
4505.9991353845562
 20
4221.0152759136781
 30
0.0
 11
4503.7991353845564
 21
4221.0152759136781
 31
0.0
  0
LINE
  5
63B1
  8
CEN
 10
4522.9991353845553
 20
4210.3971381318161
 30
0.0
 11
4522.9991353845553
 21
4226.9430786811336
 31
0.0
  0
LINE
  5
63B2
  8
CEN
 10
4522.9991353845553
 20
4032.6617475646149
 30
0.0
 11
4522.9991353845553
 21
4009.940197692184
 31
0.0
  0
TEXT
  5
63B3
  8
UMCL2
 10
4778.5482832442904
 20
3944.2009726284
 30
0.0
 40
6.0
  1
107.5
 41
0.85
 51
15.0
  7
ROMANS
  0
TEXT
  5
63B4
  8
UMCL2
 10
4885.3451535843524
 20
3943.3683059617342
 30
0.0
 40
6.0
  1
9
 41
0.85
 51
15.0
  7
ROMANS
  0
LINE
  5
63B5
  8
UMCL1
 10
4645.4991353845562
 20
4254.015275913679
 30
0.0
 11
4537.9991353845553
 21
4254.015275913679
 31
0.0
  0
LINE
  5
63B6
  8
UMCL1
 10
4645.4991353845562
 20
4248.015275913679
 30
0.0
 11
4537.9991353845553
 21
4248.015275913679
 31
0.0
  0
LINE
  5
63B7
  8
UMCL1
 10
4645.4991353845562
 20
4215.015275913679
 30
0.0
 11
4537.9991353845553
 21
4215.015275913679
 31
0.0
  0
LINE
  5
63B8
  8
HIDDEN
 10
4645.4991353845562
 20
4216.015275913679
 30
0.0
 11
4537.9991353845553
 21
4216.015275913679
 31
0.0
  0
LINE
  5
63B9
  8
CEN
 10
4645.4991353845562
 20
4218.0152759136781
 30
0.0
 11
4501.9991353845562
 21
4218.0152759136781
 31
0.0
  0
LINE
  5
63BA
  8
UMCL1
 10
4645.4991353845562
 20
4221.0152759136781
 30
0.0
 11
4537.9991353845553
 21
4221.0152759136781
 31
0.0
  0
LINE
  5
63BB
  8
UMCL1
 10
4735.4991353845553
 20
4254.015275913679
 30
0.0
 11
4842.9991353845562
 21
4254.015275913679
 31
0.0
  0
LINE
  5
63BC
  8
HIDDEN
 10
4735.4991353845553
 20
4253.015275913679
 30
0.0
 11
4842.9991353845562
 21
4253.015275913679
 31
0.0
  0
LINE
  5
63BD
  8
CEN
 10
4735.4991353845553
 20
4251.0152759136809
 30
0.0
 11
4878.9991353845553
 21
4251.015275913679
 31
0.0
  0
LINE
  5
63BE
  8
UMCL1
 10
4735.4991353845553
 20
4248.015275913679
 30
0.0
 11
4842.9991353845562
 21
4248.015275913679
 31
0.0
  0
LINE
  5
63BF
  8
UMCL1
 10
4735.4991353845553
 20
4221.0152759136781
 30
0.0
 11
4842.9991353845562
 21
4221.0152759136781
 31
0.0
  0
LINE
  5
63C0
  8
CEN
 10
4735.4991353845553
 20
4218.0152759136781
 30
0.0
 11
4878.9991353845553
 21
4218.0152759136781
 31
0.0
  0
LINE
  5
63C1
  8
HIDDEN
 10
4735.4991353845553
 20
4216.015275913679
 30
0.0
 11
4842.9991353845562
 21
4216.015275913679
 31
0.0
  0
LINE
  5
63C2
  8
UMCL1
 10
4735.4991353845553
 20
4215.015275913679
 30
0.0
 11
4842.9991353845562
 21
4215.015275913679
 31
0.0
  0
LINE
  5
63C3
  8
CEN
 10
4711.9991353845562
 20
4215.0953248018686
 30
0.0
 11
4711.9991353845562
 21
4193.015275913679
 31
0.0
  0
LINE
  5
63C4
  8
UMCL1
 10
4842.9991353845562
 20
4256.515275913679
 30
0.0
 11
4842.9991353845562
 21
4212.515275913679
 31
0.0
  0
CIRCLE
  5
63C5
  8
UMCL1
 10
4690.4991353845553
 20
4264.515275913679
 30
0.0
 40
41.0
  0
CIRCLE
  5
63C6
  8
CEN
 10
4690.4991353845553
 20
4264.515275913679
 30
0.0
 40
33.5
  0
LINE
  5
63C7
  8
CEN
 10
4673.8464828832348
 20
4247.8626234123594
 30
0.0
 11
4659.7756335463782
 21
4233.7917740755011
 31
0.0
  0
CIRCLE
  5
63C8
  8
UMCL1
 10
4666.8110582148074
 20
4240.8271987439302
 30
0.0
 40
2.5
  0
ARC
  5
63C9
  8
UMCL1
 62
     2
 10
4666.8110582148074
 20
4240.8271987439302
 30
0.0
 40
3.0
 50
297.35626838237039
 51
246.00402759871241
  0
LINE
  5
63CA
  8
CEN
 10
4735.4991353845562
 20
4234.5152759136781
 30
0.0
 11
4873.9991353845562
 21
4234.5152759136781
 31
0.0
  0
CIRCLE
  5
63CB
  8
UMCL1
 10
4690.4991353845553
 20
4231.015275913679
 30
0.0
 40
5.5
  0
CIRCLE
  5
63CC
  8
UMCL1
 10
4690.4991353845553
 20
4231.015275913679
 30
0.0
 40
5.0
  0
CIRCLE
  5
63CD
  8
UMCL1
 10
4690.4991353845553
 20
4231.015275913679
 30
0.0
 40
4.5
  0
POLYLINE
  5
63CE
  8
UMCL1
 66
     1
 10
0.0
 20
0.0
 30
0.0
 70
     1
  0
VERTEX
  5
661C
  8
UMCL1
 10
4689.0557597115821
 20
4233.515275913679
 30
0.0
  0
VERTEX
  5
661D
  8
UMCL1
 10
4687.6123840386072
 20
4231.015275913679
 30
0.0
  0
VERTEX
  5
661E
  8
UMCL1
 10
4689.0557597115821
 20
4228.515275913679
 30
0.0
  0
VERTEX
  5
661F
  8
UMCL1
 10
4691.9425110575303
 20
4228.515275913679
 30
0.0
  0
VERTEX
  5
6620
  8
UMCL1
 10
4693.3858867305044
 20
4231.015275913679
 30
0.0
  0
VERTEX
  5
6621
  8
UMCL1
 10
4691.9425110575303
 20
4233.515275913679
 30
0.0
  0
SEQEND
  5
6622
  8
UMCL1
  0
POLYLINE
  5
63CF
  8
UMCL1
 66
     1
 10
0.0
 20
0.0
 30
0.0
 70
     1
  0
VERTEX
  5
6623
  8
UMCL1
 10
4655.5557597115821
 20
4267.015275913679
 30
0.0
  0
VERTEX
  5
6624
  8
UMCL1
 10
4654.1123840386081
 20
4264.515275913679
 30
0.0
  0
VERTEX
  5
6625
  8
UMCL1
 10
4655.5557597115821
 20
4262.015275913679
 30
0.0
  0
VERTEX
  5
6626
  8
UMCL1
 10
4658.4425110575303
 20
4262.015275913679
 30
0.0
  0
VERTEX
  5
6627
  8
UMCL1
 10
4659.8858867305053
 20
4264.515275913679
 30
0.0
  0
VERTEX
  5
6628
  8
UMCL1
 10
4658.4425110575303
 20
4267.015275913679
 30
0.0
  0
SEQEND
  5
6629
  8
UMCL1
  0
CIRCLE
  5
63D0
  8
UMCL1
 10
4656.9991353845553
 20
4264.515275913679
 30
0.0
 40
4.5
  0
CIRCLE
  5
63D1
  8
UMCL1
 10
4656.9991353845553
 20
4264.515275913679
 30
0.0
 40
5.0
  0
CIRCLE
  5
63D2
  8
UMCL1
 10
4656.9991353845553
 20
4264.515275913679
 30
0.0
 40
5.5
  0
CIRCLE
  5
63D3
  8
UMCL1
 10
4690.4991353845553
 20
4264.515275913679
 30
0.0
 40
20.0
  0
LINE
  5
63D4
  8
CEN
 10
4664.8227832246339
 20
4229.515275913679
 30
0.0
 11
4646.1754875444776
 21
4229.515275913679
 31
0.0
  0
LINE
  5
63D5
  8
CEN
 10
4655.4991353845544
 20
4220.1916280736014
 30
0.0
 11
4655.4991353845544
 21
4238.8389237537594
 31
0.0
  0
LINE
  5
63D6
  8
CEN
 10
4725.4991353845562
 20
4220.1916280736014
 30
0.0
 11
4725.4991353845562
 21
4238.8389237537567
 31
0.0
  0
LINE
  5
63D7
  8
CEN
 10
4734.822783224633
 20
4229.515275913679
 30
0.0
 11
4716.1754875444776
 21
4229.515275913679
 31
0.0
  0
ARC
  5
63D8
  8
UMCL1
 62
     2
 10
4655.4991353845544
 20
4229.515275913679
 30
0.0
 40
4.0
 50
156.62661036295489
 51
117.295953353016
  0
CIRCLE
  5
63D9
  8
UMCL1
 10
4655.4991353845544
 20
4229.515275913679
 30
0.0
 40
3.399999999999999
  0
CIRCLE
  5
63DA
  8
UMCL1
 10
4725.4991353845562
 20
4229.515275913679
 30
0.0
 40
3.399999999999999
  0
ARC
  5
63DB
  8
UMCL1
 62
     2
 10
4725.4991353845553
 20
4229.515275913679
 30
0.0
 40
4.0
 50
156.62661036295489
 51
117.295953353016
  0
LINE
  5
63DC
  8
UMCL1
 10
4530.9991353845544
 20
4256.5152759136799
 30
0.0
 11
4528.8991353845549
 21
4256.5152759136799
 31
0.0
  0
LINE
  5
63DD
  8
UMCL1
 10
4518.9991353845553
 20
4256.515275913679
 30
0.0
 11
4524.9991353845553
 21
4256.515275913679
 31
0.0
  0
LINE
  5
63DE
  8
UMCL1
 10
4518.9991353845526
 20
4260.5187372783921
 30
0.0
 11
4530.9991353845544
 21
4260.5187372783921
 31
0.0
  0
LINE
  5
63DF
  8
UMCL1
 10
4530.9991353845544
 20
4260.5187372783921
 30
0.0
 11
4531.9273386148288
 21
4260.1808989312221
 31
0.0
  0
LINE
  5
63E0
  8
UMCL1
 10
4531.9273386148288
 20
4260.1808989312221
 30
0.0
 11
4531.9273386148288
 21
4256.7152759136798
 31
0.0
  0
LINE
  5
63E1
  8
UMCL1
 10
4530.9991353845544
 20
4256.7152759136798
 30
0.0
 11
4530.9991353845544
 21
4256.515275913679
 31
0.0
  0
LINE
  5
63E2
  8
UMCL1
 10
4518.070932154279
 20
4256.7152759136798
 30
0.0
 11
4531.9273386148288
 21
4256.7152759136789
 31
0.0
  0
LINE
  5
63E3
  8
UMCL1
 10
4518.9991353845544
 20
4260.5187372783921
 30
0.0
 11
4518.070932154279
 21
4260.1808989312221
 31
0.0
  0
LINE
  5
63E4
  8
UMCL1
 10
4518.070932154279
 20
4260.1808989312221
 30
0.0
 11
4518.070932154279
 21
4256.7152759136798
 31
0.0
  0
LINE
  5
63E5
  8
UMCL1
 10
4518.9991353845553
 20
4256.7152759136798
 30
0.0
 11
4518.9991353845553
 21
4256.515275913679
 31
0.0
  0
LINE
  5
63E6
  8
UMCL1
 10
4521.2937881134339
 20
4256.7152759136798
 30
0.0
 11
4521.2937881134339
 21
4260.1808989312221
 31
0.0
  0
ARC
  5
63E7
  8
UMCL1
 10
4519.6823601338574
 20
4256.5282414715311
 30
0.0
 40
3.992318455634094
 50
66.1945626177138
 51
113.8054373822862
  0
LINE
  5
63E8
  8
UMCL1
 10
4522.0175250813791
 20
4256.7152759136798
 30
0.0
 11
4522.0175250813791
 21
4260.1808989312221
 31
0.0
  0
LINE
  5
63E9
  8
UMCL1
 10
4521.2937881134339
 20
4260.1808989312221
 30
0.0
 11
4522.0175250813791
 21
4260.1808989312221
 31
0.0
  0
ARC
  5
63EA
  8
UMCL1
 10
4524.9991353845553
 20
4247.1926379408578
 30
0.0
 40
13.326099337533821
 50
77.071076092185507
 51
102.92892390781449
  0
LINE
  5
63EB
  8
UMCL1
 10
4528.7044826556748
 20
4256.7152759136798
 30
0.0
 11
4528.7044826556748
 21
4260.1808989312221
 31
0.0
  0
ARC
  5
63EC
  8
UMCL1
 10
4530.3159106352523
 20
4256.5282414715311
 30
0.0
 40
3.992318455634094
 50
66.1945626177138
 51
113.8054373822862
  0
LINE
  5
63ED
  8
UMCL1
 10
4527.9807456877297
 20
4256.7152759136798
 30
0.0
 11
4527.9807456877297
 21
4260.1808989312221
 31
0.0
  0
LINE
  5
63EE
  8
UMCL1
 10
4521.9991353845553
 20
4260.5187372783903
 30
0.0
 11
4521.9991353845553
 21
4261.7187372783901
 31
0.0
  0
LINE
  5
63EF
  8
UMCL1
 62
     2
 10
4522.5991353845548
 20
4260.5187372783903
 30
0.0
 11
4522.5991353845548
 21
4262.3187372783887
 31
0.0
  0
LINE
  5
63F0
  8
UMCL1
 10
4521.9991353845553
 20
4261.7187372783901
 30
0.0
 11
4527.9991353845553
 21
4261.7187372783901
 31
0.0
  0
LINE
  5
63F1
  8
UMCL1
 10
4522.7991353845546
 20
4262.5187372783903
 30
0.0
 11
4527.199135384556
 21
4262.5187372783903
 31
0.0
  0
LINE
  5
63F2
  8
UMCL1
 10
4527.199135384556
 20
4262.5187372783903
 30
0.0
 11
4527.9991353845553
 21
4261.7187372783901
 31
0.0
  0
LINE
  5
63F3
  8
UMCL1
 10
4521.9991353845553
 20
4261.7187372783901
 30
0.0
 11
4522.7991353845546
 21
4262.5187372783903
 31
0.0
  0
LINE
  5
63F4
  8
UMCL1
 10
4527.9991353845553
 20
4260.5187372783903
 30
0.0
 11
4527.9991353845553
 21
4261.7187372783901
 31
0.0
  0
LINE
  5
63F5
  8
UMCL1
 62
     2
 10
4527.3991353845549
 20
4260.5187372783903
 30
0.0
 11
4527.3991353845549
 21
4262.3187372783887
 31
0.0
  0
LINE
  5
63F6
  8
UMCL1
 10
4530.9991353845544
 20
4043.3009726283999
 30
0.0
 11
4528.8991353845549
 21
4043.3009726283999
 31
0.0
  0
LINE
  5
63F7
  8
UMCL1
 10
4518.9991353845544
 20
4043.3009726283999
 30
0.0
 11
4524.9991353845544
 21
4043.3009726283999
 31
0.0
  0
LINE
  5
63F8
  8
UMCL1
 10
4518.9991353845526
 20
4047.3044339931121
 30
0.0
 11
4530.9991353845544
 21
4047.304433993113
 31
0.0
  0
LINE
  5
63F9
  8
UMCL1
 10
4530.9991353845544
 20
4047.304433993113
 30
0.0
 11
4531.9273386148288
 21
4046.966595645943
 31
0.0
  0
LINE
  5
63FA
  8
UMCL1
 10
4531.9273386148288
 20
4046.966595645943
 30
0.0
 11
4531.9273386148288
 21
4043.5009726283988
 31
0.0
  0
LINE
  5
63FB
  8
UMCL1
 10
4530.9991353845544
 20
4043.5009726283988
 30
0.0
 11
4530.9991353845544
 21
4043.3009726283999
 31
0.0
  0
LINE
  5
63FC
  8
UMCL1
 10
4518.070932154279
 20
4043.5009726283988
 30
0.0
 11
4531.9273386148288
 21
4043.5009726283988
 31
0.0
  0
LINE
  5
63FD
  8
UMCL1
 10
4518.9991353845544
 20
4047.304433993113
 30
0.0
 11
4518.070932154279
 21
4046.966595645943
 31
0.0
  0
LINE
  5
63FE
  8
UMCL1
 10
4518.070932154279
 20
4046.966595645943
 30
0.0
 11
4518.070932154279
 21
4043.5009726283988
 31
0.0
  0
LINE
  5
63FF
  8
UMCL1
 10
4518.9991353845544
 20
4043.5009726283988
 30
0.0
 11
4518.9991353845544
 21
4043.3009726283999
 31
0.0
  0
LINE
  5
6400
  8
UMCL1
 10
4521.2937881134339
 20
4043.5009726283988
 30
0.0
 11
4521.2937881134339
 21
4046.966595645943
 31
0.0
  0
ARC
  5
6401
  8
UMCL1
 10
4519.6823601338574
 20
4043.313938186252
 30
0.0
 40
3.992318455634094
 50
66.1945626177138
 51
113.8054373822862
  0
LINE
  5
6402
  8
UMCL1
 10
4522.0175250813791
 20
4043.5009726283988
 30
0.0
 11
4522.0175250813791
 21
4046.966595645943
 31
0.0
  0
LINE
  5
6403
  8
UMCL1
 10
4521.2937881134339
 20
4046.966595645943
 30
0.0
 11
4522.0175250813791
 21
4046.966595645943
 31
0.0
  0
ARC
  5
6404
  8
UMCL1
 10
4524.9991353845544
 20
4033.9783346555791
 30
0.0
 40
13.326099337533821
 50
77.071076092185507
 51
102.92892390781449
  0
LINE
  5
6405
  8
UMCL1
 10
4528.7044826556748
 20
4043.5009726283988
 30
0.0
 11
4528.7044826556748
 21
4046.966595645943
 31
0.0
  0
ARC
  5
6406
  8
UMCL1
 10
4530.3159106352523
 20
4043.313938186252
 30
0.0
 40
3.992318455634094
 50
66.1945626177138
 51
113.8054373822862
  0
LINE
  5
6407
  8
UMCL1
 10
4527.9807456877297
 20
4043.5009726283988
 30
0.0
 11
4527.9807456877297
 21
4046.966595645943
 31
0.0
  0
LINE
  5
6408
  8
UMCL1
 10
4861.9991353845553
 20
4043.3009726283999
 30
0.0
 11
4859.8991353845558
 21
4043.3009726283999
 31
0.0
  0
LINE
  5
6409
  8
UMCL1
 10
4849.9991353845553
 20
4043.3009726283999
 30
0.0
 11
4855.9991353845553
 21
4043.3009726283999
 31
0.0
  0
LINE
  5
640A
  8
UMCL1
 10
4849.9991353845544
 20
4047.3044339931112
 30
0.0
 11
4861.9991353845553
 21
4047.304433993113
 31
0.0
  0
LINE
  5
640B
  8
UMCL1
 10
4861.9991353845553
 20
4047.3044339931121
 30
0.0
 11
4862.9273386148307
 21
4046.9665956459421
 31
0.0
  0
LINE
  5
640C
  8
UMCL1
 10
4862.9273386148307
 20
4046.9665956459421
 30
0.0
 11
4862.9273386148307
 21
4043.5009726283988
 31
0.0
  0
LINE
  5
640D
  8
UMCL1
 10
4861.9991353845553
 20
4043.5009726283988
 30
0.0
 11
4861.9991353845553
 21
4043.3009726283999
 31
0.0
  0
LINE
  5
640E
  8
UMCL1
 10
4849.0709321542799
 20
4043.5009726283988
 30
0.0
 11
4862.9273386148307
 21
4043.5009726283988
 31
0.0
  0
LINE
  5
640F
  8
UMCL1
 10
4849.9991353845553
 20
4047.3044339931121
 30
0.0
 11
4849.0709321542799
 21
4046.9665956459421
 31
0.0
  0
LINE
  5
6410
  8
UMCL1
 10
4849.0709321542799
 20
4046.9665956459421
 30
0.0
 11
4849.0709321542799
 21
4043.5009726283988
 31
0.0
  0
LINE
  5
6411
  8
UMCL1
 10
4849.9991353845553
 20
4043.5009726283988
 30
0.0
 11
4849.9991353845553
 21
4043.3009726283999
 31
0.0
  0
LINE
  5
6412
  8
UMCL1
 10
4852.2937881134358
 20
4043.5009726283988
 30
0.0
 11
4852.2937881134358
 21
4046.9665956459421
 31
0.0
  0
ARC
  5
6413
  8
UMCL1
 10
4850.6823601338583
 20
4043.313938186252
 30
0.0
 40
3.992318455634094
 50
66.1945626177138
 51
113.8054373822862
  0
LINE
  5
6414
  8
UMCL1
 10
4853.01752508138
 20
4043.5009726283988
 30
0.0
 11
4853.01752508138
 21
4046.9665956459421
 31
0.0
  0
LINE
  5
6415
  8
UMCL1
 10
4852.2937881134358
 20
4046.9665956459421
 30
0.0
 11
4853.01752508138
 21
4046.9665956459421
 31
0.0
  0
ARC
  5
6416
  8
UMCL1
 10
4855.9991353845553
 20
4033.9783346555778
 30
0.0
 40
13.326099337533821
 50
77.071076092185507
 51
102.92892390781449
  0
LINE
  5
6417
  8
UMCL1
 10
4859.7044826556757
 20
4043.5009726283988
 30
0.0
 11
4859.7044826556757
 21
4046.9665956459421
 31
0.0
  0
ARC
  5
6418
  8
UMCL1
 10
4861.3159106352532
 20
4043.313938186252
 30
0.0
 40
3.992318455634094
 50
66.1945626177138
 51
113.8054373822862
  0
LINE
  5
6419
  8
UMCL1
 10
4858.9807456877306
 20
4043.5009726283988
 30
0.0
 11
4858.9807456877306
 21
4046.9665956459421
 31
0.0
  0
LINE
  5
641A
  8
UMCL1
 10
5040.3675127538318
 20
4027.3009726284022
 30
0.0
 11
5040.3675127538327
 21
4015.300972628399
 31
0.0
  0
LINE
  5
641B
  8
UMCL1
 10
5036.5640513891203
 20
4027.300972628399
 30
0.0
 11
5036.5640513891203
 21
4015.300972628399
 31
0.0
  0
LINE
  5
641C
  8
UMCL1
 10
5040.3675127538318
 20
4027.300972628399
 30
0.0
 11
5036.3640513891214
 21
4027.300972628399
 31
0.0
  0
ARC
  5
641D
  8
UMCL1
 10
5028.4290593242586
 20
4024.4809726284002
 30
0.0
 40
11.93845342957454
 50
346.3369526535397
 51
13.66304734646029
  0
LINE
  5
641E
  8
UMCL1
 10
5036.5640513891203
 20
4020.9372356604549
 30
0.0
 11
5040.0296744066627
 21
4020.9372356604549
 31
0.0
  0
LINE
  5
641F
  8
UMCL1
 10
5036.5640513891203
 20
4021.6609726283991
 30
0.0
 11
5040.0296744066627
 21
4021.6609726283991
 31
0.0
  0
LINE
  5
6420
  8
UMCL1
 62
     2
 10
5040.3675127538318
 20
4023.050972628399
 30
0.0
 11
5042.6140513891196
 21
4023.050972628399
 31
0.0
  0
LINE
  5
6421
  8
UMCL1
 10
5040.3675127538318
 20
4023.300972628399
 30
0.0
 11
5042.3640513891214
 21
4023.300972628399
 31
0.0
  0
LINE
  5
6422
  8
UMCL1
 10
5040.3675127538318
 20
4019.300972628399
 30
0.0
 11
5042.3640513891214
 21
4019.300972628399
 31
0.0
  0
LINE
  5
6423
  8
UMCL1
 62
     2
 10
5040.3675127538318
 20
4019.550972628399
 30
0.0
 11
5042.6140513891196
 21
4019.550972628399
 31
0.0
  0
LINE
  5
6424
  8
UMCL1
 10
5042.3640513891214
 20
4019.300972628399
 30
0.0
 11
5042.8640513891196
 21
4019.800972628399
 31
0.0
  0
LINE
  5
6425
  8
UMCL1
 10
5042.3640513891214
 20
4023.300972628399
 30
0.0
 11
5042.8640513891196
 21
4022.800972628399
 31
0.0
  0
LINE
  5
6426
  8
UMCL1
 10
5042.8640513891196
 20
4019.800972628399
 30
0.0
 11
5042.8640513891196
 21
4022.800972628399
 31
0.0
  0
LINE
  5
6427
  8
UMCL1
 10
5042.3640513891214
 20
4019.300972628399
 30
0.0
 11
5042.3640513891214
 21
4023.300972628399
 31
0.0
  0
LINE
  5
6428
  8
UMCL1
 10
5040.0296744066627
 20
4021.6609726283991
 30
0.0
 11
5040.0296744066627
 21
4020.9372356604549
 31
0.0
  0
LINE
  5
6429
  8
UMCL1
 10
5040.3675127538318
 20
4015.300972628399
 30
0.0
 11
5036.3640513891214
 21
4015.300972628399
 31
0.0
  0
ARC
  5
642A
  8
UMCL1
 10
5028.4290593242586
 20
4018.1209726283969
 30
0.0
 40
11.93845342957454
 50
346.3369526535397
 51
13.66304734646029
  0
LINE
  5
642B
  8
UMCL1
 10
5008.3435762023073
 20
4047.4639588062992
 30
0.0
 11
5020.3435762023082
 21
4047.4639588062992
 31
0.0
  0
LINE
  5
642C
  8
UMCL1
 10
5008.3435762023082
 20
4043.6604974415868
 30
0.0
 11
5020.3435762023082
 21
4043.6604974415868
 31
0.0
  0
LINE
  5
642D
  8
UMCL1
 10
5008.3435762023082
 20
4047.4639588062992
 30
0.0
 11
5008.3435762023082
 21
4043.460497441587
 31
0.0
  0
ARC
  5
642E
  8
UMCL1
 10
5011.163576202307
 20
4035.5255053767251
 30
0.0
 40
11.93845342957454
 50
76.336952653565021
 51
103.66304734643499
  0
LINE
  5
642F
  8
UMCL1
 10
5014.7073131702518
 20
4043.6604974415868
 30
0.0
 11
5014.7073131702518
 21
4047.1261204591301
 31
0.0
  0
LINE
  5
6430
  8
UMCL1
 10
5013.9835762023095
 20
4043.6604974415868
 30
0.0
 11
5013.9835762023095
 21
4047.1261204591301
 31
0.0
  0
LINE
  5
6431
  8
UMCL1
 10
5013.9835762023095
 20
4047.1261204591301
 30
0.0
 11
5014.7073131702518
 21
4047.1261204591301
 31
0.0
  0
LINE
  5
6432
  8
UMCL1
 10
5020.3435762023082
 20
4047.4639588062992
 30
0.0
 11
5020.3435762023082
 21
4043.460497441587
 31
0.0
  0
ARC
  5
6433
  8
UMCL1
 10
5017.5235762023094
 20
4035.5255053767251
 30
0.0
 40
11.93845342957454
 50
76.336952653565021
 51
103.66304734643499
  0
LINE
  5
6434
  8
CEN
 10
4700.9991353845562
 20
4035.8009726283999
 30
0.0
 11
4722.9991353845562
 21
4035.8009726283999
 31
0.0
  0
ARC
  5
6435
  8
UMCL1
 62
     2
 10
4711.9991353845562
 20
4035.8009726283999
 30
0.0
 40
5.8499999999999988
 50
78.663539029700104
 51
11.13734741439831
  0
CIRCLE
  5
6436
  8
UMCL1
 10
4711.9991353845562
 20
4035.8009726283999
 30
0.0
 40
5.6499999999999986
  0
CIRCLE
  5
6437
  8
UMCL1
 10
4711.9991353845562
 20
4035.8009726283999
 30
0.0
 40
6.6499999999999986
  0
POLYLINE
  5
6438
  8
UMCL1
 66
     1
 10
0.0
 20
0.0
 30
0.0
 70
     1
  0
VERTEX
  5
662A
  8
UMCL1
 10
4710.2670845769871
 20
4038.8009726283999
 30
0.0
  0
VERTEX
  5
662B
  8
UMCL1
 10
4708.5350337694172
 20
4035.8009726283999
 30
0.0
  0
VERTEX
  5
662C
  8
UMCL1
 10
4710.2670845769871
 20
4032.800972628399
 30
0.0
  0
VERTEX
  5
662D
  8
UMCL1
 10
4713.7311861921253
 20
4032.800972628399
 30
0.0
  0
VERTEX
  5
662E
  8
UMCL1
 10
4715.4632369996953
 20
4035.8009726283999
 30
0.0
  0
VERTEX
  5
662F
  8
UMCL1
 10
4713.7311861921253
 20
4038.8009726283999
 30
0.0
  0
SEQEND
  5
6630
  8
UMCL1
  0
LINE
  5
6439
  8
CEN
 10
4711.9991353845562
 20
4046.800972628399
 30
0.0
 11
4711.9991353845562
 21
4024.800972628399
 31
0.0
  0
LINE
  5
643A
  8
CEN
 10
4664.7144238790061
 20
4286.015275913679
 30
0.0
 11
4640.9144276316374
 21
4286.015275913679
 31
0.0
  0
LINE
  5
643B
  8
HIDDEN
 10
4704.8781836014086
 20
4198.015275913679
 30
0.0
 11
4719.1200871677029
 21
4198.015275913679
 31
0.0
  0
LINE
  5
643C
  8
HIDDEN
 10
4718.6491353845549
 20
4207.0015712612239
 30
0.0
 11
4719.1643321736328
 21
4197.1710309077489
 31
0.0
  0
LINE
  5
643D
  8
HIDDEN
 10
4717.8491353845557
 20
4207.0015712612239
 30
0.0
 11
4718.3599255499812
 21
4197.2551142959592
 31
0.0
  0
LINE
  5
643E
  8
HIDDEN
 10
4706.1491353845549
 20
4207.0015712612239
 30
0.0
 11
4705.6383452191276
 21
4197.2551142959601
 31
0.0
  0
LINE
  5
643F
  8
HIDDEN
 10
4705.3491353845557
 20
4207.0015712612239
 30
0.0
 11
4704.8339385954769
 21
4197.1710309077471
 31
0.0
  0
LINE
  5
6440
  8
HIDDEN
 10
4706.1919120467073
 20
4207.0015712612239
 30
0.0
 11
4717.8063587224051
 21
4207.0015712612239
 31
0.0
  0
LINE
  5
6441
  8
HIDDEN
 10
4705.2967276052723
 20
4206.0015712612239
 30
0.0
 11
4718.7015431638383
 21
4206.0015712612239
 31
0.0
  0
LINE
  5
6442
  8
HIDDEN
 10
4718.6491353845558
 20
4207.0015712612239
 30
0.0
 11
4705.3491353845557
 21
4207.0015712612239
 31
0.0
  0
LINE
  5
6443
  8
HIDDEN
 10
4705.2967276052723
 20
4206.0015712612239
 30
0.0
 11
4706.2967276052723
 21
4207.0015712612239
 31
0.0
  0
LINE
  5
6444
  8
HIDDEN
 10
4718.7015431638383
 20
4206.0015712612239
 30
0.0
 11
4717.7015431638383
 21
4207.0015712612239
 31
0.0
  0
LINE
  5
6445
  8
HIDDEN
 10
4704.8781836014086
 20
4198.015275913679
 30
0.0
 11
4705.8781836014086
 21
4197.0152759136781
 31
0.0
  0
LINE
  5
6446
  8
HIDDEN
 10
4704.6781836014088
 20
4197.0152759136781
 30
0.0
 11
4705.2781836014092
 21
4197.6152759136794
 31
0.0
  0
LINE
  5
6447
  8
HIDDEN
 10
4719.1200871677029
 20
4198.015275913679
 30
0.0
 11
4718.1200871677038
 21
4197.0152759136781
 31
0.0
  0
LINE
  5
6448
  8
HIDDEN
 10
4719.3200871677027
 20
4197.0152759136781
 30
0.0
 11
4718.7200871677032
 21
4197.6152759136794
 31
0.0
  0
LINE
  5
6449
  8
HIDDEN
 10
4646.4991353845562
 20
4293.1362276968257
 30
0.0
 11
4646.4991353845562
 21
4278.8943241305324
 31
0.0
  0
LINE
  5
644A
  8
HIDDEN
 10
4655.485430732102
 20
4279.3652759136812
 30
0.0
 11
4645.6548903786252
 21
4278.8500791246024
 31
0.0
  0
LINE
  5
644B
  8
HIDDEN
 10
4655.485430732102
 20
4280.1652759136796
 30
0.0
 11
4645.7389737668354
 21
4279.654485748254
 31
0.0
  0
LINE
  5
644C
  8
HIDDEN
 10
4655.485430732102
 20
4291.8652759136803
 30
0.0
 11
4645.7389737668364
 21
4292.3760660791067
 31
0.0
  0
LINE
  5
644D
  8
HIDDEN
 10
4655.485430732102
 20
4292.6652759136796
 30
0.0
 11
4645.6548903786243
 21
4293.1804727027584
 31
0.0
  0
LINE
  5
644E
  8
HIDDEN
 10
4655.485430732102
 20
4291.8224992515288
 30
0.0
 11
4655.485430732102
 21
4280.2080525758311
 31
0.0
  0
LINE
  5
644F
  8
HIDDEN
 10
4654.485430732102
 20
4292.7176836929639
 30
0.0
 11
4654.485430732102
 21
4279.3128681343978
 31
0.0
  0
LINE
  5
6450
  8
HIDDEN
 10
4655.485430732102
 20
4279.3652759136794
 30
0.0
 11
4655.485430732102
 21
4292.6652759136796
 31
0.0
  0
LINE
  5
6451
  8
HIDDEN
 10
4654.485430732102
 20
4292.7176836929639
 30
0.0
 11
4655.485430732102
 21
4291.7176836929639
 31
0.0
  0
LINE
  5
6452
  8
HIDDEN
 10
4654.485430732102
 20
4279.3128681343978
 30
0.0
 11
4655.485430732102
 21
4280.3128681343969
 31
0.0
  0
LINE
  5
6453
  8
HIDDEN
 10
4646.4991353845562
 20
4293.1362276968257
 30
0.0
 11
4645.4991353845562
 21
4292.1362276968257
 31
0.0
  0
LINE
  5
6454
  8
HIDDEN
 10
4645.4991353845562
 20
4293.3362276968264
 30
0.0
 11
4646.0991353845548
 21
4292.7362276968261
 31
0.0
  0
LINE
  5
6455
  8
HIDDEN
 10
4646.4991353845562
 20
4278.8943241305324
 30
0.0
 11
4645.4991353845562
 21
4279.8943241305324
 31
0.0
  0
LINE
  5
6456
  8
HIDDEN
 10
4645.4991353845562
 20
4278.6943241305326
 30
0.0
 11
4646.0991353845548
 21
4279.294324130532
 31
0.0
  0
CIRCLE
  5
6457
  8
UMCL1
 10
4524.9991353845553
 20
4234.5152759136781
 30
0.0
 40
6.0
  0
POLYLINE
  5
6458
  8
UMCL1
 66
     1
 10
0.0
 20
0.0
 30
0.0
 70
     1
  0
VERTEX
  5
6631
  8
UMCL1
 10
4521.5350337694181
 20
4240.5152759136781
 30
0.0
  0
VERTEX
  5
6632
  8
UMCL1
 10
4518.070932154279
 20
4234.5152759136781
 30
0.0
  0
VERTEX
  5
6633
  8
UMCL1
 10
4521.5350337694181
 20
4228.515275913679
 30
0.0
  0
VERTEX
  5
6634
  8
UMCL1
 10
4528.4632369996934
 20
4228.515275913679
 30
0.0
  0
VERTEX
  5
6635
  8
UMCL1
 10
4531.9273386148298
 20
4234.5152759136781
 30
0.0
  0
VERTEX
  5
6636
  8
UMCL1
 10
4528.4632369996934
 20
4240.5152759136781
 30
0.0
  0
SEQEND
  5
6637
  8
UMCL1
  0
LINE
  5
6459
  8
HIDDEN
 10
4864.2732131773873
 20
4212.515275913679
 30
0.0
 11
4863.7491353845562
 21
4222.515275913679
 31
0.0
  0
LINE
  5
645A
  8
HIDDEN
 10
4865.0732131773857
 20
4212.515275913679
 30
0.0
 11
4864.5491353845573
 21
4222.515275913679
 31
0.0
  0
LINE
  5
645B
  8
HIDDEN
 10
4851.725057591726
 20
4212.515275913679
 30
0.0
 11
4852.2491353845571
 21
4222.515275913679
 31
0.0
  0
LINE
  5
645C
  8
HIDDEN
 10
4850.9250575917258
 20
4212.515275913679
 30
0.0
 11
4851.449135384556
 21
4222.515275913679
 31
0.0
  0
LINE
  5
645D
  8
CEN
 10
4857.9991353845562
 20
4210.3971381318161
 30
0.0
 11
4857.9991353845562
 21
4226.9430786811336
 31
0.0
  0
LINE
  5
645E
  8
UMCL1
 10
4849.9991353845571
 20
4256.5152759136799
 30
0.0
 11
4852.0991353845566
 21
4256.5152759136799
 31
0.0
  0
LINE
  5
645F
  8
UMCL1
 10
4861.9991353845571
 20
4256.515275913679
 30
0.0
 11
4855.9991353845571
 21
4256.515275913679
 31
0.0
  0
LINE
  5
6460
  8
UMCL1
 10
4861.9991353845589
 20
4260.5187372783921
 30
0.0
 11
4849.9991353845571
 21
4260.5187372783921
 31
0.0
  0
LINE
  5
6461
  8
UMCL1
 10
4849.9991353845571
 20
4260.5187372783921
 30
0.0
 11
4849.0709321542809
 21
4260.1808989312221
 31
0.0
  0
LINE
  5
6462
  8
UMCL1
 10
4849.0709321542809
 20
4260.1808989312221
 30
0.0
 11
4849.0709321542809
 21
4256.7152759136798
 31
0.0
  0
LINE
  5
6463
  8
UMCL1
 10
4849.9991353845571
 20
4256.7152759136798
 30
0.0
 11
4849.9991353845571
 21
4256.515275913679
 31
0.0
  0
LINE
  5
6464
  8
UMCL1
 10
4862.9273386148334
 20
4256.7152759136798
 30
0.0
 11
4849.0709321542809
 21
4256.7152759136789
 31
0.0
  0
LINE
  5
6465
  8
UMCL1
 10
4861.9991353845571
 20
4260.5187372783921
 30
0.0
 11
4862.9273386148334
 21
4260.1808989312221
 31
0.0
  0
LINE
  5
6466
  8
UMCL1
 10
4862.9273386148334
 20
4260.1808989312221
 30
0.0
 11
4862.9273386148334
 21
4256.7152759136798
 31
0.0
  0
LINE
  5
6467
  8
UMCL1
 10
4861.9991353845571
 20
4256.7152759136798
 30
0.0
 11
4861.9991353845571
 21
4256.515275913679
 31
0.0
  0
LINE
  5
6468
  8
UMCL1
 10
4859.7044826556767
 20
4256.7152759136798
 30
0.0
 11
4859.7044826556767
 21
4260.1808989312221
 31
0.0
  0
ARC
  5
6469
  8
UMCL1
 10
4861.3159106352541
 20
4256.5282414715311
 30
0.0
 40
3.992318455634094
 50
66.1945626177138
 51
113.8054373822862
  0
LINE
  5
646A
  8
UMCL1
 10
4858.9807456877325
 20
4256.7152759136798
 30
0.0
 11
4858.9807456877325
 21
4260.1808989312221
 31
0.0
  0
LINE
  5
646B
  8
UMCL1
 10
4859.7044826556767
 20
4260.1808989312221
 30
0.0
 11
4858.9807456877325
 21
4260.1808989312221
 31
0.0
  0
ARC
  5
646C
  8
UMCL1
 10
4855.9991353845571
 20
4247.1926379408578
 30
0.0
 40
13.326099337533821
 50
77.071076092185507
 51
102.92892390781449
  0
LINE
  5
646D
  8
UMCL1
 10
4852.2937881134367
 20
4256.7152759136798
 30
0.0
 11
4852.2937881134367
 21
4260.1808989312221
 31
0.0
  0
ARC
  5
646E
  8
UMCL1
 10
4850.6823601338592
 20
4256.5282414715311
 30
0.0
 40
3.992318455634094
 50
66.1945626177138
 51
113.8054373822862
  0
LINE
  5
646F
  8
UMCL1
 10
4853.0175250813809
 20
4256.7152759136798
 30
0.0
 11
4853.0175250813809
 21
4260.1808989312221
 31
0.0
  0
LINE
  5
6470
  8
UMCL1
 10
4858.9991353845562
 20
4260.5187372783903
 30
0.0
 11
4858.9991353845562
 21
4261.7187372783901
 31
0.0
  0
LINE
  5
6471
  8
UMCL1
 62
     2
 10
4858.3991353845558
 20
4260.5187372783903
 30
0.0
 11
4858.3991353845558
 21
4262.3187372783887
 31
0.0
  0
LINE
  5
6472
  8
UMCL1
 10
4858.9991353845562
 20
4261.7187372783901
 30
0.0
 11
4852.9991353845562
 21
4261.7187372783901
 31
0.0
  0
LINE
  5
6473
  8
UMCL1
 10
4858.1991353845551
 20
4262.5187372783903
 30
0.0
 11
4853.7991353845564
 21
4262.5187372783903
 31
0.0
  0
LINE
  5
6474
  8
UMCL1
 10
4853.7991353845564
 20
4262.5187372783903
 30
0.0
 11
4852.9991353845562
 21
4261.7187372783901
 31
0.0
  0
LINE
  5
6475
  8
UMCL1
 10
4858.9991353845562
 20
4261.7187372783901
 30
0.0
 11
4858.1991353845551
 21
4262.5187372783903
 31
0.0
  0
LINE
  5
6476
  8
UMCL1
 10
4852.9991353845562
 20
4260.5187372783903
 30
0.0
 11
4852.9991353845562
 21
4261.7187372783901
 31
0.0
  0
LINE
  5
6477
  8
UMCL1
 62
     2
 10
4853.5991353845557
 20
4260.5187372783903
 30
0.0
 11
4853.5991353845557
 21
4262.3187372783887
 31
0.0
  0
CIRCLE
  5
6478
  8
UMCL1
 10
4855.9991353845562
 20
4234.5152759136781
 30
0.0
 40
6.0
  0
POLYLINE
  5
6479
  8
UMCL1
 66
     1
 10
0.0
 20
0.0
 30
0.0
 70
     1
  0
VERTEX
  5
6638
  8
UMCL1
 10
4859.4632369996943
 20
4240.5152759136781
 30
0.0
  0
VERTEX
  5
6639
  8
UMCL1
 10
4862.9273386148316
 20
4234.5152759136781
 30
0.0
  0
VERTEX
  5
663A
  8
UMCL1
 10
4859.4632369996943
 20
4228.515275913679
 30
0.0
  0
VERTEX
  5
663B
  8
UMCL1
 10
4852.5350337694181
 20
4228.515275913679
 30
0.0
  0
VERTEX
  5
663C
  8
UMCL1
 10
4849.0709321542809
 20
4234.5152759136781
 30
0.0
  0
VERTEX
  5
663D
  8
UMCL1
 10
4852.5350337694181
 20
4240.5152759136781
 30
0.0
  0
SEQEND
  5
663E
  8
UMCL1
  0
CIRCLE
  5
647A
  8
UMCL1
 10
4857.9991353845571
 20
4021.300972628399
 30
0.0
 40
5.75
  0
LINE
  5
647B
  8
CEN
 10
4857.9991353845571
 20
4032.6617475646149
 30
0.0
 11
4857.9991353845571
 21
4009.940197692184
 31
0.0
  0
LINE
  5
647C
  8
UMCL1
 10
4849.999135384558
 20
4043.3009726283999
 30
0.0
 11
4852.0991353845566
 21
4043.3009726283999
 31
0.0
  0
LINE
  5
647D
  8
UMCL1
 10
4861.999135384558
 20
4043.3009726283999
 30
0.0
 11
4855.999135384558
 21
4043.3009726283999
 31
0.0
  0
LINE
  5
647E
  8
UMCL1
 10
4861.9991353845589
 20
4047.3044339931121
 30
0.0
 11
4849.999135384558
 21
4047.304433993113
 31
0.0
  0
LINE
  5
647F
  8
UMCL1
 10
4849.999135384558
 20
4047.304433993113
 30
0.0
 11
4849.0709321542827
 21
4046.966595645943
 31
0.0
  0
LINE
  5
6480
  8
UMCL1
 10
4849.0709321542827
 20
4046.966595645943
 30
0.0
 11
4849.0709321542827
 21
4043.5009726283988
 31
0.0
  0
LINE
  5
6481
  8
UMCL1
 10
4849.999135384558
 20
4043.5009726283988
 30
0.0
 11
4849.999135384558
 21
4043.3009726283999
 31
0.0
  0
LINE
  5
6482
  8
UMCL1
 10
4862.9273386148334
 20
4043.5009726283988
 30
0.0
 11
4849.0709321542827
 21
4043.5009726283988
 31
0.0
  0
LINE
  5
6483
  8
UMCL1
 10
4861.999135384558
 20
4047.304433993113
 30
0.0
 11
4862.9273386148334
 21
4046.966595645943
 31
0.0
  0
LINE
  5
6484
  8
UMCL1
 10
4862.9273386148334
 20
4046.966595645943
 30
0.0
 11
4862.9273386148334
 21
4043.5009726283988
 31
0.0
  0
LINE
  5
6485
  8
UMCL1
 10
4861.999135384558
 20
4043.5009726283988
 30
0.0
 11
4861.999135384558
 21
4043.3009726283999
 31
0.0
  0
LINE
  5
6486
  8
UMCL1
 10
4859.7044826556767
 20
4043.5009726283988
 30
0.0
 11
4859.7044826556767
 21
4046.966595645943
 31
0.0
  0
ARC
  5
6487
  8
UMCL1
 10
4861.315910635255
 20
4043.313938186252
 30
0.0
 40
3.992318455634094
 50
66.1945626177138
 51
113.8054373822862
  0
LINE
  5
6488
  8
UMCL1
 10
4858.9807456877343
 20
4043.5009726283988
 30
0.0
 11
4858.9807456877343
 21
4046.966595645943
 31
0.0
  0
LINE
  5
6489
  8
UMCL1
 10
4859.7044826556767
 20
4046.966595645943
 30
0.0
 11
4858.9807456877343
 21
4046.966595645943
 31
0.0
  0
ARC
  5
648A
  8
UMCL1
 10
4855.999135384558
 20
4033.9783346555791
 30
0.0
 40
13.326099337533821
 50
77.071076092185507
 51
102.92892390781449
  0
LINE
  5
648B
  8
UMCL1
 10
4852.2937881134376
 20
4043.5009726283988
 30
0.0
 11
4852.2937881134376
 21
4046.966595645943
 31
0.0
  0
ARC
  5
648C
  8
UMCL1
 10
4850.6823601338601
 20
4043.313938186252
 30
0.0
 40
3.992318455634094
 50
66.1945626177138
 51
113.8054373822862
  0
LINE
  5
648D
  8
UMCL1
 10
4853.0175250813818
 20
4043.5009726283988
 30
0.0
 11
4853.0175250813818
 21
4046.966595645943
 31
0.0
  0
ARC
  5
648E
  8
UMCL1
 62
     2
 10
4857.9991353845571
 20
4021.300972628399
 30
0.0
 40
6.5499999999999989
 50
76.808406561052081
 51
17.812050157649541
  0
INSERT
  5
649B
  8
HIDDEN
  2
*U3
 10
0.0
 20
0.0
 30
0.0
  0
INSERT
  5
649C
  8
HIDDEN
  2
*U4
 10
0.0
 20
0.0
 30
0.0
  0
POLYLINE
  5
64A0
  8
LOGO
 62
     4
 66
     1
 10
0.0
 20
0.0
 30
0.0
 70
     1
  0
VERTEX
  5
6647
  8
LOGO
 62
     4
 10
4406.1221059924883
 20
4426.4953700863471
 30
0.0
  0
VERTEX
  5
6648
  8
LOGO
 62
     4
 10
5160.612780268988
 20
4426.4953700863471
 30
0.0
  0
VERTEX
  5
6649
  8
LOGO
 62
     4
 10
5160.612780268988
 20
3838.9501524850548
 30
0.0
  0
VERTEX
  5
664A
  8
LOGO
 62
     4
 10
4406.1221059924883
 20
3838.9501524850548
 30
0.0
  0
SEQEND
  5
664B
  8
LOGO
 62
     4
  0
ENDSEC
  0
EOF
