  0
SECTION
  2
HEADER
  9
$ACADVER
  1
AC1009
  9
$INSBASE
 10
0.0
 20
0.0
 30
0.0
  9
$EXTMIN
 10
4406.0023196104275
 20
3765.579997210436
 30
-0.0149607578016458
  9
$EXTMAX
 10
5160.770281688353
 20
5014.1936157373984
 30
490.28647886315679
  9
$LIMMIN
 10
0.0
 20
0.0
  9
$LIMMAX
 10
420.0
 20
297.0
  9
$ORTHOMODE
 70
     0
  9
$REGENMODE
 70
     1
  9
$FILLMODE
 70
     1
  9
$QTEXTMODE
 70
     0
  9
$MIRRTEXT
 70
     1
  9
$DRAGMODE
 70
     2
  9
$LTSCALE
 40
1.0
  9
$OSMODE
 70
    37
  9
$ATTMODE
 70
     1
  9
$TEXTSIZE
 40
2.5
  9
$TRACEWID
 40
1.0
  9
$TEXTSTYLE
  7
STANDARD
  9
$CLAYER
  8
HIDDEN
  9
$CELTYPE
  6
BYLAYER
  9
$CECOLOR
 62
   256
  9
$DIMSCALE
 40
1.0
  9
$DIMASZ
 40
2.5
  9
$DIMEXO
 40
1.0
  9
$DIMDLI
 40
8.0
  9
$DIMRND
 40
0.0
  9
$DIMDLE
 40
0.0
  9
$DIMEXE
 40
1.0
  9
$DIMTP
 40
0.1
  9
$DIMTM
 40
0.1
  9
$DIMTXT
 40
3.0
  9
$DIMCEN
 40
0.0
  9
$DIMTSZ
 40
0.0
  9
$DIMTOL
 70
     0
  9
$DIMLIM
 70
     0
  9
$DIMTIH
 70
     0
  9
$DIMTOH
 70
     0
  9
$DIMSE1
 70
     0
  9
$DIMSE2
 70
     0
  9
$DIMTAD
 70
     1
  9
$DIMZIN
 70
     8
  9
$DIMBLK
  1

  9
$DIMASO
 70
     1
  9
$DIMSHO
 70
     1
  9
$DIMPOST
  1

  9
$DIMAPOST
  1
"
  9
$DIMALT
 70
     0
  9
$DIMALTD
 70
     2
  9
$DIMALTF
 40
0.0393701
  9
$DIMLFAC
 40
1.0
  9
$DIMTOFL
 70
     1
  9
$DIMTVP
 40
0.0
  9
$DIMTIX
 70
     0
  9
$DIMSOXD
 70
     0
  9
$DIMSAH
 70
     0
  9
$DIMBLK1
  1

  9
$DIMBLK2
  1

  9
$DIMSTYLE
  2
AM_ISO
  9
$DIMCLRD
 70
   256
  9
$DIMCLRE
 70
   256
  9
$DIMCLRT
 70
     5
  9
$DIMTFAC
 40
0.71
  9
$DIMGAP
 40
1.5
  9
$LUNITS
 70
     2
  9
$LUPREC
 70
     2
  9
$SKETCHINC
 40
1.0
  9
$FILLETRAD
 40
2.5
  9
$AUNITS
 70
     0
  9
$AUPREC
 70
     0
  9
$MENU
  1
.
  9
$ELEVATION
 40
0.0
  9
$PELEVATION
 40
0.0
  9
$THICKNESS
 40
0.0
  9
$LIMCHECK
 70
     0
  9
$BLIPMODE
 70
     0
  9
$CHAMFERA
 40
2.5
  9
$CHAMFERB
 40
2.5
  9
$SKPOLY
 70
     0
  9
$TDCREATE
 40
2454958.3685380439
  9
$TDUPDATE
 40
2454959.552265266
  9
$TDINDWG
 40
0.3580883218
  9
$TDUSRTIMER
 40
0.3580883218
  9
$USRTIMER
 70
     1
  9
$ANGBASE
 50
0.0
  9
$ANGDIR
 70
     0
  9
$PDMODE
 70
    35
  9
$PDSIZE
 40
0.0
  9
$PLINEWID
 40
0.0
  9
$COORDS
 70
     1
  9
$SPLFRAME
 70
     0
  9
$SPLINETYPE
 70
     6
  9
$SPLINESEGS
 70
     8
  9
$ATTDIA
 70
     1
  9
$ATTREQ
 70
     1
  9
$HANDLING
 70
     1
  9
$HANDSEED
  5
774E
  9
$SURFTAB1
 70
     6
  9
$SURFTAB2
 70
     6
  9
$SURFTYPE
 70
     6
  9
$SURFU
 70
     6
  9
$SURFV
 70
     6
  9
$UCSNAME
  2

  9
$UCSORG
 10
0.0
 20
0.0
 30
0.0
  9
$UCSXDIR
 10
1.0
 20
0.0
 30
0.0
  9
$UCSYDIR
 10
0.0
 20
1.0
 30
0.0
  9
$PUCSNAME
  2

  9
$PUCSORG
 10
0.0
 20
0.0
 30
0.0
  9
$PUCSXDIR
 10
1.0
 20
0.0
 30
0.0
  9
$PUCSYDIR
 10
0.0
 20
1.0
 30
0.0
  9
$USERI1
 70
     0
  9
$USERI2
 70
     0
  9
$USERI3
 70
     0
  9
$USERI4
 70
     0
  9
$USERI5
 70
     0
  9
$USERR1
 40
0.0
  9
$USERR2
 40
0.0
  9
$USERR3
 40
0.0
  9
$USERR4
 40
0.0
  9
$USERR5
 40
0.0
  9
$WORLDVIEW
 70
     1
  9
$SHADEDGE
 70
     3
  9
$SHADEDIF
 70
    70
  9
$TILEMODE
 70
     1
  9
$MAXACTVP
 70
    64
  9
$PLIMCHECK
 70
     0
  9
$PEXTMIN
 10
1.0000000000000000E+020
 20
1.0000000000000000E+020
 30
1.0000000000000000E+020
  9
$PEXTMAX
 10
-1.0000000000000000E+020
 20
-1.0000000000000000E+020
 30
-1.0000000000000000E+020
  9
$PLIMMIN
 10
0.0
 20
0.0
  9
$PLIMMAX
 10
420.0
 20
297.0
  9
$UNITMODE
 70
     0
  9
$VISRETAIN
 70
     1
  9
$PLINEGEN
 70
     0
  9
$PSLTSCALE
 70
     1
  0
ENDSEC
  0
SECTION
  2
TABLES
  0
TABLE
  2
VPORT
 70
     8
  0
VPORT
  2
*ACTIVE
 70
     0
 10
0.0
 20
0.0
 11
1.0
 21
1.0
 12
4783.3863006493921
 22
4389.8868064739172
 13
0.0
 23
0.0
 14
2.5
 24
2.5
 15
10.0
 25
10.0
 16
0.0
 26
0.0
 36
1.0
 17
0.0
 27
0.0
 37
0.0
 40
1258.4452218224501
 41
1.2470433639947429
 42
50.0
 43
0.0
 44
0.0
 50
0.0
 51
0.0
 71
     0
 72
   100
 73
     1
 74
     3
 75
     0
 76
     0
 77
     0
 78
     0
  0
ENDTAB
  0
TABLE
  2
LTYPE
 70
    19
  0
LTYPE
  2
CONTINUOUS
 70
     0
  3
Solid line
 72
    65
 73
     0
 40
0.0
  0
LTYPE
  2
AM_ISO02W050
 70
     0
  3
__ __ __ __ __ __ __ __ __ __ __ __ __ __ __
 72
    65
 73
     2
 40
7.5
 49
6.0
 49
-1.5
  0
LTYPE
  2
AM_ISO08W050
 70
     0
  3
____ . ____ . ____ . ____ . ____ . ____ . ____
 72
    65
 73
     4
 40
18.0
 49
12.0
 49
-1.5
 49
3.0
 49
-1.5
  0
LTYPE
  2
AM_ISO09W050
 70
     0
  3
_____ . . _____ . . _____ . . ____ .. ____
 72
    65
 73
     6
 40
22.5
 49
12.0
 49
-1.5
 49
3.0
 49
-1.5
 49
3.0
 49
-1.5
  0
LTYPE
  2
AMCONSTR
 70
     0
  3
_______________________
 72
    65
 73
     2
 40
9999.0
 49
9999.0
 49
0.0
  0
LTYPE
  2
AM_ISO08W050X2
 70
     0
  3
__ . __ . __ . __ . __ . __
 72
    65
 73
     4
 40
9.0
 49
6.0
 49
-0.75
 49
1.5
 49
-0.75
  0
LTYPE
  2
AM_ISO02W050X2
 70
     0
  3
 _ _ _ _ _ _ _ _ _ _ _ _
 72
    65
 73
     2
 40
3.75
 49
3.0
 49
-0.75
  0
LTYPE
  2
AMZIGZAG
 70
     0
  3
/\/-/\/-/\/-/\/-/\/-/\/
 72
    65
 73
     2
 40
11.0001
 49
0.0001
 49
-11.0
  0
LTYPE
  2
ACISOWELD
 70
     0
  3
_ _ _ _ _
 72
    65
 73
     2
 40
2.0
 49
2.0
 49
-1.0
  0
LTYPE
  2
ACISOTGB
 70
     0
  3
__ . . __ . .
 72
    65
 73
     6
 40
9.0
 49
4.0
 49
-1.0
 49
1.0
 49
-1.0
 49
1.0
 49
-1.0
  0
LTYPE
  2
ACISOTGL
 70
     0
  3
_ _ _ _ _
 72
    65
 73
     2
 40
3.0
 49
2.0
 49
-1.0
  0
LTYPE
  2
CENTER
 70
     0
  3
__ . __
 72
    65
 73
     4
 40
7.0
 49
4.0
 49
-1.0
 49
1.0
 49
-1.0
  0
LTYPE
  2
HIDDEN
 70
     0
  3
Hidden __ __ __ __ __ __ __ __ __ __ __ __ __ _
 72
    65
 73
     2
 40
9.5249999999999986
 49
6.3499999999999988
 49
-3.1749999999999989
  0
LTYPE
  2
PHANTOM2
 70
     0
  3
Phantom (.5x) ___ _ _ ___ _ _ ___ _ _ ___ _ _
 72
    65
 73
     6
 40
31.75
 49
15.875
 49
-3.1749999999999989
 49
3.1749999999999989
 49
-3.1749999999999989
 49
3.1749999999999989
 49
-3.1749999999999989
  0
LTYPE
  2
ACANSTGB
 70
     0
  3
__ . . __ . .
 72
    65
 73
     6
 40
0.35433070866
 49
0.15748031496
 49
-0.03937007874
 49
0.03937007874
 49
-0.03937007874
 49
0.03937007874
 49
-0.03937007874
  0
LTYPE
  2
ACANSTGL
 70
     0
  3
_ _ _ _ _
 72
    65
 73
     2
 40
0.11811023622
 49
0.07874015748
 49
-0.03937007874
  0
ENDTAB
  0
TABLE
  2
LAYER
 70
     8
  0
LAYER
  2
0
 70
     0
 62
     7
  6
CONTINUOUS
  0
LAYER
  2
LOGO
 70
     0
 62
     7
  6
CONTINUOUS
  0
LAYER
  2
UMCL1
 70
     0
 62
     7
  6
CONTINUOUS
  0
LAYER
  2
UMCL2
 70
     0
 62
     5
  6
CONTINUOUS
  0
LAYER
  2
DEFPOINTS
 70
     0
 62
     7
  6
CONTINUOUS
  0
LAYER
  2
UMCL3
 70
     0
 62
     1
  6
CONTINUOUS
  0
LAYER
  2
CEN
 70
     0
 62
     1
  6
CENTER
  0
LAYER
  2
HIDDEN
 70
     0
 62
     3
  6
HIDDEN
  0
ENDTAB
  0
TABLE
  2
STYLE
 70
     9
  0
STYLE
  2
STANDARD
 70
     0
 40
0.0
 41
1.0
 50
0.0
 71
     0
 42
2.5
  3
ISOCP.SHX
  4
chineset.shx
  0
STYLE
  2

 70
     1
 40
0.0
 41
1.0
 50
0.0
 71
     0
 42
2.5
  3
ltypeshp.shx
  4

  0
STYLE
  2
ACISOTS
 70
     0
 40
1.0
 41
1.0
 50
0.0
 71
     0
 42
2.5
  3
isocp.shx
  4
chineset.shx
  0
STYLE
  2
ACISOGDT
 70
     0
 40
0.0
 41
1.0
 50
0.0
 71
     0
 42
2.5
  3
amgdt.shx
  4
chineset.shx
  0
STYLE
  2
CHINESET
 70
     0
 40
0.0
 41
1.0
 50
0.0
 71
     0
 42
3.0
  3
simplex.shx
  4
CHINESET.SHX
  0
STYLE
  2
ROMANS
 70
     0
 40
0.0
 41
1.0
 50
0.0
 71
     0
 42
3.0
  3
ROMANS.SHX
  4
LMP
  0
STYLE
  2
ACANSTS
 70
     0
 40
1.0
 41
1.0
 50
0.0
 71
     0
 42
5.0
  3
romans.shx
  4
chineset.shx
  0
STYLE
  2
ACANSGDT
 70
     0
 40
0.0
 41
1.0
 50
0.0
 71
     0
 42
5.0
  3
amgdtans.shx
  4

  0
ENDTAB
  0
TABLE
  2
VIEW
 70
     0
  0
ENDTAB
  0
TABLE
  2
UCS
 70
     0
  0
ENDTAB
  0
TABLE
  2
APPID
 70
    19
  0
APPID
  2
ACAD
 70
     0
  0
APPID
  2
MCAD_NO_VIS
 70
     0
  0
APPID
  2
ACAD_TEMP_GRAPHIC
 70
     0
  0
APPID
  2
ACATTRIBSERVICES
 70
     0
  0
APPID
  2
AD_DRAW
 70
     0
  0
APPID
  2
DESIGNERASSEMBLIES
 70
     0
  0
APPID
  2
ACADM_DIM_EDIT
 70
     0
  0
APPID
  2
AMDT_DM_ADJ
 70
     0
  0
APPID
  2
GENIUS_GENOENT_13
 70
     0
  0
APPID
  2
GENIUS_GENOBJ-N-CRS_13
 70
     0
  0
APPID
  2
GENIUS_GENOLIS_13
 70
     0
  0
APPID
  2
GENIUS_GENODEF_13
 70
     0
  0
APPID
  2
GENIUS_GENOREF_13
 70
     0
  0
APPID
  2
ACAD_PSEXT
 70
     0
  0
APPID
  2
GENIUS_GENREC_14
 70
     0
  0
APPID
  2
GENIUS_GENOBJ-N-REC_13
 70
     0
  0
APPID
  2
ACAECLAYERSTANDARD
 70
     0
  0
APPID
  2
GENIUS_GENOBJ-N-FIL_13
 70
     0
  0
APPID
  2
ACAD_DSTYLE_DIMTEXT_FILL
 70
     0
  0
ENDTAB
  0
TABLE
  2
DIMSTYLE
 70
    15
  0
DIMSTYLE
  2
AM_ISO
 70
     0
  3

  4
"
  5

  6

  7

 40
1.0
 41
2.5
 42
1.0
 43
8.0
 44
1.0
 45
0.0
 46
0.0
 47
0.1
 48
0.1
140
3.0
141
0.0
142
0.0
143
0.0393701
144
1.0
145
0.0
146
0.71
147
1.5
 71
     0
 72
     0
 73
     0
 74
     0
 75
     0
 76
     0
 77
     1
 78
     8
170
     0
171
     2
172
     1
173
     0
174
     0
175
     0
176
   256
177
   256
178
     5
  0
DIMSTYLE
  2
AM_ISO$3
 70
     0
  3

  4
"
  5

  6

  7

 40
1.0
 41
2.5
 42
1.0
 43
8.0
 44
1.0
 45
0.0
 46
0.0
 47
0.1
 48
0.1
140
3.0
141
0.0
142
0.0
143
0.0393701
144
1.0
145
0.0
146
0.71
147
1.5
 71
     0
 72
     0
 73
     0
 74
     1
 75
     0
 76
     0
 77
     1
 78
     8
170
     0
171
     2
172
     0
173
     0
174
     0
175
     0
176
   256
177
   256
178
     5
  0
DIMSTYLE
  2
AM_ISO$4
 70
     0
  3

  4
"
  5

  6

  7

 40
1.0
 41
2.5
 42
1.0
 43
8.0
 44
1.0
 45
0.0
 46
0.0
 47
0.1
 48
0.1
140
3.0
141
0.0
142
0.0
143
0.0393701
144
1.0
145
0.0
146
0.71
147
1.5
 71
     0
 72
     0
 73
     0
 74
     1
 75
     0
 76
     0
 77
     1
 78
     8
170
     0
171
     2
172
     0
173
     0
174
     0
175
     0
176
   256
177
   256
178
     5
  0
DIMSTYLE
  2
AM_ISO$6
 70
     0
  3

  4
"
  5

  6

  7

 40
1.0
 41
2.5
 42
1.0
 43
8.0
 44
1.0
 45
0.0
 46
0.0
 47
0.1
 48
0.1
140
3.0
141
0.0
142
0.0
143
0.0393701
144
1.0
145
0.0
146
0.71
147
1.5
 71
     0
 72
     0
 73
     0
 74
     0
 75
     0
 76
     0
 77
     0
 78
     8
170
     0
171
     2
172
     1
173
     0
174
     0
175
     0
176
   256
177
   256
178
     5
  0
DIMSTYLE
  2
AM_ISO$7
 70
     0
  3

  4
"
  5

  6

  7

 40
1.0
 41
2.5
 42
1.0
 43
8.0
 44
1.0
 45
0.0
 46
0.0
 47
0.1
 48
0.1
140
3.0
141
0.0
142
0.0
143
0.0393701
144
1.0
145
0.0
146
0.71
147
1.5
 71
     0
 72
     0
 73
     0
 74
     0
 75
     0
 76
     0
 77
     1
 78
     8
170
     0
171
     2
172
     1
173
     0
174
     0
175
     0
176
   256
177
   256
178
     5
  0
DIMSTYLE
  2
AM_ISO$SF
 70
     0
  3

  4
"
  5

  6

  7

 40
1.0
 41
2.5
 42
1.0
 43
10.0
 44
1.0
 45
0.0
 46
0.0
 47
0.1
 48
0.1
140
3.5
141
0.0
142
0.0
143
0.0393701
144
1.0
145
0.0
146
0.71
147
1.5
 71
     0
 72
     0
 73
     0
 74
     0
 75
     1
 76
     1
 77
     1
 78
     8
170
     0
171
     2
172
     1
173
     0
174
     0
175
     0
176
   256
177
   256
178
     2
  0
DIMSTYLE
  2
AM_ISO$SH
 70
     0
  3

  4
"
  5

  6
GENAXEH
  7

 40
1.0
 41
2.5
 42
1.0
 43
10.0
 44
1.0
 45
0.0
 46
0.0
 47
0.1
 48
0.1
140
3.5
141
0.0
142
0.0
143
0.0393701
144
2.0
145
0.0
146
0.71
147
1.5
 71
     0
 72
     0
 73
     0
 74
     0
 75
     1
 76
     1
 77
     1
 78
     8
170
     0
171
     2
172
     1
173
     1
174
     0
175
     0
176
   256
177
   256
178
     2
  0
DIMSTYLE
  2
AM_ISO$0
 70
     0
  3

  4
"
  5

  6

  7

 40
1.0
 41
3.5
 42
1.0
 43
8.0
 44
1.0
 45
0.0
 46
0.0
 47
0.1
 48
0.1
140
3.0
141
0.0
142
0.0
143
0.0393701
144
1.0
145
0.0
146
0.71
147
1.0
 71
     0
 72
     0
 73
     0
 74
     0
 75
     0
 76
     0
 77
     1
 78
     8
170
     0
171
     2
172
     1
173
     0
174
     0
175
     0
176
   256
177
   256
178
   256
  0
DIMSTYLE
  2
STANDARD
 70
     0
  3

  4

  5

  6

  7

 40
1.0
 41
0.18
 42
0.0625
 43
0.38
 44
0.18
 45
0.0
 46
0.0
 47
0.0
 48
0.0
140
0.18
141
0.09
142
0.0
143
25.399999999999999
144
1.0
145
0.0
146
1.0
147
0.09
 71
     0
 72
     0
 73
     1
 74
     1
 75
     0
 76
     0
 77
     0
 78
     0
170
     0
171
     2
172
     0
173
     0
174
     0
175
     0
176
     0
177
     0
178
     0
  0
DIMSTYLE
  2
AM_ANSI
 70
     0
  3

  4
mm
  5

  6

  7

 40
1.0
 41
0.1
 42
0.05
 43
0.5
 44
0.1
 45
0.0
 46
0.0
 47
0.1
 48
0.1
140
0.12
141
0.0
142
0.0
143
25.399999999999999
144
1.0
145
0.0
146
0.71
147
0.06
 71
     0
 72
     0
 73
     1
 74
     1
 75
     0
 76
     0
 77
     0
 78
     7
170
     0
171
     2
172
     0
173
     0
174
     0
175
     0
176
   256
177
   256
178
     2
  0
DIMSTYLE
  2
AM_ANSI$3
 70
     0
  3

  4
mm
  5

  6

  7

 40
1.0
 41
0.1
 42
0.05
 43
0.5
 44
0.1
 45
0.0
 46
0.0
 47
0.1
 48
0.1
140
0.12
141
0.0
142
0.0
143
25.399999999999999
144
1.0
145
0.0
146
0.71
147
0.06
 71
     0
 72
     0
 73
     1
 74
     1
 75
     0
 76
     0
 77
     0
 78
     7
170
     0
171
     2
172
     0
173
     0
174
     0
175
     0
176
   256
177
   256
178
     2
  0
DIMSTYLE
  2
AM_ANSI$4
 70
     0
  3

  4
mm
  5

  6

  7

 40
1.0
 41
0.1
 42
0.05
 43
0.5
 44
0.1
 45
0.0
 46
0.0
 47
0.1
 48
0.1
140
0.12
141
0.0
142
0.0
143
25.399999999999999
144
1.0
145
0.0
146
0.71
147
0.06
 71
     0
 72
     0
 73
     1
 74
     1
 75
     0
 76
     0
 77
     0
 78
     7
170
     0
171
     2
172
     0
173
     0
174
     0
175
     0
176
   256
177
   256
178
     2
  0
DIMSTYLE
  2
AM_ANSI$7
 70
     0
  3

  4
mm
  5

  6

  7

 40
1.0
 41
0.1
 42
0.05
 43
0.5
 44
0.1
 45
0.0
 46
0.0
 47
0.1
 48
0.1
140
0.24
141
0.0
142
0.0
143
25.399999999999999
144
1.0
145
0.0
146
0.71
147
0.06
 71
     0
 72
     0
 73
     1
 74
     1
 75
     0
 76
     0
 77
     0
 78
     7
170
     0
171
     2
172
     0
173
     0
174
     0
175
     0
176
   256
177
   256
178
     2
  0
DIMSTYLE
  2
AM_ANSI$SF
 70
     0
  3

  4
mm
  5

  6

  7

 40
1.0
 41
0.1
 42
0.05
 43
0.5
 44
0.1
 45
0.0
 46
0.0
 47
0.1
 48
0.1
140
0.12
141
0.0
142
0.0
143
25.399999999999999
144
1.0
145
0.0
146
0.71
147
0.06
 71
     0
 72
     0
 73
     1
 74
     1
 75
     1
 76
     1
 77
     0
 78
     7
170
     0
171
     2
172
     0
173
     0
174
     0
175
     0
176
   256
177
   256
178
     2
  0
DIMSTYLE
  2
AM_ANSI$SH
 70
     0
  3

  4
mm
  5

  6
GENAXEH
  7

 40
1.0
 41
0.1
 42
0.05
 43
0.5
 44
0.1
 45
0.0
 46
0.0
 47
0.1
 48
0.1
140
0.12
141
0.0
142
0.0
143
25.399999999999999
144
1.0
145
0.0
146
0.71
147
0.06
 71
     0
 72
     0
 73
     1
 74
     1
 75
     1
 76
     1
 77
     0
 78
     7
170
     0
171
     2
172
     0
173
     1
174
     0
175
     0
176
   256
177
   256
178
     2
  0
ENDTAB
  0
ENDSEC
  0
SECTION
  2
BLOCKS
  0
BLOCK
  8
0
  2
$MODEL_SPACE
 70
     0
 10
0.0
 20
0.0
 30
0.0
  3
$MODEL_SPACE
  1

  0
ENDBLK
  5
21
  8
0
  0
BLOCK
 67
     1
  8
0
  2
$PAPER_SPACE
 70
     0
 10
0.0
 20
0.0
 30
0.0
  3
$PAPER_SPACE
  1

  0
ENDBLK
  5
1D
 67
     1
  8
0
  0
BLOCK
  8
0
  2
GENAXEH
 70
     0
 10
0.0
 20
0.0
 30
0.0
  3
GENAXEH
  1

  0
LINE
  5
71
  8
0
 10
-1.0
 20
0.0
 30
0.0
 11
1.0
 21
0.0
 31
0.0
  0
ENDBLK
  5
73
  8
0
  0
BLOCK
  8
0
  2
*U5
 70
     1
 10
0.0
 20
0.0
 30
0.0
  3
*U5
  1

  0
TEXT
  5
7582
  8
UMCL3
 62
     7
 10
4421.6141526899701
 20
4956.4501932295461
 30
0.0
 40
10.0
  1
MRPH-40-90
  0
ENDBLK
  5
7584
  8
0
  0
BLOCK
  8
0
  2
*U6
 70
     1
 10
0.0
 20
0.0
 30
0.0
  3
*U6
  1

  0
TEXT
  5
7586
  8
UMCL3
 62
     7
 10
4422.8641524407622
 20
4367.8662232251409
 30
0.0
 40
10.0
  1
MRPH-40-180
  0
ENDBLK
  5
7588
  8
0
  0
ENDSEC
  0
SECTION
  2
ENTITIES
  0
TEXT
  5
726
  8
LOGO
 62
     7
 10
4575.0309320198621
 20
3806.1785615172071
 30
0.0
 40
9.9742414713567964
  1
Order example:
 41
0.8
  7
CHINESET
  0
TEXT
  5
727
  8
LOGO
 62
     7
 10
4576.8203934234443
 20
3820.220228315829
 30
0.0
 40
14.961362207035201
  1
訂購代號：
  7
CHINESET
  0
LINE
  5
728
  8
LOGO
 62
     4
 10
4570.6970902698749
 20
3765.786167501321
 30
0.0
 11
4570.6970902698749
 21
3838.9501524850548
 31
0.0
  0
TEXT
  5
729
  8
LOGO
  6
CONTINUOUS
 10
4432.9930487794454
 20
3778.8390265844168
 30
0.0
 40
11.22102165527639
  1
金器工業股份有限公司
  7
CHINESET
  0
TEXT
  5
72A
  8
LOGO
  6
CONTINUOUS
 10
4412.3822519683572
 20
3767.615806488659
 30
0.0
 40
7.4806811035175977
  1
MINDMAN INDUSTRIAL CO., LTD.
 41
0.85
  7
CHINESET
  0
LINE
  5
72B
  8
LOGO
 62
     4
 10
4570.6970902698749
 20
3823.9887902780192
 30
0.0
 11
4460.9804340849514
 21
3823.9887902780192
 31
0.0
  0
LINE
  5
72C
  8
LOGO
 62
     4
 10
4570.6970902698749
 20
3809.0274280709841
 30
0.0
 11
4460.9804340849514
 21
3809.0274280709841
 31
0.0
  0
LINE
  5
72D
  8
LOGO
 62
     4
 10
4570.6970902698749
 20
3794.0660658639499
 30
0.0
 11
4406.1221059924856
 21
3794.0660658639499
 31
0.0
  0
LINE
  5
72E
  8
LOGO
 62
     4
 10
4460.9804340849514
 20
3794.0660658639499
 30
0.0
 11
4460.9804340849514
 21
3838.9501524850548
 31
0.0
  0
TEXT
  5
72F
  8
LOGO
 10
4535.9665900400532
 20
3797.8064064157079
 30
0.0
 40
7.4806811035175977
  1
mm
  7
CHINESET
 72
     1
 11
4545.2283856920267
 21
3801.5467469674659
 31
0.0
 73
     2
  0
TEXT
  5
730
  8
LOGO
 10
4532.0481380334477
 20
3827.729130829779
 30
0.0
 40
7.4806811035175977
  1
1 : 1
  7
CHINESET
 72
     1
 11
4545.2283856920267
 21
3831.469471381537
 31
0.0
 73
     2
  0
LINE
  5
731
  8
LOGO
 62
     4
 10
4520.8258829130891
 20
3794.0660658639499
 30
0.0
 11
4520.8258829130891
 21
3838.9501524850548
 31
0.0
  0
CIRCLE
  5
732
  8
LOGO
  6
CONTINUOUS
 10
4534.6772996450527
 20
3816.5241104061238
 30
0.0
 40
4.3434595240871428
  0
CIRCLE
  5
733
  8
LOGO
  6
CONTINUOUS
 10
4534.6772996450527
 20
3816.5241104061238
 30
0.0
 40
2.5448827763981559
  0
LINE
  5
734
  8
LOGO
 10
4561.9721032881471
 20
3812.1806508820368
 30
0.0
 11
4561.9721032881471
 21
3820.867569930213
 31
0.0
  0
LINE
  5
735
  8
LOGO
 10
4548.3556070066079
 20
3813.9792276297262
 30
0.0
 11
4548.3556070066079
 21
3819.0689931825241
 31
0.0
  0
LINE
  5
736
  8
LOGO
  6
CONTINUOUS
 10
4548.3556070066079
 20
3819.0689931825241
 30
0.0
 11
4561.9721032881471
 21
3820.867569930213
 31
0.0
  0
LINE
  5
737
  8
LOGO
  6
CONTINUOUS
 10
4548.3556070066079
 20
3813.9792276297262
 30
0.0
 11
4561.9721032881471
 21
3812.1806508820368
 31
0.0
  0
TEXT
  5
738
  8
LOGO
 10
4467.148656405574
 20
3827.7328122673298
 30
490.27151582235052
 40
7.4806811035175977
  1
比例 Scale:
 41
0.9
  7
CHINESET
 72
     4
 11
4490.9031584990207
 21
3831.469471381537
 31
490.27151582235052
  0
TEXT
  5
739
  8
LOGO
 10
4466.7178493241663
 20
3812.8729963794071
 30
490.27151582235052
 40
7.4806811035175977
  1
投影  View:
 41
0.9
  7
CHINESET
 72
     4
 11
4490.9031584990207
 21
3816.5081091745019
 31
490.27151582235052
  0
TEXT
  5
73A
  8
LOGO
 10
4467.4492194856248
 20
3797.8064064157079
 30
490.27151582235052
 40
7.4806811035175977
  1
單位  Unit:
 41
0.9
  7
CHINESET
 72
     4
 11
4490.9031584990207
 21
3801.5467469674659
 31
490.27151582235052
  0
SOLID
  5
73B
  8
LOGO
 62
     5
 10
4413.8834326931856
 20
3806.5016334074398
 30
0.0
 11
4417.1178829092751
 21
3806.5016334074389
 31
0.0
 12
4430.6133476039922
 22
3837.1731440772492
 32
0.0
 13
4433.8477978200817
 23
3837.173144077246
 33
0.0
  0
SOLID
  5
73C
  8
LOGO
 62
     5
 10
4418.4562761021434
 20
3806.5016334074398
 30
0.0
 11
4421.6907263182338
 21
3806.5016334074398
 31
0.0
 12
4433.8477978200817
 22
3834.719423223662
 32
0.0
 13
4430.6133476039922
 23
3822.8597724313372
 33
0.0
  0
SOLID
  5
73D
  8
LOGO
 62
     2
 10
4417.1178829092751
 20
3806.5016334074389
 30
0.0
 11
4418.4562761021434
 21
3806.5016334074398
 31
0.0
 12
4433.8477978200817
 22
3837.173144077246
 32
0.0
 13
4435.1861910129446
 23
3837.173144077246
 33
0.0
  0
SOLID
  5
73E
  8
LOGO
 62
     5
 10
4408.6978158124421
 20
3795.348356800238
 30
0.0
 11
4409.813143473164
 21
3795.348356800238
 31
0.0
 12
4412.9539929759203
 22
3800.9249951038378
 32
0.0
 13
4414.0693206366368
 23
3800.9249951038378
 33
0.0
  0
SOLID
  5
73F
  8
LOGO
 62
     5
 10
4412.9539929759203
 20
3800.9249951038378
 30
0.0
 11
4414.0693206366368
 21
3800.9249951038378
 31
0.0
 12
4412.9539929759203
 22
3795.348356800238
 32
0.0
 13
4414.0693206366368
 23
3795.348356800238
 33
0.0
  0
SOLID
  5
740
  8
LOGO
 62
     5
 10
4412.9539929759203
 20
3795.348356800238
 30
0.0
 11
4414.0693206366368
 21
3795.348356800238
 31
0.0
 12
4417.2101701394004
 22
3800.9249951038378
 32
0.0
 13
4418.3254978001214
 23
3800.9249951038378
 33
0.0
  0
SOLID
  5
741
  8
LOGO
 62
     5
 10
4417.2101701394004
 20
3800.9249951038378
 30
0.0
 11
4418.3254978001214
 21
3800.9249951038378
 31
0.0
 12
4417.2101701394004
 22
3795.348356800238
 32
0.0
 13
4418.3254978001214
 23
3795.348356800238
 33
0.0
  0
POLYLINE
  5
742
  8
LOGO
 62
     5
 66
     1
 10
0.0
 20
0.0
 30
0.0
 40
1.1171150447919611
 41
1.1171150447919611
  0
VERTEX
  5
743
  8
LOGO
 62
     5
 10
4454.595573385589
 20
3798.6943397823979
 30
0.0
 42
1.0
  0
VERTEX
  5
744
  8
LOGO
 62
     5
 10
4451.2442282512102
 20
3798.6943397823979
 30
0.0
 42
1.0
  0
SEQEND
  5
745
  8
LOGO
 62
     5
  0
POLYLINE
  5
746
  8
LOGO
 62
     5
 66
     1
 10
0.0
 20
0.0
 30
0.0
 70
     1
  0
VERTEX
  5
747
  8
LOGO
 62
     5
 10
4444.9267936050801
 20
3798.136675952037
 30
0.0
 42
1.0000000573306349
  0
VERTEX
  5
748
  8
LOGO
 62
     5
 10
4448.2727765872369
 20
3798.136675952037
 30
0.0
 42
1.0000000573306349
  0
SEQEND
  5
749
  8
LOGO
 62
     5
  0
CIRCLE
  5
74A
  8
LOGO
 62
     5
 10
4446.599785096163
 20
3798.136675952037
 30
0.0
 40
1.6729914910804411
  0
POLYLINE
  5
74B
  8
LOGO
 62
     5
 66
     1
 10
0.0
 20
0.0
 30
0.0
 70
     1
 40
1.1171150447919611
 41
1.1171150447919611
  0
VERTEX
  5
74C
  8
LOGO
 62
     5
 10
4444.365555006576
 20
3798.136675952037
 30
0.0
 42
1.0
  0
VERTEX
  5
74D
  8
LOGO
 62
     5
 10
4448.8340151857437
 20
3798.136675952037
 30
0.0
 42
1.0
  0
SEQEND
  5
74E
  8
LOGO
 62
     5
  0
LINE
  5
74F
  8
LOGO
 10
4455.1505561398371
 20
3795.348356800238
 30
0.0
 11
4455.1505561398371
 21
3798.6943397823979
 31
0.0
  0
SOLID
  5
750
  8
LOGO
 62
     5
 10
4448.2726650544801
 20
3800.9249951038378
 30
0.0
 11
4449.3879927151957
 21
3800.9249951038378
 31
0.0
 12
4448.2726650544801
 22
3795.348356800238
 32
0.0
 13
4449.3879927151957
 23
3795.348356800238
 33
0.0
  0
SOLID
  5
751
  8
LOGO
 62
     5
 10
4450.6892454969593
 20
3795.348356800238
 30
0.0
 11
4451.8045731576767
 21
3795.348356800238
 31
0.0
 12
4450.6892454969593
 22
3800.9249951038378
 32
0.0
 13
4451.8045731576767
 23
3800.9249951038378
 33
0.0
  0
SOLID
  5
752
  8
LOGO
 62
     5
 10
4454.0352284791197
 20
3798.6943397823979
 30
0.0
 11
4455.1505561398371
 21
3798.6943397823979
 31
0.0
 12
4454.0352284791197
 22
3795.348356800238
 32
0.0
 13
4455.1505561398371
 23
3795.348356800238
 33
0.0
  0
SOLID
  5
753
  8
LOGO
 62
     5
 10
4450.5777127308838
 20
3834.719423223662
 30
0.0
 11
4447.3432625147971
 21
3822.8597724313372
 31
0.0
 12
4450.5777127308838
 22
3806.5016334074389
 32
0.0
 13
4447.3432625147971
 23
3806.5016334074389
 33
0.0
  0
SOLID
  5
754
  8
LOGO
 62
     5
 10
4451.9161059237513
 20
3806.5016334074389
 30
0.0
 11
4455.1505561398371
 21
3806.5016334074389
 31
0.0
 12
4451.9161059237513
 22
3837.173144077246
 32
0.0
 13
4455.1505561398371
 23
3837.1731440772492
 33
0.0
  0
SOLID
  5
755
  8
LOGO
 62
     2
 10
4450.5777127308838
 20
3837.1731440772492
 30
0.0
 11
4451.9161059237513
 21
3837.173144077246
 31
0.0
 12
4450.5777127308838
 22
3806.5016334074389
 32
0.0
 13
4451.9161059237513
 23
3806.5016334074389
 33
0.0
  0
POLYLINE
  5
756
  8
LOGO
 62
     5
 66
     1
 10
0.0
 20
0.0
 30
0.0
 40
1.1171150447919611
 41
1.1171150447919611
  0
VERTEX
  5
757
  8
LOGO
 62
     5
 10
4438.60913589342
 20
3798.6943397823979
 30
0.0
 42
1.0
  0
VERTEX
  5
758
  8
LOGO
 62
     5
 10
4435.2577907590439
 20
3798.6943397823979
 30
0.0
 42
1.0
  0
SEQEND
  5
759
  8
LOGO
 62
     5
  0
POLYLINE
  5
75A
  8
LOGO
 62
     5
 66
     1
 10
0.0
 20
0.0
 30
0.0
 40
1.1171150447919611
 41
1.1171150447919611
  0
VERTEX
  5
75B
  8
LOGO
 62
     5
 10
4441.9551188755768
 20
3798.6943397823979
 30
0.0
 42
1.0
  0
VERTEX
  5
75C
  8
LOGO
 62
     5
 10
4438.6037737412034
 20
3798.6943397823979
 30
0.0
 42
1.0
  0
SEQEND
  5
75D
  8
LOGO
 62
     5
  0
POLYLINE
  5
75E
  8
LOGO
 62
     5
 66
     1
 10
0.0
 20
0.0
 30
0.0
 40
1.1171150447919611
 41
1.1171150447919611
  0
VERTEX
  5
75F
  8
LOGO
 62
     5
 10
4425.9686813834078
 20
3798.6943397823979
 30
0.0
 42
1.0
  0
VERTEX
  5
760
  8
LOGO
 62
     5
 10
4422.6173362490354
 20
3798.6943397823979
 30
0.0
 42
1.0
  0
SEQEND
  5
761
  8
LOGO
 62
     5
  0
SOLID
  5
762
  8
LOGO
 62
     5
 10
4422.0623534947827
 20
3800.9249951038378
 30
0.0
 11
4423.1776811554992
 21
3800.9249951038378
 31
0.0
 12
4422.0623534947827
 22
3795.348356800238
 32
0.0
 13
4423.1776811554992
 23
3795.348356800238
 33
0.0
  0
SOLID
  5
763
  8
LOGO
 62
     5
 10
4425.4083364769422
 20
3798.6943397823979
 30
0.0
 11
4426.523664137665
 21
3798.6943397823979
 31
0.0
 12
4425.4083364769422
 22
3795.348356800238
 32
0.0
 13
4426.523664137665
 23
3795.348356800238
 33
0.0
  0
POLYLINE
  5
764
  8
LOGO
 62
     5
 66
     1
 10
0.0
 20
0.0
 30
0.0
 70
     1
 40
1.1171150447919611
 41
1.1171150447919611
  0
VERTEX
  5
765
  8
LOGO
 62
     5
 10
4428.3791175144042
 20
3798.136675952037
 30
0.0
 42
1.0
  0
VERTEX
  5
766
  8
LOGO
 62
     5
 10
4432.8475776935747
 20
3798.136675952037
 30
0.0
 42
1.0
  0
SEQEND
  5
767
  8
LOGO
 62
     5
  0
SOLID
  5
768
  8
LOGO
 62
     5
 10
4432.2862275623056
 20
3802.5979865949198
 30
0.0
 11
4433.4015552230267
 21
3802.5979865949198
 31
0.0
 12
4432.2862275623056
 22
3795.348356800238
 32
0.0
 13
4433.4015552230267
 23
3795.348356800238
 33
0.0
  0
SOLID
  5
769
  8
LOGO
 62
     5
 10
4434.702808004794
 20
3800.9249951038378
 30
0.0
 11
4435.8181356655105
 21
3800.9249951038378
 31
0.0
 12
4434.702808004794
 22
3795.348356800238
 32
0.0
 13
4435.8181356655105
 23
3795.348356800238
 33
0.0
  0
SOLID
  5
76A
  8
LOGO
 62
     5
 10
4438.0487909869507
 20
3798.6943397823979
 30
0.0
 11
4439.1641186476709
 21
3798.6943397823979
 31
0.0
 12
4438.0487909869507
 22
3795.348356800238
 32
0.0
 13
4439.1641186476709
 23
3795.348356800238
 33
0.0
  0
SOLID
  5
76B
  8
LOGO
 62
     5
 10
4441.3947739691102
 20
3798.6943397823979
 30
0.0
 11
4442.5101016298331
 21
3798.6943397823979
 31
0.0
 12
4441.3947739691102
 22
3795.3483568002362
 32
0.0
 13
4442.5101016298331
 23
3795.3483568002362
 33
0.0
  0
SOLID
  5
76C
  8
LOGO
 62
     5
 10
4419.6457730522998
 20
3801.7057244663429
 30
0.0
 11
4420.7611007130217
 21
3801.7057244663429
 31
0.0
 12
4419.6457730522998
 22
3802.5979865949198
 32
0.0
 13
4420.7611007130217
 23
3802.5979865949198
 33
0.0
  0
SOLID
  5
76D
  8
LOGO
 62
     5
 10
4419.6457730522998
 20
3800.9249951038378
 30
0.0
 11
4420.7611007130217
 21
3800.9249951038378
 31
0.0
 12
4419.6457730522998
 22
3795.3483568002362
 32
0.0
 13
4420.7611007130217
 23
3795.348356800238
 33
0.0
  0
SOLID
  5
76E
  8
LOGO
 62
     5
 10
4430.6133476039922
 20
3806.5016334074398
 30
0.0
 11
4433.8477978200817
 21
3806.5016334074398
 31
0.0
 12
4430.6133476039922
 22
3822.8597724313372
 32
0.0
 13
4433.8477978200817
 23
3834.719423223662
 33
0.0
  0
SOLID
  5
76F
  8
LOGO
 62
     5
 10
4435.1861910129446
 20
3837.173144077246
 30
0.0
 11
4438.4206412290341
 21
3837.1731440772492
 31
0.0
 12
4435.1861910129446
 22
3808.9553542610238
 32
0.0
 13
4438.4206412290341
 23
3820.81500505335
 33
0.0
  0
SOLID
  5
770
  8
LOGO
 62
     2
 10
4433.8477978200817
 20
3837.173144077246
 30
0.0
 11
4435.1861910129446
 21
3837.173144077246
 31
0.0
 12
4433.8477978200817
 22
3806.5016334074398
 32
0.0
 13
4435.1861910129446
 23
3806.5016334074398
 33
0.0
  0
SOLID
  5
771
  8
LOGO
 62
     5
 10
4435.1861910129446
 20
3808.9553542610238
 30
0.0
 11
4438.4206412290341
 21
3820.81500505335
 31
0.0
 12
4450.5777127308838
 22
3837.1731440772492
 32
0.0
 13
4447.3432625147971
 23
3837.1731440772492
 33
0.0
  0
SOLID
  5
772
  8
LOGO
 62
     5
 10
4435.1861910129446
 20
3806.5016334074398
 30
0.0
 11
4438.4206412290341
 21
3806.5016334074398
 31
0.0
 12
4450.5777127308838
 22
3834.719423223662
 32
0.0
 13
4447.3432625147971
 23
3822.8597724313372
 33
0.0
  0
SOLID
  5
773
  8
LOGO
 62
     2
 10
4433.8477978200817
 20
3806.5016334074398
 30
0.0
 11
4435.1861910129446
 21
3806.5016334074398
 31
0.0
 12
4450.5777127308838
 22
3837.1731440772492
 32
0.0
 13
4451.9161059237513
 23
3837.173144077246
 33
0.0
  0
LINE
  5
774
  8
LOGO
 62
     4
 10
4723.4617461107227
 20
3797.8064064157079
 30
0.0
 11
4723.4617461107227
 21
3770.3772423694759
 31
0.0
  0
LINE
  5
775
  8
LOGO
 62
     4
 10
4673.5905387539397
 20
3797.8064064157079
 30
0.0
 11
4673.5905387539397
 21
3770.3772423694759
 31
0.0
  0
LINE
  5
776
  8
LOGO
 62
     4
 10
4723.4617461107227
 20
3770.3772423694759
 30
0.0
 11
4673.5905387539397
 21
3770.3772423694759
 31
0.0
  0
LINE
  5
777
  8
LOGO
 62
     4
 10
4741.4374775837969
 20
3831.469471381537
 30
0.0
 11
4673.5905387539397
 21
3831.469471381537
 31
0.0
  0
LINE
  5
778
  8
LOGO
 62
     4
 10
4741.4374775837969
 20
3809.0274280709841
 30
0.0
 11
4673.5905387539397
 21
3809.0274280709841
 31
0.0
  0
LINE
  5
779
  8
LOGO
 62
     4
 10
4673.5905387539397
 20
3831.469471381537
 30
0.0
 11
4673.5905387539397
 21
3809.0274280709841
 31
0.0
  0
LINE
  5
77A
  8
LOGO
 62
     4
 10
4741.4374775837969
 20
3831.469471381537
 30
0.0
 11
4741.4374775837969
 21
3809.0274280709841
 31
0.0
  0
LINE
  5
77B
  8
LOGO
 62
     4
 10
4701.1281668463243
 20
3809.0274280709841
 30
0.0
 11
4701.1281668463243
 21
3797.8064064157079
 31
0.0
  0
TEXT
  5
77C
  8
LOGO
  6
CONTINUOUS
 10
4681.6438561684208
 20
3813.7121718017988
 30
0.0
 40
13.093087762868061
  1
MRPH
  7
CHINESET
  0
LINE
  5
77D
  8
LOGO
 62
     4
 10
4723.4617461107227
 20
3797.8064064157079
 30
0.0
 11
4673.5905387539397
 21
3797.8064064157079
 31
0.0
  0
TEXT
  5
77E
  8
LOGO
  6
CONTINUOUS
 10
4689.5940513048927
 20
3774.2488107097079
 30
490.27151582235052
 40
5.611323326943455
  1
Model
 41
0.8
  7
CHINESET
  0
TEXT
  5
77F
  8
LOGO
 10
4688.1004994481636
 20
3784.6509948313719
 30
490.27151582235052
 40
9.3522055449057575
  1
型號
  7
CHINESET
  0
LINE
  5
780
  8
LOGO
  6
CONTINUOUS
 10
4743.8232522686421
 20
3820.1689564621729
 30
0.0
 11
4753.7328397208103
 21
3820.1689564621729
 31
0.0
  0
LINE
  5
781
  8
LOGO
 62
     4
 10
4788.3006044074373
 20
3797.8064064157079
 30
0.0
 11
4788.3006044074373
 21
3770.3772423694759
 31
0.0
  0
LINE
  5
782
  8
LOGO
 62
     4
 10
4738.2251165519674
 20
3797.8064064157079
 30
0.0
 11
4738.2251165519674
 21
3770.3772423694768
 31
0.0
  0
LINE
  5
783
  8
LOGO
 62
     4
 10
4788.3006044074373
 20
3770.3772423694759
 30
0.0
 11
4738.2251165519674
 21
3770.3772423694759
 31
0.0
  0
LINE
  5
784
  8
LOGO
 62
     4
 10
4795.1374388321583
 20
3831.469471381537
 30
0.0
 11
4756.7896754791373
 21
3831.469471381537
 31
0.0
  0
LINE
  5
785
  8
LOGO
 62
     4
 10
4795.1374388321583
 20
3809.0274280709841
 30
0.0
 11
4756.7896754791373
 21
3809.0274280709841
 31
0.0
  0
LINE
  5
786
  8
LOGO
 62
     4
 10
4756.7896754791373
 20
3831.469471381537
 30
0.0
 11
4756.7896754791373
 21
3809.0274280709841
 31
0.0
  0
LINE
  5
787
  8
LOGO
 62
     4
 10
4795.1374388321583
 20
3831.469471381537
 30
0.0
 11
4795.1374388321583
 21
3809.0274280709841
 31
0.0
  0
LINE
  5
788
  8
LOGO
 62
     4
 10
4774.0323127563543
 20
3809.0274280709841
 30
0.0
 11
4774.0323127563543
 21
3797.8064064157079
 31
0.0
  0
TEXT
  5
789
  8
LOGO
  6
CONTINUOUS
 10
4764.9683136135691
 20
3813.7121718017988
 30
0.0
 40
13.093087762868061
  1
40
  7
CHINESET
  0
LINE
  5
78A
  8
LOGO
 62
     4
 10
4788.3006044074373
 20
3797.8064064157079
 30
0.0
 11
4738.2251165519674
 21
3797.8064064157079
 31
0.0
  0
LINE
  5
78B
  8
LOGO
  6
CONTINUOUS
 10
4798.3296856457464
 20
3820.1689564621729
 30
0.0
 11
4808.23927309791
 21
3820.1689564621729
 31
0.0
  0
LINE
  5
78C
  8
LOGO
 62
     4
 10
4867.3510480844134
 20
3797.8064064157079
 30
0.0
 11
4867.3510480844134
 21
3770.3772423694759
 31
0.0
  0
LINE
  5
78D
  8
LOGO
 62
     4
 10
4826.72299916874
 20
3797.8064064157079
 30
0.0
 11
4826.72299916874
 21
3770.3772423694759
 31
0.0
  0
LINE
  5
78E
  8
LOGO
 62
     4
 10
4867.3510480844134
 20
3770.3772423694759
 30
0.0
 11
4826.72299916874
 21
3770.3772423694759
 31
0.0
  0
LINE
  5
78F
  8
LOGO
 62
     4
 10
4894.3298657844307
 20
3831.469471381537
 30
0.0
 11
4811.3652255735406
 21
3831.469471381537
 31
0.0
  0
LINE
  5
790
  8
LOGO
 62
     4
 10
4894.3298657844307
 20
3809.0274280709841
 30
0.0
 11
4811.3652255735406
 21
3809.0274280709841
 31
0.0
  0
LINE
  5
791
  8
LOGO
 62
     4
 10
4811.3652255735406
 20
3831.469471381537
 30
0.0
 11
4811.3652255735406
 21
3809.0274280709841
 31
0.0
  0
LINE
  5
792
  8
LOGO
 62
     4
 10
4894.3298657844343
 20
3831.469471381537
 30
0.0
 11
4894.3298657844343
 21
3809.0274280709841
 31
0.0
  0
LINE
  5
793
  8
LOGO
 62
     4
 10
4850.3250554365422
 20
3809.0274280709841
 30
0.0
 11
4850.3250554365422
 21
3797.8064064157079
 31
0.0
  0
TEXT
  5
794
  8
LOGO
  6
CONTINUOUS
 10
4818.4575873893209
 20
3813.7121718017988
 30
0.0
 40
13.093087762868061
  1
90/180
  7
CHINESET
  0
LINE
  5
795
  8
LOGO
 62
     4
 10
4867.3510480844134
 20
3797.8064064157079
 30
0.0
 11
4826.72299916874
 21
3797.8064064157079
 31
0.0
  0
TEXT
  5
796
  8
LOGO
  6
CONTINUOUS
 10
4748.875376701445
 20
3774.2488107097079
 30
490.27151582235052
 40
5.611323326943455
  1
Tube I.D.
 41
0.8
  7
CHINESET
  0
TEXT
  5
797
  8
LOGO
 10
4751.1379227231764
 20
3784.6509948313719
 30
490.27151582235052
 40
9.3522055449057575
  1
內徑
  7
CHINESET
  0
TEXT
  5
798
  8
LOGO
  6
CONTINUOUS
 10
4837.4305532816106
 20
3774.2488107097079
 30
490.27151582235052
 40
5.611323326943455
  1
Angle
 41
0.8
  7
CHINESET
  0
TEXT
  5
799
  8
LOGO
 10
4828.1323526372862
 20
3784.6509948313719
 30
490.27151582235052
 40
9.3522055449057575
  1
旋轉角度
  7
CHINESET
  0
TEXT
  5
79A
  8
LOGO
 10
4574.2878468613771
 20
3769.7658603226182
 30
0.0
 40
7.4817644359246067
  1
00905071
 41
0.7
  7
CHINESET
 72
     1
 11
4592.3687775815279
 21
3769.7658603226182
 31
0.0
  0
LINE
  5
79B
  8
LOGO
 62
     4
 10
4615.5876768854177
 20
3780.7475297083579
 30
0.0
 11
4615.5876768854223
 21
3765.7861675013219
 31
0.0
  0
LINE
  5
79C
  8
LOGO
 62
     4
 10
4615.5876768854177
 20
3780.7475297083579
 30
0.0
 11
4570.6970902698749
 21
3780.7475297083579
 31
0.0
  0
LINE
  5
79D
  8
LOGO
  6
AM_ISO08W050X2
 10
4528.6897756529152
 20
3816.5241104061238
 30
0.0
 11
4540.6648236371921
 21
3816.5241104061238
 31
0.0
1001
GENIUS_GENOREF_13
1005
BAC
  0
LINE
  5
79E
  8
LOGO
  6
AM_ISO08W050X2
 10
4534.6772996450527
 20
3810.5365864139849
 30
0.0
 11
4534.6772996450527
 21
3822.5116343982641
 31
0.0
1001
GENIUS_GENOREF_13
1005
BAB
  0
LINE
  5
79F
  8
LOGO
  6
CENTER
 10
4547.2666657728296
 20
3816.5241104061238
 30
0.0
 11
4563.3432403848283
 21
3816.5241104061238
 31
0.0
1001
GENIUS_GENOREF_13
1005
BAA
  0
POINT
  5
BAA
  8
0
 10
-571.12080049813619
 20
1282.978892918416
 30
0.0
1001
GENIUS_GENOBJ-N-CRS_13
1002
{
1000
OWNER
1000
GEN
1002
}
1001
GENIUS_GENOLIS_13
1002
{
1000
ENT
1005
0
1005
0
1005
0
1005
79F
1002
}
1001
GENIUS_GENOENT_13
1002
{
1000
MYREF
1005
BAA
1002
}
1002
{
1000
GRP
1005
0
1002
}
1001
GENIUS_GENODEF_13
1002
{
1000
HIER
1070
    10
1002
}
1002
{
1000
MANEDIT
1070
     1
1002
}
1002
{
1000
NOSEL
1070
     0
1002
}
1002
{
1000
BEHIND
1070
     0
1002
}
1002
{
1000
OTHER
1070
     0
1002
}
1002
{
1000
REACTOR
1002
}
  0
POINT
  5
BAB
  8
0
 10
-582.44538572099054
 20
1291.854479397052
 30
0.0
1001
GENIUS_GENOBJ-N-CRS_13
1002
{
1000
OWNER
1000
GEN
1002
}
1001
GENIUS_GENOLIS_13
1002
{
1000
ENT
1005
0
1005
0
1005
0
1005
79E
1002
}
1001
GENIUS_GENOENT_13
1002
{
1000
MYREF
1005
BAB
1002
}
1002
{
1000
GRP
1005
0
1002
}
1001
GENIUS_GENODEF_13
1002
{
1000
HIER
1070
    10
1002
}
1002
{
1000
MANEDIT
1070
     1
1002
}
1002
{
1000
NOSEL
1070
     0
1002
}
1002
{
1000
BEHIND
1070
     0
1002
}
1002
{
1000
OTHER
1070
     0
1002
}
1002
{
1000
REACTOR
1002
}
  0
POINT
  5
BAC
  8
0
 10
-576.08671202315418
 20
1282.978892918416
 30
0.0
1001
GENIUS_GENOBJ-N-CRS_13
1002
{
1000
OWNER
1000
GEN
1002
}
1001
GENIUS_GENOLIS_13
1002
{
1000
ENT
1005
0
1005
0
1005
0
1005
79D
1002
}
1001
GENIUS_GENOENT_13
1002
{
1000
MYREF
1005
BAC
1002
}
1002
{
1000
GRP
1005
0
1002
}
1001
GENIUS_GENODEF_13
1002
{
1000
HIER
1070
    10
1002
}
1002
{
1000
MANEDIT
1070
     1
1002
}
1002
{
1000
NOSEL
1070
     0
1002
}
1002
{
1000
BEHIND
1070
     0
1002
}
1002
{
1000
OTHER
1070
     0
1002
}
1002
{
1000
REACTOR
1002
}
  0
POLYLINE
  5
55C6
  8
LOGO
 62
     4
 66
     1
 10
0.0
 20
0.0
 30
0.0
 70
     1
  0
VERTEX
  5
7577
  8
LOGO
 62
     4
 10
4406.1221059924883
 20
3838.9501524850548
 30
0.0
  0
VERTEX
  5
7578
  8
LOGO
 62
     4
 10
5160.612780268988
 20
3838.9501524850548
 30
0.0
  0
VERTEX
  5
7579
  8
LOGO
 62
     4
 10
5160.612780268988
 20
3765.7861675013219
 30
0.0
  0
VERTEX
  5
757A
  8
LOGO
 62
     4
 10
4406.1221059924883
 20
3765.7861675013219
 30
0.0
  0
SEQEND
  5
757B
  8
LOGO
 62
     4
  0
POLYLINE
  5
55C8
  8
LOGO
 62
     4
 66
     1
 10
0.0
 20
0.0
 30
0.0
 70
     1
  0
VERTEX
  5
757C
  8
LOGO
 62
     4
 10
4406.1221059924883
 20
5014.0405876876403
 30
0.0
  0
VERTEX
  5
757D
  8
LOGO
 62
     4
 10
5160.612780268988
 20
5014.0405876876403
 30
0.0
  0
VERTEX
  5
757E
  8
LOGO
 62
     4
 10
5160.612780268988
 20
4426.4953700863471
 30
0.0
  0
VERTEX
  5
757F
  8
LOGO
 62
     4
 10
4406.1221059924883
 20
4426.4953700863471
 30
0.0
  0
SEQEND
  5
7580
  8
LOGO
 62
     4
  0
INSERT
  5
649B
  8
HIDDEN
  2
*U5
 10
0.0
 20
0.0
 30
0.0
  0
INSERT
  5
649C
  8
HIDDEN
  2
*U6
 10
0.0
 20
0.0
 30
0.0
  0
POLYLINE
  5
64A0
  8
LOGO
 62
     4
 66
     1
 10
0.0
 20
0.0
 30
0.0
 70
     1
  0
VERTEX
  5
7589
  8
LOGO
 62
     4
 10
4406.1221059924883
 20
4426.4953700863471
 30
0.0
  0
VERTEX
  5
758A
  8
LOGO
 62
     4
 10
5160.612780268988
 20
4426.4953700863471
 30
0.0
  0
VERTEX
  5
758B
  8
LOGO
 62
     4
 10
5160.612780268988
 20
3838.9501524850548
 30
0.0
  0
VERTEX
  5
758C
  8
LOGO
 62
     4
 10
4406.1221059924883
 20
3838.9501524850548
 30
0.0
  0
SEQEND
  5
758D
  8
LOGO
 62
     4
  0
LINE
  5
69CA
  8
UMCL1
 10
4599.4686523121864
 20
4664.4163828608553
 30
0.0
 11
4694.868652312186
 21
4664.4163828608553
 31
0.0
  0
LINE
  5
69CB
  8
UMCL1
 10
4599.4686523121864
 20
4545.4163828608544
 30
0.0
 11
4694.868652312186
 21
4545.4163828608544
 31
0.0
  0
POLYLINE
  5
69CC
  8
UMCL1
 66
     1
 10
0.0
 20
0.0
 30
0.0
 70
     1
  0
VERTEX
  5
75FE
  8
UMCL1
 10
4616.6838247548849
 20
4591.4163828608544
 30
0.0
  0
VERTEX
  5
75FF
  8
UMCL1
 10
4611.1989971975827
 20
4581.9163828608544
 30
0.0
  0
VERTEX
  5
7600
  8
UMCL1
 10
4616.6838247548849
 20
4572.4163828608544
 30
0.0
  0
VERTEX
  5
7601
  8
UMCL1
 10
4627.6534798694865
 20
4572.4163828608544
 30
0.0
  0
VERTEX
  5
7602
  8
UMCL1
 10
4633.1383074267887
 20
4581.9163828608544
 30
0.0
  0
VERTEX
  5
7603
  8
UMCL1
 10
4627.6534798694865
 20
4591.4163828608544
 30
0.0
  0
SEQEND
  5
7604
  8
UMCL1
  0
CIRCLE
  5
69CD
  8
UMCL1
 10
4622.1686523121853
 20
4581.9163828608544
 30
0.0
 40
9.5
  0
CIRCLE
  5
69CE
  8
UMCL1
 10
4622.1686523121853
 20
4581.9163828608544
 30
0.0
 40
5.0
  0
POLYLINE
  5
69CF
  8
UMCL1
 66
     1
 10
0.0
 20
0.0
 30
0.0
 70
     1
  0
VERTEX
  5
7605
  8
UMCL1
 10
4625.1686523121853
 20
4583.6484336684243
 30
0.0
  0
VERTEX
  5
7606
  8
UMCL1
 10
4622.1686523121853
 20
4585.3804844759934
 30
0.0
  0
VERTEX
  5
7607
  8
UMCL1
 10
4619.1686523121853
 20
4583.6484336684243
 30
0.0
  0
VERTEX
  5
7608
  8
UMCL1
 10
4619.1686523121853
 20
4580.1843320532862
 30
0.0
  0
VERTEX
  5
7609
  8
UMCL1
 10
4622.1686523121853
 20
4578.4522812457162
 30
0.0
  0
VERTEX
  5
760A
  8
UMCL1
 10
4625.1686523121853
 20
4580.1843320532862
 30
0.0
  0
SEQEND
  5
760B
  8
UMCL1
  0
CIRCLE
  5
69D0
  8
UMCL1
 10
4622.1686523121853
 20
4581.9163828608544
 30
0.0
 40
6.0
  0
ARC
  5
69D1
  8
UMCL1
 62
     2
 10
4622.1686523121853
 20
4581.9163828608544
 30
0.0
 40
5.25
 50
250.223226052782
 51
208.72681189303341
  0
LINE
  5
69D2
  8
UMCL1
 10
4698.6380401016268
 20
4557.4163828608544
 30
0.0
 11
4595.6380401016268
 21
4557.4163828608544
 31
0.0
  0
LINE
  5
69D3
  8
UMCL1
 10
4698.6380401016268
 20
4652.4163828608544
 30
0.0
 11
4595.6380401016268
 21
4652.4163828608544
 31
0.0
  0
LINE
  5
69D4
  8
CEN
 10
4485.6386523121846
 20
4604.9163828608544
 30
0.0
 11
4808.6386523121864
 21
4604.9163828608562
 31
0.0
  0
LINE
  5
69D5
  8
CEN
 10
4604.1686523121862
 20
4581.9163828608544
 30
0.0
 11
4640.1686523121862
 21
4581.9163828608544
 31
0.0
  0
LINE
  5
69D6
  8
CEN
 10
4606.1686523121862
 20
4590.2129653793027
 30
0.0
 11
4606.1686523121862
 21
4552.1816540403888
 31
0.0
  0
LINE
  5
69D7
  8
HIDDEN
 10
4610.4186523121862
 20
4582.4469950714129
 30
0.0
 11
4610.4186523121862
 21
4557.4469950714138
 31
0.0
  0
LINE
  5
69D8
  8
HIDDEN
 10
4601.9186523121853
 20
4582.4469950714129
 30
0.0
 11
4601.9186523121853
 21
4557.4469950714138
 31
0.0
  0
LINE
  5
69D9
  8
HIDDEN
 10
4601.1686523121853
 20
4577.4469950714138
 30
0.0
 11
4601.1686523121853
 21
4557.4469950714138
 31
0.0
  0
LINE
  5
69DA
  8
HIDDEN
 10
4611.1686523121862
 20
4577.4469950714138
 30
0.0
 11
4611.1686523121862
 21
4557.4469950714138
 31
0.0
  0
LINE
  5
69DB
  8
UMCL1
 10
4594.6380401016268
 20
4651.4163828608544
 30
0.0
 11
4594.6380401016268
 21
4558.4163828608544
 31
0.0
  0
LINE
  5
69DC
  8
UMCL1
 10
4599.1686523121862
 20
4557.1163828608533
 30
0.0
 11
4599.1686523121862
 21
4545.7163828608536
 31
0.0
  0
LINE
  5
69DD
  8
UMCL1
 10
4599.1686523121862
 20
4557.1163828608533
 30
0.0
 11
4599.1686523121862
 21
4545.7163828608527
 31
0.0
  0
LINE
  5
69DE
  8
CEN
 10
4608.1686523121862
 20
4542.4163828608544
 30
0.0
 11
4608.1686523121862
 21
4570.8349907839456
 31
0.0
  0
LINE
  5
69DF
  8
UMCL1
 10
4599.1686523121862
 20
4545.7163828608536
 30
0.0
 11
4599.4686523121864
 21
4545.4163828608544
 31
0.0
  0
LINE
  5
69E0
  8
UMCL1
 10
4599.1686523121862
 20
4545.7163828608527
 30
0.0
 11
4599.4686523121854
 21
4545.4163828608544
 31
0.0
  0
LINE
  5
69E1
  8
UMCL1
  6
HIDDEN
 62
     2
 10
4599.1686523121862
 20
4557.1163828608533
 30
0.0
 11
4599.4686523121864
 21
4557.4163828608544
 31
0.0
  0
LINE
  5
69E2
  8
UMCL1
  6
HIDDEN
 62
     2
 10
4599.1686523121862
 20
4557.1163828608533
 30
0.0
 11
4599.4686523121854
 21
4557.4163828608544
 31
0.0
  0
LINE
  5
69E3
  8
UMCL1
 10
4594.6380401016268
 20
4558.4163828608544
 30
0.0
 11
4595.6380401016268
 21
4557.4163828608544
 31
0.0
  0
LINE
  5
69E4
  8
CEN
 10
4608.1686523121862
 20
4667.4163828608544
 30
0.0
 11
4608.1686523121862
 21
4638.9977749377622
 31
0.0
  0
LINE
  5
69E5
  8
CEN
 10
4606.1686523121862
 20
4619.6198003424051
 30
0.0
 11
4606.1686523121862
 21
4657.6511116813199
 31
0.0
  0
LINE
  5
69E6
  8
HIDDEN
 10
4611.1686523121862
 20
4577.4469950714138
 30
0.0
 11
4601.1686523121853
 21
4577.4469950714138
 31
0.0
  0
LINE
  5
69E7
  8
HIDDEN
 10
4610.4186523121862
 20
4582.4469950714129
 30
0.0
 11
4601.9186523121853
 21
4582.4469950714129
 31
0.0
  0
LINE
  5
69E8
  8
HIDDEN
 10
4606.1686523121862
 20
4584.900733715469
 30
0.0
 11
4601.9186523121853
 21
4582.4469950714129
 31
0.0
  0
LINE
  5
69E9
  8
HIDDEN
 10
4606.1686523121862
 20
4584.900733715469
 30
0.0
 11
4610.4186523121862
 21
4582.4469950714129
 31
0.0
  0
LINE
  5
69EA
  8
HIDDEN
 10
4611.1686523121862
 20
4632.3857706502949
 30
0.0
 11
4611.1686523121862
 21
4652.3857706502959
 31
0.0
  0
LINE
  5
69EB
  8
HIDDEN
 10
4601.1686523121853
 20
4632.3857706502949
 30
0.0
 11
4601.1686523121853
 21
4652.3857706502959
 31
0.0
  0
LINE
  5
69EC
  8
HIDDEN
 10
4601.9186523121853
 20
4627.3857706502949
 30
0.0
 11
4601.9186523121853
 21
4652.3857706502959
 31
0.0
  0
LINE
  5
69ED
  8
HIDDEN
 10
4610.4186523121862
 20
4627.3857706502949
 30
0.0
 11
4610.4186523121862
 21
4652.3857706502959
 31
0.0
  0
LINE
  5
69EE
  8
HIDDEN
 10
4610.4186523121862
 20
4627.3857706502949
 30
0.0
 11
4601.9186523121853
 21
4627.3857706502949
 31
0.0
  0
LINE
  5
69EF
  8
HIDDEN
 10
4606.1686523121862
 20
4624.9320320062407
 30
0.0
 11
4601.9186523121853
 21
4627.3857706502949
 31
0.0
  0
LINE
  5
69F0
  8
HIDDEN
 10
4606.1686523121862
 20
4624.9320320062407
 30
0.0
 11
4610.4186523121862
 21
4627.3857706502949
 31
0.0
  0
LINE
  5
69F1
  8
HIDDEN
 10
4611.1686523121862
 20
4632.3857706502949
 30
0.0
 11
4601.1686523121853
 21
4632.3857706502949
 31
0.0
  0
LINE
  5
69F2
  8
UMCL1
 10
4599.1686523121862
 20
4652.7163828608536
 30
0.0
 11
4599.1686523121862
 21
4664.1163828608551
 31
0.0
  0
LINE
  5
69F3
  8
UMCL1
 10
4599.1686523121862
 20
4652.7163828608536
 30
0.0
 11
4599.1686523121862
 21
4664.1163828608542
 31
0.0
  0
LINE
  5
69F4
  8
UMCL1
  6
HIDDEN
 62
     2
 10
4599.1686523121862
 20
4652.7163828608536
 30
0.0
 11
4599.4686523121854
 21
4652.4163828608544
 31
0.0
  0
LINE
  5
69F5
  8
UMCL1
  6
HIDDEN
 62
     2
 10
4599.1686523121862
 20
4652.7163828608536
 30
0.0
 11
4599.4686523121864
 21
4652.4163828608544
 31
0.0
  0
LINE
  5
69F6
  8
UMCL1
 10
4594.6380401016268
 20
4651.4163828608544
 30
0.0
 11
4595.6380401016268
 21
4652.4163828608544
 31
0.0
  0
LINE
  5
69F7
  8
UMCL1
 10
4599.1686523121862
 20
4664.1163828608551
 30
0.0
 11
4599.4686523121854
 21
4664.4163828608553
 31
0.0
  0
LINE
  5
69F8
  8
UMCL1
 10
4599.1686523121862
 20
4664.1163828608542
 30
0.0
 11
4599.4686523121864
 21
4664.4163828608553
 31
0.0
  0
LINE
  5
69F9
  8
CEN
 10
5034.2439397825756
 20
4563.9163828608534
 30
0.0
 11
5034.2439397825756
 21
4599.9163828608534
 31
0.0
  0
LINE
  5
69FA
  8
CEN
 10
4688.1686523121862
 20
4590.2129653793027
 30
0.0
 11
4688.1686523121862
 21
4552.1816540403888
 31
0.0
  0
POLYLINE
  5
69FB
  8
UMCL1
 66
     1
 10
0.0
 20
0.0
 30
0.0
 70
     1
  0
VERTEX
  5
760C
  8
UMCL1
 10
4666.6838247548849
 20
4591.4163828608544
 30
0.0
  0
VERTEX
  5
760D
  8
UMCL1
 10
4661.1989971975818
 20
4581.9163828608544
 30
0.0
  0
VERTEX
  5
760E
  8
UMCL1
 10
4666.6838247548849
 20
4572.4163828608544
 30
0.0
  0
VERTEX
  5
760F
  8
UMCL1
 10
4677.6534798694865
 20
4572.4163828608544
 30
0.0
  0
VERTEX
  5
7610
  8
UMCL1
 10
4683.1383074267887
 20
4581.9163828608544
 30
0.0
  0
VERTEX
  5
7611
  8
UMCL1
 10
4677.6534798694865
 20
4591.4163828608544
 30
0.0
  0
SEQEND
  5
7612
  8
UMCL1
  0
LINE
  5
69FC
  8
CEN
 10
4973.2439397825756
 20
4542.2947534088044
 30
0.0
 11
4973.2439397825756
 21
4655.4163828608553
 31
0.0
  0
LINE
  5
69FD
  8
CEN
 10
5009.2439397825747
 20
4542.4163828608562
 30
0.0
 11
5009.2439397825747
 21
4718.4177296046828
 31
0.0
  0
LINE
  5
69FE
  8
UMCL1
 10
5060.7439397825747
 20
4651.4163828608553
 30
0.0
 11
5060.7439397825747
 21
4558.4163828608553
 31
0.0
  0
LINE
  5
69FF
  8
UMCL1
 10
4925.7439397825747
 20
4651.4163828608553
 30
0.0
 11
4925.7439397825747
 21
4558.4163828608553
 31
0.0
  0
LINE
  5
6A00
  8
CEN
 10
4954.7439397825747
 20
4614.4163828608553
 30
0.0
 11
4954.7439397825747
 21
4632.4163828608553
 31
0.0
  0
CIRCLE
  5
6A01
  8
UMCL1
 10
4672.1686523121862
 20
4581.9163828608544
 30
0.0
 40
9.5
  0
LINE
  5
6A02
  8
CEN
 10
4622.1686523121853
 20
4563.9163828608544
 30
0.0
 11
4622.1686523121853
 21
4599.9163828608544
 31
0.0
  0
LINE
  5
6A03
  8
HIDDEN
 10
4683.1686523121853
 20
4577.4469950714138
 30
0.0
 11
4683.1686523121853
 21
4557.4469950714138
 31
0.0
  0
LINE
  5
6A04
  8
HIDDEN
 10
4693.1686523121862
 20
4577.4469950714138
 30
0.0
 11
4693.1686523121862
 21
4557.4469950714138
 31
0.0
  0
LINE
  5
6A05
  8
HIDDEN
 10
4692.4186523121862
 20
4582.4469950714129
 30
0.0
 11
4692.4186523121862
 21
4557.4469950714138
 31
0.0
  0
LINE
  5
6A06
  8
HIDDEN
 10
4683.9186523121853
 20
4582.4469950714129
 30
0.0
 11
4683.9186523121853
 21
4557.4469950714138
 31
0.0
  0
LINE
  5
6A07
  8
CEN
 10
4672.1686523121862
 20
4563.9163828608544
 30
0.0
 11
4672.1686523121862
 21
4599.9163828608544
 31
0.0
  0
LINE
  5
6A08
  8
UMCL1
 10
4699.6380401016277
 20
4651.4163828608544
 30
0.0
 11
4699.6380401016277
 21
4558.4163828608544
 31
0.0
  0
LINE
  5
6A09
  8
CEN
 10
4647.1386523121846
 20
4542.4163828608544
 30
0.0
 11
4647.1386523121846
 21
4718.4177296046828
 31
0.0
  0
LINE
  5
6A0A
  8
CEN
 10
4686.1686523121853
 20
4542.4163828608544
 30
0.0
 11
4686.1686523121853
 21
4570.8349907839456
 31
0.0
  0
LINE
  5
6A0B
  8
UMCL1
 10
4695.1686523121862
 20
4557.1163828608533
 30
0.0
 11
4695.1686523121862
 21
4545.7163828608527
 31
0.0
  0
LINE
  5
6A0C
  8
UMCL1
 10
4695.1686523121862
 20
4545.7163828608527
 30
0.0
 11
4694.868652312186
 21
4545.4163828608544
 31
0.0
  0
LINE
  5
6A0D
  8
UMCL1
  6
HIDDEN
 62
     2
 10
4695.1686523121862
 20
4557.1163828608533
 30
0.0
 11
4694.868652312186
 21
4557.4163828608544
 31
0.0
  0
LINE
  5
6A0E
  8
UMCL1
 10
4699.6380401016277
 20
4558.4163828608544
 30
0.0
 11
4698.6380401016268
 21
4557.4163828608544
 31
0.0
  0
LINE
  5
6A0F
  8
UMCL1
 10
4961.5439397825758
 20
4545.4163828608553
 30
0.0
 11
5056.9439397825763
 21
4545.4163828608544
 31
0.0
  0
LINE
  5
6A10
  8
UMCL1
 10
4926.7439397825747
 20
4557.4163828608553
 30
0.0
 11
5059.7439397825756
 21
4557.4163828608553
 31
0.0
  0
LINE
  5
6A11
  8
CEN
 10
4945.7439397825756
 20
4623.4163828608553
 30
0.0
 11
4963.7439397825756
 21
4623.4163828608553
 31
0.0
  0
LINE
  5
6A12
  8
UMCL1
 10
4926.7439397825747
 20
4557.4163828608553
 30
0.0
 11
4925.7439397825747
 21
4558.4163828608553
 31
0.0
  0
LINE
  5
6A13
  8
UMCL1
 10
4961.2439397825756
 20
4557.1163828608551
 30
0.0
 11
4961.2439397825756
 21
4545.7163828608554
 31
0.0
  0
LINE
  5
6A14
  8
CEN
 10
4970.2439397825756
 20
4542.4163828608562
 30
0.0
 11
4970.2439397825756
 21
4570.8349907839456
 31
0.0
  0
LINE
  5
6A15
  8
UMCL1
 10
4961.2439397825756
 20
4557.1163828608551
 30
0.0
 11
4961.2439397825756
 21
4545.7163828608536
 31
0.0
  0
LINE
  5
6A16
  8
UMCL1
 10
4961.2439397825756
 20
4545.7163828608554
 30
0.0
 11
4961.5439397825758
 21
4545.4163828608553
 31
0.0
  0
LINE
  5
6A17
  8
UMCL1
 10
4961.2439397825756
 20
4545.7163828608536
 30
0.0
 11
4961.5439397825758
 21
4545.4163828608544
 31
0.0
  0
LINE
  5
6A18
  8
UMCL1
 10
5057.2439397825747
 20
4557.1163828608551
 30
0.0
 11
5057.2439397825747
 21
4545.7163828608536
 31
0.0
  0
LINE
  5
6A19
  8
CEN
 10
5048.2439397825756
 20
4542.4163828608544
 30
0.0
 11
5048.2439397825756
 21
4570.8349907839456
 31
0.0
  0
LINE
  5
6A1A
  8
UMCL1
 10
5057.2439397825747
 20
4545.7163828608536
 30
0.0
 11
5056.9439397825763
 21
4545.4163828608544
 31
0.0
  0
LINE
  5
6A1B
  8
UMCL1
 10
5057.2439397825747
 20
4557.1163828608551
 30
0.0
 11
5056.9439397825763
 21
4557.4163828608553
 31
0.0
  0
LINE
  5
6A1C
  8
UMCL1
 10
5060.7439397825747
 20
4558.4163828608553
 30
0.0
 11
5059.7439397825756
 21
4557.4163828608553
 31
0.0
  0
LINE
  5
6A1D
  8
CEN
 10
4686.1686523121853
 20
4667.4163828608544
 30
0.0
 11
4686.1686523121853
 21
4638.9977749377622
 31
0.0
  0
ARC
  5
6A1E
  8
UMCL1
 10
4633.1686523121853
 20
4665.9177296046828
 30
0.0
 40
0.5
 50
270.0
 51
90.0
  0
ARC
  5
6A1F
  8
UMCL1
 10
4661.1686523121862
 20
4665.9177296046828
 30
0.0
 40
0.5
 50
90.0
 51
270.0
  0
LINE
  5
6A20
  8
CEN
 10
4688.1686523121862
 20
4619.6198003424051
 30
0.0
 11
4688.1686523121862
 21
4657.6511116813199
 31
0.0
  0
LINE
  5
6A21
  8
CEN
 10
4690.1686523121862
 20
4581.9163828608544
 30
0.0
 11
4654.1686523121853
 21
4581.9163828608544
 31
0.0
  0
LINE
  5
6A22
  8
HIDDEN
 10
4683.9186523121853
 20
4582.4469950714129
 30
0.0
 11
4692.4186523121862
 21
4582.4469950714129
 31
0.0
  0
LINE
  5
6A23
  8
HIDDEN
 10
4683.1686523121853
 20
4577.4469950714138
 30
0.0
 11
4693.1686523121862
 21
4577.4469950714138
 31
0.0
  0
LINE
  5
6A24
  8
HIDDEN
 10
4688.1686523121862
 20
4584.900733715469
 30
0.0
 11
4692.4186523121862
 21
4582.4469950714129
 31
0.0
  0
CIRCLE
  5
6A25
  8
UMCL1
 10
4672.1686523121862
 20
4581.9163828608544
 30
0.0
 40
6.0
  0
ARC
  5
6A26
  8
UMCL1
 62
     2
 10
4672.1686523121862
 20
4581.9163828608544
 30
0.0
 40
5.25
 50
250.223226052782
 51
208.72681189303341
  0
POLYLINE
  5
6A27
  8
UMCL1
 66
     1
 10
0.0
 20
0.0
 30
0.0
 70
     1
  0
VERTEX
  5
7613
  8
UMCL1
 10
4675.1686523121862
 20
4583.6484336684243
 30
0.0
  0
VERTEX
  5
7614
  8
UMCL1
 10
4672.1686523121862
 20
4585.3804844759934
 30
0.0
  0
VERTEX
  5
7615
  8
UMCL1
 10
4669.1686523121862
 20
4583.6484336684243
 30
0.0
  0
VERTEX
  5
7616
  8
UMCL1
 10
4669.1686523121862
 20
4580.1843320532862
 30
0.0
  0
VERTEX
  5
7617
  8
UMCL1
 10
4672.1686523121862
 20
4578.4522812457162
 30
0.0
  0
VERTEX
  5
7618
  8
UMCL1
 10
4675.1686523121862
 20
4580.1843320532862
 30
0.0
  0
SEQEND
  5
7619
  8
UMCL1
  0
CIRCLE
  5
6A28
  8
UMCL1
 10
4672.1686523121862
 20
4581.9163828608544
 30
0.0
 40
5.0
  0
LINE
  5
6A29
  8
HIDDEN
 10
4688.1686523121862
 20
4584.900733715469
 30
0.0
 11
4683.9186523121853
 21
4582.4469950714129
 31
0.0
  0
LINE
  5
6A2A
  8
HIDDEN
 10
4683.1686523121853
 20
4632.3857706502949
 30
0.0
 11
4693.1686523121862
 21
4632.3857706502949
 31
0.0
  0
LINE
  5
6A2B
  8
HIDDEN
 10
4688.1686523121862
 20
4624.9320320062407
 30
0.0
 11
4692.4186523121862
 21
4627.3857706502949
 31
0.0
  0
LINE
  5
6A2C
  8
HIDDEN
 10
4683.9186523121853
 20
4627.3857706502949
 30
0.0
 11
4692.4186523121862
 21
4627.3857706502949
 31
0.0
  0
LINE
  5
6A2D
  8
HIDDEN
 10
4683.9186523121853
 20
4627.3857706502949
 30
0.0
 11
4683.9186523121853
 21
4652.3857706502959
 31
0.0
  0
LINE
  5
6A2E
  8
HIDDEN
 10
4683.1686523121853
 20
4632.3857706502949
 30
0.0
 11
4683.1686523121853
 21
4652.3857706502959
 31
0.0
  0
LINE
  5
6A2F
  8
HIDDEN
 10
4688.1686523121862
 20
4624.9320320062407
 30
0.0
 11
4683.9186523121853
 21
4627.3857706502949
 31
0.0
  0
LINE
  5
6A30
  8
UMCL1
 10
4630.1686523121862
 20
4665.4177296046828
 30
0.0
 11
4664.1686523121862
 21
4665.4177296046828
 31
0.0
  0
LINE
  5
6A31
  8
UMCL1
 10
4664.6686523121862
 20
4664.9177296046837
 30
0.0
 11
4629.6686523121862
 21
4664.9177296046837
 31
0.0
  0
LINE
  5
6A32
  8
UMCL1
 10
4629.6686523121862
 20
4664.9177296046837
 30
0.0
 11
4629.6686523121862
 21
4664.4163828608553
 31
0.0
  0
LINE
  5
6A33
  8
UMCL1
 10
4629.6686523121862
 20
4664.9177296046837
 30
0.0
 11
4630.1686523121862
 21
4665.4177296046828
 31
0.0
  0
LINE
  5
6A34
  8
UMCL1
 10
4664.6686523121862
 20
4664.9177296046837
 30
0.0
 11
4664.6686523121862
 21
4664.4163828608553
 31
0.0
  0
LINE
  5
6A35
  8
UMCL1
 10
4664.6686523121862
 20
4664.9177296046837
 30
0.0
 11
4664.1686523121862
 21
4665.4177296046828
 31
0.0
  0
LINE
  5
6A36
  8
HIDDEN
 10
4692.4186523121862
 20
4627.3857706502949
 30
0.0
 11
4692.4186523121862
 21
4652.3857706502959
 31
0.0
  0
LINE
  5
6A37
  8
HIDDEN
 10
4693.1686523121862
 20
4632.3857706502949
 30
0.0
 11
4693.1686523121862
 21
4652.3857706502959
 31
0.0
  0
LINE
  5
6A38
  8
UMCL1
 10
4695.1686523121862
 20
4652.7163828608536
 30
0.0
 11
4695.1686523121862
 21
4664.1163828608551
 31
0.0
  0
LINE
  5
6A39
  8
UMCL1
  6
HIDDEN
 62
     2
 10
4695.1686523121862
 20
4652.7163828608536
 30
0.0
 11
4694.868652312186
 21
4652.4163828608544
 31
0.0
  0
LINE
  5
6A3A
  8
UMCL1
 10
4699.6380401016277
 20
4651.4163828608544
 30
0.0
 11
4698.6380401016268
 21
4652.4163828608544
 31
0.0
  0
LINE
  5
6A3B
  8
UMCL1
 10
4695.1686523121862
 20
4664.1163828608551
 30
0.0
 11
4694.868652312186
 21
4664.4163828608553
 31
0.0
  0
LINE
  5
6A3C
  8
HIDDEN
 10
4637.1687012106331
 20
4667.9177296046837
 30
0.0
 11
4637.1687012106331
 21
4712.9177296046837
 31
0.0
  0
LINE
  5
6A3D
  8
UMCL1
 10
4630.1686523121862
 20
4712.9177296046837
 30
0.0
 11
4630.1686523121862
 21
4667.9177296046837
 31
0.0
  0
LINE
  5
6A3E
  8
HIDDEN
 10
4651.1686523121853
 20
4715.4177296046828
 30
0.0
 11
4651.1686523121853
 21
4700.4177296046837
 31
0.0
  0
LINE
  5
6A3F
  8
HIDDEN
 10
4643.1686523121862
 20
4715.4177296046828
 30
0.0
 11
4643.1686523121862
 21
4700.4177296046837
 31
0.0
  0
LINE
  5
6A40
  8
HIDDEN
 10
4643.9186523121862
 20
4715.4177296046828
 30
0.0
 11
4643.9186523121862
 21
4695.4177296046837
 31
0.0
  0
LINE
  5
6A41
  8
HIDDEN
 10
4650.4186523121853
 20
4715.4177296046828
 30
0.0
 11
4650.4186523121853
 21
4695.4177296046837
 31
0.0
  0
LINE
  5
6A42
  8
UMCL1
 10
4633.1686523121853
 20
4714.4177296046837
 30
0.0
 11
4633.1686523121853
 21
4666.4177296046837
 31
0.0
  0
LINE
  5
6A43
  8
UMCL1
 10
4661.1686523121862
 20
4714.4177296046837
 30
0.0
 11
4661.1686523121862
 21
4666.4177296046837
 31
0.0
  0
LINE
  5
6A44
  8
UMCL1
 10
4633.1686523121853
 20
4666.4177296046837
 30
0.0
 11
4661.1686523121862
 21
4666.4177296046837
 31
0.0
  0
LINE
  5
6A45
  8
HIDDEN
 10
4633.1686523121853
 20
4667.9177296046837
 30
0.0
 11
4637.1687012106331
 21
4667.9177296046837
 31
0.0
  0
LINE
  5
6A46
  8
CEN
 10
4627.3393673579312
 20
4671.9177296046828
 30
0.0
 11
4641.7561369530968
 21
4671.9177296046828
 31
0.0
  0
LINE
  5
6A47
  8
UMCL1
 10
4633.1686523121853
 20
4667.9177296046837
 30
0.0
 11
4630.1686523121862
 21
4667.9177296046837
 31
0.0
  0
LINE
  5
6A48
  8
HIDDEN
 10
4647.1686523121862
 20
4693.4177296046837
 30
0.0
 11
4643.9186523121862
 21
4695.4177296046837
 31
0.0
  0
LINE
  5
6A49
  8
HIDDEN
 10
4643.9186523121862
 20
4695.4177296046837
 30
0.0
 11
4650.4186523121853
 21
4695.4177296046837
 31
0.0
  0
LINE
  5
6A4A
  8
HIDDEN
 10
4650.4186523121853
 20
4695.4177296046837
 30
0.0
 11
4647.1686523121862
 21
4693.4177296046837
 31
0.0
  0
LINE
  5
6A4B
  8
HIDDEN
 10
4643.1686523121862
 20
4700.4177296046837
 30
0.0
 11
4651.1686523121853
 21
4700.4177296046837
 31
0.0
  0
LINE
  5
6A4C
  8
CEN
 10
4627.3393673579312
 20
4708.9177296046828
 30
0.0
 11
4641.7561369530968
 21
4708.9177296046828
 31
0.0
  0
LINE
  5
6A4D
  8
UMCL1
 10
4634.1686523121862
 20
4715.4177296046828
 30
0.0
 11
4660.1686523121862
 21
4715.4177296046828
 31
0.0
  0
LINE
  5
6A4E
  8
UMCL1
 10
4661.1686523121862
 20
4714.4177296046837
 30
0.0
 11
4633.1686523121853
 21
4714.4177296046837
 31
0.0
  0
LINE
  5
6A4F
  8
HIDDEN
 10
4633.1686523121853
 20
4712.9177296046837
 30
0.0
 11
4637.1687012106331
 21
4712.9177296046837
 31
0.0
  0
LINE
  5
6A50
  8
UMCL1
 10
4633.1686523121853
 20
4712.9177296046837
 30
0.0
 11
4630.1686523121862
 21
4712.9177296046837
 31
0.0
  0
LINE
  5
6A51
  8
UMCL1
 10
4634.1686523121862
 20
4715.4177296046828
 30
0.0
 11
4633.1686523121853
 21
4714.4177296046837
 31
0.0
  0
LINE
  5
6A52
  8
UMCL1
 10
4661.1686523121862
 20
4714.4177296046837
 30
0.0
 11
4660.1686523121862
 21
4715.4177296046828
 31
0.0
  0
LINE
  5
6A53
  8
CEN
 10
5048.2439397825756
 20
4667.4163828608562
 30
0.0
 11
5048.2439397825756
 21
4638.997774937764
 31
0.0
  0
LINE
  5
6A54
  8
CEN
 10
4970.2439397825756
 20
4667.4163828608562
 30
0.0
 11
4970.2439397825756
 21
4638.997774937764
 31
0.0
  0
ARC
  5
6A55
  8
UMCL1
 10
5023.2439397825756
 20
4665.9177296046828
 30
0.0
 40
0.5
 50
90.0
 51
270.0
  0
ARC
  5
6A56
  8
UMCL1
 10
4995.2439397825747
 20
4665.9177296046828
 30
0.0
 40
0.5
 50
270.0
 51
90.0
  0
LINE
  5
6A57
  8
UMCL1
 10
4961.5439397825758
 20
4664.4163828608562
 30
0.0
 11
5056.9439397825763
 21
4664.4163828608562
 31
0.0
  0
LINE
  5
6A58
  8
UMCL1
 10
5026.7439397825747
 20
4664.9177296046837
 30
0.0
 11
4991.7439397825756
 21
4664.9177296046837
 31
0.0
  0
LINE
  5
6A59
  8
UMCL1
 10
4992.2439397825747
 20
4665.4177296046828
 30
0.0
 11
5026.2439397825756
 21
4665.4177296046828
 31
0.0
  0
LINE
  5
6A5A
  8
CEN
 10
5064.6519446880948
 20
4604.9163828608562
 30
0.0
 11
4923.0617755766289
 21
4604.9163828608562
 31
0.0
  0
LINE
  5
6A5B
  8
UMCL1
 10
4926.7439397825747
 20
4652.4163828608553
 30
0.0
 11
5059.7439397825756
 21
4652.4163828608553
 31
0.0
  0
LINE
  5
6A5C
  8
UMCL1
 10
4926.7439397825747
 20
4652.4163828608553
 30
0.0
 11
4925.7439397825747
 21
4651.4163828608553
 31
0.0
  0
LINE
  5
6A5D
  8
UMCL1
 10
4961.2439397825756
 20
4652.4163828608553
 30
0.0
 11
4961.2439397825756
 21
4664.1163828608551
 31
0.0
  0
LINE
  5
6A5E
  8
UMCL1
 10
4961.2439397825756
 20
4652.7163828608554
 30
0.0
 11
4961.2439397825756
 21
4664.116382860856
 31
0.0
  0
LINE
  5
6A5F
  8
UMCL1
 10
4961.2439397825756
 20
4664.1163828608551
 30
0.0
 11
4961.5439397825758
 21
4664.4163828608562
 31
0.0
  0
LINE
  5
6A60
  8
UMCL1
 10
4961.2439397825756
 20
4664.116382860856
 30
0.0
 11
4961.5439397825758
 21
4664.4163828608562
 31
0.0
  0
LINE
  5
6A61
  8
UMCL1
 10
4991.7439397825756
 20
4664.9177296046837
 30
0.0
 11
4991.7439397825756
 21
4664.4163828608562
 31
0.0
  0
LINE
  5
6A62
  8
UMCL1
 10
4991.7439397825756
 20
4664.9177296046837
 30
0.0
 11
4992.2439397825747
 21
4665.4177296046828
 31
0.0
  0
CIRCLE
  5
6A63
  8
UMCL1
 10
5034.2439397825756
 20
4581.9163828608534
 30
0.0
 40
6.0
  0
CIRCLE
  5
6A64
  8
UMCL1
 10
5034.2439397825756
 20
4581.9163828608534
 30
0.0
 40
5.0
  0
ARC
  5
6A65
  8
UMCL1
 62
     2
 10
5034.2439397825756
 20
4581.9163828608534
 30
0.0
 40
5.25
 50
72.703603885943423
 51
13.903758477005789
  0
LINE
  5
6A66
  8
CEN
 10
5052.2439397825756
 20
4581.9163828608534
 30
0.0
 11
5016.2439397825756
 21
4581.9163828608534
 31
0.0
  0
POLYLINE
  5
6A67
  8
UMCL1
 66
     1
 10
0.0
 20
0.0
 30
0.0
 70
     1
  0
VERTEX
  5
761A
  8
UMCL1
 10
5032.5118889750074
 20
4584.9163828608534
 30
0.0
  0
VERTEX
  5
761B
  8
UMCL1
 10
5030.7798381674393
 20
4581.9163828608534
 30
0.0
  0
VERTEX
  5
761C
  8
UMCL1
 10
5032.5118889750074
 20
4578.9163828608534
 30
0.0
  0
VERTEX
  5
761D
  8
UMCL1
 10
5035.9759905901446
 20
4578.9163828608534
 30
0.0
  0
VERTEX
  5
761E
  8
UMCL1
 10
5037.7080413977128
 20
4581.9163828608534
 30
0.0
  0
VERTEX
  5
761F
  8
UMCL1
 10
5035.9759905901446
 20
4584.9163828608534
 30
0.0
  0
SEQEND
  5
7620
  8
UMCL1
  0
LINE
  5
6A68
  8
UMCL1
 10
5026.7439397825747
 20
4664.9177296046837
 30
0.0
 11
5026.7439397825747
 21
4664.4163828608562
 31
0.0
  0
LINE
  5
6A69
  8
UMCL1
 10
5026.7439397825747
 20
4664.9177296046837
 30
0.0
 11
5026.2439397825756
 21
4665.4177296046828
 31
0.0
  0
LINE
  5
6A6A
  8
UMCL1
 10
5057.2439397825747
 20
4652.7163828608554
 30
0.0
 11
5057.2439397825747
 21
4664.116382860856
 31
0.0
  0
LINE
  5
6A6B
  8
UMCL1
 10
5057.2439397825747
 20
4652.7163828608554
 30
0.0
 11
5056.9439397825763
 21
4652.4163828608553
 31
0.0
  0
LINE
  5
6A6C
  8
UMCL1
 10
5060.7439397825747
 20
4651.4163828608553
 30
0.0
 11
5059.7439397825756
 21
4652.4163828608553
 31
0.0
  0
LINE
  5
6A6D
  8
UMCL1
 10
5057.2439397825747
 20
4664.116382860856
 30
0.0
 11
5056.9439397825763
 21
4664.4163828608562
 31
0.0
  0
LINE
  5
6A6E
  8
UMCL1
 10
5023.2439397825756
 20
4714.4177296046837
 30
0.0
 11
4995.2439397825747
 21
4714.4177296046837
 31
0.0
  0
LINE
  5
6A6F
  8
UMCL1
 10
4996.2439397825747
 20
4715.4177296046828
 30
0.0
 11
5022.2439397825756
 21
4715.4177296046828
 31
0.0
  0
LINE
  5
6A70
  8
UMCL1
 10
4995.2439397825747
 20
4666.4177296046837
 30
0.0
 11
5023.2439397825756
 21
4666.4177296046837
 31
0.0
  0
LINE
  5
6A71
  8
CEN
 10
5002.0355549849928
 20
4708.9177296046828
 30
0.0
 11
5016.4523245801583
 21
4708.9177296046828
 31
0.0
  0
LINE
  5
6A72
  8
CEN
 10
5002.0355549849928
 20
4671.9177296046828
 30
0.0
 11
5016.4523245801583
 21
4671.9177296046828
 31
0.0
  0
LINE
  5
6A73
  8
UMCL1
 10
4995.2439397825747
 20
4714.4177296046837
 30
0.0
 11
4995.2439397825747
 21
4666.4177296046837
 31
0.0
  0
LINE
  5
6A74
  8
UMCL1
 10
4996.2439397825747
 20
4715.4177296046828
 30
0.0
 11
4995.2439397825747
 21
4714.4177296046837
 31
0.0
  0
LINE
  5
6A75
  8
HIDDEN
 10
5013.2439397825756
 20
4715.4177296046828
 30
0.0
 11
5013.2439397825756
 21
4700.4177296046837
 31
0.0
  0
LINE
  5
6A76
  8
HIDDEN
 10
5012.4939397825756
 20
4715.4177296046828
 30
0.0
 11
5012.4939397825756
 21
4695.4177296046837
 31
0.0
  0
LINE
  5
6A77
  8
UMCL1
 10
5023.2439397825756
 20
4714.4177296046837
 30
0.0
 11
5023.2439397825756
 21
4666.4177296046837
 31
0.0
  0
LINE
  5
6A78
  8
HIDDEN
 10
5005.2439397825756
 20
4715.4177296046828
 30
0.0
 11
5005.2439397825756
 21
4700.4177296046837
 31
0.0
  0
LINE
  5
6A79
  8
HIDDEN
 10
5005.9939397825756
 20
4715.4177296046828
 30
0.0
 11
5005.9939397825756
 21
4695.4177296046837
 31
0.0
  0
ARC
  5
6A7A
  8
HIDDEN
 10
5009.2439397825747
 20
4708.9177296046828
 30
0.0
 40
4.0
 50
0.0
 51
180.0
  0
LINE
  5
6A7B
  8
HIDDEN
 10
5013.2439397825756
 20
4708.4177296046837
 30
0.0
 11
5013.2439397825756
 21
4671.9177296046828
 31
0.0
  0
LINE
  5
6A7C
  8
HIDDEN
 10
5005.2439397825756
 20
4708.4177296046837
 30
0.0
 11
5005.2439397825756
 21
4671.9177296046828
 31
0.0
  0
ARC
  5
6A7D
  8
HIDDEN
 10
5009.2439397825747
 20
4671.9177296046828
 30
0.0
 40
4.0
 50
180.0
 51
0.0
  0
LINE
  5
6A7E
  8
HIDDEN
 10
5012.4939397825756
 20
4695.4177296046837
 30
0.0
 11
5009.2439397825747
 21
4693.4177296046837
 31
0.0
  0
LINE
  5
6A7F
  8
HIDDEN
 10
5005.9939397825756
 20
4695.4177296046837
 30
0.0
 11
5012.4939397825756
 21
4695.4177296046837
 31
0.0
  0
LINE
  5
6A80
  8
HIDDEN
 10
5009.2439397825747
 20
4693.4177296046837
 30
0.0
 11
5005.9939397825756
 21
4695.4177296046837
 31
0.0
  0
LINE
  5
6A81
  8
HIDDEN
 10
5005.2439397825756
 20
4700.4177296046837
 30
0.0
 11
5013.2439397825756
 21
4700.4177296046837
 31
0.0
  0
LINE
  5
6A82
  8
UMCL1
 10
5023.2439397825756
 20
4714.4177296046837
 30
0.0
 11
5022.2439397825756
 21
4715.4177296046828
 31
0.0
  0
LINE
  5
6A83
  8
UMCL2
 10
4599.1686523121862
 20
4543.2163828608564
 30
0.0
 11
4599.1686523121862
 21
4526.9163828608544
 31
0.0
  0
LINE
  5
6A84
  8
UMCL2
 10
4695.1686523121862
 20
4543.2163828608536
 30
0.0
 11
4695.1686523121862
 21
4526.9163828608544
 31
0.0
  0
LINE
  5
6A85
  8
UMCL2
 10
4599.1686523121862
 20
4529.4163828608544
 30
0.0
 11
4695.1686523121862
 21
4529.4163828608544
 31
0.0
  0
SOLID
  5
6A86
  8
UMCL2
 10
4604.1686523121853
 20
4530.2497161941883
 30
0.0
 11
4604.1686523121853
 21
4528.5830495275213
 31
0.0
 12
4599.1686523121862
 22
4529.4163828608544
 32
0.0
 13
4599.1686523121862
 23
4529.4163828608544
 33
0.0
  0
SOLID
  5
6A87
  8
UMCL2
 10
4690.1686523121862
 20
4530.2497161941883
 30
0.0
 11
4690.1686523121862
 21
4528.5830495275213
 31
0.0
 12
4695.1686523121862
 22
4529.4163828608544
 32
0.0
 13
4695.1686523121862
 23
4529.4163828608544
 33
0.0
  0
TEXT
  5
6A88
  8
UMCL2
 10
4639.1939258173634
 20
4531.8163828608549
 30
0.0
 40
6.0
  1
\U+220596
 41
0.85
 51
15.0
  7
ROMANS
  0
LINE
  5
6A89
  8
UMCL2
 10
4594.6380401016268
 20
4555.9163828608544
 30
0.0
 11
4594.6380401016268
 21
4510.9163828608544
 31
0.0
  0
LINE
  5
6A8A
  8
UMCL2
 10
4699.6380401016277
 20
4555.9163828608544
 30
0.0
 11
4699.6380401016277
 21
4510.9163828608544
 31
0.0
  0
LINE
  5
6A8B
  8
UMCL2
 10
4462.823692876249
 20
4513.4163828608544
 30
0.0
 11
4826.7480508494828
 21
4513.4163828608544
 31
0.0
  0
SOLID
  5
6A8C
  8
UMCL2
 10
4599.6380401016268
 20
4514.2497161941883
 30
0.0
 11
4599.6380401016268
 21
4512.5830495275213
 31
0.0
 12
4594.6380401016268
 22
4513.4163828608544
 32
0.0
 13
4594.6380401016268
 23
4513.4163828608544
 33
0.0
  0
SOLID
  5
6A8D
  8
UMCL2
 10
4694.6380401016277
 20
4514.2497161941883
 30
0.0
 11
4694.6380401016277
 21
4512.5830495275213
 31
0.0
 12
4699.6380401016277
 22
4513.4163828608544
 32
0.0
 13
4699.6380401016277
 23
4513.4163828608544
 33
0.0
  0
TEXT
  5
6A8E
  8
UMCL2
 10
4637.8367118795886
 20
4515.8163828608549
 30
0.0
 40
6.0
  1
105
 41
0.85
 51
15.0
  7
ROMANS
  0
LINE
  5
6A8F
  8
UMCL2
 10
4804.6386523121846
 20
4577.9163828608553
 30
0.0
 11
4804.6386523121846
 21
4494.9163828608544
 31
0.0
  0
LINE
  5
6A90
  8
UMCL2
 10
4489.6386523121846
 20
4497.4163828608544
 30
0.0
 11
4804.6386523121846
 21
4497.4163828608544
 31
0.0
  0
SOLID
  5
6A91
  8
UMCL2
 10
4799.6386523121846
 20
4498.2497161941883
 30
0.0
 11
4799.6386523121846
 21
4496.5830495275213
 31
0.0
 12
4804.6386523121846
 22
4497.4163828608544
 32
0.0
 13
4804.6386523121846
 23
4497.4163828608544
 33
0.0
  0
TEXT
  5
6A92
  8
UMCL2
 10
4639.0234051963598
 20
4499.8163828608549
 30
0.0
 40
6.0
  1
315
 41
0.85
 51
15.0
  7
ROMANS
  0
SOLID
  5
6A93
  8
UMCL2
 10
4589.6380401016277
 20
4514.2497161941883
 30
0.0
 11
4589.6380401016277
 21
4512.5830495275213
 31
0.0
 12
4594.6380401016268
 22
4513.4163828608544
 32
0.0
 13
4594.6380401016268
 23
4513.4163828608544
 33
0.0
  0
LINE
  5
6A94
  8
UMCL2
 10
4778.6386523121846
 20
4577.9163828608553
 30
0.0
 11
4778.6386523121846
 21
4510.9163828608544
 31
0.0
  0
SOLID
  5
6A95
  8
UMCL2
 10
4773.6386523121846
 20
4514.2497161941883
 30
0.0
 11
4773.6386523121846
 21
4512.5830495275213
 31
0.0
 12
4778.6386523121846
 22
4513.4163828608544
 32
0.0
 13
4778.6386523121846
 23
4513.4163828608544
 33
0.0
  0
SOLID
  5
6A96
  8
UMCL2
 10
4783.6386523121864
 20
4514.2497161941883
 30
0.0
 11
4783.6386523121864
 21
4512.5830495275213
 31
0.0
 12
4778.6386523121846
 22
4513.4163828608544
 32
0.0
 13
4778.6386523121846
 23
4513.4163828608544
 33
0.0
  0
SOLID
  5
6A97
  8
UMCL2
 10
4799.6986523121859
 20
4514.2497161941883
 30
0.0
 11
4799.6986523121859
 21
4512.5830495275213
 31
0.0
 12
4804.6986523121859
 22
4513.4163828608544
 32
0.0
 13
4804.6986523121859
 23
4513.4163828608544
 33
0.0
  0
SOLID
  5
6A98
  8
UMCL2
 10
4704.6870196385198
 20
4514.2497161941883
 30
0.0
 11
4704.6870196385198
 21
4512.5830495275213
 31
0.0
 12
4699.6870196385198
 22
4513.4163828608544
 32
0.0
 13
4699.6870196385198
 23
4513.4163828608544
 33
0.0
  0
TEXT
  5
6A99
  8
UMCL2
 10
4786.9893551064406
 20
4515.8163828608549
 30
0.0
 40
6.0
  1
26
 41
0.85
 51
15.0
  7
ROMANS
  0
TEXT
  5
6A9A
  8
UMCL2
 10
4727.9468256028222
 20
4515.8163828608549
 30
0.0
 40
6.0
  1
79
 41
0.85
 51
15.0
  7
ROMANS
  0
LINE
  5
6A9B
  8
UMCL2
 10
4813.6386523121846
 20
4582.095792404848
 30
0.0
 11
4813.6386523121846
 21
4510.9163828608544
 31
0.0
  0
SOLID
  5
6A9C
  8
UMCL2
 10
4818.6386523121846
 20
4514.2497161941883
 30
0.0
 11
4818.6386523121846
 21
4512.5830495275213
 31
0.0
 12
4813.6386523121846
 22
4513.4163828608544
 32
0.0
 13
4813.6386523121846
 23
4513.4163828608544
 33
0.0
  0
TEXT
  5
6A9D
  8
UMCL2
 10
4819.5491976530993
 20
4515.8163828608549
 30
0.0
 40
6.0
  1
9
 41
0.85
 51
15.0
  7
ROMANS
  0
LINE
  5
6A9E
  8
UMCL2
 10
5062.2439397825747
 20
4557.4163828608553
 30
0.0
 11
5079.2439397825756
 21
4557.4163828608553
 31
0.0
  0
LINE
  5
6A9F
  8
UMCL2
 10
5062.2439397825747
 20
4652.4163828608553
 30
0.0
 11
5079.2439397825756
 21
4652.4163828608553
 31
0.0
  0
LINE
  5
6AA0
  8
UMCL2
 10
5076.7439397825747
 20
4527.470632818895
 30
0.0
 11
5076.7439397825747
 21
4681.6665348901943
 31
0.0
  0
SOLID
  5
6AA1
  8
UMCL2
 10
5075.9106064492407
 20
4562.4163828608553
 30
0.0
 11
5077.5772731159086
 21
4562.4163828608553
 31
0.0
 12
5076.7439397825747
 22
4557.4163828608553
 32
0.0
 13
5076.7439397825747
 23
4557.4163828608553
 33
0.0
  0
SOLID
  5
6AA2
  8
UMCL2
 10
5075.9106064492407
 20
4647.4163828608553
 30
0.0
 11
5077.5772731159086
 21
4647.4163828608553
 31
0.0
 12
5076.7439397825747
 22
4652.4163828608553
 32
0.0
 13
5076.7439397825747
 23
4652.4163828608553
 33
0.0
  0
TEXT
  5
6AA3
  8
UMCL2
 10
5074.3439397825759
 20
4599.0681734880181
 30
0.0
 40
6.0
  1
95
 50
90.0
 41
0.85
 51
15.0
  7
ROMANS
  0
LINE
  5
6AA4
  8
UMCL2
 10
5059.4439397825772
 20
4545.4163828608544
 30
0.0
 11
5095.2439397825756
 21
4545.4163828608544
 31
0.0
  0
LINE
  5
6AA5
  8
UMCL2
 10
5059.4439397825772
 20
4664.4163828608562
 30
0.0
 11
5095.2439397825756
 21
4664.4163828608562
 31
0.0
  0
LINE
  5
6AA6
  8
UMCL2
 10
5092.7439397825747
 20
4545.4163828608544
 30
0.0
 11
5092.7439397825747
 21
4715.4177296046828
 31
0.0
  0
SOLID
  5
6AA7
  8
UMCL2
 10
5091.9106064492416
 20
4550.4163828608553
 30
0.0
 11
5093.5772731159086
 21
4550.4163828608553
 31
0.0
 12
5092.7439397825747
 22
4545.4163828608544
 32
0.0
 13
5092.7439397825747
 23
4545.4163828608544
 33
0.0
  0
SOLID
  5
6AA8
  8
UMCL2
 10
5091.9106064492416
 20
4659.4163828608571
 30
0.0
 11
5093.5772731159086
 21
4659.4163828608571
 31
0.0
 12
5092.7439397825747
 22
4664.4163828608562
 32
0.0
 13
5092.7439397825747
 23
4664.4163828608562
 33
0.0
  0
TEXT
  5
6AA9
  8
UMCL2
 10
5090.343939782575
 20
4596.0192727958174
 30
0.0
 40
6.0
  1
119
 50
90.0
 41
0.85
 51
15.0
  7
ROMANS
  0
SOLID
  5
6AAA
  8
UMCL2
 10
5075.9106064492407
 20
4540.4163828608544
 30
0.0
 11
5077.5772731159086
 21
4540.4163828608544
 31
0.0
 12
5076.7439397825747
 22
4545.4163828608544
 32
0.0
 13
5076.7439397825747
 23
4545.4163828608544
 33
0.0
  0
TEXT
  5
6AAB
  8
UMCL2
 10
5074.3439397825759
 20
4529.3444729917483
 30
0.0
 40
6.0
  1
12
 50
90.0
 41
0.85
 51
15.0
  7
ROMANS
  0
SOLID
  5
6AAC
  8
UMCL2
 10
5075.9106064492407
 20
4669.4163828608553
 30
0.0
 11
5077.5772731159086
 21
4669.4163828608553
 31
0.0
 12
5076.7439397825747
 22
4664.4163828608562
 32
0.0
 13
5076.7439397825747
 23
4664.4163828608562
 33
0.0
  0
TEXT
  5
6AAD
  8
UMCL2
 10
5074.3439397825759
 20
4668.3349103534501
 30
0.0
 40
6.0
  1
12
 50
90.0
 41
0.85
 51
15.0
  7
ROMANS
  0
LINE
  5
6AAE
  8
UMCL2
 10
5059.4439397825772
 20
4545.4163828608544
 30
0.0
 11
5111.2439397825756
 21
4545.4163828608544
 31
0.0
  0
LINE
  5
6AAF
  8
UMCL2
 10
5024.7439397825756
 20
4715.4177296046828
 30
0.0
 11
5111.2439397825756
 21
4715.4177296046828
 31
0.0
  0
LINE
  5
6AB0
  8
UMCL2
 10
5108.7439397825747
 20
4545.4163828608544
 30
0.0
 11
5108.7439397825747
 21
4709.1677296046837
 31
0.0
  0
SOLID
  5
6AB1
  8
UMCL2
 10
5107.9106064492407
 20
4550.4163828608553
 30
0.0
 11
5109.5772731159086
 21
4550.4163828608553
 31
0.0
 12
5108.7439397825747
 22
4545.4163828608544
 32
0.0
 13
5108.7439397825747
 23
4545.4163828608544
 33
0.0
  0
SOLID
  5
6AB2
  8
UMCL2
 10
5107.9106064492407
 20
4710.4177296046828
 30
0.0
 11
5109.5772731159086
 21
4710.4177296046828
 31
0.0
 12
5108.7439397825747
 22
4715.4177296046828
 32
0.0
 13
5108.7439397825747
 23
4715.4177296046828
 33
0.0
  0
TEXT
  5
6AB3
  8
UMCL2
 10
5106.3439397825759
 20
4621.0056081940083
 30
0.0
 40
6.0
  1
170
 50
90.0
 41
0.85
 51
15.0
  7
ROMANS
  0
SOLID
  5
6AB4
  8
UMCL2
 10
5091.9106064492416
 20
4669.4163828608553
 30
0.0
 11
5093.5772731159086
 21
4669.4163828608553
 31
0.0
 12
5092.7439397825747
 22
4664.4163828608562
 32
0.0
 13
5092.7439397825747
 23
4664.4163828608562
 33
0.0
  0
SOLID
  5
6AB5
  8
UMCL2
 10
5091.9106064492416
 20
4710.4177296046828
 30
0.0
 11
5093.5772731159086
 21
4710.4177296046828
 31
0.0
 12
5092.7439397825747
 22
4715.4177296046828
 32
0.0
 13
5092.7439397825747
 23
4715.4177296046828
 33
0.0
  0
TEXT
  5
6AB6
  8
UMCL2
 10
5090.343939782575
 20
4684.6207766115476
 30
0.0
 40
6.0
  1
51
 50
90.0
 41
0.85
 51
15.0
  7
ROMANS
  0
LINE
  5
6AB7
  8
UMCL2
 10
4627.6686523121862
 20
4667.9177296046837
 30
0.0
 11
4587.307427891069
 21
4667.9177296046837
 31
0.0
  0
LINE
  5
6AB8
  8
UMCL2
 10
4627.6686523121862
 20
4712.9177296046837
 30
0.0
 11
4587.307427891069
 21
4712.9177296046837
 31
0.0
  0
LINE
  5
6AB9
  8
UMCL2
 10
4589.807427891069
 20
4667.9177296046837
 30
0.0
 11
4589.807427891069
 21
4741.2381006662081
 31
0.0
  0
SOLID
  5
6ABA
  8
UMCL2
 10
4588.765761224402
 20
4674.1677296046828
 30
0.0
 11
4590.849094557735
 21
4674.1677296046828
 31
0.0
 12
4589.807427891069
 22
4667.9177296046837
 32
0.0
 13
4589.807427891069
 23
4667.9177296046837
 33
0.0
  0
SOLID
  5
6ABB
  8
UMCL2
 10
4588.765761224402
 20
4706.6677296046837
 30
0.0
 11
4590.849094557735
 21
4706.6677296046837
 31
0.0
 12
4589.807427891069
 22
4712.9177296046837
 32
0.0
 13
4589.807427891069
 23
4712.9177296046837
 33
0.0
  0
TEXT
  5
6ABC
  8
UMCL2
 10
4586.807427891069
 20
4683.3101264996703
 30
0.0
 40
7.5
  1
45
 50
90.0
 41
0.85
 51
15.0
  7
ROMANS
  0
LINE
  5
6ABD
  8
UMCL2
 10
4627.6686523121862
 20
4665.4177296046828
 30
0.0
 11
4567.6074278910683
 21
4665.4177296046828
 31
0.0
  0
LINE
  5
6ABE
  8
UMCL2
 10
4631.6686523121853
 20
4715.4177296046828
 30
0.0
 11
4567.6074278910683
 21
4715.4177296046828
 31
0.0
  0
LINE
  5
6ABF
  8
UMCL2
 10
4570.1074278910692
 20
4651.259897990004
 30
0.0
 11
4570.1074278910692
 21
4709.1677296046837
 31
0.0
  0
SOLID
  5
6AC0
  8
UMCL2
 10
4569.0657612244022
 20
4671.6677296046837
 30
0.0
 11
4571.1490945577352
 21
4671.6677296046837
 31
0.0
 12
4570.1074278910692
 22
4665.4177296046828
 32
0.0
 13
4570.1074278910692
 23
4665.4177296046828
 33
0.0
  0
SOLID
  5
6AC1
  8
UMCL2
 10
4569.0657612244022
 20
4709.1677296046837
 30
0.0
 11
4571.1490945577352
 21
4709.1677296046837
 31
0.0
 12
4570.1074278910692
 22
4715.4177296046828
 32
0.0
 13
4570.1074278910692
 23
4715.4177296046828
 33
0.0
  0
TEXT
  5
6AC2
  8
UMCL2
 10
4567.1074278910692
 20
4683.4932772759239
 30
0.0
 40
7.5
  1
50
 50
90.0
 41
0.85
 51
15.0
  7
ROMANS
  0
LINE
  5
6AC3
  8
UMCL2
 10
4596.9686523121864
 20
4664.4163828608553
 30
0.0
 11
4567.6074278910683
 21
4664.4163828608553
 31
0.0
  0
SOLID
  5
6AC4
  8
UMCL2
 10
4569.0657612244022
 20
4658.1663828608544
 30
0.0
 11
4571.1490945577352
 21
4658.1663828608544
 31
0.0
 12
4570.1074278910692
 22
4664.4163828608553
 32
0.0
 13
4570.1074278910692
 23
4664.4163828608553
 33
0.0
  0
TEXT
  5
6AC5
  8
UMCL2
 10
4567.1074278910692
 20
4651.5041132025262
 30
0.0
 40
7.5
  1
1
 50
90.0
 41
0.85
 51
15.0
  7
ROMANS
  0
SOLID
  5
6AC6
  8
UMCL2
 10
4588.765761224402
 20
4721.6677296046837
 30
0.0
 11
4590.849094557735
 21
4721.6677296046837
 31
0.0
 12
4589.8074278910681
 22
4715.4177296046828
 32
0.0
 13
4589.8074278910681
 23
4715.4177296046828
 33
0.0
  0
TEXT
  5
6AC7
  8
UMCL2
 10
4586.807427891069
 20
4723.0741124526494
 30
0.0
 40
7.5
  1
2.5
 50
90.0
 41
0.85
 51
15.0
  7
ROMANS
  0
LINE
  5
6AC8
  8
UMCL2
 10
5027.0693448122311
 20
4680.7367434478692
 30
0.0
 11
4980.2591030776421
 21
4680.7367434478692
 31
0.0
  0
LINE
  5
6AC9
  8
UMCL2
 10
4630.1686523121862
 20
4715.4177296046828
 30
0.0
 11
4630.1686523121862
 21
4733.9177296046828
 31
0.0
  0
LINE
  5
6ACA
  8
UMCL2
 10
4661.1686523121862
 20
4716.9177296046828
 30
0.0
 11
4661.1686523121862
 21
4733.9177296046828
 31
0.0
  0
LINE
  5
6ACB
  8
UMCL2
 10
4636.4186523121862
 20
4731.4177296046828
 30
0.0
 11
4654.9186523121853
 21
4731.4177296046828
 31
0.0
  0
SOLID
  5
6ACC
  8
UMCL2
 10
4636.4186523121862
 20
4732.4593962713498
 30
0.0
 11
4636.4186523121862
 21
4730.3760629380167
 31
0.0
 12
4630.1686523121862
 22
4731.4177296046828
 32
0.0
 13
4630.1686523121862
 23
4731.4177296046828
 33
0.0
  0
SOLID
  5
6ACD
  8
UMCL2
 10
4654.9186523121853
 20
4732.4593962713498
 30
0.0
 11
4654.9186523121853
 21
4730.3760629380167
 31
0.0
 12
4661.1686523121862
 22
4731.4177296046828
 32
0.0
 13
4661.1686523121862
 23
4731.4177296046828
 33
0.0
  0
TEXT
  5
6ACE
  8
UMCL2
 10
4640.5831194820748
 20
4733.8177296046833
 30
0.0
 40
6.0
  1
31
 41
0.85
 51
15.0
  7
ROMANS
  0
LINE
  5
6ACF
  8
UMCL2
 10
4695.1686523121862
 20
4666.6163828608551
 30
0.0
 11
4695.1686523121862
 21
4749.9177296046837
 31
0.0
  0
LINE
  5
6AD0
  8
UMCL2
 10
4599.1686523121862
 20
4666.6163828608533
 30
0.0
 11
4599.1686523121862
 21
4749.9177296046837
 31
0.0
  0
LINE
  5
6AD1
  8
UMCL2
 10
4695.1686523121862
 20
4747.4177296046828
 30
0.0
 11
4599.1686523121862
 21
4747.4177296046828
 31
0.0
  0
SOLID
  5
6AD2
  8
UMCL2
 10
4690.1686523121862
 20
4748.2510629380158
 30
0.0
 11
4690.1686523121862
 21
4746.5843962713498
 31
0.0
 12
4695.1686523121862
 22
4747.4177296046828
 32
0.0
 13
4695.1686523121862
 23
4747.4177296046828
 33
0.0
  0
SOLID
  5
6AD3
  8
UMCL2
 10
4604.1686523121853
 20
4748.2510629380158
 30
0.0
 11
4604.1686523121853
 21
4746.5843962713498
 31
0.0
 12
4599.1686523121862
 22
4747.4177296046828
 32
0.0
 13
4599.1686523121862
 23
4747.4177296046828
 33
0.0
  0
TEXT
  5
6AD4
  8
UMCL2
 10
4639.1939258173634
 20
4749.8177296046833
 30
0.0
 40
6.0
  1
\U+220596
 41
0.85
 51
15.0
  7
ROMANS
  0
LINE
  5
6AD5
  8
UMCL2
 10
5023.2439397825756
 20
4716.9177296046828
 30
0.0
 11
5023.2439397825756
 21
4733.9177296046828
 31
0.0
  0
LINE
  5
6AD6
  8
UMCL2
 10
4995.2439397825747
 20
4716.9177296046828
 30
0.0
 11
4995.2439397825747
 21
4733.9177296046828
 31
0.0
  0
LINE
  5
6AD7
  8
UMCL2
 10
5023.2439397825756
 20
4731.4177296046828
 30
0.0
 11
4995.2439397825747
 21
4731.4177296046828
 31
0.0
  0
SOLID
  5
6AD8
  8
UMCL2
 10
5018.2439397825756
 20
4732.2510629380176
 30
0.0
 11
5018.2439397825756
 21
4730.5843962713507
 31
0.0
 12
5023.2439397825756
 22
4731.4177296046828
 32
0.0
 13
5023.2439397825756
 23
4731.4177296046828
 33
0.0
  0
SOLID
  5
6AD9
  8
UMCL2
 10
5000.2439397825747
 20
4732.2510629380176
 30
0.0
 11
5000.2439397825747
 21
4730.5843962713507
 31
0.0
 12
4995.2439397825747
 22
4731.4177296046828
 32
0.0
 13
4995.2439397825747
 23
4731.4177296046828
 33
0.0
  0
TEXT
  5
6ADA
  8
UMCL2
 10
5001.2692132877528
 20
4733.8177296046842
 30
0.0
 40
6.0
  1
\U+220528
 41
0.85
 51
15.0
  7
ROMANS
  0
LINE
  5
6ADB
  8
UMCL2
 10
5060.7439397825747
 20
4555.9163828608553
 30
0.0
 11
5060.7439397825747
 21
4510.9163828608544
 31
0.0
  0
LINE
  5
6ADC
  8
UMCL2
 10
4925.7439397825747
 20
4555.9163828608562
 30
0.0
 11
4925.7439397825747
 21
4510.9163828608544
 31
0.0
  0
LINE
  5
6ADD
  8
UMCL2
 10
5060.7439397825747
 20
4513.4163828608544
 30
0.0
 11
4925.7439397825747
 21
4513.4163828608544
 31
0.0
  0
SOLID
  5
6ADE
  8
UMCL2
 10
5055.7439397825756
 20
4514.2497161941883
 30
0.0
 11
5055.7439397825756
 21
4512.5830495275213
 31
0.0
 12
5060.7439397825747
 22
4513.4163828608544
 32
0.0
 13
5060.7439397825747
 23
4513.4163828608544
 33
0.0
  0
SOLID
  5
6ADF
  8
UMCL2
 10
4930.7439397825756
 20
4514.2497161941883
 30
0.0
 11
4930.7439397825756
 21
4512.5830495275213
 31
0.0
 12
4925.7439397825747
 22
4513.4163828608544
 32
0.0
 13
4925.7439397825747
 23
4513.4163828608544
 33
0.0
  0
TEXT
  5
6AE0
  8
UMCL2
 10
4984.4258064909964
 20
4515.8163828608549
 30
0.0
 40
6.0
  1
135
 41
0.85
 51
15.0
  7
ROMANS
  0
LINE
  5
6AE1
  8
UMCL2
 10
5009.2439397825747
 20
4539.9163828608544
 30
0.0
 11
5009.2439397825747
 21
4526.9163828608544
 31
0.0
  0
LINE
  5
6AE2
  8
UMCL2
 10
4973.2439397825756
 20
4529.4163828608544
 30
0.0
 11
5060.7439397825747
 21
4529.4163828608544
 31
0.0
  0
SOLID
  5
6AE3
  8
UMCL2
 10
5004.2439397825747
 20
4530.2497161941874
 30
0.0
 11
5004.2439397825747
 21
4528.5830495275204
 31
0.0
 12
5009.2439397825747
 22
4529.4163828608544
 32
0.0
 13
5009.2439397825747
 23
4529.4163828608544
 33
0.0
  0
TEXT
  5
6AE4
  8
UMCL2
 10
4985.9719330926473
 20
4531.816382860854
 30
0.0
 40
6.0
  1
36
 41
0.85
 51
15.0
  7
ROMANS
  0
TEXT
  5
6AE5
  8
UMCL2
 10
4982.5428220525373
 20
4682.8511027748191
 30
0.0
 40
6.0
  1
8
 41
0.85
 51
15.0
  7
ROMANS
  0
SOLID
  5
6AE6
  8
UMCL2
 10
5000.2439397825747
 20
4681.5700767812014
 30
0.0
 11
5000.2439397825747
 21
4679.9034101145353
 31
0.0
 12
5005.2439397825756
 22
4680.7367434478692
 32
0.0
 13
5005.2439397825756
 23
4680.7367434478692
 33
0.0
  0
SOLID
  5
6AE7
  8
UMCL2
 10
5018.2439397825756
 20
4681.5700767812014
 30
0.0
 11
5018.2439397825756
 21
4679.9034101145353
 31
0.0
 12
5013.2439397825756
 22
4680.7367434478692
 32
0.0
 13
5013.2439397825756
 23
4680.7367434478692
 33
0.0
  0
LINE
  5
6AE8
  8
UMCL2
 10
4606.1386523121846
 20
4938.6112699496898
 30
0.0
 11
4606.1386523121846
 21
4953.1112699496889
 31
0.0
  0
LINE
  5
6AE9
  8
UMCL2
 10
4688.1386523121846
 20
4938.6112699496898
 30
0.0
 11
4688.1386523121846
 21
4953.1112699496889
 31
0.0
  0
LINE
  5
6AEA
  8
UMCL2
 10
4606.1386523121846
 20
4950.6112699496889
 30
0.0
 11
4688.1386523121846
 21
4950.6112699496889
 31
0.0
  0
SOLID
  5
6AEB
  8
UMCL2
 10
4611.1386523121864
 20
4951.4446032830219
 30
0.0
 11
4611.1386523121864
 21
4949.7779366163568
 31
0.0
 12
4606.1386523121846
 22
4950.6112699496889
 32
0.0
 13
4606.1386523121846
 23
4950.6112699496889
 33
0.0
  0
SOLID
  5
6AEC
  8
UMCL2
 10
4683.1386523121864
 20
4951.4446032830219
 30
0.0
 11
4683.1386523121864
 21
4949.7779366163568
 31
0.0
 12
4688.1386523121846
 22
4950.6112699496889
 32
0.0
 13
4688.1386523121846
 23
4950.6112699496889
 33
0.0
  0
TEXT
  5
6AED
  8
UMCL2
 10
4641.5990904491791
 20
4953.0112699496904
 30
0.0
 40
6.0
  1
82
 41
0.85
 51
15.0
  7
ROMANS
  0
LINE
  5
6AEE
  8
UMCL2
 10
4636.4498480599104
 20
4958.4776007963601
 30
0.0
 11
4641.2771610102591
 21
4958.4776007963601
 31
0.0
  0
LINE
  5
6AEF
  8
UMCL2
 10
4641.2771610102591
 20
4958.4776007963601
 30
0.0
 11
4641.2771610102591
 21
4953.6160340461556
 31
0.0
  0
LINE
  5
6AF0
  8
UMCL2
 10
4641.2771610102591
 20
4953.6160340461556
 30
0.0
 11
4636.4498480599104
 21
4953.6160340461556
 31
0.0
  0
LINE
  5
6AF1
  8
UMCL2
 10
4636.4498480599104
 20
4953.6160340461556
 30
0.0
 11
4636.4498480599104
 21
4958.4776007963601
 31
0.0
  0
LINE
  5
6AF2
  8
UMCL2
 10
4698.6743035099344
 20
4764.0142087233035
 30
0.0
 11
4647.1686523121862
 21
4715.4177296046828
 31
0.0
  0
SOLID
  5
6AF3
  8
UMCL2
 10
4650.233511344647
 20
4719.4551896423291
 30
0.0
 11
4651.3772897875342
 21
4718.2429402243597
 31
0.0
 12
4647.1686523121862
 22
4715.4177296046828
 32
0.0
 13
4647.1686523121862
 23
4715.4177296046828
 33
0.0
  0
LINE
  5
6AF4
  8
UMCL2
 10
4712.9315755015314
 20
4948.9041931390348
 30
0.0
 11
4691.6741862181188
 21
4927.6468038556231
 31
0.0
  0
SOLID
  5
6AF5
  8
UMCL2
 10
4694.6204644730633
 20
4931.7715934125436
 30
0.0
 11
4695.7989757750402
 21
4930.5930821105658
 31
0.0
 12
4691.6741862181188
 22
4927.6468038556231
 32
0.0
 13
4691.6741862181188
 23
4927.6468038556231
 33
0.0
  0
TEXT
  5
6AF6
  8
UMCL2
 10
4716.2221805804002
 20
4952.3041931390353
 30
0.0
 40
6.0
  1
2x4-M10x20dp
 41
0.85
 51
15.0
  7
ROMANS
  0
LINE
  5
6AF7
  8
UMCL2
 10
4712.9315755015314
 20
4948.9041931390348
 30
0.0
 11
4773.714122514607
 21
4948.9041931390348
 31
0.0
  0
LINE
  5
6AF8
  8
UMCL2
 10
4698.6743035099344
 20
4764.0142087233035
 30
0.0
 11
4738.1966735869928
 21
4764.0142087233035
 31
0.0
  0
TEXT
  5
6AF9
  8
UMCL2
 10
4701.2753459975056
 20
4767.4142087233031
 30
0.0
 40
6.0
  1
M8x15dp
 41
0.85
 51
15.0
  7
ROMANS
  0
LINE
  5
6AFA
  8
UMCL2
 10
4747.2474738547717
 20
4664.886869664273
 30
0.0
 11
4788.6048648635251
 21
4611.561037736431
 31
0.0
  0
SOLID
  5
6AFB
  8
UMCL2
 10
4786.1991245739782
 20
4616.0227479582754
 30
0.0
 11
4784.8821234365978
 21
4615.0013343388628
 31
0.0
 12
4788.6048648635251
 22
4611.561037736431
 32
0.0
 13
4788.6048648635251
 23
4611.561037736431
 33
0.0
  0
LINE
  5
6AFC
  8
UMCL2
 10
4705.0904105812406
 20
4664.886869664273
 30
0.0
 11
4747.2474738547717
 21
4664.886869664273
 31
0.0
  0
TEXT
  5
6AFD
  8
UMCL2
 10
4706.1700101593196
 20
4667.4591755091569
 30
0.0
 40
6.0
  1
2-PT 3/8
 41
0.85
 51
15.0
  7
ROMANS
  0
SOLID
  5
6AFE
  8
UMCL2
 10
4809.3490930637372
 20
4629.8893865673099
 30
0.0
 11
4810.8489566775461
 21
4629.162621875169
 31
0.0
 12
4807.9187307942184
 22
4625.0264133798064
 32
0.0
 13
4807.9187307942184
 23
4625.0264133798064
 33
0.0
  0
LINE
  5
6AFF
  8
UMCL2
 10
4827.1981036606139
 20
4664.8142981960291
 30
0.0
 11
4807.9187307942184
 21
4625.0264133798064
 31
0.0
  0
LINE
  5
6B00
  8
UMCL2
 10
4827.1981036606139
 20
4664.8142981960291
 30
0.0
 11
4878.2798020568916
 21
4664.81429819603
 31
0.0
  0
TEXT
  5
6B01
  8
UMCL2
 10
4828.8511756436283
 20
4667.2142981960296
 30
0.0
 40
6.0
  1
2x4-M6x1.0P
 41
0.85
 51
15.0
  7
ROMANS
  0
ARC
  5
6B02
  8
UMCL1
 62
     2
 10
4793.6386523121864
 20
4604.9163828608562
 30
0.0
 40
8.3000000000000007
 50
60.39031413141231
 51
12.81039125870446
  0
CIRCLE
  5
6B03
  8
UMCL1
 10
4793.6386523121864
 20
4604.9163828608562
 30
0.0
 40
7.5
  0
LINE
  5
6B04
  8
UMCL2
 10
4943.7439397825747
 20
4586.4163828608553
 30
0.0
 11
4894.7439397825747
 21
4586.4163828608553
 31
0.0
  0
LINE
  5
6B05
  8
UMCL2
 10
4943.7439397825747
 20
4623.4163828608553
 30
0.0
 11
4894.7439397825747
 21
4623.4163828608553
 31
0.0
  0
LINE
  5
6B06
  8
UMCL2
 10
4946.2439397825756
 20
4629.9163828608553
 30
0.0
 11
4878.2572341969217
 21
4629.9163828608562
 31
0.0
  0
LINE
  5
6B07
  8
UMCL2
 10
4946.2439397825756
 20
4579.9163828608544
 30
0.0
 11
4878.2572341969217
 21
4579.9163828608544
 31
0.0
  0
LINE
  5
6B08
  8
UMCL2
 10
4897.2439397825756
 20
4623.4163828608553
 30
0.0
 11
4897.2439397825756
 21
4586.4163828608553
 31
0.0
  0
LINE
  5
6B09
  8
UMCL2
 10
4880.7572341969217
 20
4629.9163828608562
 30
0.0
 11
4880.7572341969217
 21
4579.9163828608544
 31
0.0
  0
LINE
  5
6B0A
  8
UMCL2
 10
4889.3776089359044
 20
4593.0103073373466
 30
0.0
 11
4889.3776089359044
 21
4597.8376202876962
 31
0.0
  0
LINE
  5
6B0B
  8
UMCL2
 10
4889.3776089359044
 20
4597.8376202876962
 30
0.0
 11
4894.2391756861089
 21
4597.8376202876962
 31
0.0
  0
LINE
  5
6B0C
  8
UMCL2
 10
4894.2391756861089
 20
4597.8376202876962
 30
0.0
 11
4894.2391756861089
 21
4593.0103073373466
 31
0.0
  0
LINE
  5
6B0D
  8
UMCL2
 10
4894.2391756861089
 20
4593.0103073373466
 30
0.0
 11
4889.3776089359044
 21
4593.0103073373466
 31
0.0
  0
TEXT
  5
6B0E
  8
UMCL2
 10
4894.8439397825759
 20
4599.1022786021731
 30
0.0
 40
6.0
  1
37
 50
90.0
 41
0.85
 51
15.0
  7
ROMANS
  0
SOLID
  5
6B0F
  8
UMCL2
 10
4881.5905675302556
 20
4624.9163828608553
 30
0.0
 11
4879.9239008635877
 21
4624.9163828608553
 31
0.0
 12
4880.7572341969226
 22
4629.9163828608553
 32
0.0
 13
4880.7572341969226
 23
4629.9163828608553
 33
0.0
  0
SOLID
  5
6B10
  8
UMCL2
 10
4898.0772731159086
 20
4618.4163828608553
 30
0.0
 11
4896.4106064492426
 21
4618.4163828608553
 31
0.0
 12
4897.2439397825756
 22
4623.4163828608553
 32
0.0
 13
4897.2439397825756
 23
4623.4163828608553
 33
0.0
  0
LINE
  5
6B11
  8
UMCL2
 10
4872.8909033502523
 20
4593.0103073373466
 30
0.0
 11
4872.8909033502523
 21
4597.8376202876962
 31
0.0
  0
LINE
  5
6B12
  8
UMCL2
 10
4872.8909033502523
 20
4597.8376202876962
 30
0.0
 11
4877.752470100455
 21
4597.8376202876962
 31
0.0
  0
LINE
  5
6B13
  8
UMCL2
 10
4877.752470100455
 20
4597.8376202876962
 30
0.0
 11
4877.752470100455
 21
4593.0103073373466
 31
0.0
  0
LINE
  5
6B14
  8
UMCL2
 10
4877.752470100455
 20
4593.0103073373466
 30
0.0
 11
4872.8909033502523
 21
4593.0103073373466
 31
0.0
  0
TEXT
  5
6B15
  8
UMCL2
 10
4878.357234196922
 20
4599.376820997848
 30
0.0
 40
6.0
  1
50
 50
90.0
 41
0.85
 51
15.0
  7
ROMANS
  0
SOLID
  5
6B16
  8
UMCL2
 10
4898.0772731159086
 20
4591.4163828608553
 30
0.0
 11
4896.4106064492426
 21
4591.4163828608553
 31
0.0
 12
4897.2439397825756
 22
4586.4163828608553
 32
0.0
 13
4897.2439397825756
 23
4586.4163828608553
 33
0.0
  0
SOLID
  5
6B17
  8
UMCL2
 10
4881.5905675302556
 20
4584.9163828608544
 30
0.0
 11
4879.9239008635886
 21
4584.9163828608544
 31
0.0
 12
4880.7572341969226
 22
4579.9163828608544
 32
0.0
 13
4880.7572341969226
 23
4579.9163828608544
 33
0.0
  0
TEXT
  5
6B18
  8
UMCL2
 10
5027.1676425232899
 20
4531.816382860854
 30
0.0
 40
6.0
  1
51.5
 41
0.85
 51
15.0
  7
ROMANS
  0
SOLID
  5
6B19
  8
UMCL2
 10
5014.2439397825747
 20
4530.2497161941874
 30
0.0
 11
5014.2439397825747
 21
4528.5830495275204
 31
0.0
 12
5009.2439397825747
 22
4529.4163828608544
 32
0.0
 13
5009.2439397825747
 23
4529.4163828608544
 33
0.0
  0
SOLID
  5
6B1A
  8
UMCL2
 10
5055.7439397825756
 20
4530.2497161941874
 30
0.0
 11
5055.7439397825756
 21
4528.5830495275204
 31
0.0
 12
5060.7439397825747
 22
4529.4163828608544
 32
0.0
 13
5060.7439397825747
 23
4529.4163828608544
 33
0.0
  0
LINE
  5
6B1B
  8
UMCL2
 10
4973.2439397825756
 20
4539.9163828608544
 30
0.0
 11
4973.2439397825756
 21
4526.9163828608544
 31
0.0
  0
SOLID
  5
6B1C
  8
UMCL2
 10
4978.2439397825756
 20
4530.2497161941874
 30
0.0
 11
4978.2439397825756
 21
4528.5830495275213
 31
0.0
 12
4973.2439397825756
 22
4529.4163828608544
 32
0.0
 13
4973.2439397825756
 23
4529.4163828608544
 33
0.0
  0
LINE
  5
6B1D
  8
CEN
 10
4943.9375555339802
 20
4581.9163828608534
 30
0.0
 11
4907.9375555339802
 21
4581.9163828608534
 31
0.0
  0
ARC
  5
6B1E
  8
UMCL1
 10
4929.4636236725537
 20
4586.6663828608544
 30
0.0
 40
13.719683889978979
 50
159.7438419996069
 51
200.2561580004419
  0
ARC
  5
6B1F
  8
UMCL1
 10
4912.0242558925956
 20
4586.6663828608544
 30
0.0
 40
13.71968388997902
 50
339.74384199955807
 51
20.256158000441928
  0
LINE
  5
6B20
  8
HIDDEN
 10
4918.2439397825756
 20
4585.3804844759907
 30
0.0
 11
4919.0439397825749
 21
4581.9163828608534
 31
0.0
  0
LINE
  5
6B21
  8
HIDDEN
 10
4918.2439397825756
 20
4578.4522812457162
 30
0.0
 11
4918.2439397825756
 21
4585.3804844759907
 31
0.0
  0
LINE
  5
6B22
  8
UMCL1
 10
4914.2439397825756
 20
4575.9163828608534
 30
0.0
 11
4914.2439397825756
 21
4587.9163828608534
 31
0.0
  0
LINE
  5
6B23
  8
UMCL1
 10
4913.2439397825747
 20
4576.9163828608534
 30
0.0
 11
4913.2439397825747
 21
4586.9163828608534
 31
0.0
  0
LINE
  5
6B24
  8
UMCL1
 10
4915.7439397825756
 20
4591.4163828608534
 30
0.0
 11
4915.7439397825756
 21
4572.4163828608534
 31
0.0
  0
LINE
  5
6B25
  8
UMCL1
 10
4925.7439397825747
 20
4591.4163828608534
 30
0.0
 11
4915.7439397825756
 21
4591.4163828608534
 31
0.0
  0
LINE
  5
6B26
  8
HIDDEN
 10
4918.2439397825756
 20
4585.3804844759907
 30
0.0
 11
4913.2439397825747
 21
4585.3804844759907
 31
0.0
  0
LINE
  5
6B27
  8
UMCL1
 10
4913.2439397825747
 20
4586.9163828608534
 30
0.0
 11
4914.2439397825756
 21
4587.9163828608534
 31
0.0
  0
LINE
  5
6B28
  8
UMCL1
 10
4915.7439397825756
 20
4587.9163828608534
 30
0.0
 11
4914.2439397825747
 21
4587.9163828608534
 31
0.0
  0
LINE
  5
6B29
  8
UMCL1
 10
4915.7439397825756
 20
4587.1663828608534
 30
0.0
 11
4913.4939397825756
 21
4587.1663828608534
 31
0.0
  0
LINE
  5
6B2A
  8
UMCL1
 10
4925.7439397825747
 20
4572.4163828608534
 30
0.0
 11
4915.7439397825756
 21
4572.4163828608534
 31
0.0
  0
ARC
  5
6B2B
  8
UMCL1
 10
4929.4636236725537
 20
4577.1663828608544
 30
0.0
 40
13.719683889978979
 50
159.74384199955799
 51
200.25615800039299
  0
LINE
  5
6B2C
  8
HIDDEN
 10
4918.2439397825756
 20
4578.4522812457162
 30
0.0
 11
4913.2439397825747
 21
4578.4522812457162
 31
0.0
  0
LINE
  5
6B2D
  8
HIDDEN
 10
4918.2439397825756
 20
4580.1843320532844
 30
0.0
 11
4913.2439397825747
 21
4580.1843320532844
 31
0.0
  0
LINE
  5
6B2E
  8
HIDDEN
 10
4918.2439397825756
 20
4583.6484336684234
 30
0.0
 11
4913.2439397825747
 21
4583.6484336684234
 31
0.0
  0
LINE
  5
6B2F
  8
UMCL1
 10
4913.2439397825747
 20
4576.9163828608534
 30
0.0
 11
4914.2439397825756
 21
4575.9163828608534
 31
0.0
  0
LINE
  5
6B30
  8
UMCL1
 10
4915.7439397825756
 20
4576.6663828608534
 30
0.0
 11
4913.4939397825756
 21
4576.6663828608534
 31
0.0
  0
LINE
  5
6B31
  8
UMCL1
 10
4915.7439397825756
 20
4575.9163828608534
 30
0.0
 11
4914.2439397825747
 21
4575.9163828608534
 31
0.0
  0
ARC
  5
6B32
  8
UMCL1
 10
4912.0242558925956
 20
4577.1663828608544
 30
0.0
 40
13.71968388997902
 50
339.74384199955807
 51
20.256158000441928
  0
LINE
  5
6B33
  8
UMCL1
 10
4924.8954340065429
 20
4581.9163828608534
 30
0.0
 11
4916.5924455586073
 21
4581.9163828608534
 31
0.0
  0
LINE
  5
6B34
  8
HIDDEN
 10
4918.2439397825756
 20
4578.4522812457162
 30
0.0
 11
4919.0439397825749
 21
4581.9163828608534
 31
0.0
  0
LINE
  5
6B35
  8
UMCL1
  6
CONTINUOUS
 10
4948.2439397825747
 20
4579.9163828608553
 30
0.0
 11
4998.2439397825747
 21
4579.9163828608553
 31
0.0
  0
LINE
  5
6B36
  8
UMCL1
  6
CONTINUOUS
 10
4948.2439397825747
 20
4629.9163828608553
 30
0.0
 11
4998.2439397825747
 21
4629.9163828608553
 31
0.0
  0
LINE
  5
6B37
  8
UMCL1
  6
CONTINUOUS
 10
4948.2439397825747
 20
4629.9163828608553
 30
0.0
 11
4948.2439397825747
 21
4579.9163828608553
 31
0.0
  0
LINE
  5
6B38
  8
UMCL1
  6
CONTINUOUS
 10
4998.2439397825747
 20
4629.9163828608553
 30
0.0
 11
4998.2439397825747
 21
4579.9163828608553
 31
0.0
  0
LINE
  5
6B39
  8
HIDDEN
 10
4957.4097710641363
 20
4613.3163828608549
 30
0.0
 11
4957.4097710641363
 21
4596.5163828608556
 31
0.0
  0
LINE
  5
6B3A
  8
HIDDEN
 10
4948.2439397825747
 20
4596.0360219981048
 30
0.0
 11
4957.4097710641363
 21
4596.5163828608556
 31
0.0
  0
LINE
  5
6B3B
  8
HIDDEN
 10
4948.2439397825747
 20
4596.9360219981054
 30
0.0
 11
4957.4097710641363
 21
4597.4163828608553
 31
0.0
  0
LINE
  5
6B3C
  8
HIDDEN
 10
4948.2439397825747
 20
4613.7967437236048
 30
0.0
 11
4957.4097710641363
 21
4613.3163828608549
 31
0.0
  0
LINE
  5
6B3D
  8
HIDDEN
 10
4948.2439397825747
 20
4612.8967437236051
 30
0.0
 11
4957.4097710641363
 21
4612.4163828608553
 31
0.0
  0
LINE
  5
6B3E
  8
CEN
 10
4704.0210532275523
 20
4883.1112699496889
 30
0.0
 11
4590.6386523121846
 21
4883.1112699496889
 31
0.0
  0
LINE
  5
6B3F
  8
CEN
 10
4485.6386523121846
 20
4847.1112699496889
 30
0.0
 11
4594.6386523121864
 21
4847.1112699496889
 31
0.0
  0
ARC
  5
6B40
  8
UMCL1
 10
4672.1386523121846
 20
4781.4597757257206
 30
0.0
 40
18.151494223967038
 50
72.412046225986671
 51
107.5879537740133
  0
LINE
  5
6B41
  8
UMCL1
 10
4662.6386523121864
 20
4789.6112699496889
 30
0.0
 11
4681.6386523121864
 21
4789.6112699496889
 31
0.0
  0
ARC
  5
6B42
  8
UMCL1
 10
4672.1386523121846
 20
4807.7627641736563
 30
0.0
 40
18.151494223967038
 50
252.4120462259867
 51
287.58795377401327
  0
LINE
  5
6B43
  8
UMCL1
 10
4677.1386523121864
 20
4787.1112699496889
 30
0.0
 11
4667.1386523121846
 21
4787.1112699496889
 31
0.0
  0
LINE
  5
6B44
  8
HIDDEN
 10
4675.6027539273236
 20
4792.111269949688
 30
0.0
 11
4668.6745506970483
 21
4792.111269949688
 31
0.0
  0
LINE
  5
6B45
  8
HIDDEN
 10
4668.6745506970483
 20
4792.111269949688
 30
0.0
 11
4672.1386523121846
 21
4792.9112699496891
 31
0.0
  0
LINE
  5
6B46
  8
UMCL1
 10
4678.1386523121846
 20
4788.1112699496889
 30
0.0
 11
4666.1386523121846
 21
4788.1112699496889
 31
0.0
  0
LINE
  5
6B47
  8
UMCL1
 10
4698.6386523121864
 20
4799.611269949688
 30
0.0
 11
4595.6386523121846
 21
4799.611269949688
 31
0.0
  0
LINE
  5
6B48
  8
UMCL1
 10
4628.1386523121846
 20
4788.1112699496889
 30
0.0
 11
4616.1386523121846
 21
4788.1112699496889
 31
0.0
  0
LINE
  5
6B49
  8
UMCL1
 10
4627.1386523121864
 20
4787.1112699496889
 30
0.0
 11
4617.1386523121846
 21
4787.1112699496889
 31
0.0
  0
ARC
  5
6B4A
  8
UMCL1
 10
4622.1386523121864
 20
4807.7627641736563
 30
0.0
 40
18.151494223967038
 50
252.4120462259867
 51
287.58795377401327
  0
LINE
  5
6B4B
  8
UMCL1
 10
4612.6386523121864
 20
4789.6112699496889
 30
0.0
 11
4631.6386523121864
 21
4789.6112699496889
 31
0.0
  0
LINE
  5
6B4C
  8
HIDDEN
 10
4618.6745506970483
 20
4792.111269949688
 30
0.0
 11
4622.1386523121864
 21
4792.9112699496891
 31
0.0
  0
LINE
  5
6B4D
  8
HIDDEN
 10
4625.6027539273227
 20
4792.111269949688
 30
0.0
 11
4618.6745506970483
 21
4792.111269949688
 31
0.0
  0
ARC
  5
6B4E
  8
UMCL1
 10
4622.1386523121864
 20
4781.4597757257216
 30
0.0
 40
18.151494223967038
 50
72.412046225986671
 51
107.5879537740133
  0
LINE
  5
6B4F
  8
UMCL1
 10
4595.6386523121846
 20
4799.611269949688
 30
0.0
 11
4594.6386523121864
 21
4800.6112699496889
 31
0.0
  0
LINE
  5
6B50
  8
HIDDEN
 10
4620.4066015046174
 20
4792.111269949688
 30
0.0
 11
4620.4066015046174
 21
4787.1112699496889
 31
0.0
  0
LINE
  5
6B51
  8
UMCL1
 10
4611.1689971975829
 20
4790.4597757257206
 30
0.0
 11
4612.6386523121864
 21
4789.6112699496889
 31
0.0
  0
ARC
  5
6B52
  8
UMCL1
 10
4613.911410976234
 20
4794.4673331716931
 30
0.0
 40
4.8560632220039688
 50
235.61575253196841
 51
304.38424746803162
  0
LINE
  5
6B53
  8
HIDDEN
 10
4618.6745506970483
 20
4792.111269949688
 30
0.0
 11
4618.6745506970483
 21
4787.1112699496889
 31
0.0
  0
LINE
  5
6B54
  8
UMCL1
 10
4617.1386523121846
 20
4787.1112699496889
 30
0.0
 11
4616.1386523121846
 21
4788.1112699496889
 31
0.0
  0
LINE
  5
6B55
  8
UMCL1
 10
4616.1386523121864
 20
4789.6112699496889
 30
0.0
 11
4616.1386523121864
 21
4788.1112699496889
 31
0.0
  0
LINE
  5
6B56
  8
UMCL1
 10
4616.8886523121864
 20
4789.6112699496889
 30
0.0
 11
4616.8886523121864
 21
4787.3612699496889
 31
0.0
  0
LINE
  5
6B57
  8
UMCL1
 10
4611.1689971975829
 20
4798.7627641736572
 30
0.0
 11
4612.6386523121864
 21
4799.611269949688
 31
0.0
  0
ARC
  5
6B58
  8
UMCL1
 10
4613.911410976234
 20
4794.7552067276847
 30
0.0
 40
4.8560632220039688
 50
55.615752531968383
 51
124.3842474680316
  0
LINE
  5
6B59
  8
UMCL1
 10
4616.6538247548851
 20
4798.7627641736572
 30
0.0
 11
4616.6538247548851
 21
4790.4597757257206
 31
0.0
  0
LINE
  5
6B5A
  8
UMCL1
 10
4611.1689971975829
 20
4798.7627641736572
 30
0.0
 11
4611.1689971975829
 21
4790.4597757257206
 31
0.0
  0
LINE
  5
6B5B
  8
CEN
 10
4622.1386523121864
 20
4782.3701070076031
 30
0.0
 11
4622.1386523121873
 21
4819.5861653645052
 31
0.0
  0
LINE
  5
6B5C
  8
UMCL1
 10
4633.1083074267881
 20
4790.4597757257206
 30
0.0
 11
4631.6386523121864
 21
4789.6112699496889
 31
0.0
  0
LINE
  5
6B5D
  8
HIDDEN
 10
4625.6027539273227
 20
4792.111269949688
 30
0.0
 11
4625.6027539273227
 21
4787.1112699496889
 31
0.0
  0
LINE
  5
6B5E
  8
HIDDEN
 10
4623.8707031197546
 20
4792.111269949688
 30
0.0
 11
4623.8707031197546
 21
4787.1112699496889
 31
0.0
  0
ARC
  5
6B5F
  8
UMCL1
 10
4630.3658936481379
 20
4794.4673331716931
 30
0.0
 40
4.8560632220039688
 50
235.61575253196841
 51
304.38424746803162
  0
LINE
  5
6B60
  8
UMCL1
 10
4627.1386523121864
 20
4787.1112699496889
 30
0.0
 11
4628.1386523121846
 21
4788.1112699496889
 31
0.0
  0
LINE
  5
6B61
  8
UMCL1
 10
4627.3886523121873
 20
4789.6112699496889
 30
0.0
 11
4627.3886523121846
 21
4787.3612699496889
 31
0.0
  0
LINE
  5
6B62
  8
UMCL1
 10
4628.1386523121846
 20
4789.6112699496889
 30
0.0
 11
4628.1386523121846
 21
4788.1112699496889
 31
0.0
  0
LINE
  5
6B63
  8
UMCL1
 10
4633.1083074267881
 20
4798.7627641736572
 30
0.0
 11
4631.6386523121864
 21
4799.611269949688
 31
0.0
  0
ARC
  5
6B64
  8
UMCL1
 10
4630.3658936481379
 20
4794.7552067276847
 30
0.0
 40
4.8560632220039688
 50
55.615752531968383
 51
124.3842474680316
  0
LINE
  5
6B65
  8
HIDDEN
 10
4625.6027539273227
 20
4792.111269949688
 30
0.0
 11
4622.1386523121864
 21
4792.9112699496891
 31
0.0
  0
LINE
  5
6B66
  8
UMCL1
 10
4633.1083074267881
 20
4798.7627641736572
 30
0.0
 11
4633.1083074267881
 21
4790.4597757257206
 31
0.0
  0
LINE
  5
6B67
  8
UMCL1
 10
4627.6234798694868
 20
4798.7627641736572
 30
0.0
 11
4627.6234798694868
 21
4790.4597757257206
 31
0.0
  0
ARC
  5
6B68
  8
UMCL1
 10
4663.911410976234
 20
4794.4673331716931
 30
0.0
 40
4.8560632220039688
 50
235.61575253196841
 51
304.38424746803162
  0
LINE
  5
6B69
  8
UMCL1
 10
4661.1689971975829
 20
4790.4597757257206
 30
0.0
 11
4662.6386523121864
 21
4789.6112699496889
 31
0.0
  0
LINE
  5
6B6A
  8
HIDDEN
 10
4670.4066015046174
 20
4792.111269949688
 30
0.0
 11
4670.4066015046174
 21
4787.1112699496889
 31
0.0
  0
LINE
  5
6B6B
  8
HIDDEN
 10
4668.6745506970483
 20
4792.111269949688
 30
0.0
 11
4668.6745506970483
 21
4787.1112699496889
 31
0.0
  0
LINE
  5
6B6C
  8
UMCL1
 10
4666.8886523121864
 20
4789.6112699496889
 30
0.0
 11
4666.8886523121864
 21
4787.3612699496889
 31
0.0
  0
LINE
  5
6B6D
  8
UMCL1
 10
4666.1386523121864
 20
4789.6112699496889
 30
0.0
 11
4666.1386523121864
 21
4788.1112699496889
 31
0.0
  0
LINE
  5
6B6E
  8
UMCL1
 10
4667.1386523121846
 20
4787.1112699496889
 30
0.0
 11
4666.1386523121846
 21
4788.1112699496889
 31
0.0
  0
ARC
  5
6B6F
  8
UMCL1
 10
4663.911410976234
 20
4794.7552067276847
 30
0.0
 40
4.8560632220039688
 50
55.615752531968383
 51
124.3842474680316
  0
LINE
  5
6B70
  8
UMCL1
 10
4661.1689971975829
 20
4798.7627641736572
 30
0.0
 11
4662.6386523121864
 21
4799.611269949688
 31
0.0
  0
LINE
  5
6B71
  8
UMCL1
 10
4661.1689971975829
 20
4798.7627641736572
 30
0.0
 11
4661.1689971975829
 21
4790.4597757257206
 31
0.0
  0
LINE
  5
6B72
  8
UMCL1
 10
4666.6538247548842
 20
4798.7627641736572
 30
0.0
 11
4666.6538247548842
 21
4790.4597757257206
 31
0.0
  0
LINE
  5
6B73
  8
CEN
 10
4672.1386523121846
 20
4782.3701070076031
 30
0.0
 11
4672.1386523121846
 21
4819.5861653645052
 31
0.0
  0
ARC
  5
6B74
  8
UMCL1
 10
4680.365893648137
 20
4794.4673331716931
 30
0.0
 40
4.8560632220039688
 50
235.61575253196841
 51
304.38424746803162
  0
LINE
  5
6B75
  8
HIDDEN
 10
4673.8707031197546
 20
4792.111269949688
 30
0.0
 11
4673.8707031197546
 21
4787.1112699496889
 31
0.0
  0
LINE
  5
6B76
  8
HIDDEN
 10
4675.6027539273236
 20
4792.111269949688
 30
0.0
 11
4675.6027539273236
 21
4787.1112699496889
 31
0.0
  0
LINE
  5
6B77
  8
UMCL1
 10
4683.1083074267881
 20
4790.4597757257206
 30
0.0
 11
4681.6386523121864
 21
4789.6112699496889
 31
0.0
  0
LINE
  5
6B78
  8
UMCL1
 10
4678.1386523121846
 20
4789.6112699496889
 30
0.0
 11
4678.1386523121846
 21
4788.1112699496889
 31
0.0
  0
LINE
  5
6B79
  8
UMCL1
 10
4677.3886523121846
 20
4789.6112699496889
 30
0.0
 11
4677.3886523121846
 21
4787.3612699496889
 31
0.0
  0
LINE
  5
6B7A
  8
UMCL1
 10
4677.1386523121846
 20
4787.1112699496889
 30
0.0
 11
4678.1386523121846
 21
4788.1112699496889
 31
0.0
  0
ARC
  5
6B7B
  8
UMCL1
 10
4680.365893648137
 20
4794.7552067276847
 30
0.0
 40
4.8560632220039688
 50
55.615752531968383
 51
124.3842474680316
  0
LINE
  5
6B7C
  8
UMCL1
 10
4683.1083074267881
 20
4798.7627641736572
 30
0.0
 11
4681.6386523121864
 21
4799.611269949688
 31
0.0
  0
LINE
  5
6B7D
  8
HIDDEN
 10
4675.6027539273236
 20
4792.111269949688
 30
0.0
 11
4672.1386523121846
 21
4792.9112699496891
 31
0.0
  0
LINE
  5
6B7E
  8
UMCL1
 10
4677.6234798694868
 20
4798.7627641736572
 30
0.0
 11
4677.6234798694868
 21
4790.4597757257206
 31
0.0
  0
LINE
  5
6B7F
  8
UMCL1
 10
4683.1083074267881
 20
4798.7627641736572
 30
0.0
 11
4683.1083074267881
 21
4790.4597757257206
 31
0.0
  0
LINE
  5
6B80
  8
UMCL1
 10
4699.6386523121846
 20
4800.6112699496889
 30
0.0
 11
4699.6386523121864
 21
4933.611269949688
 31
0.0
  0
LINE
  5
6B81
  8
UMCL1
 10
4698.6386523121864
 20
4799.611269949688
 30
0.0
 11
4699.6386523121846
 21
4800.6112699496889
 31
0.0
  0
LINE
  5
6B82
  8
CEN
 10
4672.5283253832549
 20
4908.1112699496889
 30
0.0
 11
4703.6386523121846
 21
4908.1112699496889
 31
0.0
  0
LINE
  5
6B83
  8
UMCL1
 10
4698.6386523121864
 20
4934.6112699496889
 30
0.0
 11
4595.6386523121846
 21
4934.6112699496889
 31
0.0
  0
CIRCLE
  5
6B84
  8
UMCL1
 10
4647.1386523121846
 20
4883.1112699496889
 30
0.0
 40
17.5
  0
CIRCLE
  5
6B85
  8
UMCL1
 10
4647.1386523121846
 20
4883.1112699496889
 30
0.0
 40
14.0
  0
LINE
  5
6B86
  8
UMCL1
 10
4594.6386523121873
 20
4800.6112699496889
 30
0.0
 11
4594.6386523121864
 21
4933.6112699496889
 31
0.0
  0
ARC
  5
6B87
  8
UMCL1
 62
     2
 10
4647.1386523121846
 20
4883.1112699496889
 30
0.0
 40
4.0
 50
250.18686942893771
 51
210.78620825906759
  0
CIRCLE
  5
6B88
  8
UMCL1
 10
4647.1386523121846
 20
4883.1112699496889
 30
0.0
 40
3.399999999999999
  0
LINE
  5
6B89
  8
UMCL1
 10
4633.7222444471872
 20
4887.1112699496889
 30
0.0
 11
4630.1386523121864
 21
4887.1112699496889
 31
0.0
  0
LINE
  5
6B8A
  8
UMCL1
 10
4633.7222444471872
 20
4879.1112699496889
 30
0.0
 11
4630.1386523121864
 21
4879.1112699496889
 31
0.0
  0
LINE
  5
6B8B
  8
UMCL1
 10
4630.1386523121864
 20
4879.1112699496889
 30
0.0
 11
4630.1386523121864
 21
4887.1112699496889
 31
0.0
  0
LINE
  5
6B8C
  8
UMCL1
  6
HIDDEN
 62
     2
 10
4633.7222444471872
 20
4887.1112699496889
 30
0.0
 11
4637.1386523121846
 21
4887.1112699496889
 31
0.0
  0
LINE
  5
6B8D
  8
UMCL1
  6
HIDDEN
 62
     2
 10
4633.7222444471872
 20
4879.1112699496889
 30
0.0
 11
4637.1386523121846
 21
4879.1112699496889
 31
0.0
  0
LINE
  5
6B8E
  8
UMCL1
  6
HIDDEN
 62
     2
 10
4637.1386523121846
 20
4879.1112699496889
 30
0.0
 11
4637.1386523121846
 21
4887.1112699496889
 31
0.0
  0
ARC
  5
6B8F
  8
UMCL1
 62
     2
 10
4606.1386523121846
 20
4924.1112699496898
 30
0.0
 40
5.0
 50
67.570468093842067
 51
29.14633780461509
  0
CIRCLE
  5
6B90
  8
UMCL1
 10
4606.1386523121846
 20
4924.1112699496898
 30
0.0
 40
4.25
  0
LINE
  5
6B91
  8
CEN
 10
4606.1386523121846
 20
4936.1112699496898
 30
0.0
 11
4606.1386523121846
 21
4912.1112699496898
 31
0.0
  0
LINE
  5
6B92
  8
UMCL1
 10
4594.6386523121864
 20
4933.6112699496889
 30
0.0
 11
4595.6386523121846
 21
4934.6112699496889
 31
0.0
  0
LINE
  5
6B93
  8
CEN
 10
4618.1386523121846
 20
4924.1112699496898
 30
0.0
 11
4594.1386523121846
 21
4924.1112699496898
 31
0.0
  0
CIRCLE
  5
6B94
  8
UMCL1
 10
4647.1386523121846
 20
4922.1112699496889
 30
0.0
 40
7.0
  0
CIRCLE
  5
6B95
  8
UMCL1
 10
4647.1386523121846
 20
4922.1112699496889
 30
0.0
 40
6.5
  0
CIRCLE
  5
6B96
  8
UMCL1
 10
4647.1386523121846
 20
4922.1112699496889
 30
0.0
 40
6.0
  0
POLYLINE
  5
6B97
  8
UMCL1
 66
     1
 10
0.0
 20
0.0
 30
0.0
 70
     1
  0
VERTEX
  5
7621
  8
UMCL1
 10
4645.4066015046174
 20
4925.1112699496889
 30
0.0
  0
VERTEX
  5
7622
  8
UMCL1
 10
4643.6745506970483
 20
4922.1112699496889
 30
0.0
  0
VERTEX
  5
7623
  8
UMCL1
 10
4645.4066015046174
 20
4919.1112699496889
 30
0.0
  0
VERTEX
  5
7624
  8
UMCL1
 10
4648.8707031197537
 20
4919.1112699496889
 30
0.0
  0
VERTEX
  5
7625
  8
UMCL1
 10
4650.6027539273236
 20
4922.1112699496889
 30
0.0
  0
VERTEX
  5
7626
  8
UMCL1
 10
4648.8707031197537
 20
4925.1112699496889
 30
0.0
  0
SEQEND
  5
7627
  8
UMCL1
  0
POLYLINE
  5
6B98
  8
UMCL1
 66
     1
 10
0.0
 20
0.0
 30
0.0
 70
     1
  0
VERTEX
  5
7628
  8
UMCL1
 10
4684.4066015046174
 20
4886.1112699496889
 30
0.0
  0
VERTEX
  5
7629
  8
UMCL1
 10
4682.6745506970483
 20
4883.1112699496889
 30
0.0
  0
VERTEX
  5
762A
  8
UMCL1
 10
4684.4066015046174
 20
4880.1112699496889
 30
0.0
  0
VERTEX
  5
762B
  8
UMCL1
 10
4687.8707031197546
 20
4880.1112699496889
 30
0.0
  0
VERTEX
  5
762C
  8
UMCL1
 10
4689.6027539273227
 20
4883.1112699496889
 30
0.0
  0
VERTEX
  5
762D
  8
UMCL1
 10
4687.8707031197546
 20
4886.1112699496889
 30
0.0
  0
SEQEND
  5
762E
  8
UMCL1
  0
CIRCLE
  5
6B99
  8
UMCL1
 10
4686.1386523121864
 20
4883.1112699496889
 30
0.0
 40
6.0
  0
CIRCLE
  5
6B9A
  8
UMCL1
 10
4686.1386523121864
 20
4883.1112699496889
 30
0.0
 40
6.5
  0
CIRCLE
  5
6B9B
  8
UMCL1
 10
4686.1386523121864
 20
4883.1112699496889
 30
0.0
 40
7.0
  0
LINE
  5
6B9C
  8
CEN
 10
4688.1386523121846
 20
4936.1112699496898
 30
0.0
 11
4688.1386523121846
 21
4912.1112699496898
 31
0.0
  0
ARC
  5
6B9D
  8
UMCL1
 62
     2
 10
4688.1386523121846
 20
4924.1112699496898
 30
0.0
 40
5.0
 50
157.57046809384201
 51
119.1463378046151
  0
CIRCLE
  5
6B9E
  8
UMCL1
 10
4688.1386523121846
 20
4924.1112699496898
 30
0.0
 40
4.25
  0
LINE
  5
6B9F
  8
CEN
 10
4700.1386523121864
 20
4924.1112699496898
 30
0.0
 11
4676.1386523121846
 21
4924.1112699496898
 31
0.0
  0
LINE
  5
6BA0
  8
UMCL1
 10
4699.6386523121846
 20
4933.6112699496889
 30
0.0
 11
4698.6386523121864
 21
4934.6112699496889
 31
0.0
  0
LINE
  5
6BA1
  8
CEN
 10
4647.1386523121846
 20
4794.5235640640512
 30
0.0
 11
4647.1386523121846
 21
4937.1203061806546
 31
0.0
  0
LINE
  5
6BA2
  8
UMCL1
 10
4594.6386523121864
 20
4869.6112699496898
 30
0.0
 11
4515.6386523121846
 21
4869.6112699496898
 31
0.0
  0
LINE
  5
6BA3
  8
UMCL1
 10
4594.6386523121864
 20
4824.6112699496889
 30
0.0
 11
4515.6386523121846
 21
4824.6112699496889
 31
0.0
  0
LINE
  5
6BA4
  8
CEN
 10
4500.6386523121846
 20
4820.3469404306852
 30
0.0
 11
4500.6386523121846
 21
4880.1112699496889
 31
0.0
  0
LINE
  5
6BA5
  8
UMCL1
 10
4515.6386523121846
 20
4872.1112699496889
 30
0.0
 11
4489.6386523121846
 21
4872.1112699496889
 31
0.0
  0
LINE
  5
6BA6
  8
UMCL1
 10
4489.6386523121846
 20
4872.1112699496889
 30
0.0
 11
4489.6386523121846
 21
4822.1112699496889
 31
0.0
  0
LINE
  5
6BA7
  8
UMCL1
 10
4515.6386523121846
 20
4822.1112699496889
 30
0.0
 11
4489.6386523121846
 21
4822.1112699496889
 31
0.0
  0
LINE
  5
6BA8
  8
HIDDEN
 10
4508.6627301050148
 20
4822.1112699496889
 30
0.0
 11
4508.1386523121864
 21
4832.1112699496889
 31
0.0
  0
LINE
  5
6BA9
  8
HIDDEN
 10
4509.4627301050159
 20
4822.1112699496889
 30
0.0
 11
4508.9386523121857
 21
4832.1112699496889
 31
0.0
  0
LINE
  5
6BAA
  8
UMCL1
 10
4515.6386523121846
 20
4872.1112699496889
 30
0.0
 11
4515.6386523121846
 21
4822.1112699496889
 31
0.0
  0
LINE
  5
6BAB
  8
HIDDEN
 10
4492.6145745193553
 20
4822.1112699496889
 30
0.0
 11
4493.1386523121846
 21
4832.1112699496889
 31
0.0
  0
LINE
  5
6BAC
  8
HIDDEN
 10
4491.8145745193551
 20
4822.1112699496889
 30
0.0
 11
4492.3386523121853
 21
4832.1112699496889
 31
0.0
  0
CIRCLE
  5
6BAD
  8
UMCL1
 10
4954.7439397825747
 20
4623.4163828608553
 30
0.0
 40
3.0
  0
CIRCLE
  5
6BAE
  8
UMCL1
 10
4954.7439397825747
 20
4623.4163828608553
 30
0.0
 40
2.5
  0
CIRCLE
  5
6BAF
  8
UMCL1
 10
4954.7439397825747
 20
4623.4163828608553
 30
0.0
 40
5.0
  0
POLYLINE
  5
6BB0
  8
UMCL1
 66
     1
 10
0.0
 20
0.0
 30
0.0
 70
     1
  0
VERTEX
  5
762F
  8
UMCL1
 10
4949.7439397825747
 20
4620.5296315149071
 30
0.0
  0
VERTEX
  5
7630
  8
UMCL1
 10
4954.7439397825747
 20
4617.642880168959
 30
0.0
  0
VERTEX
  5
7631
  8
UMCL1
 10
4959.7439397825756
 20
4620.5296315149071
 30
0.0
  0
VERTEX
  5
7632
  8
UMCL1
 10
4959.7439397825756
 20
4626.3031342068034
 30
0.0
  0
VERTEX
  5
7633
  8
UMCL1
 10
4954.7439397825747
 20
4629.1898855527506
 30
0.0
  0
VERTEX
  5
7634
  8
UMCL1
 10
4949.7439397825747
 20
4626.3031342068034
 30
0.0
  0
SEQEND
  5
7635
  8
UMCL1
  0
LINE
  5
6BB1
  8
CEN
 10
4991.7439397825756
 20
4614.4163828608553
 30
0.0
 11
4991.7439397825756
 21
4632.4163828608553
 31
0.0
  0
LINE
  5
6BB2
  8
CEN
 10
4982.7439397825756
 20
4623.4163828608553
 30
0.0
 11
5000.7439397825756
 21
4623.4163828608553
 31
0.0
  0
POLYLINE
  5
6BB3
  8
UMCL1
 66
     1
 10
0.0
 20
0.0
 30
0.0
 70
     1
  0
VERTEX
  5
7636
  8
UMCL1
 10
4986.7439397825747
 20
4620.5296315149071
 30
0.0
  0
VERTEX
  5
7637
  8
UMCL1
 10
4991.7439397825756
 20
4617.642880168959
 30
0.0
  0
VERTEX
  5
7638
  8
UMCL1
 10
4996.7439397825747
 20
4620.5296315149071
 30
0.0
  0
VERTEX
  5
7639
  8
UMCL1
 10
4996.7439397825747
 20
4626.3031342068034
 30
0.0
  0
VERTEX
  5
763A
  8
UMCL1
 10
4991.7439397825756
 20
4629.1898855527506
 30
0.0
  0
VERTEX
  5
763B
  8
UMCL1
 10
4986.7439397825747
 20
4626.3031342068034
 30
0.0
  0
SEQEND
  5
763C
  8
UMCL1
  0
CIRCLE
  5
6BB4
  8
UMCL1
 10
4991.7439397825756
 20
4623.4163828608553
 30
0.0
 40
5.0
  0
CIRCLE
  5
6BB5
  8
UMCL1
 10
4991.7439397825756
 20
4623.4163828608553
 30
0.0
 40
2.5
  0
CIRCLE
  5
6BB6
  8
UMCL1
 10
4991.7439397825756
 20
4623.4163828608553
 30
0.0
 40
3.0
  0
LINE
  5
6BB7
  8
CEN
 10
4991.7439397825756
 20
4577.4163828608553
 30
0.0
 11
4991.7439397825756
 21
4595.4163828608553
 31
0.0
  0
LINE
  5
6BB8
  8
CEN
 10
4982.7439397825756
 20
4586.4163828608553
 30
0.0
 11
5000.7439397825756
 21
4586.4163828608553
 31
0.0
  0
POLYLINE
  5
6BB9
  8
UMCL1
 66
     1
 10
0.0
 20
0.0
 30
0.0
 70
     1
  0
VERTEX
  5
763D
  8
UMCL1
 10
4986.7439397825747
 20
4583.5296315149071
 30
0.0
  0
VERTEX
  5
763E
  8
UMCL1
 10
4991.7439397825756
 20
4580.642880168959
 30
0.0
  0
VERTEX
  5
763F
  8
UMCL1
 10
4996.7439397825747
 20
4583.5296315149071
 30
0.0
  0
VERTEX
  5
7640
  8
UMCL1
 10
4996.7439397825747
 20
4589.3031342068043
 30
0.0
  0
VERTEX
  5
7641
  8
UMCL1
 10
4991.7439397825756
 20
4592.1898855527506
 30
0.0
  0
VERTEX
  5
7642
  8
UMCL1
 10
4986.7439397825747
 20
4589.3031342068043
 30
0.0
  0
SEQEND
  5
7643
  8
UMCL1
  0
CIRCLE
  5
6BBA
  8
UMCL1
 10
4991.7439397825756
 20
4586.4163828608553
 30
0.0
 40
5.0
  0
CIRCLE
  5
6BBB
  8
UMCL1
 10
4991.7439397825756
 20
4586.4163828608553
 30
0.0
 40
2.5
  0
CIRCLE
  5
6BBC
  8
UMCL1
 10
4991.7439397825756
 20
4586.4163828608553
 30
0.0
 40
3.0
  0
LINE
  5
6BBD
  8
CEN
 10
4954.7439397825747
 20
4577.4163828608553
 30
0.0
 11
4954.7439397825747
 21
4595.4163828608553
 31
0.0
  0
LINE
  5
6BBE
  8
CEN
 10
4945.7439397825756
 20
4586.4163828608553
 30
0.0
 11
4963.7439397825756
 21
4586.4163828608553
 31
0.0
  0
POLYLINE
  5
6BBF
  8
UMCL1
 66
     1
 10
0.0
 20
0.0
 30
0.0
 70
     1
  0
VERTEX
  5
7644
  8
UMCL1
 10
4949.7439397825747
 20
4583.5296315149071
 30
0.0
  0
VERTEX
  5
7645
  8
UMCL1
 10
4954.7439397825747
 20
4580.642880168959
 30
0.0
  0
VERTEX
  5
7646
  8
UMCL1
 10
4959.7439397825756
 20
4583.5296315149071
 30
0.0
  0
VERTEX
  5
7647
  8
UMCL1
 10
4959.7439397825756
 20
4589.3031342068043
 30
0.0
  0
VERTEX
  5
7648
  8
UMCL1
 10
4954.7439397825747
 20
4592.1898855527506
 30
0.0
  0
VERTEX
  5
7649
  8
UMCL1
 10
4949.7439397825747
 20
4589.3031342068043
 30
0.0
  0
SEQEND
  5
764A
  8
UMCL1
  0
CIRCLE
  5
6BC0
  8
UMCL1
 10
4954.7439397825747
 20
4586.4163828608553
 30
0.0
 40
5.0
  0
CIRCLE
  5
6BC1
  8
UMCL1
 10
4954.7439397825747
 20
4586.4163828608553
 30
0.0
 40
2.5
  0
CIRCLE
  5
6BC2
  8
UMCL1
 10
4954.7439397825747
 20
4586.4163828608553
 30
0.0
 40
3.0
  0
LINE
  5
6BC3
  8
UMCL1
 10
4699.6380401016277
 20
4627.4163828608544
 30
0.0
 11
4778.6386523121846
 21
4627.4163828608553
 31
0.0
  0
LINE
  5
6BC4
  8
UMCL1
 10
4699.6380401016277
 20
4582.4163828608553
 30
0.0
 11
4778.6386523121864
 21
4582.4163828608553
 31
0.0
  0
LINE
  5
6BC5
  8
UMCL1
 10
4778.6386523121864
 20
4579.9163828608553
 30
0.0
 11
4804.6386523121846
 21
4579.9163828608553
 31
0.0
  0
LINE
  5
6BC6
  8
UMCL1
 10
4804.6386523121846
 20
4629.9163828608553
 30
0.0
 11
4804.6386523121846
 21
4579.9163828608553
 31
0.0
  0
LINE
  5
6BC7
  8
UMCL1
 10
4778.6386523121864
 20
4629.9163828608553
 30
0.0
 11
4804.6386523121846
 21
4629.9163828608553
 31
0.0
  0
LINE
  5
6BC8
  8
UMCL1
 10
4778.6386523121846
 20
4629.9163828608553
 30
0.0
 11
4778.6386523121846
 21
4579.9163828608553
 31
0.0
  0
LINE
  5
6BC9
  8
CEN
 10
4699.6380401016277
 20
4623.4163828608544
 30
0.0
 11
4817.6386523121864
 21
4623.4163828608553
 31
0.0
  0
LINE
  5
6BCA
  8
UMCL1
 10
4699.6380401016277
 20
4626.4163828608544
 30
0.0
 11
4778.6386523121846
 21
4626.4163828608553
 31
0.0
  0
LINE
  5
6BCB
  8
UMCL1
 10
4699.6380401016277
 20
4620.4163828608544
 30
0.0
 11
4778.6386523121846
 21
4620.4163828608553
 31
0.0
  0
ARC
  5
6BCC
  8
UMCL1
 10
4815.6468976658252
 20
4623.4163828608553
 30
0.0
 40
10.00824535363974
 50
162.81943120861649
 51
197.18056879138339
  0
ARC
  5
6BCD
  8
UMCL1
 10
4800.6304069585458
 20
4623.4163828608553
 30
0.0
 40
10.00824535363974
 50
342.81943120861661
 51
17.180568791383411
  0
LINE
  5
6BCE
  8
UMCL1
 10
4810.6386523121846
 20
4628.4859076740422
 30
0.0
 11
4810.6386523121846
 21
4618.3468580476683
 31
0.0
  0
LINE
  5
6BCF
  8
UMCL1
 10
4805.6386523121864
 20
4629.2594103659394
 30
0.0
 11
4805.6386523121864
 21
4617.5733553557711
 31
0.0
  0
LINE
  5
6BD0
  8
UMCL1
 10
4813.6386523121846
 20
4625.6163828608542
 30
0.0
 11
4813.6386523121846
 21
4621.2163828608554
 31
0.0
  0
LINE
  5
6BD1
  8
UMCL1
 10
4812.8386523121853
 20
4626.4163828608553
 30
0.0
 11
4812.8386523121853
 21
4620.4163828608553
 31
0.0
  0
LINE
  5
6BD2
  8
UMCL1
 10
4805.6386523121864
 20
4617.5733553557711
 30
0.0
 11
4804.6386523121846
 21
4617.5733553557711
 31
0.0
  0
ARC
  5
6BD3
  8
UMCL1
 10
4808.194475060609
 20
4619.0167310287452
 30
0.0
 40
2.5558227484234459
 50
145.61575253196841
 51
214.38424746803159
  0
LINE
  5
6BD4
  8
UMCL1
 10
4805.6386523121864
 20
4618.3468580476683
 30
0.0
 11
4806.0852342995722
 21
4617.5733553557711
 31
0.0
  0
LINE
  5
6BD5
  8
UMCL1
 10
4810.1920703247997
 20
4617.5733553557711
 30
0.0
 11
4806.0852342995722
 21
4617.5733553557702
 31
0.0
  0
LINE
  5
6BD6
  8
UMCL1
 10
4810.1920703247997
 20
4620.4601067017193
 30
0.0
 11
4806.0852342995722
 21
4620.4601067017193
 31
0.0
  0
LINE
  5
6BD7
  8
UMCL1
 10
4810.6386523121846
 20
4618.3468580476683
 30
0.0
 11
4810.1920703247997
 21
4617.5733553557711
 31
0.0
  0
ARC
  5
6BD8
  8
UMCL1
 10
4808.0828295637621
 20
4619.0167310287452
 30
0.0
 40
2.5558227484234459
 50
325.61575253196838
 51
34.384247468031631
  0
LINE
  5
6BD9
  8
UMCL1
 62
     2
 10
4810.6386523121846
 20
4621.0163828608547
 30
0.0
 11
4813.4386523121857
 21
4621.0163828608547
 31
0.0
  0
LINE
  5
6BDA
  8
UMCL1
 10
4810.6386523121846
 20
4620.4163828608553
 30
0.0
 11
4812.8386523121853
 21
4620.4163828608553
 31
0.0
  0
LINE
  5
6BDB
  8
UMCL1
 10
4813.6386523121846
 20
4621.2163828608554
 30
0.0
 11
4812.8386523121853
 21
4620.4163828608553
 31
0.0
  0
LINE
  5
6BDC
  8
UMCL1
 10
4805.6386523121864
 20
4629.2594103659394
 30
0.0
 11
4804.6386523121846
 21
4629.2594103659394
 31
0.0
  0
LINE
  5
6BDD
  8
UMCL1
 10
4805.6386523121864
 20
4628.4859076740422
 30
0.0
 11
4806.0852342995722
 21
4629.2594103659394
 31
0.0
  0
ARC
  5
6BDE
  8
UMCL1
 10
4808.194475060609
 20
4627.8160346929653
 30
0.0
 40
2.5558227484234459
 50
145.61575253196841
 51
214.38424746803159
  0
ARC
  5
6BDF
  8
UMCL1
 10
4808.0828295637621
 20
4627.8160346929653
 30
0.0
 40
2.5558227484234459
 50
325.61575253196838
 51
34.384247468031631
  0
LINE
  5
6BE0
  8
UMCL1
 10
4810.6386523121846
 20
4628.4859076740422
 30
0.0
 11
4810.1920703247997
 21
4629.2594103659394
 31
0.0
  0
LINE
  5
6BE1
  8
UMCL1
 10
4810.1920703247997
 20
4626.3726590199913
 30
0.0
 11
4806.0852342995722
 21
4626.3726590199913
 31
0.0
  0
LINE
  5
6BE2
  8
UMCL1
 10
4810.1920703247997
 20
4629.2594103659394
 30
0.0
 11
4806.0852342995722
 21
4629.2594103659394
 31
0.0
  0
LINE
  5
6BE3
  8
UMCL1
 10
4812.8386523121853
 20
4626.4163828608553
 30
0.0
 11
4813.6386523121846
 21
4625.6163828608542
 31
0.0
  0
LINE
  5
6BE4
  8
UMCL1
 62
     2
 10
4810.6386523121846
 20
4625.8163828608549
 30
0.0
 11
4813.4386523121857
 21
4625.8163828608549
 31
0.0
  0
LINE
  5
6BE5
  8
UMCL1
 10
4810.6386523121846
 20
4626.4163828608553
 30
0.0
 11
4812.8386523121853
 21
4626.4163828608553
 31
0.0
  0
LINE
  5
6BE6
  8
UMCL1
 10
4699.6380401016277
 20
4583.4163828608553
 30
0.0
 11
4778.6386523121846
 21
4583.4163828608553
 31
0.0
  0
LINE
  5
6BE7
  8
CEN
 10
4699.6380401016277
 20
4586.4163828608553
 30
0.0
 11
4817.6386523121864
 21
4586.4163828608553
 31
0.0
  0
LINE
  5
6BE8
  8
UMCL1
 10
4699.6380401016277
 20
4589.4163828608553
 30
0.0
 11
4778.6386523121846
 21
4589.4163828608553
 31
0.0
  0
ARC
  5
6BE9
  8
UMCL1
 10
4808.0828295637621
 20
4590.8160346929662
 30
0.0
 40
2.5558227484234459
 50
325.61575253196838
 51
34.384247468031631
  0
LINE
  5
6BEA
  8
UMCL1
 10
4810.6386523121846
 20
4591.4859076740431
 30
0.0
 11
4810.1920703247997
 21
4592.2594103659394
 31
0.0
  0
LINE
  5
6BEB
  8
UMCL1
 10
4805.6386523121864
 20
4591.4859076740431
 30
0.0
 11
4806.0852342995722
 21
4592.2594103659394
 31
0.0
  0
ARC
  5
6BEC
  8
UMCL1
 10
4808.194475060609
 20
4590.8160346929662
 30
0.0
 40
2.5558227484234459
 50
145.61575253196841
 51
214.38424746803159
  0
LINE
  5
6BED
  8
UMCL1
 10
4805.6386523121864
 20
4580.5733553557693
 30
0.0
 11
4805.6386523121864
 21
4592.2594103659394
 31
0.0
  0
LINE
  5
6BEE
  8
UMCL1
 10
4810.1920703247997
 20
4592.2594103659394
 30
0.0
 11
4806.0852342995722
 21
4592.2594103659394
 31
0.0
  0
LINE
  5
6BEF
  8
UMCL1
 10
4805.6386523121864
 20
4592.2594103659394
 30
0.0
 11
4804.6386523121846
 21
4592.2594103659394
 31
0.0
  0
LINE
  5
6BF0
  8
UMCL1
 10
4810.6386523121846
 20
4583.4163828608553
 30
0.0
 11
4812.8386523121853
 21
4583.4163828608553
 31
0.0
  0
LINE
  5
6BF1
  8
UMCL1
 62
     2
 10
4810.6386523121846
 20
4584.0163828608547
 30
0.0
 11
4813.4386523121857
 21
4584.0163828608547
 31
0.0
  0
LINE
  5
6BF2
  8
UMCL1
 10
4810.6386523121846
 20
4589.4163828608553
 30
0.0
 11
4812.8386523121853
 21
4589.4163828608553
 31
0.0
  0
LINE
  5
6BF3
  8
UMCL1
 62
     2
 10
4810.6386523121846
 20
4588.816382860854
 30
0.0
 11
4813.4386523121857
 21
4588.816382860854
 31
0.0
  0
LINE
  5
6BF4
  8
UMCL1
 10
4810.1920703247997
 20
4580.5733553557693
 30
0.0
 11
4806.0852342995722
 21
4580.5733553557693
 31
0.0
  0
LINE
  5
6BF5
  8
UMCL1
 10
4810.1920703247997
 20
4583.4601067017184
 30
0.0
 11
4806.0852342995722
 21
4583.4601067017184
 31
0.0
  0
LINE
  5
6BF6
  8
UMCL1
 10
4810.6386523121846
 20
4581.3468580476656
 30
0.0
 11
4810.1920703247997
 21
4580.5733553557693
 31
0.0
  0
ARC
  5
6BF7
  8
UMCL1
 10
4808.0828295637621
 20
4582.0167310287443
 30
0.0
 40
2.5558227484234459
 50
325.61575253196838
 51
34.384247468031631
  0
ARC
  5
6BF8
  8
UMCL1
 10
4808.194475060609
 20
4582.0167310287443
 30
0.0
 40
2.5558227484234459
 50
145.61575253196841
 51
214.38424746803159
  0
LINE
  5
6BF9
  8
UMCL1
 10
4805.6386523121864
 20
4581.3468580476656
 30
0.0
 11
4806.0852342995722
 21
4580.5733553557693
 31
0.0
  0
LINE
  5
6BFA
  8
UMCL1
 10
4805.6386523121864
 20
4580.5733553557693
 30
0.0
 11
4804.6386523121846
 21
4580.5733553557693
 31
0.0
  0
LINE
  5
6BFB
  8
UMCL1
 10
4810.1920703247997
 20
4589.3726590199913
 30
0.0
 11
4806.0852342995722
 21
4589.3726590199913
 31
0.0
  0
LINE
  5
6BFC
  8
UMCL1
 10
4810.6386523121846
 20
4581.3468580476656
 30
0.0
 11
4810.6386523121846
 21
4591.4859076740431
 31
0.0
  0
ARC
  5
6BFD
  8
UMCL1
 10
4800.6304069585458
 20
4586.4163828608553
 30
0.0
 40
10.00824535363974
 50
342.81943120861661
 51
17.180568791383411
  0
ARC
  5
6BFE
  8
UMCL1
 10
4815.6468976658252
 20
4586.4163828608553
 30
0.0
 40
10.00824535363974
 50
162.81943120861649
 51
197.18056879138339
  0
LINE
  5
6BFF
  8
UMCL1
 10
4812.8386523121853
 20
4583.4163828608553
 30
0.0
 11
4813.6386523121846
 21
4584.2163828608536
 31
0.0
  0
LINE
  5
6C00
  8
UMCL1
 10
4813.6386523121846
 20
4588.6163828608551
 30
0.0
 11
4812.8386523121853
 21
4589.4163828608553
 31
0.0
  0
LINE
  5
6C01
  8
UMCL1
 10
4812.8386523121853
 20
4583.4163828608553
 30
0.0
 11
4812.8386523121853
 21
4589.4163828608553
 31
0.0
  0
LINE
  5
6C02
  8
UMCL1
 10
4813.6386523121846
 20
4584.2163828608536
 30
0.0
 11
4813.6386523121846
 21
4588.6163828608551
 31
0.0
  0
LINE
  5
6C03
  8
UMCL1
 10
4594.6992645227438
 20
4589.4163828608553
 30
0.0
 11
4515.6386523121846
 21
4589.4163828608553
 31
0.0
  0
LINE
  5
6C04
  8
CEN
 10
4594.6992645227438
 20
4586.4163828608553
 30
0.0
 11
4476.6386523121864
 21
4586.4163828608553
 31
0.0
  0
LINE
  5
6C05
  8
UMCL1
 10
4594.6992645227438
 20
4583.4163828608553
 30
0.0
 11
4515.6386523121846
 21
4583.4163828608553
 31
0.0
  0
LINE
  5
6C06
  8
CEN
 10
4594.6992645227438
 20
4623.4163828608544
 30
0.0
 11
4476.6386523121864
 21
4623.4163828608553
 31
0.0
  0
LINE
  5
6C07
  8
UMCL1
 10
4594.6992645227438
 20
4626.4163828608544
 30
0.0
 11
4515.6386523121846
 21
4626.4163828608553
 31
0.0
  0
LINE
  5
6C08
  8
UMCL1
 10
4594.6992645227438
 20
4620.4163828608544
 30
0.0
 11
4515.6386523121846
 21
4620.4163828608553
 31
0.0
  0
LINE
  5
6C09
  8
UMCL1
 10
4594.6992645227438
 20
4582.4163828608553
 30
0.0
 11
4515.6386523121846
 21
4582.4163828608553
 31
0.0
  0
LINE
  5
6C0A
  8
UMCL1
 10
4594.6992645227438
 20
4627.4163828608544
 30
0.0
 11
4515.6386523121846
 21
4627.4163828608553
 31
0.0
  0
LINE
  5
6C0B
  8
UMCL1
 10
4481.4386523121866
 20
4583.4163828608553
 30
0.0
 11
4481.4386523121866
 21
4589.4163828608553
 31
0.0
  0
LINE
  5
6C0C
  8
UMCL1
 10
4480.6386523121864
 20
4588.6163828608551
 30
0.0
 11
4481.4386523121866
 21
4589.4163828608553
 31
0.0
  0
ARC
  5
6C0D
  8
UMCL1
 10
4478.6304069585458
 20
4586.4163828608553
 30
0.0
 40
10.00824535363974
 50
342.81943120861661
 51
17.180568791383411
  0
ARC
  5
6C0E
  8
UMCL1
 10
4493.6468976658252
 20
4586.4163828608553
 30
0.0
 40
10.00824535363974
 50
162.81943120861649
 51
197.18056879138339
  0
LINE
  5
6C0F
  8
UMCL1
 10
4483.6386523121846
 20
4581.3468580476656
 30
0.0
 11
4483.6386523121846
 21
4591.4859076740431
 31
0.0
  0
LINE
  5
6C10
  8
UMCL1
 10
4488.6386523121846
 20
4580.5733553557693
 30
0.0
 11
4488.6386523121864
 21
4592.2594103659394
 31
0.0
  0
LINE
  5
6C11
  8
UMCL1
 10
4515.6386523121846
 20
4629.9163828608553
 30
0.0
 11
4515.6386523121846
 21
4579.9163828608553
 31
0.0
  0
LINE
  5
6C12
  8
UMCL1
 10
4489.6386523121846
 20
4629.9163828608553
 30
0.0
 11
4489.6386523121846
 21
4579.9163828608553
 31
0.0
  0
LINE
  5
6C13
  8
CEN
 10
4500.6386523121846
 20
4593.5913828608536
 30
0.0
 11
4500.6386523121846
 21
4616.2413828608542
 31
0.0
  0
LINE
  5
6C14
  8
UMCL1
 10
4515.6386523121846
 20
4579.9163828608553
 30
0.0
 11
4489.6386523121846
 21
4579.9163828608553
 31
0.0
  0
LINE
  5
6C15
  8
UMCL1
 62
     2
 10
4483.6386523121864
 20
4588.816382860854
 30
0.0
 11
4480.8386523121853
 21
4588.816382860854
 31
0.0
  0
LINE
  5
6C16
  8
UMCL1
 62
     2
 10
4483.6386523121864
 20
4584.0163828608547
 30
0.0
 11
4480.8386523121853
 21
4584.0163828608547
 31
0.0
  0
LINE
  5
6C17
  8
UMCL1
 10
4483.6386523121864
 20
4583.4163828608553
 30
0.0
 11
4481.4386523121866
 21
4583.4163828608553
 31
0.0
  0
LINE
  5
6C18
  8
UMCL1
 10
4488.6386523121846
 20
4580.5733553557693
 30
0.0
 11
4489.6386523121846
 21
4580.5733553557693
 31
0.0
  0
LINE
  5
6C19
  8
UMCL1
 10
4488.6386523121846
 20
4581.3468580476656
 30
0.0
 11
4488.1920703247997
 21
4580.5733553557693
 31
0.0
  0
ARC
  5
6C1A
  8
UMCL1
 10
4486.0828295637621
 20
4582.0167310287443
 30
0.0
 40
2.5558227484234459
 50
325.61575253196838
 51
34.384247468031631
  0
ARC
  5
6C1B
  8
UMCL1
 10
4486.194475060609
 20
4582.0167310287443
 30
0.0
 40
2.5558227484234459
 50
145.61575253196841
 51
214.38424746803159
  0
LINE
  5
6C1C
  8
UMCL1
 10
4483.6386523121846
 20
4581.3468580476656
 30
0.0
 11
4484.0852342995722
 21
4580.5733553557693
 31
0.0
  0
LINE
  5
6C1D
  8
UMCL1
 10
4484.0852342995722
 20
4583.4601067017184
 30
0.0
 11
4488.1920703247997
 21
4583.4601067017184
 31
0.0
  0
LINE
  5
6C1E
  8
UMCL1
 10
4484.0852342995722
 20
4580.5733553557693
 30
0.0
 11
4488.1920703247997
 21
4580.5733553557693
 31
0.0
  0
LINE
  5
6C1F
  8
UMCL1
 10
4480.6386523121864
 20
4584.2163828608536
 30
0.0
 11
4480.6386523121864
 21
4588.6163828608551
 31
0.0
  0
LINE
  5
6C20
  8
UMCL1
 10
4481.4386523121866
 20
4583.4163828608553
 30
0.0
 11
4480.6386523121864
 21
4584.2163828608536
 31
0.0
  0
ARC
  5
6C21
  8
UMCL1
 62
     2
 10
4500.6386523121846
 20
4604.9163828608562
 30
0.0
 40
8.3000000000000007
 50
167.1896087412955
 51
119.6096858685877
  0
CIRCLE
  5
6C22
  8
UMCL1
 10
4500.6386523121846
 20
4604.9163828608562
 30
0.0
 40
7.5
  0
LINE
  5
6C23
  8
UMCL1
 10
4515.6386523121846
 20
4629.9163828608553
 30
0.0
 11
4489.6386523121846
 21
4629.9163828608553
 31
0.0
  0
ARC
  5
6C24
  8
UMCL1
 10
4486.194475060609
 20
4619.0167310287452
 30
0.0
 40
2.5558227484234459
 50
145.61575253196841
 51
214.38424746803159
  0
LINE
  5
6C25
  8
UMCL1
 10
4483.6386523121846
 20
4618.3468580476683
 30
0.0
 11
4484.0852342995722
 21
4617.5733553557711
 31
0.0
  0
LINE
  5
6C26
  8
UMCL1
 10
4488.6386523121846
 20
4618.3468580476683
 30
0.0
 11
4488.1920703247997
 21
4617.5733553557711
 31
0.0
  0
ARC
  5
6C27
  8
UMCL1
 10
4486.0828295637621
 20
4619.0167310287452
 30
0.0
 40
2.5558227484234459
 50
325.61575253196838
 51
34.384247468031631
  0
LINE
  5
6C28
  8
UMCL1
 10
4488.6386523121846
 20
4629.2594103659394
 30
0.0
 11
4488.6386523121864
 21
4617.5733553557711
 31
0.0
  0
LINE
  5
6C29
  8
UMCL1
 10
4483.6386523121864
 20
4589.4163828608553
 30
0.0
 11
4481.4386523121866
 21
4589.4163828608553
 31
0.0
  0
LINE
  5
6C2A
  8
UMCL1
 10
4484.0852342995722
 20
4589.3726590199913
 30
0.0
 11
4488.1920703247997
 21
4589.3726590199913
 31
0.0
  0
LINE
  5
6C2B
  8
UMCL1
 10
4488.6386523121846
 20
4592.2594103659394
 30
0.0
 11
4489.6386523121846
 21
4592.2594103659394
 31
0.0
  0
LINE
  5
6C2C
  8
UMCL1
 10
4484.0852342995722
 20
4592.2594103659394
 30
0.0
 11
4488.1920703247997
 21
4592.2594103659394
 31
0.0
  0
ARC
  5
6C2D
  8
UMCL1
 10
4486.0828295637621
 20
4590.8160346929662
 30
0.0
 40
2.5558227484234459
 50
325.61575253196838
 51
34.384247468031631
  0
LINE
  5
6C2E
  8
UMCL1
 10
4488.6386523121846
 20
4591.4859076740431
 30
0.0
 11
4488.1920703247997
 21
4592.2594103659394
 31
0.0
  0
LINE
  5
6C2F
  8
UMCL1
 10
4483.6386523121846
 20
4591.4859076740431
 30
0.0
 11
4484.0852342995722
 21
4592.2594103659394
 31
0.0
  0
ARC
  5
6C30
  8
UMCL1
 10
4486.194475060609
 20
4590.8160346929662
 30
0.0
 40
2.5558227484234459
 50
145.61575253196841
 51
214.38424746803159
  0
LINE
  5
6C31
  8
UMCL1
 10
4484.0852342995722
 20
4617.5733553557711
 30
0.0
 11
4488.1920703247997
 21
4617.5733553557702
 31
0.0
  0
LINE
  5
6C32
  8
UMCL1
 10
4488.6386523121846
 20
4617.5733553557711
 30
0.0
 11
4489.6386523121846
 21
4617.5733553557711
 31
0.0
  0
LINE
  5
6C33
  8
UMCL1
 10
4483.6386523121864
 20
4626.4163828608553
 30
0.0
 11
4481.4386523121866
 21
4626.4163828608553
 31
0.0
  0
LINE
  5
6C34
  8
UMCL1
 62
     2
 10
4483.6386523121864
 20
4625.8163828608549
 30
0.0
 11
4480.8386523121853
 21
4625.8163828608549
 31
0.0
  0
LINE
  5
6C35
  8
UMCL1
 10
4483.6386523121864
 20
4620.4163828608553
 30
0.0
 11
4481.4386523121866
 21
4620.4163828608553
 31
0.0
  0
LINE
  5
6C36
  8
UMCL1
 62
     2
 10
4483.6386523121864
 20
4621.0163828608547
 30
0.0
 11
4480.8386523121853
 21
4621.0163828608547
 31
0.0
  0
LINE
  5
6C37
  8
UMCL1
 10
4484.0852342995722
 20
4629.2594103659394
 30
0.0
 11
4488.1920703247997
 21
4629.2594103659394
 31
0.0
  0
LINE
  5
6C38
  8
UMCL1
 10
4484.0852342995722
 20
4626.3726590199913
 30
0.0
 11
4488.1920703247997
 21
4626.3726590199913
 31
0.0
  0
LINE
  5
6C39
  8
UMCL1
 10
4483.6386523121846
 20
4628.4859076740422
 30
0.0
 11
4484.0852342995722
 21
4629.2594103659394
 31
0.0
  0
ARC
  5
6C3A
  8
UMCL1
 10
4486.194475060609
 20
4627.8160346929653
 30
0.0
 40
2.5558227484234459
 50
145.61575253196841
 51
214.38424746803159
  0
ARC
  5
6C3B
  8
UMCL1
 10
4486.0828295637621
 20
4627.8160346929653
 30
0.0
 40
2.5558227484234459
 50
325.61575253196838
 51
34.384247468031631
  0
LINE
  5
6C3C
  8
UMCL1
 10
4488.6386523121846
 20
4628.4859076740422
 30
0.0
 11
4488.1920703247997
 21
4629.2594103659394
 31
0.0
  0
LINE
  5
6C3D
  8
UMCL1
 10
4488.6386523121846
 20
4629.2594103659394
 30
0.0
 11
4489.6386523121846
 21
4629.2594103659394
 31
0.0
  0
LINE
  5
6C3E
  8
UMCL1
 10
4484.0852342995722
 20
4620.4601067017193
 30
0.0
 11
4488.1920703247997
 21
4620.4601067017193
 31
0.0
  0
LINE
  5
6C3F
  8
UMCL1
 10
4483.6386523121846
 20
4628.4859076740422
 30
0.0
 11
4483.6386523121846
 21
4618.3468580476683
 31
0.0
  0
ARC
  5
6C40
  8
UMCL1
 10
4493.6468976658252
 20
4623.4163828608553
 30
0.0
 40
10.00824535363974
 50
162.81943120861649
 51
197.18056879138339
  0
ARC
  5
6C41
  8
UMCL1
 10
4478.6304069585458
 20
4623.4163828608553
 30
0.0
 40
10.00824535363974
 50
342.81943120861661
 51
17.180568791383411
  0
LINE
  5
6C42
  8
UMCL1
 10
4481.4386523121866
 20
4626.4163828608553
 30
0.0
 11
4480.6386523121864
 21
4625.6163828608542
 31
0.0
  0
LINE
  5
6C43
  8
UMCL1
 10
4480.6386523121864
 20
4621.2163828608554
 30
0.0
 11
4481.4386523121866
 21
4620.4163828608553
 31
0.0
  0
LINE
  5
6C44
  8
UMCL1
 10
4481.4386523121866
 20
4626.4163828608553
 30
0.0
 11
4481.4386523121866
 21
4620.4163828608553
 31
0.0
  0
LINE
  5
6C45
  8
UMCL1
 10
4480.6386523121864
 20
4625.6163828608542
 30
0.0
 11
4480.6386523121864
 21
4621.2163828608554
 31
0.0
  0
LINE
  5
6C46
  8
UMCL2
 10
4515.6386523121846
 20
4577.9163828608553
 30
0.0
 11
4515.6386523121846
 21
4510.9163828608544
 31
0.0
  0
LINE
  5
6C47
  8
UMCL2
 10
4489.6386523121846
 20
4577.9163828608553
 30
0.0
 11
4489.6386523121846
 21
4494.9163828608544
 31
0.0
  0
LINE
  5
6C48
  8
UMCL2
 10
4480.6386523121864
 20
4582.095792404848
 30
0.0
 11
4480.6386523121864
 21
4510.9163828608544
 31
0.0
  0
SOLID
  5
6C49
  8
UMCL2
 10
4510.6386523121846
 20
4514.2497161941883
 30
0.0
 11
4510.6386523121846
 21
4512.5830495275213
 31
0.0
 12
4515.6386523121846
 22
4513.4163828608544
 32
0.0
 13
4515.6386523121846
 23
4513.4163828608544
 33
0.0
  0
SOLID
  5
6C4A
  8
UMCL2
 10
4520.6386523121846
 20
4514.2497161941883
 30
0.0
 11
4520.6386523121846
 21
4512.5830495275213
 31
0.0
 12
4515.6386523121846
 22
4513.4163828608544
 32
0.0
 13
4515.6386523121846
 23
4513.4163828608544
 33
0.0
  0
SOLID
  5
6C4B
  8
UMCL2
 10
4494.6386523121846
 20
4498.2497161941883
 30
0.0
 11
4494.6386523121846
 21
4496.5830495275213
 31
0.0
 12
4489.6386523121846
 22
4497.4163828608544
 32
0.0
 13
4489.6386523121846
 23
4497.4163828608544
 33
0.0
  0
SOLID
  5
6C4C
  8
UMCL2
 10
4494.578652312186
 20
4514.2497161941883
 30
0.0
 11
4494.578652312186
 21
4512.5830495275213
 31
0.0
 12
4489.578652312186
 22
4513.4163828608544
 32
0.0
 13
4489.578652312186
 23
4513.4163828608544
 33
0.0
  0
SOLID
  5
6C4D
  8
UMCL2
 10
4475.6386523121873
 20
4514.2497161941883
 30
0.0
 11
4475.6386523121873
 21
4512.5830495275213
 31
0.0
 12
4480.6386523121864
 22
4513.4163828608544
 32
0.0
 13
4480.6386523121864
 23
4513.4163828608544
 33
0.0
  0
TEXT
  5
6C4E
  8
UMCL2
 10
4497.1659279406049
 20
4515.8163828608549
 30
0.0
 40
6.0
  1
26
 41
0.85
 51
15.0
  7
ROMANS
  0
TEXT
  5
6C4F
  8
UMCL2
 10
4466.3165290349261
 20
4515.8163828608549
 30
0.0
 40
6.0
  1
9
 41
0.85
 51
15.0
  7
ROMANS
  0
LINE
  5
6C50
  8
CEN
 10
4594.6386523121864
 20
4865.611269949688
 30
0.0
 11
4476.6386523121864
 21
4865.611269949688
 31
0.0
  0
LINE
  5
6C51
  8
UMCL1
 62
     2
 10
4483.6386523121864
 20
4868.0112699496904
 30
0.0
 11
4480.8386523121853
 21
4868.0112699496904
 31
0.0
  0
LINE
  5
6C52
  8
UMCL1
 10
4483.6386523121864
 20
4868.611269949688
 30
0.0
 11
4481.4386523121866
 21
4868.611269949688
 31
0.0
  0
LINE
  5
6C53
  8
UMCL1
 62
     2
 10
4483.6386523121864
 20
4863.2112699496893
 30
0.0
 11
4480.8386523121853
 21
4863.2112699496893
 31
0.0
  0
LINE
  5
6C54
  8
UMCL1
 10
4483.6386523121864
 20
4862.6112699496889
 30
0.0
 11
4481.4386523121866
 21
4862.6112699496889
 31
0.0
  0
LINE
  5
6C55
  8
UMCL1
 10
4483.6386523121864
 20
4870.6807947628768
 30
0.0
 11
4483.6386523121864
 21
4860.541745136501
 31
0.0
  0
LINE
  5
6C56
  8
UMCL1
 10
4488.6386523121864
 20
4871.454297454773
 30
0.0
 11
4488.6386523121864
 21
4859.7682424446048
 31
0.0
  0
ARC
  5
6C57
  8
UMCL1
 10
4481.2218104819467
 20
4868.1460323562833
 30
0.0
 40
7.4168418302387566
 50
340.01600439257339
 51
19.983995607426589
  0
ARC
  5
6C58
  8
UMCL1
 10
4491.0554941424243
 20
4868.1460323562833
 30
0.0
 40
7.4168418302387318
 50
160.01600439257339
 51
199.98399560742661
  0
LINE
  5
6C59
  8
UMCL1
 10
4484.0852342995722
 20
4865.611269949688
 30
0.0
 11
4488.1920703248006
 21
4865.611269949688
 31
0.0
  0
LINE
  5
6C5A
  8
UMCL1
 10
4483.6386523121864
 20
4860.541745136501
 30
0.0
 11
4488.6386523121864
 21
4860.541745136501
 31
0.0
  0
ARC
  5
6C5B
  8
UMCL1
 10
4481.2218104819467
 20
4863.0765075430954
 30
0.0
 40
7.4168418302387566
 50
340.01600439257339
 51
19.983995607426589
  0
ARC
  5
6C5C
  8
UMCL1
 10
4491.0554941424243
 20
4863.0765075430954
 30
0.0
 40
7.4168418302387318
 50
160.01600439257339
 51
199.98399560742661
  0
LINE
  5
6C5D
  8
UMCL1
 10
4488.6386523121864
 20
4859.7682424446048
 30
0.0
 11
4489.6386523121864
 21
4859.7682424446048
 31
0.0
  0
LINE
  5
6C5E
  8
UMCL1
 10
4483.6386523121864
 20
4870.6807947628768
 30
0.0
 11
4488.6386523121864
 21
4870.6807947628768
 31
0.0
  0
LINE
  5
6C5F
  8
UMCL1
 10
4488.6386523121864
 20
4871.454297454774
 30
0.0
 11
4489.6386523121864
 21
4871.454297454774
 31
0.0
  0
LINE
  5
6C60
  8
UMCL1
 10
4481.4386523121866
 20
4868.611269949688
 30
0.0
 11
4480.6386523121864
 21
4867.8112699496878
 31
0.0
  0
LINE
  5
6C61
  8
UMCL1
 10
4480.6386523121864
 20
4863.4112699496891
 30
0.0
 11
4481.4386523121866
 21
4862.6112699496889
 31
0.0
  0
LINE
  5
6C62
  8
UMCL1
 10
4480.6386523121864
 20
4867.8112699496878
 30
0.0
 11
4480.6386523121864
 21
4863.4112699496891
 31
0.0
  0
LINE
  5
6C63
  8
UMCL1
 10
4481.4386523121866
 20
4868.611269949688
 30
0.0
 11
4481.4386523121866
 21
4862.6112699496889
 31
0.0
  0
LINE
  5
6C64
  8
UMCL1
 10
4481.4386523121866
 20
4831.6112699496889
 30
0.0
 11
4481.4386523121866
 21
4825.6112699496889
 31
0.0
  0
LINE
  5
6C65
  8
UMCL1
 10
4480.6386523121864
 20
4830.8112699496887
 30
0.0
 11
4480.6386523121864
 21
4826.4112699496891
 31
0.0
  0
ARC
  5
6C66
  8
UMCL1
 10
4491.0554941424243
 20
4826.0765075430963
 30
0.0
 40
7.4168418302387318
 50
160.01600439257339
 51
199.98399560742661
  0
ARC
  5
6C67
  8
UMCL1
 10
4481.2218104819467
 20
4826.0765075430963
 30
0.0
 40
7.4168418302387566
 50
340.01600439257339
 51
19.983995607426589
  0
LINE
  5
6C68
  8
UMCL1
 10
4488.6386523121864
 20
4834.4542974547721
 30
0.0
 11
4488.6386523121864
 21
4822.7682424446048
 31
0.0
  0
LINE
  5
6C69
  8
UMCL1
 10
4483.6386523121864
 20
4833.6807947628768
 30
0.0
 11
4483.6386523121864
 21
4823.541745136501
 31
0.0
  0
LINE
  5
6C6A
  8
UMCL1
 10
4483.6386523121864
 20
4825.6112699496889
 30
0.0
 11
4481.4386523121866
 21
4825.6112699496889
 31
0.0
  0
LINE
  5
6C6B
  8
UMCL1
 62
     2
 10
4483.6386523121864
 20
4826.2112699496893
 30
0.0
 11
4480.8386523121853
 21
4826.2112699496893
 31
0.0
  0
LINE
  5
6C6C
  8
UMCL1
 10
4488.6386523121864
 20
4822.7682424446048
 30
0.0
 11
4489.6386523121864
 21
4822.7682424446048
 31
0.0
  0
LINE
  5
6C6D
  8
UMCL1
 10
4483.6386523121864
 20
4823.541745136501
 30
0.0
 11
4488.6386523121864
 21
4823.541745136501
 31
0.0
  0
LINE
  5
6C6E
  8
UMCL1
 10
4480.6386523121864
 20
4826.4112699496891
 30
0.0
 11
4481.4386523121866
 21
4825.6112699496889
 31
0.0
  0
LINE
  5
6C6F
  8
UMCL1
 10
4483.6386523121864
 20
4831.6112699496889
 30
0.0
 11
4481.4386523121866
 21
4831.6112699496889
 31
0.0
  0
LINE
  5
6C70
  8
UMCL1
 62
     2
 10
4483.6386523121864
 20
4831.0112699496904
 30
0.0
 11
4480.8386523121853
 21
4831.0112699496904
 31
0.0
  0
LINE
  5
6C71
  8
UMCL1
 10
4488.6386523121864
 20
4834.454297454774
 30
0.0
 11
4489.6386523121864
 21
4834.454297454774
 31
0.0
  0
LINE
  5
6C72
  8
UMCL1
 10
4483.6386523121864
 20
4833.6807947628768
 30
0.0
 11
4488.6386523121864
 21
4833.6807947628768
 31
0.0
  0
ARC
  5
6C73
  8
UMCL1
 10
4491.0554941424243
 20
4831.1460323562833
 30
0.0
 40
7.4168418302387318
 50
160.01600439257339
 51
199.98399560742661
  0
ARC
  5
6C74
  8
UMCL1
 10
4481.2218104819467
 20
4831.1460323562833
 30
0.0
 40
7.4168418302387566
 50
340.01600439257339
 51
19.983995607426589
  0
LINE
  5
6C75
  8
UMCL1
 10
4481.4386523121866
 20
4831.6112699496889
 30
0.0
 11
4480.6386523121864
 21
4830.8112699496887
 31
0.0
  0
LINE
  5
6C76
  8
HIDDEN
 10
5055.2439397825756
 20
4632.3857706502968
 30
0.0
 11
5055.2439397825756
 21
4652.3857706502968
 31
0.0
  0
LINE
  5
6C77
  8
HIDDEN
 10
5054.4939397825756
 20
4627.3857706502959
 30
0.0
 11
5054.4939397825756
 21
4652.3857706502968
 31
0.0
  0
LINE
  5
6C78
  8
HIDDEN
 10
5045.2439397825756
 20
4632.3857706502968
 30
0.0
 11
5045.2439397825756
 21
4652.3857706502968
 31
0.0
  0
LINE
  5
6C79
  8
HIDDEN
 10
5045.9939397825756
 20
4627.3857706502959
 30
0.0
 11
5045.9939397825756
 21
4652.3857706502968
 31
0.0
  0
LINE
  5
6C7A
  8
CEN
 10
5050.2439397825747
 20
4619.619800342407
 30
0.0
 11
5050.2439397825747
 21
4657.6511116813199
 31
0.0
  0
LINE
  5
6C7B
  8
HIDDEN
 10
5050.2439397825747
 20
4624.9320320062407
 30
0.0
 11
5045.9939397825756
 21
4627.3857706502959
 31
0.0
  0
LINE
  5
6C7C
  8
HIDDEN
 10
5045.9939397825756
 20
4627.3857706502959
 30
0.0
 11
5054.4939397825756
 21
4627.3857706502959
 31
0.0
  0
LINE
  5
6C7D
  8
HIDDEN
 10
5045.2439397825756
 20
4632.3857706502968
 30
0.0
 11
5055.2439397825756
 21
4632.3857706502968
 31
0.0
  0
LINE
  5
6C7E
  8
HIDDEN
 10
5050.2439397825747
 20
4624.9320320062407
 30
0.0
 11
5054.4939397825756
 21
4627.3857706502959
 31
0.0
  0
LINE
  5
6C7F
  8
UMCL1
  6
HIDDEN
 62
     2
 10
5057.2439397825747
 20
4652.7163828608536
 30
0.0
 11
5056.9439397825763
 21
4652.4163828608553
 31
0.0
  0
LINE
  5
6C80
  8
HIDDEN
 10
5045.9939397825756
 20
4582.4469950714129
 30
0.0
 11
5045.9939397825756
 21
4557.4469950714138
 31
0.0
  0
LINE
  5
6C81
  8
HIDDEN
 10
5054.4939397825756
 20
4582.4469950714129
 30
0.0
 11
5054.4939397825756
 21
4557.4469950714138
 31
0.0
  0
LINE
  5
6C82
  8
HIDDEN
 10
5055.2439397825756
 20
4577.4469950714138
 30
0.0
 11
5055.2439397825756
 21
4557.4469950714138
 31
0.0
  0
LINE
  5
6C83
  8
HIDDEN
 10
5045.2439397825756
 20
4577.4469950714138
 30
0.0
 11
5045.2439397825756
 21
4557.4469950714138
 31
0.0
  0
LINE
  5
6C84
  8
UMCL1
  6
HIDDEN
 62
     2
 10
5057.2439397825747
 20
4557.1163828608551
 30
0.0
 11
5056.9439397825763
 21
4557.4163828608553
 31
0.0
  0
LINE
  5
6C85
  8
HIDDEN
 10
5050.2439397825747
 20
4584.9007337154699
 30
0.0
 11
5045.9939397825756
 21
4582.4469950714129
 31
0.0
  0
LINE
  5
6C86
  8
HIDDEN
 10
5045.2439397825756
 20
4577.4469950714138
 30
0.0
 11
5055.2439397825756
 21
4577.4469950714138
 31
0.0
  0
LINE
  5
6C87
  8
HIDDEN
 10
5045.9939397825756
 20
4582.4469950714129
 30
0.0
 11
5054.4939397825756
 21
4582.4469950714129
 31
0.0
  0
LINE
  5
6C88
  8
HIDDEN
 10
5050.2439397825747
 20
4584.9007337154699
 30
0.0
 11
5054.4939397825756
 21
4582.4469950714129
 31
0.0
  0
LINE
  5
6C89
  8
CEN
 10
5050.2439397825747
 20
4590.2129653793027
 30
0.0
 11
5050.2439397825747
 21
4552.1816540403888
 31
0.0
  0
LINE
  5
6C8A
  8
CEN
 10
4968.2439397825756
 20
4619.619800342407
 30
0.0
 11
4968.2439397825756
 21
4657.6511116813199
 31
0.0
  0
LINE
  5
6C8B
  8
HIDDEN
 10
4972.4939397825756
 20
4627.3857706502959
 30
0.0
 11
4972.4939397825756
 21
4652.3857706502968
 31
0.0
  0
LINE
  5
6C8C
  8
UMCL1
  6
HIDDEN
 62
     2
 10
4973.2439397825756
 20
4632.3857706502968
 30
0.0
 11
4973.2439397825756
 21
4652.3857706502968
 31
0.0
  0
LINE
  5
6C8D
  8
HIDDEN
 10
4963.9939397825747
 20
4627.3857706502959
 30
0.0
 11
4963.9939397825747
 21
4652.3857706502968
 31
0.0
  0
LINE
  5
6C8E
  8
HIDDEN
 10
4963.2439397825747
 20
4632.3857706502968
 30
0.0
 11
4963.2439397825747
 21
4652.3857706502968
 31
0.0
  0
LINE
  5
6C8F
  8
HIDDEN
 10
4973.2439397825756
 20
4632.3857706502968
 30
0.0
 11
4963.2439397825747
 21
4632.3857706502968
 31
0.0
  0
LINE
  5
6C90
  8
HIDDEN
 10
4972.4939397825756
 20
4627.3857706502959
 30
0.0
 11
4963.9939397825747
 21
4627.3857706502959
 31
0.0
  0
LINE
  5
6C91
  8
HIDDEN
 10
4968.2439397825756
 20
4624.9320320062407
 30
0.0
 11
4972.4939397825756
 21
4627.3857706502959
 31
0.0
  0
LINE
  5
6C92
  8
HIDDEN
 10
4968.2439397825756
 20
4624.9320320062407
 30
0.0
 11
4963.9939397825747
 21
4627.3857706502959
 31
0.0
  0
LINE
  5
6C93
  8
UMCL1
  6
HIDDEN
 62
     2
 10
4961.2439397825756
 20
4652.7163828608536
 30
0.0
 11
4961.5439397825758
 21
4652.4163828608553
 31
0.0
  0
LINE
  5
6C94
  8
UMCL1
 10
4961.2439397825756
 20
4652.7163828608554
 30
0.0
 11
4961.5439397825758
 21
4652.4163828608553
 31
0.0
  0
LINE
  5
6C95
  8
CEN
 10
4968.2439397825756
 20
4590.2129653793027
 30
0.0
 11
4968.2439397825756
 21
4552.1816540403888
 31
0.0
  0
LINE
  5
6C96
  8
HIDDEN
 10
4973.2439397825756
 20
4577.4469950714138
 30
0.0
 11
4973.2439397825756
 21
4557.4469950714138
 31
0.0
  0
LINE
  5
6C97
  8
HIDDEN
 10
4963.2439397825747
 20
4577.4469950714138
 30
0.0
 11
4963.2439397825747
 21
4557.4469950714138
 31
0.0
  0
LINE
  5
6C98
  8
HIDDEN
 10
4963.9939397825747
 20
4582.4469950714129
 30
0.0
 11
4963.9939397825747
 21
4557.4469950714138
 31
0.0
  0
LINE
  5
6C99
  8
HIDDEN
 10
4972.4939397825756
 20
4582.4469950714129
 30
0.0
 11
4972.4939397825756
 21
4557.4469950714138
 31
0.0
  0
LINE
  5
6C9A
  8
UMCL1
  6
HIDDEN
 62
     2
 10
4961.2439397825756
 20
4557.1163828608551
 30
0.0
 11
4961.5439397825758
 21
4557.4163828608553
 31
0.0
  0
LINE
  5
6C9B
  8
UMCL1
 10
4961.2439397825756
 20
4557.1163828608551
 30
0.0
 11
4961.5439397825758
 21
4557.4163828608553
 31
0.0
  0
LINE
  5
6C9C
  8
HIDDEN
 10
4972.4939397825756
 20
4582.4469950714129
 30
0.0
 11
4963.9939397825747
 21
4582.4469950714129
 31
0.0
  0
LINE
  5
6C9D
  8
HIDDEN
 10
4973.2439397825756
 20
4577.4469950714138
 30
0.0
 11
4963.2439397825747
 21
4577.4469950714138
 31
0.0
  0
LINE
  5
6C9E
  8
HIDDEN
 10
4968.2439397825756
 20
4584.9007337154699
 30
0.0
 11
4972.4939397825756
 21
4582.4469950714129
 31
0.0
  0
LINE
  5
6C9F
  8
HIDDEN
 10
4968.2439397825756
 20
4584.9007337154699
 30
0.0
 11
4963.9939397825747
 21
4582.4469950714129
 31
0.0
  0
LINE
  5
6CA0
  8
CEN
 10
4667.6803921100327
 20
4903.6530097475352
 30
0.0
 11
4681.7512414468902
 21
4917.7238590843926
 31
0.0
  0
LINE
  5
6CA1
  8
HIDDEN
 10
4666.2886523121861
 20
4809.6112699496889
 30
0.0
 11
4666.1756739802677
 21
4807.4555149556209
 31
0.0
  0
LINE
  5
6CA2
  8
HIDDEN
 10
4665.4886523121859
 20
4809.6112699496889
 30
0.0
 11
4665.3314289743366
 21
4806.6112699496889
 31
0.0
  0
LINE
  5
6CA3
  8
HIDDEN
 10
4678.7886523121861
 20
4809.6112699496889
 30
0.0
 11
4665.4886523121859
 21
4809.6112699496889
 31
0.0
  0
LINE
  5
6CA4
  8
HIDDEN
 10
4678.1016306441034
 20
4807.4555149556199
 30
0.0
 11
4678.5120118746154
 21
4799.6249746021431
 31
0.0
  0
LINE
  5
6CA5
  8
HIDDEN
 10
4678.9458756500353
 20
4806.6112699496889
 30
0.0
 11
4679.3120118746156
 21
4799.6249746021431
 31
0.0
  0
LINE
  5
6CA6
  8
HIDDEN
 10
4666.3314289743366
 20
4807.611269949688
 30
0.0
 11
4677.9458756500344
 21
4807.611269949688
 31
0.0
  0
LINE
  5
6CA7
  8
HIDDEN
 10
4665.3314289743366
 20
4806.6112699496889
 30
0.0
 11
4678.9458756500344
 21
4806.6112699496889
 31
0.0
  0
LINE
  5
6CA8
  8
HIDDEN
 10
4665.3314289743366
 20
4806.6112699496889
 30
0.0
 11
4666.3314289743366
 21
4807.611269949688
 31
0.0
  0
LINE
  5
6CA9
  8
HIDDEN
 10
4678.9458756500344
 20
4806.6112699496889
 30
0.0
 11
4677.9458756500344
 21
4807.611269949688
 31
0.0
  0
TEXT
  5
6CAA
  8
UMCL2
 10
4547.5089641715522
 20
4515.8163828608549
 30
0.0
 40
6.0
  1
79
 41
0.85
 51
15.0
  7
ROMANS
  0
ARC
  5
6CAB
  8
UMCL1
 62
     2
 10
4674.715816778461
 20
4910.6884344159644
 30
0.0
 40
4.0
 50
297.35626838235851
 51
246.00402759871241
  0
CIRCLE
  5
6CAC
  8
UMCL1
 10
4674.715816778461
 20
4910.6884344159644
 30
0.0
 40
3.399999999999999
  0
LINE
  5
6CAD
  8
HIDDEN
 10
4698.6386523121864
 20
4914.1112699496889
 30
0.0
 11
4699.6386523121846
 21
4913.1112699496889
 31
0.0
  0
LINE
  5
6CAE
  8
HIDDEN
 10
4688.6386523121846
 20
4914.1112699496889
 30
0.0
 11
4687.6386523121864
 21
4913.1112699496889
 31
0.0
  0
LINE
  5
6CAF
  8
HIDDEN
 10
4688.6386523121846
 20
4902.111269949688
 30
0.0
 11
4688.6386523121846
 21
4914.1112699496889
 31
0.0
  0
LINE
  5
6CB0
  8
HIDDEN
 10
4698.6386523121864
 20
4902.111269949688
 30
0.0
 11
4698.6386523121864
 21
4914.1112699496889
 31
0.0
  0
LINE
  5
6CB1
  8
HIDDEN
 10
4694.6386523121846
 20
4909.843320757258
 30
0.0
 11
4699.6386523121846
 21
4909.843320757258
 31
0.0
  0
LINE
  5
6CB2
  8
HIDDEN
 10
4694.6386523121846
 20
4911.575371564827
 30
0.0
 11
4699.6386523121846
 21
4911.575371564827
 31
0.0
  0
LINE
  5
6CB3
  8
HIDDEN
 10
4694.6386523121846
 20
4904.6471683345517
 30
0.0
 11
4699.6386523121846
 21
4904.6471683345517
 31
0.0
  0
LINE
  5
6CB4
  8
HIDDEN
 10
4694.6386523121846
 20
4906.3792191421198
 30
0.0
 11
4699.6386523121846
 21
4906.3792191421198
 31
0.0
  0
LINE
  5
6CB5
  8
HIDDEN
 10
4694.6386523121846
 20
4911.575371564827
 30
0.0
 11
4693.8386523121862
 21
4908.1112699496889
 31
0.0
  0
LINE
  5
6CB6
  8
HIDDEN
 10
4694.6386523121846
 20
4904.6471683345517
 30
0.0
 11
4694.6386523121846
 21
4911.575371564827
 31
0.0
  0
LINE
  5
6CB7
  8
HIDDEN
 10
4694.6386523121846
 20
4904.6471683345517
 30
0.0
 11
4693.8386523121862
 21
4908.1112699496889
 31
0.0
  0
LINE
  5
6CB8
  8
HIDDEN
 10
4699.0136523121846
 20
4902.4862699496889
 30
0.0
 11
4699.6386523121846
 21
4901.8612699496889
 31
0.0
  0
LINE
  5
6CB9
  8
HIDDEN
 10
4699.3886523121864
 20
4902.111269949688
 30
0.0
 11
4698.6386523121864
 21
4902.111269949688
 31
0.0
  0
LINE
  5
6CBA
  8
HIDDEN
 10
4699.6386523121846
 20
4903.1112699496889
 30
0.0
 11
4698.6386523121864
 21
4902.111269949688
 31
0.0
  0
LINE
  5
6CBB
  8
HIDDEN
 10
4687.6386523121864
 20
4903.1112699496889
 30
0.0
 11
4687.6386523121864
 21
4913.1112699496889
 31
0.0
  0
LINE
  5
6CBC
  8
HIDDEN
 10
4687.6386523121864
 20
4903.1112699496889
 30
0.0
 11
4688.6386523121846
 21
4902.111269949688
 31
0.0
  0
LINE
  5
6CBD
  8
HIDDEN
 10
4687.8886523121846
 20
4902.861269949688
 30
0.0
 11
4699.3886523121864
 21
4902.861269949688
 31
0.0
  0
LINE
  5
6CBE
  8
HIDDEN
 10
4688.6386523121846
 20
4902.111269949688
 30
0.0
 11
4699.3886523121864
 21
4902.111269949688
 31
0.0
  0
LINE
  5
6CBF
  8
HIDDEN
 10
4699.3886523121864
 20
4914.1112699496889
 30
0.0
 11
4698.6386523121864
 21
4914.1112699496889
 31
0.0
  0
LINE
  5
6CC0
  8
HIDDEN
 10
4699.0136523121846
 20
4913.7362699496889
 30
0.0
 11
4699.6386523121846
 21
4914.3612699496889
 31
0.0
  0
LINE
  5
6CC1
  8
HIDDEN
 10
4687.8886523121846
 20
4913.3612699496889
 30
0.0
 11
4699.3886523121864
 21
4913.3612699496889
 31
0.0
  0
LINE
  5
6CC2
  8
HIDDEN
 10
4688.6386523121846
 20
4914.1112699496889
 30
0.0
 11
4698.6386523121864
 21
4914.1112699496889
 31
0.0
  0
LINE
  5
6CC3
  8
HIDDEN
 10
4677.9886523121859
 20
4809.6112699496889
 30
0.0
 11
4678.1016306441034
 21
4807.4555149556209
 31
0.0
  0
LINE
  5
6CC4
  8
HIDDEN
 10
4678.7886523121861
 20
4809.6112699496889
 30
0.0
 11
4678.9458756500353
 21
4806.6112699496889
 31
0.0
  0
LINE
  5
6CC5
  8
HIDDEN
 10
4665.3314289743366
 20
4806.6112699496889
 30
0.0
 11
4664.9652927497564
 21
4799.6249746021431
 31
0.0
  0
LINE
  5
6CC6
  8
HIDDEN
 10
4666.1756739802677
 20
4807.4555149556199
 30
0.0
 11
4665.7652927497556
 21
4799.6249746021431
 31
0.0
  0
LINE
  5
6CC7
  8
UMCL1
 10
4594.6386523121864
 20
4868.611269949688
 30
0.0
 11
4515.6386523121846
 21
4868.611269949688
 31
0.0
  0
LINE
  5
6CC8
  8
UMCL1
 10
4594.6386523121864
 20
4862.6112699496889
 30
0.0
 11
4515.6386523121846
 21
4862.6112699496889
 31
0.0
  0
LINE
  5
6CC9
  8
UMCL1
 10
4594.6386523121864
 20
4825.611269949688
 30
0.0
 11
4515.6386523121846
 21
4825.611269949688
 31
0.0
  0
LINE
  5
6CCA
  8
CEN
 10
4594.6386523121864
 20
4828.6112699496889
 30
0.0
 11
4476.6386523121864
 21
4828.611269949688
 31
0.0
  0
LINE
  5
6CCB
  8
UMCL1
 10
4594.6386523121864
 20
4831.611269949688
 30
0.0
 11
4515.6386523121846
 21
4831.611269949688
 31
0.0
  0
POLYLINE
  5
6CCC
  8
UMCL1
 66
     1
 10
0.0
 20
0.0
 30
0.0
 70
     1
  0
VERTEX
  5
764B
  8
UMCL1
 10
4648.8707031197537
 20
4841.111269949688
 30
0.0
  0
VERTEX
  5
764C
  8
UMCL1
 10
4650.6027539273236
 20
4844.1112699496889
 30
0.0
  0
VERTEX
  5
764D
  8
UMCL1
 10
4648.8707031197537
 20
4847.1112699496889
 30
0.0
  0
VERTEX
  5
764E
  8
UMCL1
 10
4645.4066015046174
 20
4847.1112699496889
 30
0.0
  0
VERTEX
  5
764F
  8
UMCL1
 10
4643.6745506970483
 20
4844.1112699496889
 30
0.0
  0
VERTEX
  5
7650
  8
UMCL1
 10
4645.4066015046174
 20
4841.111269949688
 30
0.0
  0
SEQEND
  5
7651
  8
UMCL1
  0
CIRCLE
  5
6CCD
  8
UMCL1
 10
4647.1386523121846
 20
4844.1112699496889
 30
0.0
 40
6.0
  0
CIRCLE
  5
6CCE
  8
UMCL1
 10
4647.1386523121846
 20
4844.1112699496889
 30
0.0
 40
6.5
  0
CIRCLE
  5
6CCF
  8
UMCL1
 10
4647.1386523121846
 20
4844.1112699496889
 30
0.0
 40
7.0
  0
LINE
  5
6CD0
  8
CEN
 10
4626.5969125143392
 20
4862.5695301518426
 30
0.0
 11
4612.5260631774818
 21
4848.4986808149852
 31
0.0
  0
ARC
  5
6CD1
  8
UMCL1
 62
     2
 10
4619.5614878459101
 20
4855.5341054834144
 30
0.0
 40
4.0
 50
117.35626838235839
 51
66.004027598712426
  0
CIRCLE
  5
6CD2
  8
UMCL1
 10
4619.5614878459101
 20
4855.5341054834144
 30
0.0
 40
3.399999999999999
  0
CIRCLE
  5
6CD3
  8
UMCL1
 10
4608.1386523121846
 20
4883.1112699496889
 30
0.0
 40
7.0
  0
CIRCLE
  5
6CD4
  8
UMCL1
 10
4608.1386523121846
 20
4883.1112699496889
 30
0.0
 40
6.5
  0
CIRCLE
  5
6CD5
  8
UMCL1
 10
4608.1386523121846
 20
4883.1112699496889
 30
0.0
 40
6.0
  0
POLYLINE
  5
6CD6
  8
UMCL1
 66
     1
 10
0.0
 20
0.0
 30
0.0
 70
     1
  0
VERTEX
  5
7652
  8
UMCL1
 10
4609.8707031197546
 20
4880.1112699496889
 30
0.0
  0
VERTEX
  5
7653
  8
UMCL1
 10
4611.6027539273236
 20
4883.1112699496889
 30
0.0
  0
VERTEX
  5
7654
  8
UMCL1
 10
4609.8707031197546
 20
4886.1112699496889
 30
0.0
  0
VERTEX
  5
7655
  8
UMCL1
 10
4606.4066015046164
 20
4886.1112699496889
 30
0.0
  0
VERTEX
  5
7656
  8
UMCL1
 10
4604.6745506970483
 20
4883.1112699496889
 30
0.0
  0
VERTEX
  5
7657
  8
UMCL1
 10
4606.4066015046164
 20
4880.1112699496889
 30
0.0
  0
SEQEND
  5
7658
  8
UMCL1
  0
CIRCLE
  5
6CD7
  8
UMCL1
 10
4647.1386523121846
 20
4883.1112699496889
 30
0.0
 40
48.0
  0
CIRCLE
  5
6CD8
  8
CEN
 10
4647.1386523121846
 20
4883.1112699496889
 30
0.0
 40
39.0
  0
LINE
  5
6CD9
  8
CEN
 10
4699.6386523121846
 20
4847.1112699496889
 30
0.0
 11
4812.6386523121864
 21
4847.1112699496889
 31
0.0
  0
LINE
  5
6CDA
  8
CEN
 10
4618.1386523121846
 20
4842.1112699496889
 30
0.0
 11
4594.1386523121846
 21
4842.1112699496889
 31
0.0
  0
LINE
  5
6CDB
  8
CEN
 10
4606.1386523121846
 20
4830.1112699496889
 30
0.0
 11
4606.1386523121846
 21
4854.1112699496889
 31
0.0
  0
LINE
  5
6CDC
  8
CEN
 10
4700.1386523121864
 20
4842.1112699496889
 30
0.0
 11
4676.1386523121846
 21
4842.1112699496889
 31
0.0
  0
LINE
  5
6CDD
  8
CEN
 10
4688.1386523121846
 20
4830.1112699496889
 30
0.0
 11
4688.1386523121846
 21
4854.1112699496889
 31
0.0
  0
CIRCLE
  5
6CDE
  8
UMCL1
 10
4606.1386523121846
 20
4842.1112699496889
 30
0.0
 40
4.25
  0
ARC
  5
6CDF
  8
UMCL1
 62
     2
 10
4606.1386523121846
 20
4842.1112699496889
 30
0.0
 40
5.0
 50
67.570468093842067
 51
29.14633780461509
  0
CIRCLE
  5
6CE0
  8
UMCL1
 10
4688.1386523121846
 20
4842.1112699496889
 30
0.0
 40
4.25
  0
ARC
  5
6CE1
  8
UMCL1
 62
     2
 10
4688.1386523121846
 20
4842.1112699496889
 30
0.0
 40
5.0
 50
157.57046809384201
 51
119.1463378046151
  0
CIRCLE
  5
6CE2
  8
UMCL1
 10
4647.1386523121846
 20
4883.1112699496889
 30
0.0
 40
23.5
  0
LINE
  5
6CE3
  8
CEN
 10
4699.6386523121846
 20
4865.611269949688
 30
0.0
 11
4817.6386523121846
 21
4865.611269949688
 31
0.0
  0
LINE
  5
6CE4
  8
UMCL1
 10
4699.6386523121846
 20
4824.6112699496889
 30
0.0
 11
4778.6386523121846
 21
4824.6112699496889
 31
0.0
  0
LINE
  5
6CE5
  8
UMCL1
 10
4699.6386523121846
 20
4825.611269949688
 30
0.0
 11
4778.6386523121846
 21
4825.611269949688
 31
0.0
  0
LINE
  5
6CE6
  8
CEN
 10
4699.6386523121846
 20
4828.6112699496889
 30
0.0
 11
4817.6386523121846
 21
4828.611269949688
 31
0.0
  0
LINE
  5
6CE7
  8
UMCL1
 10
4699.6386523121846
 20
4831.611269949688
 30
0.0
 11
4778.6386523121846
 21
4831.611269949688
 31
0.0
  0
LINE
  5
6CE8
  8
UMCL1
 10
4699.6386523121846
 20
4862.6112699496889
 30
0.0
 11
4778.6386523121846
 21
4862.6112699496889
 31
0.0
  0
LINE
  5
6CE9
  8
UMCL1
 10
4699.6386523121846
 20
4868.611269949688
 30
0.0
 11
4778.6386523121846
 21
4868.611269949688
 31
0.0
  0
LINE
  5
6CEA
  8
UMCL1
 10
4699.6386523121846
 20
4869.6112699496898
 30
0.0
 11
4778.6386523121846
 21
4869.6112699496898
 31
0.0
  0
POLYLINE
  5
6CEB
  8
UMCL1
 66
     1
 10
0.0
 20
0.0
 30
0.0
 70
     1
  0
VERTEX
  5
7659
  8
UMCL1
 10
4675.1686523121862
 20
4615.6484336684216
 30
0.0
  0
VERTEX
  5
765A
  8
UMCL1
 10
4672.1686523121862
 20
4617.3804844759907
 30
0.0
  0
VERTEX
  5
765B
  8
UMCL1
 10
4669.1686523121862
 20
4615.6484336684216
 30
0.0
  0
VERTEX
  5
765C
  8
UMCL1
 10
4669.1686523121862
 20
4612.1843320532853
 30
0.0
  0
VERTEX
  5
765D
  8
UMCL1
 10
4672.1686523121862
 20
4610.4522812457162
 30
0.0
  0
VERTEX
  5
765E
  8
UMCL1
 10
4675.1686523121862
 20
4612.1843320532853
 30
0.0
  0
SEQEND
  5
765F
  8
UMCL1
  0
CIRCLE
  5
6CEC
  8
UMCL1
 10
4502.6386523121846
 20
4847.1112699496889
 30
0.0
 40
6.0
  0
POLYLINE
  5
6CED
  8
UMCL1
 66
     1
 10
0.0
 20
0.0
 30
0.0
 70
     1
  0
VERTEX
  5
7660
  8
UMCL1
 10
4499.1745506970474
 20
4853.1112699496889
 30
0.0
  0
VERTEX
  5
7661
  8
UMCL1
 10
4495.7104490819111
 20
4847.1112699496889
 30
0.0
  0
VERTEX
  5
7662
  8
UMCL1
 10
4499.1745506970474
 20
4841.111269949688
 30
0.0
  0
VERTEX
  5
7663
  8
UMCL1
 10
4506.1027539273236
 20
4841.111269949688
 30
0.0
  0
VERTEX
  5
7664
  8
UMCL1
 10
4509.5668555424609
 20
4847.1112699496889
 30
0.0
  0
VERTEX
  5
7665
  8
UMCL1
 10
4506.1027539273236
 20
4853.1112699496889
 30
0.0
  0
SEQEND
  5
7666
  8
UMCL1
  0
LINE
  5
6CEE
  8
UMCL1
 10
4508.6386523121846
 20
4872.1112699496898
 30
0.0
 11
4506.5386523121851
 21
4872.1112699496898
 31
0.0
  0
LINE
  5
6CEF
  8
UMCL1
 10
4496.6386523121846
 20
4872.1112699496898
 30
0.0
 11
4502.6386523121846
 21
4872.1112699496898
 31
0.0
  0
LINE
  5
6CF0
  8
UMCL1
 10
4496.6386523121837
 20
4876.114731314402
 30
0.0
 11
4508.6386523121846
 21
4876.114731314402
 31
0.0
  0
LINE
  5
6CF1
  8
UMCL1
 10
4508.6386523121846
 20
4876.114731314402
 30
0.0
 11
4509.56685554246
 21
4875.776892967232
 31
0.0
  0
LINE
  5
6CF2
  8
UMCL1
 10
4509.56685554246
 20
4875.776892967232
 30
0.0
 11
4509.56685554246
 21
4872.3112699496887
 31
0.0
  0
LINE
  5
6CF3
  8
UMCL1
 10
4508.6386523121846
 20
4872.3112699496887
 30
0.0
 11
4508.6386523121846
 21
4872.1112699496898
 31
0.0
  0
LINE
  5
6CF4
  8
UMCL1
 10
4495.7104490819092
 20
4872.3112699496887
 30
0.0
 11
4509.56685554246
 21
4872.3112699496887
 31
0.0
  0
LINE
  5
6CF5
  8
UMCL1
 10
4496.6386523121837
 20
4876.114731314402
 30
0.0
 11
4495.7104490819092
 21
4875.776892967232
 31
0.0
  0
LINE
  5
6CF6
  8
UMCL1
 10
4495.7104490819092
 20
4875.776892967232
 30
0.0
 11
4495.7104490819092
 21
4872.3112699496887
 31
0.0
  0
LINE
  5
6CF7
  8
UMCL1
 10
4496.6386523121846
 20
4872.3112699496887
 30
0.0
 11
4496.6386523121846
 21
4872.1112699496898
 31
0.0
  0
LINE
  5
6CF8
  8
UMCL1
 10
4498.9333050410651
 20
4872.3112699496887
 30
0.0
 11
4498.9333050410651
 21
4875.776892967232
 31
0.0
  0
ARC
  5
6CF9
  8
UMCL1
 10
4497.3218770614867
 20
4872.124235507541
 30
0.0
 40
3.992318455634094
 50
66.1945626177138
 51
113.8054373822862
  0
LINE
  5
6CFA
  8
UMCL1
 10
4499.6570420090093
 20
4872.3112699496887
 30
0.0
 11
4499.6570420090093
 21
4875.776892967232
 31
0.0
  0
LINE
  5
6CFB
  8
UMCL1
 10
4498.9333050410651
 20
4875.776892967232
 30
0.0
 11
4499.6570420090093
 21
4875.776892967232
 31
0.0
  0
ARC
  5
6CFC
  8
UMCL1
 10
4502.6386523121846
 20
4862.7886319768677
 30
0.0
 40
13.326099337533821
 50
77.071076092191333
 51
102.9289239078087
  0
LINE
  5
6CFD
  8
UMCL1
 10
4506.343999583305
 20
4872.3112699496887
 30
0.0
 11
4506.343999583305
 21
4875.776892967232
 31
0.0
  0
ARC
  5
6CFE
  8
UMCL1
 10
4507.9554275628816
 20
4872.124235507541
 30
0.0
 40
3.992318455634094
 50
66.1945626177138
 51
113.8054373822862
  0
LINE
  5
6CFF
  8
UMCL1
 10
4505.6202626153599
 20
4872.3112699496887
 30
0.0
 11
4505.6202626153599
 21
4875.776892967232
 31
0.0
  0
LINE
  5
6D00
  8
UMCL1
 10
4499.6386523121846
 20
4876.1147313143993
 30
0.0
 11
4499.6386523121846
 21
4877.3147313144
 31
0.0
  0
LINE
  5
6D01
  8
UMCL1
 62
     2
 10
4500.2386523121859
 20
4876.1147313143993
 30
0.0
 11
4500.2386523121859
 21
4877.9147313143994
 31
0.0
  0
LINE
  5
6D02
  8
UMCL1
 10
4499.6386523121846
 20
4877.3147313144
 30
0.0
 11
4505.6386523121846
 21
4877.3147313144
 31
0.0
  0
LINE
  5
6D03
  8
UMCL1
 10
4500.4386523121857
 20
4878.1147313144002
 30
0.0
 11
4504.8386523121862
 21
4878.1147313144002
 31
0.0
  0
LINE
  5
6D04
  8
UMCL1
 10
4504.8386523121862
 20
4878.1147313144002
 30
0.0
 11
4505.6386523121846
 21
4877.3147313144
 31
0.0
  0
LINE
  5
6D05
  8
UMCL1
 10
4499.6386523121846
 20
4877.3147313144
 30
0.0
 11
4500.4386523121857
 21
4878.1147313144002
 31
0.0
  0
LINE
  5
6D06
  8
UMCL1
 10
4505.6386523121846
 20
4876.1147313143993
 30
0.0
 11
4505.6386523121846
 21
4877.3147313144
 31
0.0
  0
LINE
  5
6D07
  8
UMCL1
 62
     2
 10
4505.0386523121861
 20
4876.1147313143993
 30
0.0
 11
4505.0386523121861
 21
4877.9147313143994
 31
0.0
  0
LINE
  5
6D08
  8
UMCL1
 10
4797.6386523121837
 20
4629.9163828608553
 30
0.0
 11
4795.5386523121851
 21
4629.9163828608553
 31
0.0
  0
LINE
  5
6D09
  8
UMCL1
 10
4785.6386523121864
 20
4629.9163828608553
 30
0.0
 11
4791.6386523121864
 21
4629.9163828608553
 31
0.0
  0
LINE
  5
6D0A
  8
UMCL1
 10
4785.6386523121837
 20
4633.9198442255656
 30
0.0
 11
4797.6386523121837
 21
4633.9198442255674
 31
0.0
  0
LINE
  5
6D0B
  8
UMCL1
 10
4797.6386523121837
 20
4633.9198442255674
 30
0.0
 11
4798.56685554246
 21
4633.5820058783966
 31
0.0
  0
LINE
  5
6D0C
  8
UMCL1
 10
4798.56685554246
 20
4633.5820058783966
 30
0.0
 11
4798.56685554246
 21
4630.1163828608551
 31
0.0
  0
LINE
  5
6D0D
  8
UMCL1
 10
4797.6386523121837
 20
4630.1163828608551
 30
0.0
 11
4797.6386523121837
 21
4629.9163828608553
 31
0.0
  0
LINE
  5
6D0E
  8
UMCL1
 10
4784.7104490819092
 20
4630.1163828608551
 30
0.0
 11
4798.56685554246
 21
4630.1163828608542
 31
0.0
  0
LINE
  5
6D0F
  8
UMCL1
 10
4785.6386523121846
 20
4633.9198442255674
 30
0.0
 11
4784.7104490819092
 21
4633.5820058783966
 31
0.0
  0
LINE
  5
6D10
  8
UMCL1
 10
4784.7104490819092
 20
4633.5820058783966
 30
0.0
 11
4784.7104490819092
 21
4630.1163828608551
 31
0.0
  0
LINE
  5
6D11
  8
UMCL1
 10
4785.6386523121864
 20
4630.1163828608551
 30
0.0
 11
4785.6386523121864
 21
4629.9163828608553
 31
0.0
  0
LINE
  5
6D12
  8
UMCL1
 10
4787.9333050410651
 20
4630.1163828608551
 30
0.0
 11
4787.9333050410651
 21
4633.5820058783966
 31
0.0
  0
ARC
  5
6D13
  8
UMCL1
 10
4786.3218770614876
 20
4629.9293484187074
 30
0.0
 40
3.992318455634094
 50
66.1945626177138
 51
113.8054373822862
  0
LINE
  5
6D14
  8
UMCL1
 10
4788.6570420090093
 20
4630.1163828608551
 30
0.0
 11
4788.6570420090093
 21
4633.5820058783966
 31
0.0
  0
LINE
  5
6D15
  8
UMCL1
 10
4787.9333050410651
 20
4633.5820058783966
 30
0.0
 11
4788.6570420090093
 21
4633.5820058783966
 31
0.0
  0
ARC
  5
6D16
  8
UMCL1
 10
4791.6386523121864
 20
4620.5937448880331
 30
0.0
 40
13.326099337533821
 50
77.071076092191333
 51
102.9289239078087
  0
LINE
  5
6D17
  8
UMCL1
 10
4795.3439995833041
 20
4630.1163828608551
 30
0.0
 11
4795.3439995833041
 21
4633.5820058783966
 31
0.0
  0
ARC
  5
6D18
  8
UMCL1
 10
4796.9554275628816
 20
4629.9293484187074
 30
0.0
 40
3.992318455634094
 50
66.1945626177138
 51
113.8054373822862
  0
LINE
  5
6D19
  8
UMCL1
 10
4794.6202626153599
 20
4630.1163828608551
 30
0.0
 11
4794.6202626153599
 21
4633.5820058783966
 31
0.0
  0
LINE
  5
6D1A
  8
UMCL1
 10
4508.6386523121846
 20
4629.9163828608553
 30
0.0
 11
4506.5386523121851
 21
4629.9163828608553
 31
0.0
  0
LINE
  5
6D1B
  8
UMCL1
 10
4496.6386523121846
 20
4629.9163828608553
 30
0.0
 11
4502.6386523121846
 21
4629.9163828608553
 31
0.0
  0
LINE
  5
6D1C
  8
UMCL1
 10
4496.6386523121837
 20
4633.9198442255656
 30
0.0
 11
4508.6386523121846
 21
4633.9198442255674
 31
0.0
  0
LINE
  5
6D1D
  8
UMCL1
 10
4508.6386523121846
 20
4633.9198442255674
 30
0.0
 11
4509.5668555424609
 21
4633.5820058783966
 31
0.0
  0
LINE
  5
6D1E
  8
UMCL1
 10
4509.5668555424609
 20
4633.5820058783966
 30
0.0
 11
4509.5668555424609
 21
4630.1163828608551
 31
0.0
  0
LINE
  5
6D1F
  8
UMCL1
 10
4508.6386523121846
 20
4630.1163828608551
 30
0.0
 11
4508.6386523121846
 21
4629.9163828608553
 31
0.0
  0
LINE
  5
6D20
  8
UMCL1
 10
4495.7104490819111
 20
4630.1163828608551
 30
0.0
 11
4509.5668555424609
 21
4630.1163828608542
 31
0.0
  0
LINE
  5
6D21
  8
UMCL1
 10
4496.6386523121846
 20
4633.9198442255674
 30
0.0
 11
4495.7104490819111
 21
4633.5820058783966
 31
0.0
  0
LINE
  5
6D22
  8
UMCL1
 10
4495.7104490819111
 20
4633.5820058783966
 30
0.0
 11
4495.7104490819111
 21
4630.1163828608551
 31
0.0
  0
LINE
  5
6D23
  8
UMCL1
 10
4496.6386523121846
 20
4630.1163828608551
 30
0.0
 11
4496.6386523121846
 21
4629.9163828608553
 31
0.0
  0
LINE
  5
6D24
  8
UMCL1
 10
4498.933305041066
 20
4630.1163828608551
 30
0.0
 11
4498.933305041066
 21
4633.5820058783966
 31
0.0
  0
ARC
  5
6D25
  8
UMCL1
 10
4497.3218770614867
 20
4629.9293484187074
 30
0.0
 40
3.992318455634094
 50
66.1945626177138
 51
113.8054373822862
  0
LINE
  5
6D26
  8
UMCL1
 10
4499.6570420090093
 20
4630.1163828608551
 30
0.0
 11
4499.6570420090093
 21
4633.5820058783966
 31
0.0
  0
LINE
  5
6D27
  8
UMCL1
 10
4498.933305041066
 20
4633.5820058783966
 30
0.0
 11
4499.6570420090093
 21
4633.5820058783966
 31
0.0
  0
ARC
  5
6D28
  8
UMCL1
 10
4502.6386523121846
 20
4620.5937448880331
 30
0.0
 40
13.326099337533821
 50
77.071076092191333
 51
102.9289239078087
  0
LINE
  5
6D29
  8
UMCL1
 10
4506.343999583305
 20
4630.1163828608551
 30
0.0
 11
4506.343999583305
 21
4633.5820058783966
 31
0.0
  0
ARC
  5
6D2A
  8
UMCL1
 10
4507.9554275628834
 20
4629.9293484187074
 30
0.0
 40
3.992318455634094
 50
66.1945626177138
 51
113.8054373822862
  0
LINE
  5
6D2B
  8
UMCL1
 10
4505.6202626153608
 20
4630.1163828608551
 30
0.0
 11
4505.6202626153608
 21
4633.5820058783966
 31
0.0
  0
LINE
  5
6D2C
  8
UMCL1
 10
5002.2474011472877
 20
4610.9163828608571
 30
0.0
 11
5002.2474011472887
 21
4598.9163828608553
 31
0.0
  0
LINE
  5
6D2D
  8
UMCL1
 10
4998.4439397825772
 20
4610.9163828608553
 30
0.0
 11
4998.4439397825754
 21
4598.9163828608553
 31
0.0
  0
LINE
  5
6D2E
  8
UMCL1
 10
5002.2474011472877
 20
4610.9163828608553
 30
0.0
 11
4998.2439397825747
 21
4610.9163828608553
 31
0.0
  0
ARC
  5
6D2F
  8
UMCL1
 10
4990.3089477177136
 20
4608.0963828608556
 30
0.0
 40
11.93845342957454
 50
346.33695265356511
 51
13.66304734643497
  0
LINE
  5
6D30
  8
UMCL1
 10
4998.4439397825754
 20
4604.5526458929107
 30
0.0
 11
5001.9095628001178
 21
4604.5526458929107
 31
0.0
  0
LINE
  5
6D31
  8
UMCL1
 10
4998.4439397825754
 20
4605.276382860854
 30
0.0
 11
5001.9095628001178
 21
4605.276382860854
 31
0.0
  0
LINE
  5
6D32
  8
UMCL1
 62
     2
 10
5002.2474011472877
 20
4606.6663828608553
 30
0.0
 11
5003.4939397825747
 21
4606.6663828608553
 31
0.0
  0
LINE
  5
6D33
  8
UMCL1
 10
5002.2474011472877
 20
4606.9163828608553
 30
0.0
 11
5003.2439397825747
 21
4606.9163828608553
 31
0.0
  0
LINE
  5
6D34
  8
UMCL1
 10
5002.2474011472887
 20
4602.9163828608553
 30
0.0
 11
5003.2439397825747
 21
4602.9163828608553
 31
0.0
  0
LINE
  5
6D35
  8
UMCL1
 62
     2
 10
5002.2474011472877
 20
4603.1663828608544
 30
0.0
 11
5003.4939397825747
 21
4603.1663828608544
 31
0.0
  0
LINE
  5
6D36
  8
UMCL1
 10
5003.2439397825747
 20
4602.9163828608553
 30
0.0
 11
5003.7439397825756
 21
4603.4163828608562
 31
0.0
  0
LINE
  5
6D37
  8
UMCL1
 10
5003.2439397825747
 20
4606.9163828608553
 30
0.0
 11
5003.7439397825756
 21
4606.4163828608562
 31
0.0
  0
LINE
  5
6D38
  8
UMCL1
 10
5003.7439397825756
 20
4603.4163828608562
 30
0.0
 11
5003.7439397825756
 21
4606.4163828608562
 31
0.0
  0
LINE
  5
6D39
  8
UMCL1
 10
5003.2439397825747
 20
4602.9163828608553
 30
0.0
 11
5003.2439397825747
 21
4606.9163828608553
 31
0.0
  0
LINE
  5
6D3A
  8
UMCL1
 10
5001.9095628001178
 20
4605.276382860854
 30
0.0
 11
5001.9095628001178
 21
4604.5526458929107
 31
0.0
  0
LINE
  5
6D3B
  8
UMCL1
 10
5002.2474011472877
 20
4598.9163828608553
 30
0.0
 11
4998.2439397825747
 21
4598.9163828608553
 31
0.0
  0
ARC
  5
6D3C
  8
UMCL1
 10
4990.3089477177136
 20
4601.7363828608541
 30
0.0
 40
11.93845342957454
 50
346.33695265356511
 51
13.66304734643497
  0
LINE
  5
6D3D
  8
UMCL1
 10
4967.2234645957624
 20
4634.0098442255667
 30
0.0
 11
4979.2234645957642
 21
4634.0098442255667
 31
0.0
  0
LINE
  5
6D3E
  8
UMCL1
 10
4967.2234645957651
 20
4630.2063828608552
 30
0.0
 11
4979.2234645957642
 21
4630.2063828608543
 31
0.0
  0
LINE
  5
6D3F
  8
UMCL1
 10
4967.2234645957651
 20
4634.0098442255667
 30
0.0
 11
4967.2234645957651
 21
4630.0063828608554
 31
0.0
  0
ARC
  5
6D40
  8
UMCL1
 10
4970.043464595763
 20
4622.0713907959916
 30
0.0
 40
11.93845342957454
 50
76.336952653565021
 51
103.66304734643499
  0
LINE
  5
6D41
  8
UMCL1
 10
4973.5872015637078
 20
4630.2063828608552
 30
0.0
 11
4973.5872015637078
 21
4633.6720058783976
 31
0.0
  0
LINE
  5
6D42
  8
UMCL1
 10
4972.8634645957636
 20
4630.2063828608552
 30
0.0
 11
4972.8634645957636
 21
4633.6720058783976
 31
0.0
  0
LINE
  5
6D43
  8
UMCL1
 10
4972.8634645957636
 20
4633.6720058783976
 30
0.0
 11
4973.5872015637078
 21
4633.6720058783976
 31
0.0
  0
LINE
  5
6D44
  8
UMCL1
 10
4979.2234645957642
 20
4634.0098442255667
 30
0.0
 11
4979.2234645957642
 21
4630.0063828608554
 31
0.0
  0
ARC
  5
6D45
  8
UMCL1
 10
4976.4034645957636
 20
4622.0713907959916
 30
0.0
 40
11.93845342957454
 50
76.336952653565021
 51
103.66304734643499
  0
LINE
  5
6D46
  8
CEN
 10
4672.1686523121862
 20
4624.4663828608536
 30
0.0
 11
4672.1686523121862
 21
4603.3663828608542
 31
0.0
  0
LINE
  5
6D47
  8
CEN
 10
4682.7186523121864
 20
4613.9163828608544
 30
0.0
 11
4661.618652312186
 21
4613.9163828608544
 31
0.0
  0
ARC
  5
6D48
  8
UMCL1
 62
     2
 10
4672.1686523121862
 20
4613.9163828608544
 30
0.0
 40
5.75
 50
75.920543728395685
 51
10.261000946522669
  0
CIRCLE
  5
6D49
  8
UMCL1
 10
4672.1686523121862
 20
4613.9163828608544
 30
0.0
 40
6.5499999999999989
  0
CIRCLE
  5
6D4A
  8
UMCL1
 10
4672.1686523121862
 20
4613.9163828608544
 30
0.0
 40
5.5499999999999989
  0
LINE
  5
6D4B
  8
CEN
 10
4621.748979241117
 20
4908.1112699496889
 30
0.0
 11
4590.6386523121846
 21
4908.1112699496889
 31
0.0
  0
LINE
  5
6D4C
  8
HIDDEN
 10
4604.6386523121846
 20
4913.9612699496893
 30
0.0
 11
4602.4828973181166
 21
4914.0742482816067
 31
0.0
  0
LINE
  5
6D4D
  8
HIDDEN
 10
4604.6386523121846
 20
4914.7612699496894
 30
0.0
 11
4601.6386523121846
 21
4914.9184932875378
 31
0.0
  0
LINE
  5
6D4E
  8
HIDDEN
 10
4604.6386523121846
 20
4901.4612699496893
 30
0.0
 11
4604.6386523121846
 21
4914.7612699496894
 31
0.0
  0
LINE
  5
6D4F
  8
HIDDEN
 10
4602.4828973181166
 20
4902.148291617772
 30
0.0
 11
4594.6523569646397
 21
4901.737910387259
 31
0.0
  0
LINE
  5
6D50
  8
HIDDEN
 10
4601.6386523121846
 20
4901.3040466118409
 30
0.0
 11
4594.6523569646397
 21
4900.9379103872589
 31
0.0
  0
LINE
  5
6D51
  8
HIDDEN
 10
4602.6386523121864
 20
4913.9184932875387
 30
0.0
 11
4602.6386523121864
 21
4902.30404661184
 31
0.0
  0
LINE
  5
6D52
  8
HIDDEN
 10
4601.6386523121846
 20
4914.9184932875378
 30
0.0
 11
4601.6386523121846
 21
4901.3040466118409
 31
0.0
  0
LINE
  5
6D53
  8
HIDDEN
 10
4601.6386523121846
 20
4914.9184932875378
 30
0.0
 11
4602.6386523121864
 21
4913.9184932875387
 31
0.0
  0
LINE
  5
6D54
  8
HIDDEN
 10
4601.6386523121846
 20
4901.3040466118409
 30
0.0
 11
4602.6386523121864
 21
4902.30404661184
 31
0.0
  0
LINE
  5
6D55
  8
HIDDEN
 10
4604.6386523121846
 20
4902.2612699496894
 30
0.0
 11
4602.4828973181166
 21
4902.1482916177711
 31
0.0
  0
LINE
  5
6D56
  8
HIDDEN
 10
4604.6386523121846
 20
4901.4612699496884
 30
0.0
 11
4601.6386523121846
 21
4901.3040466118409
 31
0.0
  0
LINE
  5
6D57
  8
HIDDEN
 10
4601.6386523121846
 20
4914.9184932875378
 30
0.0
 11
4594.6523569646397
 21
4915.284629512119
 31
0.0
  0
LINE
  5
6D58
  8
HIDDEN
 10
4602.4828973181166
 20
4914.0742482816067
 30
0.0
 11
4594.6523569646397
 21
4914.4846295121188
 31
0.0
  0
LINE
  5
6D59
  8
CEN
 10
4793.6386523121846
 20
4820.3469404306852
 30
0.0
 11
4793.6386523121846
 21
4837.2699349374816
 31
0.0
  0
LINE
  5
6D5A
  8
UMCL1
 10
4778.6386523121846
 20
4872.1112699496889
 30
0.0
 11
4804.6386523121846
 21
4872.1112699496889
 31
0.0
  0
LINE
  5
6D5B
  8
UMCL1
 10
4804.6386523121846
 20
4872.1112699496889
 30
0.0
 11
4804.6386523121846
 21
4822.1112699496889
 31
0.0
  0
LINE
  5
6D5C
  8
UMCL1
 10
4778.6386523121846
 20
4822.1112699496889
 30
0.0
 11
4804.6386523121846
 21
4822.1112699496889
 31
0.0
  0
LINE
  5
6D5D
  8
HIDDEN
 10
4785.6145745193553
 20
4822.1112699496889
 30
0.0
 11
4786.1386523121846
 21
4832.1112699496889
 31
0.0
  0
LINE
  5
6D5E
  8
HIDDEN
 10
4784.8145745193551
 20
4822.1112699496889
 30
0.0
 11
4785.3386523121862
 21
4832.1112699496889
 31
0.0
  0
LINE
  5
6D5F
  8
UMCL1
 10
4778.6386523121846
 20
4872.1112699496889
 30
0.0
 11
4778.6386523121846
 21
4822.1112699496889
 31
0.0
  0
LINE
  5
6D60
  8
HIDDEN
 10
4801.6627301050157
 20
4822.1112699496889
 30
0.0
 11
4801.1386523121864
 21
4832.1112699496889
 31
0.0
  0
LINE
  5
6D61
  8
HIDDEN
 10
4802.4627301050159
 20
4822.1112699496889
 30
0.0
 11
4801.9386523121857
 21
4832.1112699496889
 31
0.0
  0
LINE
  5
6D62
  8
UMCL1
 62
     2
 10
4810.6386523121846
 20
4868.0112699496904
 30
0.0
 11
4813.4386523121848
 21
4868.0112699496904
 31
0.0
  0
LINE
  5
6D63
  8
UMCL1
 10
4810.6386523121846
 20
4868.611269949688
 30
0.0
 11
4812.8386523121844
 21
4868.611269949688
 31
0.0
  0
LINE
  5
6D64
  8
UMCL1
 62
     2
 10
4810.6386523121846
 20
4863.2112699496893
 30
0.0
 11
4813.4386523121848
 21
4863.2112699496893
 31
0.0
  0
LINE
  5
6D65
  8
UMCL1
 10
4810.6386523121846
 20
4862.6112699496889
 30
0.0
 11
4812.8386523121844
 21
4862.6112699496889
 31
0.0
  0
LINE
  5
6D66
  8
UMCL1
 10
4810.6386523121846
 20
4870.6807947628768
 30
0.0
 11
4810.6386523121846
 21
4860.541745136501
 31
0.0
  0
LINE
  5
6D67
  8
UMCL1
 10
4805.6386523121864
 20
4871.454297454773
 30
0.0
 11
4805.6386523121864
 21
4859.7682424446048
 31
0.0
  0
ARC
  5
6D68
  8
UMCL1
 10
4813.0554941424243
 20
4868.1460323562833
 30
0.0
 40
7.4168418302387566
 50
160.01600439257339
 51
199.98399560742661
  0
ARC
  5
6D69
  8
UMCL1
 10
4803.2218104819467
 20
4868.1460323562833
 30
0.0
 40
7.4168418302387318
 50
340.01600439257339
 51
19.983995607426589
  0
LINE
  5
6D6A
  8
UMCL1
 10
4810.1920703247997
 20
4865.611269949688
 30
0.0
 11
4806.0852342995704
 21
4865.611269949688
 31
0.0
  0
LINE
  5
6D6B
  8
UMCL1
 10
4810.6386523121846
 20
4860.541745136501
 30
0.0
 11
4805.6386523121864
 21
4860.541745136501
 31
0.0
  0
ARC
  5
6D6C
  8
UMCL1
 10
4813.0554941424243
 20
4863.0765075430954
 30
0.0
 40
7.4168418302387566
 50
160.01600439257339
 51
199.98399560742661
  0
ARC
  5
6D6D
  8
UMCL1
 10
4803.2218104819467
 20
4863.0765075430954
 30
0.0
 40
7.4168418302387318
 50
340.01600439257339
 51
19.983995607426589
  0
LINE
  5
6D6E
  8
UMCL1
 10
4805.6386523121864
 20
4859.7682424446048
 30
0.0
 11
4804.6386523121846
 21
4859.7682424446048
 31
0.0
  0
LINE
  5
6D6F
  8
UMCL1
 10
4810.6386523121846
 20
4870.6807947628768
 30
0.0
 11
4805.6386523121864
 21
4870.6807947628768
 31
0.0
  0
LINE
  5
6D70
  8
UMCL1
 10
4805.6386523121864
 20
4871.454297454774
 30
0.0
 11
4804.6386523121846
 21
4871.454297454774
 31
0.0
  0
LINE
  5
6D71
  8
UMCL1
 10
4812.8386523121844
 20
4868.611269949688
 30
0.0
 11
4813.6386523121846
 21
4867.8112699496878
 31
0.0
  0
LINE
  5
6D72
  8
UMCL1
 10
4813.6386523121846
 20
4863.4112699496891
 30
0.0
 11
4812.8386523121844
 21
4862.6112699496889
 31
0.0
  0
LINE
  5
6D73
  8
UMCL1
 10
4813.6386523121846
 20
4867.8112699496878
 30
0.0
 11
4813.6386523121846
 21
4863.4112699496891
 31
0.0
  0
LINE
  5
6D74
  8
UMCL1
 10
4812.8386523121844
 20
4868.611269949688
 30
0.0
 11
4812.8386523121844
 21
4862.6112699496889
 31
0.0
  0
LINE
  5
6D75
  8
UMCL1
 10
4812.8386523121844
 20
4831.6112699496889
 30
0.0
 11
4812.8386523121844
 21
4825.6112699496889
 31
0.0
  0
LINE
  5
6D76
  8
UMCL1
 10
4813.6386523121846
 20
4830.8112699496887
 30
0.0
 11
4813.6386523121846
 21
4826.4112699496891
 31
0.0
  0
ARC
  5
6D77
  8
UMCL1
 10
4803.2218104819467
 20
4826.0765075430963
 30
0.0
 40
7.4168418302387318
 50
340.01600439257339
 51
19.983995607426589
  0
ARC
  5
6D78
  8
UMCL1
 10
4813.0554941424243
 20
4826.0765075430963
 30
0.0
 40
7.4168418302387566
 50
160.01600439257339
 51
199.98399560742661
  0
LINE
  5
6D79
  8
UMCL1
 10
4805.6386523121864
 20
4834.4542974547721
 30
0.0
 11
4805.6386523121864
 21
4822.7682424446048
 31
0.0
  0
LINE
  5
6D7A
  8
UMCL1
 10
4810.6386523121846
 20
4833.6807947628768
 30
0.0
 11
4810.6386523121846
 21
4823.541745136501
 31
0.0
  0
LINE
  5
6D7B
  8
UMCL1
 10
4810.6386523121846
 20
4825.6112699496889
 30
0.0
 11
4812.8386523121844
 21
4825.6112699496889
 31
0.0
  0
LINE
  5
6D7C
  8
UMCL1
 62
     2
 10
4810.6386523121846
 20
4826.2112699496893
 30
0.0
 11
4813.4386523121848
 21
4826.2112699496893
 31
0.0
  0
LINE
  5
6D7D
  8
UMCL1
 10
4805.6386523121864
 20
4822.7682424446048
 30
0.0
 11
4804.6386523121846
 21
4822.7682424446048
 31
0.0
  0
LINE
  5
6D7E
  8
UMCL1
 10
4810.6386523121846
 20
4823.541745136501
 30
0.0
 11
4805.6386523121864
 21
4823.541745136501
 31
0.0
  0
LINE
  5
6D7F
  8
UMCL1
 10
4813.6386523121846
 20
4826.4112699496891
 30
0.0
 11
4812.8386523121844
 21
4825.6112699496889
 31
0.0
  0
LINE
  5
6D80
  8
UMCL1
 10
4810.6386523121846
 20
4831.6112699496889
 30
0.0
 11
4812.8386523121844
 21
4831.6112699496889
 31
0.0
  0
LINE
  5
6D81
  8
UMCL1
 62
     2
 10
4810.6386523121846
 20
4831.0112699496904
 30
0.0
 11
4813.4386523121848
 21
4831.0112699496904
 31
0.0
  0
LINE
  5
6D82
  8
UMCL1
 10
4805.6386523121864
 20
4834.454297454774
 30
0.0
 11
4804.6386523121846
 21
4834.454297454774
 31
0.0
  0
LINE
  5
6D83
  8
UMCL1
 10
4810.6386523121846
 20
4833.6807947628768
 30
0.0
 11
4805.6386523121864
 21
4833.6807947628768
 31
0.0
  0
ARC
  5
6D84
  8
UMCL1
 10
4803.2218104819467
 20
4831.1460323562833
 30
0.0
 40
7.4168418302387318
 50
340.01600439257339
 51
19.983995607426589
  0
ARC
  5
6D85
  8
UMCL1
 10
4813.0554941424243
 20
4831.1460323562833
 30
0.0
 40
7.4168418302387566
 50
160.01600439257339
 51
199.98399560742661
  0
LINE
  5
6D86
  8
UMCL1
 10
4812.8386523121844
 20
4831.6112699496889
 30
0.0
 11
4813.6386523121846
 21
4830.8112699496887
 31
0.0
  0
CIRCLE
  5
6D87
  8
UMCL1
 10
4791.6386523121864
 20
4847.1112699496889
 30
0.0
 40
6.0
  0
POLYLINE
  5
6D88
  8
UMCL1
 66
     1
 10
0.0
 20
0.0
 30
0.0
 70
     1
  0
VERTEX
  5
7667
  8
UMCL1
 10
4795.1027539273236
 20
4853.1112699496889
 30
0.0
  0
VERTEX
  5
7668
  8
UMCL1
 10
4798.5668555424609
 20
4847.1112699496889
 30
0.0
  0
VERTEX
  5
7669
  8
UMCL1
 10
4795.1027539273236
 20
4841.111269949688
 30
0.0
  0
VERTEX
  5
766A
  8
UMCL1
 10
4788.1745506970483
 20
4841.111269949688
 30
0.0
  0
VERTEX
  5
766B
  8
UMCL1
 10
4784.7104490819102
 20
4847.1112699496889
 30
0.0
  0
VERTEX
  5
766C
  8
UMCL1
 10
4788.1745506970483
 20
4853.1112699496889
 30
0.0
  0
SEQEND
  5
766D
  8
UMCL1
  0
LINE
  5
6D89
  8
UMCL1
 10
4785.6386523121864
 20
4872.1112699496898
 30
0.0
 11
4787.7386523121868
 21
4872.1112699496898
 31
0.0
  0
LINE
  5
6D8A
  8
UMCL1
 10
4797.6386523121864
 20
4872.1112699496898
 30
0.0
 11
4791.6386523121864
 21
4872.1112699496898
 31
0.0
  0
LINE
  5
6D8B
  8
UMCL1
 10
4797.6386523121882
 20
4876.114731314402
 30
0.0
 11
4785.6386523121864
 21
4876.114731314402
 31
0.0
  0
LINE
  5
6D8C
  8
UMCL1
 10
4785.6386523121864
 20
4876.114731314402
 30
0.0
 11
4784.7104490819111
 21
4875.776892967232
 31
0.0
  0
LINE
  5
6D8D
  8
UMCL1
 10
4784.7104490819111
 20
4875.776892967232
 30
0.0
 11
4784.7104490819111
 21
4872.3112699496887
 31
0.0
  0
LINE
  5
6D8E
  8
UMCL1
 10
4785.6386523121864
 20
4872.3112699496887
 30
0.0
 11
4785.6386523121864
 21
4872.1112699496898
 31
0.0
  0
LINE
  5
6D8F
  8
UMCL1
 10
4798.5668555424609
 20
4872.3112699496887
 30
0.0
 11
4784.7104490819111
 21
4872.3112699496887
 31
0.0
  0
LINE
  5
6D90
  8
UMCL1
 10
4797.6386523121864
 20
4876.114731314402
 30
0.0
 11
4798.5668555424609
 21
4875.776892967232
 31
0.0
  0
LINE
  5
6D91
  8
UMCL1
 10
4798.5668555424609
 20
4875.776892967232
 30
0.0
 11
4798.5668555424609
 21
4872.3112699496887
 31
0.0
  0
LINE
  5
6D92
  8
UMCL1
 10
4797.6386523121864
 20
4872.3112699496887
 30
0.0
 11
4797.6386523121864
 21
4872.1112699496898
 31
0.0
  0
LINE
  5
6D93
  8
UMCL1
 10
4795.343999583305
 20
4872.3112699496887
 30
0.0
 11
4795.343999583305
 21
4875.776892967232
 31
0.0
  0
ARC
  5
6D94
  8
UMCL1
 10
4796.9554275628843
 20
4872.124235507541
 30
0.0
 40
3.992318455634094
 50
66.1945626177138
 51
113.8054373822862
  0
LINE
  5
6D95
  8
UMCL1
 10
4794.6202626153627
 20
4872.3112699496887
 30
0.0
 11
4794.6202626153627
 21
4875.776892967232
 31
0.0
  0
LINE
  5
6D96
  8
UMCL1
 10
4795.343999583305
 20
4875.776892967232
 30
0.0
 11
4794.6202626153627
 21
4875.776892967232
 31
0.0
  0
ARC
  5
6D97
  8
UMCL1
 10
4791.6386523121864
 20
4862.7886319768677
 30
0.0
 40
13.326099337533821
 50
77.071076092191333
 51
102.9289239078087
  0
LINE
  5
6D98
  8
UMCL1
 10
4787.9333050410651
 20
4872.3112699496887
 30
0.0
 11
4787.9333050410651
 21
4875.776892967232
 31
0.0
  0
ARC
  5
6D99
  8
UMCL1
 10
4786.3218770614876
 20
4872.124235507541
 30
0.0
 40
3.992318455634094
 50
66.1945626177138
 51
113.8054373822862
  0
LINE
  5
6D9A
  8
UMCL1
 10
4788.6570420090102
 20
4872.3112699496887
 30
0.0
 11
4788.6570420090102
 21
4875.776892967232
 31
0.0
  0
LINE
  5
6D9B
  8
UMCL1
 10
4794.6386523121864
 20
4876.1147313143993
 30
0.0
 11
4794.6386523121864
 21
4877.3147313144
 31
0.0
  0
LINE
  5
6D9C
  8
UMCL1
 62
     2
 10
4794.0386523121861
 20
4876.1147313143993
 30
0.0
 11
4794.0386523121851
 21
4877.9147313143994
 31
0.0
  0
LINE
  5
6D9D
  8
UMCL1
 10
4794.6386523121864
 20
4877.3147313144
 30
0.0
 11
4788.6386523121864
 21
4877.3147313144
 31
0.0
  0
LINE
  5
6D9E
  8
UMCL1
 10
4793.8386523121862
 20
4878.1147313144002
 30
0.0
 11
4789.4386523121857
 21
4878.1147313144002
 31
0.0
  0
LINE
  5
6D9F
  8
UMCL1
 10
4789.4386523121857
 20
4878.1147313144002
 30
0.0
 11
4788.6386523121864
 21
4877.3147313144
 31
0.0
  0
LINE
  5
6DA0
  8
UMCL1
 10
4794.6386523121864
 20
4877.3147313144
 30
0.0
 11
4793.8386523121862
 21
4878.1147313144002
 31
0.0
  0
LINE
  5
6DA1
  8
UMCL1
 10
4788.6386523121864
 20
4876.1147313143993
 30
0.0
 11
4788.6386523121864
 21
4877.3147313144
 31
0.0
  0
LINE
  5
6DA2
  8
UMCL1
 62
     2
 10
4789.238652312185
 20
4876.1147313143993
 30
0.0
 11
4789.238652312185
 21
4877.9147313143994
 31
0.0
  0
LINE
  5
6DA3
  8
CEN
 10
4793.6386523121864
 20
4593.5913828608536
 30
0.0
 11
4793.6386523121846
 21
4616.2413828608551
 31
0.0
  0
LINE
  5
7183
  8
UMCL1
 10
4621.2004631680302
 20
4060.4747023624241
 30
0.0
 11
4716.6004631680298
 21
4060.4747023624241
 31
0.0
  0
LINE
  5
7184
  8
UMCL1
 10
4621.2004631680302
 20
3941.474702362425
 30
0.0
 11
4716.6004631680298
 21
3941.474702362425
 31
0.0
  0
POLYLINE
  5
7185
  8
UMCL1
 66
     1
 10
0.0
 20
0.0
 30
0.0
 70
     1
  0
VERTEX
  5
76DE
  8
UMCL1
 10
4638.4156356107287
 20
3987.474702362425
 30
0.0
  0
VERTEX
  5
76DF
  8
UMCL1
 10
4632.9308080534274
 20
3977.974702362425
 30
0.0
  0
VERTEX
  5
76E0
  8
UMCL1
 10
4638.4156356107287
 20
3968.474702362425
 30
0.0
  0
VERTEX
  5
76E1
  8
UMCL1
 10
4649.3852907253322
 20
3968.474702362425
 30
0.0
  0
VERTEX
  5
76E2
  8
UMCL1
 10
4654.8701182826326
 20
3977.974702362425
 30
0.0
  0
VERTEX
  5
76E3
  8
UMCL1
 10
4649.3852907253322
 20
3987.474702362425
 30
0.0
  0
SEQEND
  5
76E4
  8
UMCL1
  0
CIRCLE
  5
7186
  8
UMCL1
 10
4643.9004631680309
 20
3977.974702362425
 30
0.0
 40
9.5
  0
CIRCLE
  5
7187
  8
UMCL1
 10
4643.9004631680309
 20
3977.974702362425
 30
0.0
 40
5.0
  0
POLYLINE
  5
7188
  8
UMCL1
 66
     1
 10
0.0
 20
0.0
 30
0.0
 70
     1
  0
VERTEX
  5
76E5
  8
UMCL1
 10
4646.9004631680309
 20
3979.7067531699931
 30
0.0
  0
VERTEX
  5
76E6
  8
UMCL1
 10
4643.9004631680309
 20
3981.4388039775622
 30
0.0
  0
VERTEX
  5
76E7
  8
UMCL1
 10
4640.9004631680309
 20
3979.7067531699931
 30
0.0
  0
VERTEX
  5
76E8
  8
UMCL1
 10
4640.9004631680309
 20
3976.242651554855
 30
0.0
  0
VERTEX
  5
76E9
  8
UMCL1
 10
4643.9004631680309
 20
3974.5106007472868
 30
0.0
  0
VERTEX
  5
76EA
  8
UMCL1
 10
4646.9004631680309
 20
3976.242651554855
 30
0.0
  0
SEQEND
  5
76EB
  8
UMCL1
  0
CIRCLE
  5
7189
  8
UMCL1
 10
4643.9004631680309
 20
3977.974702362425
 30
0.0
 40
6.0
  0
ARC
  5
718A
  8
UMCL1
 62
     2
 10
4643.9004631680309
 20
3977.974702362425
 30
0.0
 40
5.25
 50
250.223226052782
 51
208.72681189304589
  0
LINE
  5
718B
  8
UMCL1
 10
4720.3698509574733
 20
3953.4747023624241
 30
0.0
 11
4617.3698509574706
 21
3953.4747023624241
 31
0.0
  0
LINE
  5
718C
  8
UMCL1
 10
4720.3698509574706
 20
4048.4747023624241
 30
0.0
 11
4617.3698509574706
 21
4048.4747023624241
 31
0.0
  0
LINE
  5
718D
  8
CEN
 10
4464.8704631680303
 20
4000.9747023624241
 30
0.0
 11
4872.8704631680303
 21
4000.9747023624241
 31
0.0
  0
LINE
  5
718E
  8
CEN
 10
4625.9004631680309
 20
3977.974702362425
 30
0.0
 11
4661.9004631680309
 21
3977.974702362425
 31
0.0
  0
LINE
  5
718F
  8
CEN
 10
4627.9004631680309
 20
3986.2712848808728
 30
0.0
 11
4627.9004631680309
 21
3948.239973541959
 31
0.0
  0
LINE
  5
7190
  8
HIDDEN
 10
4632.1504631680309
 20
3978.505314572983
 30
0.0
 11
4632.1504631680309
 21
3953.5053145729839
 31
0.0
  0
LINE
  5
7191
  8
HIDDEN
 10
4623.6504631680309
 20
3978.505314572983
 30
0.0
 11
4623.6504631680309
 21
3953.5053145729839
 31
0.0
  0
LINE
  5
7192
  8
HIDDEN
 10
4622.9004631680309
 20
3973.505314572983
 30
0.0
 11
4622.9004631680309
 21
3953.5053145729839
 31
0.0
  0
LINE
  5
7193
  8
HIDDEN
 10
4632.9004631680309
 20
3973.505314572983
 30
0.0
 11
4632.9004631680309
 21
3953.5053145729839
 31
0.0
  0
LINE
  5
7194
  8
UMCL1
 10
4616.3698509574706
 20
4047.4747023624241
 30
0.0
 11
4616.3698509574706
 21
3954.4747023624241
 31
0.0
  0
LINE
  5
7195
  8
UMCL1
 10
4620.90046316803
 20
3953.1747023624239
 30
0.0
 11
4620.90046316803
 21
3941.7747023624252
 31
0.0
  0
LINE
  5
7196
  8
UMCL1
 10
4620.9004631680291
 20
3953.1747023624239
 30
0.0
 11
4620.9004631680291
 21
3941.7747023624238
 31
0.0
  0
LINE
  5
7197
  8
CEN
 10
4629.9004631680309
 20
3938.474702362425
 30
0.0
 11
4629.9004631680309
 21
3966.8933102855158
 31
0.0
  0
LINE
  5
7198
  8
UMCL1
 10
4620.90046316803
 20
3941.7747023624252
 30
0.0
 11
4621.2004631680302
 21
3941.474702362425
 31
0.0
  0
LINE
  5
7199
  8
UMCL1
 10
4620.9004631680291
 20
3941.7747023624238
 30
0.0
 11
4621.2004631680302
 21
3941.474702362425
 31
0.0
  0
LINE
  5
719A
  8
UMCL1
  6
HIDDEN
 62
     2
 10
4620.90046316803
 20
3953.1747023624239
 30
0.0
 11
4621.2004631680302
 21
3953.4747023624241
 31
0.0
  0
LINE
  5
719B
  8
UMCL1
  6
HIDDEN
 62
     2
 10
4620.9004631680291
 20
3953.1747023624239
 30
0.0
 11
4621.2004631680302
 21
3953.4747023624241
 31
0.0
  0
LINE
  5
719C
  8
UMCL1
 10
4616.3698509574706
 20
3954.4747023624241
 30
0.0
 11
4617.3698509574706
 21
3953.4747023624241
 31
0.0
  0
LINE
  5
719D
  8
CEN
 10
4629.9004631680309
 20
4063.4747023624241
 30
0.0
 11
4629.9004631680309
 21
4035.0560944393319
 31
0.0
  0
LINE
  5
719E
  8
CEN
 10
4627.9004631680309
 20
4015.6781198439749
 30
0.0
 11
4627.9004631680309
 21
4053.7094311828891
 31
0.0
  0
LINE
  5
719F
  8
HIDDEN
 10
4632.9004631680309
 20
3973.505314572983
 30
0.0
 11
4622.9004631680309
 21
3973.505314572983
 31
0.0
  0
LINE
  5
71A0
  8
HIDDEN
 10
4632.1504631680309
 20
3978.505314572983
 30
0.0
 11
4623.6504631680309
 21
3978.505314572983
 31
0.0
  0
LINE
  5
71A1
  8
HIDDEN
 10
4627.9004631680309
 20
3980.9590532170391
 30
0.0
 11
4623.6504631680309
 21
3978.505314572983
 31
0.0
  0
LINE
  5
71A2
  8
HIDDEN
 10
4627.9004631680309
 20
3980.9590532170391
 30
0.0
 11
4632.1504631680309
 21
3978.505314572983
 31
0.0
  0
LINE
  5
71A3
  8
HIDDEN
 10
4632.9004631680309
 20
4028.444090151866
 30
0.0
 11
4632.9004631680309
 21
4048.444090151866
 31
0.0
  0
LINE
  5
71A4
  8
HIDDEN
 10
4622.9004631680309
 20
4028.444090151866
 30
0.0
 11
4622.9004631680309
 21
4048.444090151866
 31
0.0
  0
LINE
  5
71A5
  8
HIDDEN
 10
4623.6504631680309
 20
4023.4440901518651
 30
0.0
 11
4623.6504631680309
 21
4048.444090151866
 31
0.0
  0
LINE
  5
71A6
  8
HIDDEN
 10
4632.1504631680309
 20
4023.4440901518651
 30
0.0
 11
4632.1504631680309
 21
4048.444090151866
 31
0.0
  0
LINE
  5
71A7
  8
HIDDEN
 10
4632.1504631680309
 20
4023.4440901518651
 30
0.0
 11
4623.6504631680309
 21
4023.4440901518651
 31
0.0
  0
LINE
  5
71A8
  8
HIDDEN
 10
4627.9004631680309
 20
4020.9903515078099
 30
0.0
 11
4623.6504631680309
 21
4023.4440901518651
 31
0.0
  0
LINE
  5
71A9
  8
HIDDEN
 10
4627.9004631680309
 20
4020.9903515078099
 30
0.0
 11
4632.1504631680309
 21
4023.4440901518651
 31
0.0
  0
LINE
  5
71AA
  8
HIDDEN
 10
4632.9004631680309
 20
4028.444090151866
 30
0.0
 11
4622.9004631680309
 21
4028.444090151866
 31
0.0
  0
LINE
  5
71AB
  8
UMCL1
 10
4620.9004631680291
 20
4048.7747023624238
 30
0.0
 11
4620.9004631680291
 21
4060.1747023624239
 31
0.0
  0
LINE
  5
71AC
  8
UMCL1
 10
4620.90046316803
 20
4048.7747023624238
 30
0.0
 11
4620.90046316803
 21
4060.1747023624239
 31
0.0
  0
LINE
  5
71AD
  8
UMCL1
  6
HIDDEN
 62
     2
 10
4620.9004631680291
 20
4048.7747023624238
 30
0.0
 11
4621.2004631680302
 21
4048.4747023624241
 31
0.0
  0
LINE
  5
71AE
  8
UMCL1
  6
HIDDEN
 62
     2
 10
4620.90046316803
 20
4048.7747023624238
 30
0.0
 11
4621.2004631680302
 21
4048.4747023624241
 31
0.0
  0
LINE
  5
71AF
  8
UMCL1
 10
4616.3698509574706
 20
4047.4747023624241
 30
0.0
 11
4617.3698509574706
 21
4048.4747023624241
 31
0.0
  0
LINE
  5
71B0
  8
UMCL1
 10
4620.9004631680291
 20
4060.1747023624239
 30
0.0
 11
4621.2004631680302
 21
4060.4747023624241
 31
0.0
  0
LINE
  5
71B1
  8
UMCL1
 10
4620.90046316803
 20
4060.1747023624239
 30
0.0
 11
4621.2004631680302
 21
4060.4747023624241
 31
0.0
  0
LINE
  5
71B2
  8
CEN
 10
5064.6389615083708
 20
3959.9747023624232
 30
0.0
 11
5064.6389615083708
 21
3995.9747023624232
 31
0.0
  0
LINE
  5
71B3
  8
CEN
 10
4709.9004631680309
 20
3986.2712848808728
 30
0.0
 11
4709.9004631680309
 21
3948.239973541959
 31
0.0
  0
POLYLINE
  5
71B4
  8
UMCL1
 66
     1
 10
0.0
 20
0.0
 30
0.0
 70
     1
  0
VERTEX
  5
76EC
  8
UMCL1
 10
4688.4156356107287
 20
3987.474702362425
 30
0.0
  0
VERTEX
  5
76ED
  8
UMCL1
 10
4682.9308080534274
 20
3977.974702362425
 30
0.0
  0
VERTEX
  5
76EE
  8
UMCL1
 10
4688.4156356107287
 20
3968.474702362425
 30
0.0
  0
VERTEX
  5
76EF
  8
UMCL1
 10
4699.3852907253313
 20
3968.474702362425
 30
0.0
  0
VERTEX
  5
76F0
  8
UMCL1
 10
4704.8701182826344
 20
3977.974702362425
 30
0.0
  0
VERTEX
  5
76F1
  8
UMCL1
 10
4699.3852907253313
 20
3987.474702362425
 30
0.0
  0
SEQEND
  5
76F2
  8
UMCL1
  0
LINE
  5
71B5
  8
CEN
 10
5003.6389615083708
 20
3938.3530729103741
 30
0.0
 11
5003.6389615083708
 21
4051.474702362425
 31
0.0
  0
LINE
  5
71B6
  8
CEN
 10
5039.6389615083699
 20
3938.474702362425
 30
0.0
 11
5039.638961508369
 21
4114.4760491062534
 31
0.0
  0
LINE
  5
71B7
  8
UMCL1
 10
5091.1389615083699
 20
4047.474702362425
 30
0.0
 11
5091.1389615083699
 21
3954.474702362425
 31
0.0
  0
LINE
  5
71B8
  8
UMCL1
 10
4956.1389615083708
 20
4047.474702362425
 30
0.0
 11
4956.1389615083708
 21
3954.474702362425
 31
0.0
  0
LINE
  5
71B9
  8
CEN
 10
4985.1389615083708
 20
4010.474702362425
 30
0.0
 11
4985.1389615083708
 21
4028.474702362425
 31
0.0
  0
CIRCLE
  5
71BA
  8
UMCL1
 10
4693.9004631680309
 20
3977.974702362425
 30
0.0
 40
9.5
  0
LINE
  5
71BB
  8
CEN
 10
4643.9004631680309
 20
3959.974702362425
 30
0.0
 11
4643.9004631680309
 21
3995.9747023624241
 31
0.0
  0
LINE
  5
71BC
  8
HIDDEN
 10
4704.9004631680309
 20
3973.505314572983
 30
0.0
 11
4704.9004631680309
 21
3953.5053145729839
 31
0.0
  0
LINE
  5
71BD
  8
HIDDEN
 10
4714.9004631680309
 20
3973.505314572983
 30
0.0
 11
4714.9004631680309
 21
3953.5053145729839
 31
0.0
  0
LINE
  5
71BE
  8
HIDDEN
 10
4714.1504631680309
 20
3978.505314572983
 30
0.0
 11
4714.1504631680309
 21
3953.5053145729839
 31
0.0
  0
LINE
  5
71BF
  8
HIDDEN
 10
4705.6504631680309
 20
3978.505314572983
 30
0.0
 11
4705.6504631680309
 21
3953.5053145729839
 31
0.0
  0
LINE
  5
71C0
  8
CEN
 10
4693.9004631680309
 20
3959.974702362425
 30
0.0
 11
4693.9004631680309
 21
3995.9747023624241
 31
0.0
  0
LINE
  5
71C1
  8
UMCL1
 10
4721.3698509574706
 20
4047.4747023624241
 30
0.0
 11
4721.3698509574724
 21
3954.4747023624241
 31
0.0
  0
LINE
  5
71C2
  8
CEN
 10
4668.8704631680303
 20
3938.474702362425
 30
0.0
 11
4668.8704631680303
 21
4114.4760491062534
 31
0.0
  0
LINE
  5
71C3
  8
CEN
 10
4707.9004631680309
 20
3938.474702362425
 30
0.0
 11
4707.9004631680309
 21
3966.8933102855158
 31
0.0
  0
LINE
  5
71C4
  8
UMCL1
 10
4716.90046316803
 20
3953.1747023624239
 30
0.0
 11
4716.90046316803
 21
3941.7747023624238
 31
0.0
  0
LINE
  5
71C5
  8
UMCL1
 10
4716.90046316803
 20
3941.7747023624238
 30
0.0
 11
4716.6004631680298
 21
3941.474702362425
 31
0.0
  0
LINE
  5
71C6
  8
UMCL1
  6
HIDDEN
 62
     2
 10
4716.90046316803
 20
3953.1747023624239
 30
0.0
 11
4716.6004631680298
 21
3953.4747023624241
 31
0.0
  0
LINE
  5
71C7
  8
UMCL1
 10
4721.3698509574724
 20
3954.4747023624241
 30
0.0
 11
4720.3698509574733
 21
3953.4747023624241
 31
0.0
  0
LINE
  5
71C8
  8
UMCL1
 10
4991.9389615083701
 20
3941.474702362425
 30
0.0
 11
5087.3389615083706
 21
3941.474702362425
 31
0.0
  0
LINE
  5
71C9
  8
UMCL1
 10
4957.1389615083708
 20
3953.474702362425
 30
0.0
 11
5090.1389615083708
 21
3953.474702362425
 31
0.0
  0
LINE
  5
71CA
  8
CEN
 10
4976.1389615083708
 20
4019.474702362425
 30
0.0
 11
4994.1389615083708
 21
4019.474702362425
 31
0.0
  0
LINE
  5
71CB
  8
UMCL1
 10
4957.1389615083708
 20
3953.474702362425
 30
0.0
 11
4956.1389615083708
 21
3954.474702362425
 31
0.0
  0
LINE
  5
71CC
  8
UMCL1
 10
4991.6389615083708
 20
3953.1747023624248
 30
0.0
 11
4991.6389615083708
 21
3941.7747023624252
 31
0.0
  0
LINE
  5
71CD
  8
CEN
 10
5000.6389615083708
 20
3938.474702362425
 30
0.0
 11
5000.6389615083708
 21
3966.8933102855171
 31
0.0
  0
LINE
  5
71CE
  8
UMCL1
 10
4991.6389615083708
 20
3953.1747023624248
 30
0.0
 11
4991.6389615083699
 21
3941.7747023624252
 31
0.0
  0
LINE
  5
71CF
  8
UMCL1
 10
4991.6389615083708
 20
3941.7747023624252
 30
0.0
 11
4991.9389615083701
 21
3941.474702362425
 31
0.0
  0
LINE
  5
71D0
  8
UMCL1
 10
4991.6389615083699
 20
3941.7747023624252
 30
0.0
 11
4991.9389615083701
 21
3941.474702362425
 31
0.0
  0
LINE
  5
71D1
  8
UMCL1
 10
5087.6389615083708
 20
3953.1747023624248
 30
0.0
 11
5087.6389615083708
 21
3941.7747023624252
 31
0.0
  0
LINE
  5
71D2
  8
CEN
 10
5078.6389615083708
 20
3938.474702362425
 30
0.0
 11
5078.6389615083708
 21
3966.8933102855171
 31
0.0
  0
LINE
  5
71D3
  8
UMCL1
 10
5087.6389615083708
 20
3941.7747023624252
 30
0.0
 11
5087.3389615083706
 21
3941.474702362425
 31
0.0
  0
LINE
  5
71D4
  8
UMCL1
 10
5087.6389615083708
 20
3953.1747023624248
 30
0.0
 11
5087.3389615083706
 21
3953.474702362425
 31
0.0
  0
LINE
  5
71D5
  8
UMCL1
 10
5091.1389615083699
 20
3954.474702362425
 30
0.0
 11
5090.1389615083708
 21
3953.474702362425
 31
0.0
  0
LINE
  5
71D6
  8
CEN
 10
4707.9004631680309
 20
4063.4747023624241
 30
0.0
 11
4707.9004631680309
 21
4035.0560944393319
 31
0.0
  0
ARC
  5
71D7
  8
UMCL1
 10
4654.9004631680309
 20
4061.976049106253
 30
0.0
 40
0.5
 50
270.0
 51
90.0
  0
ARC
  5
71D8
  8
UMCL1
 10
4682.9004631680309
 20
4061.976049106253
 30
0.0
 40
0.5
 50
90.0
 51
270.0
  0
LINE
  5
71D9
  8
CEN
 10
4709.9004631680309
 20
4015.6781198439749
 30
0.0
 11
4709.9004631680309
 21
4053.7094311828891
 31
0.0
  0
LINE
  5
71DA
  8
CEN
 10
4711.9004631680309
 20
3977.974702362425
 30
0.0
 11
4675.9004631680309
 21
3977.974702362425
 31
0.0
  0
LINE
  5
71DB
  8
HIDDEN
 10
4705.6504631680309
 20
3978.505314572983
 30
0.0
 11
4714.1504631680309
 21
3978.505314572983
 31
0.0
  0
LINE
  5
71DC
  8
HIDDEN
 10
4704.9004631680309
 20
3973.505314572983
 30
0.0
 11
4714.9004631680309
 21
3973.505314572983
 31
0.0
  0
LINE
  5
71DD
  8
HIDDEN
 10
4709.9004631680309
 20
3980.9590532170391
 30
0.0
 11
4714.1504631680309
 21
3978.505314572983
 31
0.0
  0
CIRCLE
  5
71DE
  8
UMCL1
 10
4693.9004631680309
 20
3977.974702362425
 30
0.0
 40
6.0
  0
ARC
  5
71DF
  8
UMCL1
 62
     2
 10
4693.9004631680309
 20
3977.974702362425
 30
0.0
 40
5.25
 50
250.223226052782
 51
208.72681189304589
  0
POLYLINE
  5
71E0
  8
UMCL1
 66
     1
 10
0.0
 20
0.0
 30
0.0
 70
     1
  0
VERTEX
  5
76F3
  8
UMCL1
 10
4696.9004631680309
 20
3979.7067531699931
 30
0.0
  0
VERTEX
  5
76F4
  8
UMCL1
 10
4693.9004631680309
 20
3981.4388039775622
 30
0.0
  0
VERTEX
  5
76F5
  8
UMCL1
 10
4690.9004631680309
 20
3979.7067531699931
 30
0.0
  0
VERTEX
  5
76F6
  8
UMCL1
 10
4690.9004631680309
 20
3976.242651554855
 30
0.0
  0
VERTEX
  5
76F7
  8
UMCL1
 10
4693.9004631680309
 20
3974.5106007472868
 30
0.0
  0
VERTEX
  5
76F8
  8
UMCL1
 10
4696.9004631680309
 20
3976.242651554855
 30
0.0
  0
SEQEND
  5
76F9
  8
UMCL1
  0
CIRCLE
  5
71E1
  8
UMCL1
 10
4693.9004631680309
 20
3977.974702362425
 30
0.0
 40
5.0
  0
LINE
  5
71E2
  8
HIDDEN
 10
4709.9004631680309
 20
3980.9590532170391
 30
0.0
 11
4705.6504631680309
 21
3978.505314572983
 31
0.0
  0
LINE
  5
71E3
  8
HIDDEN
 10
4704.9004631680309
 20
4028.444090151866
 30
0.0
 11
4714.9004631680309
 21
4028.444090151866
 31
0.0
  0
LINE
  5
71E4
  8
HIDDEN
 10
4709.9004631680309
 20
4020.9903515078099
 30
0.0
 11
4714.1504631680309
 21
4023.4440901518651
 31
0.0
  0
LINE
  5
71E5
  8
HIDDEN
 10
4705.6504631680309
 20
4023.4440901518651
 30
0.0
 11
4714.1504631680309
 21
4023.4440901518651
 31
0.0
  0
LINE
  5
71E6
  8
HIDDEN
 10
4705.6504631680309
 20
4023.4440901518651
 30
0.0
 11
4705.6504631680309
 21
4048.444090151866
 31
0.0
  0
LINE
  5
71E7
  8
HIDDEN
 10
4704.9004631680309
 20
4028.444090151866
 30
0.0
 11
4704.9004631680309
 21
4048.444090151866
 31
0.0
  0
LINE
  5
71E8
  8
HIDDEN
 10
4709.9004631680309
 20
4020.9903515078099
 30
0.0
 11
4705.6504631680309
 21
4023.4440901518651
 31
0.0
  0
LINE
  5
71E9
  8
UMCL1
 10
4651.9004631680309
 20
4061.476049106253
 30
0.0
 11
4685.9004631680309
 21
4061.476049106253
 31
0.0
  0
LINE
  5
71EA
  8
UMCL1
 10
4686.40046316803
 20
4060.9760491062539
 30
0.0
 11
4651.40046316803
 21
4060.9760491062539
 31
0.0
  0
LINE
  5
71EB
  8
UMCL1
 10
4651.40046316803
 20
4060.9760491062539
 30
0.0
 11
4651.40046316803
 21
4060.4747023624241
 31
0.0
  0
LINE
  5
71EC
  8
UMCL1
 10
4651.40046316803
 20
4060.9760491062539
 30
0.0
 11
4651.9004631680309
 21
4061.476049106253
 31
0.0
  0
LINE
  5
71ED
  8
UMCL1
 10
4686.40046316803
 20
4060.9760491062539
 30
0.0
 11
4686.40046316803
 21
4060.4747023624241
 31
0.0
  0
LINE
  5
71EE
  8
UMCL1
 10
4686.40046316803
 20
4060.9760491062539
 30
0.0
 11
4685.9004631680309
 21
4061.476049106253
 31
0.0
  0
LINE
  5
71EF
  8
HIDDEN
 10
4714.1504631680309
 20
4023.4440901518651
 30
0.0
 11
4714.1504631680309
 21
4048.444090151866
 31
0.0
  0
LINE
  5
71F0
  8
HIDDEN
 10
4714.9004631680309
 20
4028.444090151866
 30
0.0
 11
4714.9004631680309
 21
4048.444090151866
 31
0.0
  0
LINE
  5
71F1
  8
UMCL1
 10
4716.90046316803
 20
4048.7747023624238
 30
0.0
 11
4716.90046316803
 21
4060.1747023624239
 31
0.0
  0
LINE
  5
71F2
  8
UMCL1
  6
HIDDEN
 62
     2
 10
4716.90046316803
 20
4048.7747023624238
 30
0.0
 11
4716.6004631680298
 21
4048.4747023624241
 31
0.0
  0
LINE
  5
71F3
  8
UMCL1
 10
4721.3698509574706
 20
4047.4747023624241
 30
0.0
 11
4720.3698509574706
 21
4048.4747023624241
 31
0.0
  0
LINE
  5
71F4
  8
UMCL1
 10
4716.90046316803
 20
4060.1747023624239
 30
0.0
 11
4716.6004631680298
 21
4060.4747023624241
 31
0.0
  0
LINE
  5
71F5
  8
HIDDEN
 10
4658.9005120664769
 20
4063.976049106253
 30
0.0
 11
4658.9005120664769
 21
4108.9760491062534
 31
0.0
  0
LINE
  5
71F6
  8
UMCL1
 10
4651.90046316803
 20
4108.9760491062534
 30
0.0
 11
4651.9004631680309
 21
4063.976049106253
 31
0.0
  0
LINE
  5
71F7
  8
HIDDEN
 10
4672.9004631680309
 20
4111.4760491062534
 30
0.0
 11
4672.9004631680309
 21
4096.4760491062534
 31
0.0
  0
LINE
  5
71F8
  8
HIDDEN
 10
4664.9004631680309
 20
4111.4760491062534
 30
0.0
 11
4664.9004631680309
 21
4096.4760491062534
 31
0.0
  0
LINE
  5
71F9
  8
HIDDEN
 10
4665.6504631680309
 20
4111.4760491062534
 30
0.0
 11
4665.6504631680309
 21
4091.4760491062539
 31
0.0
  0
LINE
  5
71FA
  8
HIDDEN
 10
4672.1504631680309
 20
4111.4760491062534
 30
0.0
 11
4672.1504631680309
 21
4091.4760491062539
 31
0.0
  0
LINE
  5
71FB
  8
UMCL1
 10
4654.9004631680309
 20
4110.4760491062534
 30
0.0
 11
4654.9004631680309
 21
4062.4760491062539
 31
0.0
  0
LINE
  5
71FC
  8
UMCL1
 10
4682.90046316803
 20
4110.4760491062534
 30
0.0
 11
4682.9004631680309
 21
4062.4760491062539
 31
0.0
  0
LINE
  5
71FD
  8
UMCL1
 10
4654.9004631680309
 20
4062.4760491062539
 30
0.0
 11
4682.90046316803
 21
4062.476049106252
 31
0.0
  0
LINE
  5
71FE
  8
HIDDEN
 10
4654.9004631680309
 20
4063.976049106253
 30
0.0
 11
4658.9005120664769
 21
4063.976049106253
 31
0.0
  0
LINE
  5
71FF
  8
CEN
 10
4649.071178213776
 20
4067.976049106253
 30
0.0
 11
4663.4879478089406
 21
4067.976049106253
 31
0.0
  0
LINE
  5
7200
  8
UMCL1
 10
4654.9004631680309
 20
4063.976049106253
 30
0.0
 11
4651.90046316803
 21
4063.976049106253
 31
0.0
  0
LINE
  5
7201
  8
HIDDEN
 10
4668.9004631680309
 20
4089.476049106253
 30
0.0
 11
4665.6504631680309
 21
4091.4760491062539
 31
0.0
  0
LINE
  5
7202
  8
HIDDEN
 10
4665.6504631680309
 20
4091.4760491062539
 30
0.0
 11
4672.1504631680309
 21
4091.4760491062539
 31
0.0
  0
LINE
  5
7203
  8
HIDDEN
 10
4672.1504631680309
 20
4091.4760491062539
 30
0.0
 11
4668.9004631680309
 21
4089.476049106253
 31
0.0
  0
LINE
  5
7204
  8
HIDDEN
 10
4664.9004631680309
 20
4096.4760491062534
 30
0.0
 11
4672.9004631680309
 21
4096.4760491062534
 31
0.0
  0
LINE
  5
7205
  8
CEN
 10
4649.071178213776
 20
4104.9760491062534
 30
0.0
 11
4663.4879478089406
 21
4104.9760491062534
 31
0.0
  0
LINE
  5
7206
  8
UMCL1
 10
4655.90046316803
 20
4111.4760491062534
 30
0.0
 11
4681.9004631680291
 21
4111.4760491062534
 31
0.0
  0
LINE
  5
7207
  8
UMCL1
 10
4682.90046316803
 20
4110.4760491062534
 30
0.0
 11
4654.9004631680309
 21
4110.4760491062534
 31
0.0
  0
LINE
  5
7208
  8
HIDDEN
 10
4654.9004631680309
 20
4108.9760491062534
 30
0.0
 11
4658.9005120664769
 21
4108.9760491062534
 31
0.0
  0
LINE
  5
7209
  8
UMCL1
 10
4654.9004631680309
 20
4108.9760491062534
 30
0.0
 11
4651.90046316803
 21
4108.9760491062534
 31
0.0
  0
LINE
  5
720A
  8
UMCL1
 10
4655.90046316803
 20
4111.4760491062534
 30
0.0
 11
4654.9004631680309
 21
4110.4760491062534
 31
0.0
  0
LINE
  5
720B
  8
UMCL1
 10
4682.90046316803
 20
4110.4760491062534
 30
0.0
 11
4681.9004631680291
 21
4111.4760491062534
 31
0.0
  0
LINE
  5
720C
  8
CEN
 10
5078.6389615083708
 20
4063.4747023624259
 30
0.0
 11
5078.6389615083708
 21
4035.0560944393328
 31
0.0
  0
LINE
  5
720D
  8
CEN
 10
5000.6389615083708
 20
4063.474702362425
 30
0.0
 11
5000.6389615083708
 21
4035.0560944393328
 31
0.0
  0
ARC
  5
720E
  8
UMCL1
 10
5053.6389615083699
 20
4061.976049106253
 30
0.0
 40
0.5
 50
90.0
 51
270.0
  0
ARC
  5
720F
  8
UMCL1
 10
5025.6389615083708
 20
4061.976049106253
 30
0.0
 40
0.5
 50
270.0
 51
90.0
  0
LINE
  5
7210
  8
UMCL1
 10
4991.9389615083701
 20
4060.474702362425
 30
0.0
 11
5087.3389615083706
 21
4060.4747023624259
 31
0.0
  0
LINE
  5
7211
  8
UMCL1
 10
5057.1389615083708
 20
4060.9760491062539
 30
0.0
 11
5022.1389615083708
 21
4060.9760491062539
 31
0.0
  0
LINE
  5
7212
  8
UMCL1
 10
5022.6389615083708
 20
4061.476049106253
 30
0.0
 11
5056.6389615083708
 21
4061.476049106253
 31
0.0
  0
LINE
  5
7213
  8
CEN
 10
5095.0469664138891
 20
4000.974702362425
 30
0.0
 11
4953.456797302425
 21
4000.974702362425
 31
0.0
  0
LINE
  5
7214
  8
UMCL1
 10
4957.1389615083708
 20
4048.474702362425
 30
0.0
 11
5090.1389615083699
 21
4048.474702362425
 31
0.0
  0
LINE
  5
7215
  8
UMCL1
 10
4957.1389615083708
 20
4048.474702362425
 30
0.0
 11
4956.1389615083708
 21
4047.474702362425
 31
0.0
  0
LINE
  5
7216
  8
UMCL1
 10
4991.6389615083708
 20
4048.474702362425
 30
0.0
 11
4991.6389615083708
 21
4060.1747023624248
 31
0.0
  0
LINE
  5
7217
  8
UMCL1
 10
4991.6389615083708
 20
4048.7747023624238
 30
0.0
 11
4991.6389615083699
 21
4060.1747023624248
 31
0.0
  0
LINE
  5
7218
  8
UMCL1
 10
4991.6389615083708
 20
4060.1747023624248
 30
0.0
 11
4991.9389615083701
 21
4060.474702362425
 31
0.0
  0
LINE
  5
7219
  8
UMCL1
 10
4991.6389615083699
 20
4060.1747023624248
 30
0.0
 11
4991.9389615083701
 21
4060.4747023624259
 31
0.0
  0
LINE
  5
721A
  8
UMCL1
 10
5022.1389615083708
 20
4060.9760491062539
 30
0.0
 11
5022.1389615083699
 21
4060.474702362425
 31
0.0
  0
LINE
  5
721B
  8
UMCL1
 10
5022.1389615083708
 20
4060.9760491062539
 30
0.0
 11
5022.6389615083708
 21
4061.476049106253
 31
0.0
  0
CIRCLE
  5
721C
  8
UMCL1
 10
5064.6389615083708
 20
3977.9747023624232
 30
0.0
 40
6.0
  0
CIRCLE
  5
721D
  8
UMCL1
 10
5064.6389615083708
 20
3977.9747023624232
 30
0.0
 40
5.0
  0
ARC
  5
721E
  8
UMCL1
 62
     2
 10
5064.6389615083708
 20
3977.9747023624232
 30
0.0
 40
5.25
 50
72.703603885943423
 51
13.903758477005789
  0
LINE
  5
721F
  8
CEN
 10
5082.6389615083708
 20
3977.9747023624232
 30
0.0
 11
5046.6389615083708
 21
3977.9747023624232
 31
0.0
  0
POLYLINE
  5
7220
  8
UMCL1
 66
     1
 10
0.0
 20
0.0
 30
0.0
 70
     1
  0
VERTEX
  5
76FA
  8
UMCL1
 10
5062.9069107008017
 20
3980.9747023624241
 30
0.0
  0
VERTEX
  5
76FB
  8
UMCL1
 10
5061.1748598932336
 20
3977.9747023624232
 30
0.0
  0
VERTEX
  5
76FC
  8
UMCL1
 10
5062.9069107008017
 20
3974.9747023624232
 30
0.0
  0
VERTEX
  5
76FD
  8
UMCL1
 10
5066.3710123159399
 20
3974.9747023624232
 30
0.0
  0
VERTEX
  5
76FE
  8
UMCL1
 10
5068.103063123508
 20
3977.9747023624232
 30
0.0
  0
VERTEX
  5
76FF
  8
UMCL1
 10
5066.3710123159399
 20
3980.9747023624241
 30
0.0
  0
SEQEND
  5
7700
  8
UMCL1
  0
LINE
  5
7221
  8
UMCL1
 10
5057.1389615083708
 20
4060.9760491062539
 30
0.0
 11
5057.1389615083699
 21
4060.474702362425
 31
0.0
  0
LINE
  5
7222
  8
UMCL1
 10
5057.1389615083708
 20
4060.9760491062539
 30
0.0
 11
5056.6389615083708
 21
4061.476049106253
 31
0.0
  0
LINE
  5
7223
  8
UMCL1
 10
5087.6389615083708
 20
4048.7747023624238
 30
0.0
 11
5087.6389615083708
 21
4060.1747023624248
 31
0.0
  0
LINE
  5
7224
  8
UMCL1
 10
5087.6389615083708
 20
4048.7747023624238
 30
0.0
 11
5087.3389615083706
 21
4048.474702362425
 31
0.0
  0
LINE
  5
7225
  8
UMCL1
 10
5091.1389615083699
 20
4047.474702362425
 30
0.0
 11
5090.1389615083708
 21
4048.474702362425
 31
0.0
  0
LINE
  5
7226
  8
UMCL1
 10
5087.6389615083708
 20
4060.1747023624248
 30
0.0
 11
5087.3389615083706
 21
4060.4747023624259
 31
0.0
  0
LINE
  5
7227
  8
UMCL1
 10
5053.6389615083699
 20
4110.4760491062534
 30
0.0
 11
5025.6389615083708
 21
4110.4760491062543
 31
0.0
  0
LINE
  5
7228
  8
UMCL1
 10
5026.6389615083708
 20
4111.4760491062534
 30
0.0
 11
5052.6389615083699
 21
4111.4760491062534
 31
0.0
  0
LINE
  5
7229
  8
UMCL1
 10
5025.6389615083708
 20
4062.4760491062539
 30
0.0
 11
5053.6389615083699
 21
4062.4760491062539
 31
0.0
  0
LINE
  5
722A
  8
CEN
 10
5032.4305767107871
 20
4104.9760491062534
 30
0.0
 11
5046.8473463059536
 21
4104.9760491062534
 31
0.0
  0
LINE
  5
722B
  8
CEN
 10
5032.4305767107871
 20
4067.976049106253
 30
0.0
 11
5046.8473463059536
 21
4067.976049106253
 31
0.0
  0
LINE
  5
722C
  8
UMCL1
 10
5025.6389615083708
 20
4110.4760491062534
 30
0.0
 11
5025.6389615083708
 21
4062.4760491062539
 31
0.0
  0
LINE
  5
722D
  8
UMCL1
 10
5026.6389615083708
 20
4111.4760491062534
 30
0.0
 11
5025.6389615083708
 21
4110.4760491062534
 31
0.0
  0
LINE
  5
722E
  8
HIDDEN
 10
5043.6389615083708
 20
4111.4760491062534
 30
0.0
 11
5043.6389615083708
 21
4096.4760491062534
 31
0.0
  0
LINE
  5
722F
  8
HIDDEN
 10
5042.8889615083708
 20
4111.4760491062534
 30
0.0
 11
5042.8889615083708
 21
4091.4760491062539
 31
0.0
  0
LINE
  5
7230
  8
UMCL1
 10
5053.6389615083699
 20
4110.4760491062534
 30
0.0
 11
5053.6389615083699
 21
4062.4760491062539
 31
0.0
  0
LINE
  5
7231
  8
HIDDEN
 10
5035.6389615083708
 20
4111.4760491062534
 30
0.0
 11
5035.6389615083708
 21
4096.4760491062534
 31
0.0
  0
LINE
  5
7232
  8
HIDDEN
 10
5036.3889615083708
 20
4111.4760491062534
 30
0.0
 11
5036.3889615083708
 21
4091.4760491062539
 31
0.0
  0
ARC
  5
7233
  8
HIDDEN
 10
5039.6389615083699
 20
4104.9760491062534
 30
0.0
 40
4.0
 50
0.0
 51
180.0
  0
LINE
  5
7234
  8
HIDDEN
 10
5043.6389615083708
 20
4104.4760491062534
 30
0.0
 11
5043.6389615083708
 21
4067.976049106253
 31
0.0
  0
LINE
  5
7235
  8
HIDDEN
 10
5035.6389615083708
 20
4104.4760491062534
 30
0.0
 11
5035.6389615083708
 21
4067.976049106253
 31
0.0
  0
ARC
  5
7236
  8
HIDDEN
 10
5039.6389615083699
 20
4067.976049106253
 30
0.0
 40
4.0
 50
180.0
 51
0.0
  0
LINE
  5
7237
  8
HIDDEN
 10
5042.8889615083708
 20
4091.4760491062539
 30
0.0
 11
5039.6389615083699
 21
4089.476049106253
 31
0.0
  0
LINE
  5
7238
  8
HIDDEN
 10
5036.3889615083708
 20
4091.4760491062539
 30
0.0
 11
5042.8889615083708
 21
4091.4760491062539
 31
0.0
  0
LINE
  5
7239
  8
HIDDEN
 10
5039.6389615083699
 20
4089.476049106253
 30
0.0
 11
5036.3889615083708
 21
4091.4760491062539
 31
0.0
  0
LINE
  5
723A
  8
HIDDEN
 10
5035.6389615083708
 20
4096.4760491062534
 30
0.0
 11
5043.6389615083708
 21
4096.4760491062534
 31
0.0
  0
LINE
  5
723B
  8
UMCL1
 10
5053.6389615083699
 20
4110.4760491062534
 30
0.0
 11
5052.6389615083699
 21
4111.4760491062534
 31
0.0
  0
LINE
  5
723C
  8
UMCL2
 10
4620.9004631680291
 20
3939.2747023624252
 30
0.0
 11
4620.9004631680291
 21
3922.974702362425
 31
0.0
  0
LINE
  5
723D
  8
UMCL2
 10
4716.90046316803
 20
3939.2747023624238
 30
0.0
 11
4716.90046316803
 21
3922.974702362425
 31
0.0
  0
LINE
  5
723E
  8
UMCL2
 10
4620.9004631680291
 20
3925.474702362425
 30
0.0
 11
4716.90046316803
 21
3925.474702362425
 31
0.0
  0
SOLID
  5
723F
  8
UMCL2
 10
4625.9004631680291
 20
3926.308035695758
 30
0.0
 11
4625.9004631680291
 21
3924.641369029091
 31
0.0
 12
4620.9004631680291
 22
3925.474702362425
 32
0.0
 13
4620.9004631680291
 23
3925.474702362425
 33
0.0
  0
SOLID
  5
7240
  8
UMCL2
 10
4711.9004631680309
 20
3926.308035695758
 30
0.0
 11
4711.9004631680309
 21
3924.641369029091
 31
0.0
 12
4716.90046316803
 22
3925.474702362425
 32
0.0
 13
4716.90046316803
 23
3925.474702362425
 33
0.0
  0
TEXT
  5
7241
  8
UMCL2
 10
4660.9257366732072
 20
3927.8747023624251
 30
0.0
 40
6.0
  1
\U+220596
 41
0.85
 51
15.0
  7
ROMANS
  0
LINE
  5
7242
  8
UMCL2
 10
4616.3698509574706
 20
3951.9747023624241
 30
0.0
 11
4616.3698509574706
 21
3906.974702362425
 31
0.0
  0
LINE
  5
7243
  8
UMCL2
 10
4721.3698509574724
 20
3951.9747023624241
 30
0.0
 11
4721.3698509574724
 21
3906.974702362425
 31
0.0
  0
LINE
  5
7244
  8
UMCL2
 10
4442.0555037320946
 20
3909.474702362425
 30
0.0
 11
4890.9798617053266
 21
3909.474702362425
 31
0.0
  0
SOLID
  5
7245
  8
UMCL2
 10
4621.3698509574724
 20
3910.308035695758
 30
0.0
 11
4621.3698509574724
 21
3908.641369029091
 31
0.0
 12
4616.3698509574706
 22
3909.474702362425
 32
0.0
 13
4616.3698509574706
 23
3909.474702362425
 33
0.0
  0
SOLID
  5
7246
  8
UMCL2
 10
4716.3698509574724
 20
3910.308035695758
 30
0.0
 11
4716.3698509574724
 21
3908.641369029091
 31
0.0
 12
4721.3698509574724
 22
3909.474702362425
 32
0.0
 13
4721.3698509574724
 23
3909.474702362425
 33
0.0
  0
TEXT
  5
7247
  8
UMCL2
 10
4659.5685227354334
 20
3911.8747023624251
 30
0.0
 40
6.0
  1
105
 41
0.85
 51
15.0
  7
ROMANS
  0
LINE
  5
7248
  8
UMCL2
 10
4868.8704631680303
 20
3973.974702362425
 30
0.0
 11
4868.8704631680303
 21
3890.974702362425
 31
0.0
  0
LINE
  5
7249
  8
UMCL2
 10
4468.8704631680303
 20
3893.474702362425
 30
0.0
 11
4868.8704631680303
 21
3893.474702362425
 31
0.0
  0
SOLID
  5
724A
  8
UMCL2
 10
4863.8704631680303
 20
3894.308035695758
 30
0.0
 11
4863.8704631680303
 21
3892.641369029091
 31
0.0
 12
4868.8704631680303
 22
3893.474702362425
 32
0.0
 13
4868.8704631680303
 23
3893.474702362425
 33
0.0
  0
TEXT
  5
724B
  8
UMCL2
 10
4660.7552160522037
 20
3895.8747023624251
 30
0.0
 40
6.0
  1
400
 41
0.85
 51
15.0
  7
ROMANS
  0
SOLID
  5
724C
  8
UMCL2
 10
4611.3698509574724
 20
3910.308035695758
 30
0.0
 11
4611.3698509574724
 21
3908.641369029091
 31
0.0
 12
4616.3698509574706
 22
3909.474702362425
 32
0.0
 13
4616.3698509574706
 23
3909.474702362425
 33
0.0
  0
LINE
  5
724D
  8
UMCL2
 10
4842.8704631680303
 20
3973.974702362425
 30
0.0
 11
4842.8704631680303
 21
3906.974702362425
 31
0.0
  0
SOLID
  5
724E
  8
UMCL2
 10
4837.8704631680303
 20
3910.308035695758
 30
0.0
 11
4837.8704631680303
 21
3908.641369029091
 31
0.0
 12
4842.8704631680303
 22
3909.474702362425
 32
0.0
 13
4842.8704631680303
 23
3909.474702362425
 33
0.0
  0
SOLID
  5
724F
  8
UMCL2
 10
4847.8704631680303
 20
3910.308035695758
 30
0.0
 11
4847.8704631680303
 21
3908.641369029091
 31
0.0
 12
4842.8704631680303
 22
3909.474702362425
 32
0.0
 13
4842.8704631680303
 23
3909.474702362425
 33
0.0
  0
SOLID
  5
7250
  8
UMCL2
 10
4863.9304631680307
 20
3910.308035695758
 30
0.0
 11
4863.9304631680307
 21
3908.641369029091
 31
0.0
 12
4868.9304631680297
 22
3909.474702362425
 32
0.0
 13
4868.9304631680297
 23
3909.474702362425
 33
0.0
  0
SOLID
  5
7251
  8
UMCL2
 10
4726.4188304943664
 20
3910.308035695758
 30
0.0
 11
4726.4188304943664
 21
3908.641369029091
 31
0.0
 12
4721.4188304943646
 22
3909.474702362425
 32
0.0
 13
4721.4188304943646
 23
3909.474702362425
 33
0.0
  0
TEXT
  5
7252
  8
UMCL2
 10
4851.2211659622862
 20
3911.8747023624251
 30
0.0
 40
6.0
  1
26
 41
0.85
 51
15.0
  7
ROMANS
  0
TEXT
  5
7253
  8
UMCL2
 10
4781.2294283800438
 20
3911.8747023624251
 30
0.0
 40
6.0
  1
121.5
 41
0.85
 51
15.0
  7
ROMANS
  0
LINE
  5
7254
  8
UMCL2
 10
4877.8704631680303
 20
3978.1541119064182
 30
0.0
 11
4877.8704631680303
 21
3906.974702362425
 31
0.0
  0
SOLID
  5
7255
  8
UMCL2
 10
4882.8704631680303
 20
3910.308035695758
 30
0.0
 11
4882.8704631680303
 21
3908.641369029091
 31
0.0
 12
4877.8704631680303
 22
3909.474702362425
 32
0.0
 13
4877.8704631680303
 23
3909.474702362425
 33
0.0
  0
TEXT
  5
7256
  8
UMCL2
 10
4883.7810085089423
 20
3911.8747023624251
 30
0.0
 40
6.0
  1
9
 41
0.85
 51
15.0
  7
ROMANS
  0
LINE
  5
7257
  8
UMCL2
 10
5092.6389615083699
 20
3953.474702362425
 30
0.0
 11
5109.6389615083699
 21
3953.474702362425
 31
0.0
  0
LINE
  5
7258
  8
UMCL2
 10
5092.6389615083699
 20
4048.474702362425
 30
0.0
 11
5109.6389615083699
 21
4048.474702362425
 31
0.0
  0
LINE
  5
7259
  8
UMCL2
 10
5107.1389615083699
 20
3923.5289523204651
 30
0.0
 11
5107.1389615083699
 21
4077.724854391764
 31
0.0
  0
SOLID
  5
725A
  8
UMCL2
 10
5106.3056281750369
 20
3958.474702362425
 30
0.0
 11
5107.9722948417048
 21
3958.474702362425
 31
0.0
 12
5107.1389615083699
 22
3953.474702362425
 32
0.0
 13
5107.1389615083699
 23
3953.474702362425
 33
0.0
  0
SOLID
  5
725B
  8
UMCL2
 10
5106.3056281750369
 20
4043.4747023624241
 30
0.0
 11
5107.9722948417048
 21
4043.4747023624241
 31
0.0
 12
5107.1389615083699
 22
4048.474702362425
 32
0.0
 13
5107.1389615083699
 23
4048.474702362425
 33
0.0
  0
TEXT
  5
725C
  8
UMCL2
 10
5104.7389615083703
 20
3995.1264929895892
 30
0.0
 40
6.0
  1
95
 50
90.0
 41
0.85
 51
15.0
  7
ROMANS
  0
LINE
  5
725D
  8
UMCL2
 10
5089.8389615083706
 20
3941.474702362425
 30
0.0
 11
5125.6389615083699
 21
3941.474702362425
 31
0.0
  0
LINE
  5
725E
  8
UMCL2
 10
5089.8389615083706
 20
4060.4747023624259
 30
0.0
 11
5125.6389615083699
 21
4060.4747023624259
 31
0.0
  0
LINE
  5
725F
  8
UMCL2
 10
5123.1389615083699
 20
3941.474702362425
 30
0.0
 11
5123.1389615083699
 21
4111.4760491062534
 31
0.0
  0
SOLID
  5
7260
  8
UMCL2
 10
5122.3056281750369
 20
3946.4747023624241
 30
0.0
 11
5123.9722948417038
 21
3946.4747023624241
 31
0.0
 12
5123.1389615083699
 22
3941.474702362425
 32
0.0
 13
5123.1389615083699
 23
3941.474702362425
 33
0.0
  0
SOLID
  5
7261
  8
UMCL2
 10
5122.3056281750369
 20
4055.474702362425
 30
0.0
 11
5123.9722948417038
 21
4055.474702362425
 31
0.0
 12
5123.1389615083699
 22
4060.4747023624259
 32
0.0
 13
5123.1389615083699
 23
4060.4747023624259
 33
0.0
  0
TEXT
  5
7262
  8
UMCL2
 10
5120.7389615083703
 20
3992.0775922973862
 30
0.0
 40
6.0
  1
119
 50
90.0
 41
0.85
 51
15.0
  7
ROMANS
  0
SOLID
  5
7263
  8
UMCL2
 10
5106.3056281750369
 20
3936.474702362425
 30
0.0
 11
5107.9722948417048
 21
3936.474702362425
 31
0.0
 12
5107.1389615083699
 22
3941.474702362425
 32
0.0
 13
5107.1389615083699
 23
3941.474702362425
 33
0.0
  0
TEXT
  5
7264
  8
UMCL2
 10
5104.7389615083703
 20
3925.4027924933189
 30
0.0
 40
6.0
  1
12
 50
90.0
 41
0.85
 51
15.0
  7
ROMANS
  0
SOLID
  5
7265
  8
UMCL2
 10
5106.3056281750369
 20
4065.4747023624259
 30
0.0
 11
5107.9722948417048
 21
4065.4747023624259
 31
0.0
 12
5107.1389615083699
 22
4060.4747023624259
 32
0.0
 13
5107.1389615083699
 23
4060.4747023624259
 33
0.0
  0
TEXT
  5
7266
  8
UMCL2
 10
5104.7389615083703
 20
4064.3932298550199
 30
0.0
 40
6.0
  1
12
 50
90.0
 41
0.85
 51
15.0
  7
ROMANS
  0
LINE
  5
7267
  8
UMCL2
 10
5089.8389615083706
 20
3941.474702362425
 30
0.0
 11
5141.6389615083699
 21
3941.474702362425
 31
0.0
  0
LINE
  5
7268
  8
UMCL2
 10
5055.1389615083699
 20
4111.4760491062534
 30
0.0
 11
5141.6389615083699
 21
4111.4760491062534
 31
0.0
  0
LINE
  5
7269
  8
UMCL2
 10
5139.1389615083699
 20
3941.474702362425
 30
0.0
 11
5139.1389615083699
 21
4105.2260491062534
 31
0.0
  0
SOLID
  5
726A
  8
UMCL2
 10
5138.3056281750369
 20
3946.474702362425
 30
0.0
 11
5139.9722948417038
 21
3946.474702362425
 31
0.0
 12
5139.1389615083699
 22
3941.474702362425
 32
0.0
 13
5139.1389615083699
 23
3941.474702362425
 33
0.0
  0
SOLID
  5
726B
  8
UMCL2
 10
5138.3056281750369
 20
4106.4760491062534
 30
0.0
 11
5139.9722948417038
 21
4106.4760491062534
 31
0.0
 12
5139.1389615083699
 22
4111.4760491062534
 32
0.0
 13
5139.1389615083699
 23
4111.4760491062534
 33
0.0
  0
TEXT
  5
726C
  8
UMCL2
 10
5136.7389615083703
 20
4017.0639276955771
 30
0.0
 40
6.0
  1
170
 50
90.0
 41
0.85
 51
15.0
  7
ROMANS
  0
SOLID
  5
726D
  8
UMCL2
 10
5122.3056281750369
 20
4065.4747023624259
 30
0.0
 11
5123.9722948417038
 21
4065.4747023624259
 31
0.0
 12
5123.1389615083699
 22
4060.4747023624259
 32
0.0
 13
5123.1389615083699
 23
4060.4747023624259
 33
0.0
  0
SOLID
  5
726E
  8
UMCL2
 10
5122.3056281750369
 20
4106.4760491062534
 30
0.0
 11
5123.9722948417038
 21
4106.4760491062534
 31
0.0
 12
5123.1389615083699
 22
4111.4760491062534
 32
0.0
 13
5123.1389615083699
 23
4111.4760491062534
 33
0.0
  0
TEXT
  5
726F
  8
UMCL2
 10
5120.7389615083703
 20
4080.679096113116
 30
0.0
 40
6.0
  1
51
 50
90.0
 41
0.85
 51
15.0
  7
ROMANS
  0
LINE
  5
7270
  8
UMCL2
 10
4649.40046316803
 20
4063.976049106253
 30
0.0
 11
4609.0392387469128
 21
4063.976049106253
 31
0.0
  0
LINE
  5
7271
  8
UMCL2
 10
4649.40046316803
 20
4108.9760491062534
 30
0.0
 11
4609.0392387469128
 21
4108.9760491062534
 31
0.0
  0
LINE
  5
7272
  8
UMCL2
 10
4611.5392387469128
 20
4063.976049106253
 30
0.0
 11
4611.5392387469128
 21
4137.2964201677778
 31
0.0
  0
SOLID
  5
7273
  8
UMCL2
 10
4610.4975720802468
 20
4070.226049106253
 30
0.0
 11
4612.5809054135798
 21
4070.226049106253
 31
0.0
 12
4611.5392387469128
 22
4063.976049106253
 32
0.0
 13
4611.5392387469128
 23
4063.976049106253
 33
0.0
  0
SOLID
  5
7274
  8
UMCL2
 10
4610.4975720802468
 20
4102.7260491062534
 30
0.0
 11
4612.5809054135798
 21
4102.7260491062534
 31
0.0
 12
4611.5392387469128
 22
4108.9760491062534
 32
0.0
 13
4611.5392387469128
 23
4108.9760491062534
 33
0.0
  0
TEXT
  5
7275
  8
UMCL2
 10
4608.5392387469128
 20
4079.36844600124
 30
0.0
 40
7.5
  1
45
 50
90.0
 41
0.85
 51
15.0
  7
ROMANS
  0
LINE
  5
7276
  8
UMCL2
 10
4649.4004631680309
 20
4061.476049106253
 30
0.0
 11
4589.3392387469139
 21
4061.476049106253
 31
0.0
  0
LINE
  5
7277
  8
UMCL2
 10
4653.4004631680309
 20
4111.4760491062534
 30
0.0
 11
4589.3392387469139
 21
4111.4760491062534
 31
0.0
  0
LINE
  5
7278
  8
UMCL2
 10
4591.8392387469139
 20
4047.3182174915742
 30
0.0
 11
4591.8392387469139
 21
4105.2260491062534
 31
0.0
  0
SOLID
  5
7279
  8
UMCL2
 10
4590.7975720802469
 20
4067.726049106253
 30
0.0
 11
4592.8809054135791
 21
4067.726049106253
 31
0.0
 12
4591.8392387469139
 22
4061.476049106253
 32
0.0
 13
4591.8392387469139
 23
4061.476049106253
 33
0.0
  0
SOLID
  5
727A
  8
UMCL2
 10
4590.7975720802469
 20
4105.2260491062534
 30
0.0
 11
4592.8809054135791
 21
4105.2260491062534
 31
0.0
 12
4591.8392387469139
 22
4111.4760491062534
 32
0.0
 13
4591.8392387469139
 23
4111.4760491062534
 33
0.0
  0
TEXT
  5
727B
  8
UMCL2
 10
4588.839238746913
 20
4079.5515967774941
 30
0.0
 40
7.5
  1
50
 50
90.0
 41
0.85
 51
15.0
  7
ROMANS
  0
LINE
  5
727C
  8
UMCL2
 10
4618.7004631680302
 20
4060.4747023624241
 30
0.0
 11
4589.3392387469139
 21
4060.4747023624241
 31
0.0
  0
SOLID
  5
727D
  8
UMCL2
 10
4590.7975720802469
 20
4054.2247023624241
 30
0.0
 11
4592.8809054135791
 21
4054.2247023624241
 31
0.0
 12
4591.8392387469139
 22
4060.4747023624241
 32
0.0
 13
4591.8392387469139
 23
4060.4747023624241
 33
0.0
  0
TEXT
  5
727E
  8
UMCL2
 10
4588.839238746913
 20
4047.562432704096
 30
0.0
 40
7.5
  1
1
 50
90.0
 41
0.85
 51
15.0
  7
ROMANS
  0
SOLID
  5
727F
  8
UMCL2
 10
4610.4975720802468
 20
4117.7260491062534
 30
0.0
 11
4612.5809054135798
 21
4117.7260491062534
 31
0.0
 12
4611.5392387469128
 22
4111.4760491062534
 32
0.0
 13
4611.5392387469128
 23
4111.4760491062534
 33
0.0
  0
TEXT
  5
7280
  8
UMCL2
 10
4608.5392387469128
 20
4119.1324319542182
 30
0.0
 40
7.5
  1
2.5
 50
90.0
 41
0.85
 51
15.0
  7
ROMANS
  0
LINE
  5
7281
  8
UMCL2
 10
5057.4643665380272
 20
4076.795062949438
 30
0.0
 11
5010.6541248034373
 21
4076.795062949438
 31
0.0
  0
LINE
  5
7282
  8
UMCL2
 10
4651.90046316803
 20
4111.4760491062534
 30
0.0
 11
4651.90046316803
 21
4129.9760491062534
 31
0.0
  0
LINE
  5
7283
  8
UMCL2
 10
4682.90046316803
 20
4112.9760491062534
 30
0.0
 11
4682.90046316803
 21
4129.9760491062534
 31
0.0
  0
LINE
  5
7284
  8
UMCL2
 10
4658.15046316803
 20
4127.4760491062534
 30
0.0
 11
4676.6504631680291
 21
4127.4760491062534
 31
0.0
  0
SOLID
  5
7285
  8
UMCL2
 10
4658.15046316803
 20
4128.5177157729186
 30
0.0
 11
4658.15046316803
 21
4126.4343824395864
 31
0.0
 12
4651.90046316803
 22
4127.4760491062534
 32
0.0
 13
4651.90046316803
 23
4127.4760491062534
 33
0.0
  0
SOLID
  5
7286
  8
UMCL2
 10
4676.6504631680291
 20
4128.5177157729186
 30
0.0
 11
4676.6504631680291
 21
4126.4343824395864
 31
0.0
 12
4682.90046316803
 22
4127.4760491062534
 32
0.0
 13
4682.90046316803
 23
4127.4760491062534
 33
0.0
  0
TEXT
  5
7287
  8
UMCL2
 10
4662.3149303379187
 20
4129.876049106253
 30
0.0
 40
6.0
  1
31
 41
0.85
 51
15.0
  7
ROMANS
  0
LINE
  5
7288
  8
UMCL2
 10
4716.90046316803
 20
4062.6747023624239
 30
0.0
 11
4716.90046316803
 21
4145.9760491062534
 31
0.0
  0
LINE
  5
7289
  8
UMCL2
 10
4620.9004631680291
 20
4062.674702362423
 30
0.0
 11
4620.9004631680291
 21
4145.9760491062534
 31
0.0
  0
LINE
  5
728A
  8
UMCL2
 10
4716.90046316803
 20
4143.4760491062534
 30
0.0
 11
4620.9004631680291
 21
4143.4760491062534
 31
0.0
  0
SOLID
  5
728B
  8
UMCL2
 10
4711.9004631680309
 20
4144.3093824395864
 30
0.0
 11
4711.9004631680309
 21
4142.6427157729186
 31
0.0
 12
4716.90046316803
 22
4143.4760491062534
 32
0.0
 13
4716.90046316803
 23
4143.4760491062534
 33
0.0
  0
SOLID
  5
728C
  8
UMCL2
 10
4625.9004631680291
 20
4144.3093824395864
 30
0.0
 11
4625.9004631680291
 21
4142.6427157729186
 31
0.0
 12
4620.9004631680291
 22
4143.4760491062534
 32
0.0
 13
4620.9004631680291
 23
4143.4760491062534
 33
0.0
  0
TEXT
  5
728D
  8
UMCL2
 10
4660.9257366732072
 20
4145.876049106253
 30
0.0
 40
6.0
  1
\U+220596
 41
0.85
 51
15.0
  7
ROMANS
  0
LINE
  5
728E
  8
UMCL2
 10
5053.6389615083699
 20
4112.9760491062534
 30
0.0
 11
5053.6389615083699
 21
4129.9760491062534
 31
0.0
  0
LINE
  5
728F
  8
UMCL2
 10
5025.6389615083708
 20
4112.9760491062534
 30
0.0
 11
5025.6389615083708
 21
4129.9760491062534
 31
0.0
  0
LINE
  5
7290
  8
UMCL2
 10
5053.6389615083699
 20
4127.4760491062534
 30
0.0
 11
5025.6389615083708
 21
4127.4760491062534
 31
0.0
  0
SOLID
  5
7291
  8
UMCL2
 10
5048.6389615083699
 20
4128.3093824395883
 30
0.0
 11
5048.6389615083699
 21
4126.6427157729204
 31
0.0
 12
5053.6389615083699
 22
4127.4760491062534
 32
0.0
 13
5053.6389615083699
 23
4127.4760491062534
 33
0.0
  0
SOLID
  5
7292
  8
UMCL2
 10
5030.6389615083708
 20
4128.3093824395883
 30
0.0
 11
5030.6389615083708
 21
4126.6427157729204
 31
0.0
 12
5025.6389615083708
 22
4127.4760491062534
 32
0.0
 13
5025.6389615083708
 23
4127.4760491062534
 33
0.0
  0
TEXT
  5
7293
  8
UMCL2
 10
5031.664235013548
 20
4129.876049106253
 30
0.0
 40
6.0
  1
\U+220528
 41
0.85
 51
15.0
  7
ROMANS
  0
LINE
  5
7294
  8
UMCL2
 10
5091.1389615083699
 20
3951.974702362425
 30
0.0
 11
5091.1389615083699
 21
3906.974702362425
 31
0.0
  0
LINE
  5
7295
  8
UMCL2
 10
4956.1389615083708
 20
3951.9747023624259
 30
0.0
 11
4956.138961508369
 21
3906.974702362425
 31
0.0
  0
LINE
  5
7296
  8
UMCL2
 10
5091.1389615083699
 20
3909.474702362425
 30
0.0
 11
4956.138961508369
 21
3909.474702362425
 31
0.0
  0
SOLID
  5
7297
  8
UMCL2
 10
5086.1389615083699
 20
3910.308035695758
 30
0.0
 11
5086.1389615083699
 21
3908.641369029091
 31
0.0
 12
5091.1389615083699
 22
3909.474702362425
 32
0.0
 13
5091.1389615083699
 23
3909.474702362425
 33
0.0
  0
SOLID
  5
7298
  8
UMCL2
 10
4961.1389615083699
 20
3910.308035695758
 30
0.0
 11
4961.1389615083699
 21
3908.641369029091
 31
0.0
 12
4956.138961508369
 22
3909.474702362425
 32
0.0
 13
4956.138961508369
 23
3909.474702362425
 33
0.0
  0
TEXT
  5
7299
  8
UMCL2
 10
5014.8208282167907
 20
3911.8747023624251
 30
0.0
 40
6.0
  1
135
 41
0.85
 51
15.0
  7
ROMANS
  0
LINE
  5
729A
  8
UMCL2
 10
5039.6389615083699
 20
3935.9747023624241
 30
0.0
 11
5039.6389615083699
 21
3922.9747023624241
 31
0.0
  0
LINE
  5
729B
  8
UMCL2
 10
5003.6389615083699
 20
3925.4747023624241
 30
0.0
 11
5091.1389615083699
 21
3925.4747023624241
 31
0.0
  0
SOLID
  5
729C
  8
UMCL2
 10
5034.6389615083699
 20
3926.308035695758
 30
0.0
 11
5034.6389615083699
 21
3924.641369029091
 31
0.0
 12
5039.6389615083699
 22
3925.4747023624241
 32
0.0
 13
5039.6389615083699
 23
3925.4747023624241
 33
0.0
  0
TEXT
  5
729D
  8
UMCL2
 10
5016.3669548184434
 20
3927.8747023624242
 30
0.0
 40
6.0
  1
36
 41
0.85
 51
15.0
  7
ROMANS
  0
TEXT
  5
729E
  8
UMCL2
 10
5012.9378437783316
 20
4078.9094222763879
 30
0.0
 40
6.0
  1
8
 41
0.85
 51
15.0
  7
ROMANS
  0
SOLID
  5
729F
  8
UMCL2
 10
5030.6389615083708
 20
4077.6283962827711
 30
0.0
 11
5030.6389615083708
 21
4075.961729616105
 31
0.0
 12
5035.6389615083708
 22
4076.795062949438
 32
0.0
 13
5035.6389615083708
 23
4076.795062949438
 33
0.0
  0
SOLID
  5
72A0
  8
UMCL2
 10
5048.6389615083708
 20
4077.6283962827711
 30
0.0
 11
5048.6389615083708
 21
4075.961729616105
 31
0.0
 12
5043.6389615083708
 22
4076.795062949438
 32
0.0
 13
5043.6389615083708
 23
4076.795062949438
 33
0.0
  0
LINE
  5
72A1
  8
UMCL2
 10
4627.8704631680303
 20
4334.6695894512577
 30
0.0
 11
4627.8704631680303
 21
4349.1695894512586
 31
0.0
  0
LINE
  5
72A2
  8
UMCL2
 10
4709.8704631680303
 20
4334.6695894512604
 30
0.0
 11
4709.8704631680303
 21
4349.1695894512586
 31
0.0
  0
LINE
  5
72A3
  8
UMCL2
 10
4627.8704631680303
 20
4346.6695894512577
 30
0.0
 11
4709.8704631680303
 21
4346.6695894512577
 31
0.0
  0
SOLID
  5
72A4
  8
UMCL2
 10
4632.8704631680303
 20
4347.5029227845926
 30
0.0
 11
4632.8704631680303
 21
4345.8362561179256
 31
0.0
 12
4627.8704631680303
 22
4346.6695894512577
 32
0.0
 13
4627.8704631680303
 23
4346.6695894512577
 33
0.0
  0
SOLID
  5
72A5
  8
UMCL2
 10
4704.8704631680303
 20
4347.5029227845926
 30
0.0
 11
4704.8704631680303
 21
4345.8362561179256
 31
0.0
 12
4709.8704631680303
 22
4346.6695894512577
 32
0.0
 13
4709.8704631680303
 23
4346.6695894512577
 33
0.0
  0
TEXT
  5
72A6
  8
UMCL2
 10
4663.3309013050221
 20
4349.0695894512592
 30
0.0
 40
6.0
  1
82
 41
0.85
 51
15.0
  7
ROMANS
  0
LINE
  5
72A7
  8
UMCL2
 10
4658.1816589157534
 20
4354.5359202979289
 30
0.0
 11
4663.0089718661029
 21
4354.5359202979289
 31
0.0
  0
LINE
  5
72A8
  8
UMCL2
 10
4663.0089718661029
 20
4354.5359202979289
 30
0.0
 11
4663.0089718661029
 21
4349.6743535477262
 31
0.0
  0
LINE
  5
72A9
  8
UMCL2
 10
4663.0089718661029
 20
4349.6743535477262
 30
0.0
 11
4658.1816589157534
 21
4349.6743535477262
 31
0.0
  0
LINE
  5
72AA
  8
UMCL2
 10
4658.1816589157534
 20
4349.6743535477262
 30
0.0
 11
4658.1816589157534
 21
4354.5359202979289
 31
0.0
  0
LINE
  5
72AB
  8
UMCL2
 10
4720.4061143657782
 20
4160.0725282248732
 30
0.0
 11
4668.9004631680309
 21
4111.4760491062534
 31
0.0
  0
SOLID
  5
72AC
  8
UMCL2
 10
4671.9653222004908
 20
4115.5135091438979
 30
0.0
 11
4673.109100643378
 21
4114.3012597259303
 31
0.0
 12
4668.9004631680291
 22
4111.4760491062534
 32
0.0
 13
4668.9004631680291
 23
4111.4760491062534
 33
0.0
  0
LINE
  5
72AD
  8
UMCL2
 10
4734.6633863573743
 20
4344.9625126406054
 30
0.0
 11
4713.4059970739627
 21
4323.705123357192
 31
0.0
  0
SOLID
  5
72AE
  8
UMCL2
 10
4716.3522753289071
 20
4327.8299129141133
 30
0.0
 11
4717.530786630884
 21
4326.6514016121346
 31
0.0
 12
4713.4059970739627
 22
4323.705123357192
 32
0.0
 13
4713.4059970739627
 23
4323.705123357192
 33
0.0
  0
TEXT
  5
72AF
  8
UMCL2
 10
4737.953991436244
 20
4348.362512640605
 30
0.0
 40
6.0
  1
2x4-M10x20dp
 41
0.85
 51
15.0
  7
ROMANS
  0
LINE
  5
72B0
  8
UMCL2
 10
4734.6633863573743
 20
4344.9625126406054
 30
0.0
 11
4795.4459333704508
 21
4344.9625126406054
 31
0.0
  0
LINE
  5
72B1
  8
UMCL2
 10
4720.4061143657782
 20
4160.0725282248732
 30
0.0
 11
4759.9284844428385
 21
4160.0725282248732
 31
0.0
  0
TEXT
  5
72B2
  8
UMCL2
 10
4723.0071568533513
 20
4163.4725282248728
 30
0.0
 40
6.0
  1
M8x15dp
 41
0.85
 51
15.0
  7
ROMANS
  0
LINE
  5
72B3
  8
UMCL2
 10
4811.4792847106173
 20
4060.9451891658432
 30
0.0
 11
4852.8366757193689
 21
4007.6193572380012
 31
0.0
  0
SOLID
  5
72B4
  8
UMCL2
 10
4850.4309354298221
 20
4012.0810674598451
 30
0.0
 11
4849.1139342924434
 21
4011.0596538404329
 31
0.0
 12
4852.8366757193689
 22
4007.6193572380012
 32
0.0
 13
4852.8366757193689
 23
4007.6193572380012
 33
0.0
  0
LINE
  5
72B5
  8
UMCL2
 10
4769.3222214370853
 20
4060.9451891658432
 30
0.0
 11
4811.4792847106173
 21
4060.9451891658432
 31
0.0
  0
TEXT
  5
72B6
  8
UMCL2
 10
4770.4018210151653
 20
4063.5174950107271
 30
0.0
 40
6.0
  1
2-PT 3/8
 41
0.85
 51
15.0
  7
ROMANS
  0
SOLID
  5
72B7
  8
UMCL2
 10
4873.5809039195801
 20
4025.9477060688801
 30
0.0
 11
4875.0807675333917
 21
4025.2209413767391
 31
0.0
 12
4872.1505416500631
 22
4021.0847328813761
 32
0.0
 13
4872.1505416500631
 23
4021.0847328813761
 33
0.0
  0
LINE
  5
72B8
  8
UMCL2
 10
4891.4299145164587
 20
4060.8726176975988
 30
0.0
 11
4872.1505416500631
 21
4021.0847328813761
 31
0.0
  0
LINE
  5
72B9
  8
UMCL2
 10
4891.4299145164587
 20
4060.8726176975988
 30
0.0
 11
4948.7093467003569
 21
4060.8726176975988
 31
0.0
  0
TEXT
  5
72BA
  8
UMCL2
 10
4893.0829864994721
 20
4063.2726176975989
 30
0.0
 40
6.0
  1
2x4-M6x1.0P
 41
0.85
 51
15.0
  7
ROMANS
  0
ARC
  5
72BB
  8
UMCL1
 62
     2
 10
4857.8704631680303
 20
4000.9747023624241
 30
0.0
 40
8.3000000000000007
 50
60.39031413144783
 51
12.810391258673279
  0
CIRCLE
  5
72BC
  8
UMCL1
 10
4857.8704631680303
 20
4000.9747023624241
 30
0.0
 40
7.5
  0
LINE
  5
72BD
  8
UMCL2
 10
4974.1389615083708
 20
3982.474702362425
 30
0.0
 11
4925.1389615083708
 21
3982.474702362425
 31
0.0
  0
LINE
  5
72BE
  8
UMCL2
 10
4974.1389615083708
 20
4019.474702362425
 30
0.0
 11
4925.1389615083708
 21
4019.474702362425
 31
0.0
  0
LINE
  5
72BF
  8
UMCL2
 10
4976.6389615083708
 20
4025.974702362425
 30
0.0
 11
4908.6522559227169
 21
4025.974702362425
 31
0.0
  0
LINE
  5
72C0
  8
UMCL2
 10
4976.6389615083708
 20
3975.974702362425
 30
0.0
 11
4908.6522559227169
 21
3975.974702362425
 31
0.0
  0
LINE
  5
72C1
  8
UMCL2
 10
4927.6389615083708
 20
4019.474702362425
 30
0.0
 11
4927.6389615083708
 21
3982.474702362425
 31
0.0
  0
LINE
  5
72C2
  8
UMCL2
 10
4911.1522559227169
 20
4025.974702362425
 30
0.0
 11
4911.1522559227169
 21
3975.974702362425
 31
0.0
  0
LINE
  5
72C3
  8
UMCL2
 10
4919.7726306616996
 20
3989.0686268389172
 30
0.0
 11
4919.7726306616996
 21
3993.8959397892659
 31
0.0
  0
LINE
  5
72C4
  8
UMCL2
 10
4919.7726306616996
 20
3993.8959397892659
 30
0.0
 11
4924.6341974119041
 21
3993.8959397892659
 31
0.0
  0
LINE
  5
72C5
  8
UMCL2
 10
4924.6341974119041
 20
3993.8959397892659
 30
0.0
 11
4924.6341974119041
 21
3989.0686268389172
 31
0.0
  0
LINE
  5
72C6
  8
UMCL2
 10
4924.6341974119041
 20
3989.0686268389172
 30
0.0
 11
4919.7726306616996
 21
3989.0686268389172
 31
0.0
  0
TEXT
  5
72C7
  8
UMCL2
 10
4925.2389615083703
 20
3995.1605981037428
 30
0.0
 40
6.0
  1
37
 50
90.0
 41
0.85
 51
15.0
  7
ROMANS
  0
SOLID
  5
72C8
  8
UMCL2
 10
4911.9855892560499
 20
4020.974702362425
 30
0.0
 11
4910.3189225893839
 21
4020.974702362425
 31
0.0
 12
4911.1522559227178
 22
4025.974702362425
 32
0.0
 13
4911.1522559227178
 23
4025.974702362425
 33
0.0
  0
SOLID
  5
72C9
  8
UMCL2
 10
4928.4722948417038
 20
4014.4747023624241
 30
0.0
 11
4926.8056281750378
 21
4014.4747023624241
 31
0.0
 12
4927.6389615083708
 22
4019.474702362425
 32
0.0
 13
4927.6389615083708
 23
4019.474702362425
 33
0.0
  0
LINE
  5
72CA
  8
UMCL2
 10
4903.2859250760466
 20
3989.0686268389172
 30
0.0
 11
4903.2859250760466
 21
3993.8959397892659
 31
0.0
  0
LINE
  5
72CB
  8
UMCL2
 10
4903.2859250760466
 20
3993.8959397892659
 30
0.0
 11
4908.1474918262502
 21
3993.8959397892659
 31
0.0
  0
LINE
  5
72CC
  8
UMCL2
 10
4908.1474918262502
 20
3993.8959397892659
 30
0.0
 11
4908.1474918262502
 21
3989.0686268389172
 31
0.0
  0
LINE
  5
72CD
  8
UMCL2
 10
4908.1474918262502
 20
3989.0686268389172
 30
0.0
 11
4903.2859250760466
 21
3989.0686268389172
 31
0.0
  0
TEXT
  5
72CE
  8
UMCL2
 10
4908.7522559227173
 20
3995.4351404994168
 30
0.0
 40
6.0
  1
50
 50
90.0
 41
0.85
 51
15.0
  7
ROMANS
  0
SOLID
  5
72CF
  8
UMCL2
 10
4928.4722948417038
 20
3987.474702362425
 30
0.0
 11
4926.8056281750378
 21
3987.474702362425
 31
0.0
 12
4927.6389615083708
 22
3982.474702362425
 32
0.0
 13
4927.6389615083708
 23
3982.474702362425
 33
0.0
  0
SOLID
  5
72D0
  8
UMCL2
 10
4911.9855892560508
 20
3980.974702362425
 30
0.0
 11
4910.3189225893839
 21
3980.974702362425
 31
0.0
 12
4911.1522559227178
 22
3975.974702362425
 32
0.0
 13
4911.1522559227178
 23
3975.974702362425
 33
0.0
  0
TEXT
  5
72D1
  8
UMCL2
 10
5057.5626642490843
 20
3927.8747023624242
 30
0.0
 40
6.0
  1
51.5
 41
0.85
 51
15.0
  7
ROMANS
  0
SOLID
  5
72D2
  8
UMCL2
 10
5044.6389615083708
 20
3926.308035695758
 30
0.0
 11
5044.6389615083708
 21
3924.641369029091
 31
0.0
 12
5039.6389615083699
 22
3925.4747023624241
 32
0.0
 13
5039.6389615083699
 23
3925.4747023624241
 33
0.0
  0
SOLID
  5
72D3
  8
UMCL2
 10
5086.1389615083708
 20
3926.308035695758
 30
0.0
 11
5086.1389615083708
 21
3924.641369029091
 31
0.0
 12
5091.1389615083699
 22
3925.4747023624241
 32
0.0
 13
5091.1389615083699
 23
3925.4747023624241
 33
0.0
  0
LINE
  5
72D4
  8
UMCL2
 10
5003.6389615083699
 20
3935.974702362425
 30
0.0
 11
5003.6389615083699
 21
3922.9747023624241
 31
0.0
  0
SOLID
  5
72D5
  8
UMCL2
 10
5008.6389615083708
 20
3926.308035695758
 30
0.0
 11
5008.6389615083708
 21
3924.641369029091
 31
0.0
 12
5003.6389615083708
 22
3925.4747023624241
 32
0.0
 13
5003.6389615083708
 23
3925.4747023624241
 33
0.0
  0
LINE
  5
72D6
  8
CEN
 10
4974.3325772597764
 20
3977.9747023624232
 30
0.0
 11
4938.3325772597746
 21
3977.9747023624232
 31
0.0
  0
ARC
  5
72D7
  8
UMCL1
 10
4959.8586453983498
 20
3982.7247023624232
 30
0.0
 40
13.719683889978979
 50
159.74384199958249
 51
200.25615800041751
  0
ARC
  5
72D8
  8
UMCL1
 10
4942.4192776183918
 20
3982.7247023624232
 30
0.0
 40
13.71968388997902
 50
339.74384199958251
 51
20.256158000417489
  0
LINE
  5
72D9
  8
HIDDEN
 10
4948.6389615083708
 20
3981.4388039775608
 30
0.0
 11
4949.438961508371
 21
3977.9747023624232
 31
0.0
  0
LINE
  5
72DA
  8
HIDDEN
 10
4948.6389615083708
 20
3974.5106007472859
 30
0.0
 11
4948.6389615083708
 21
3981.4388039775608
 31
0.0
  0
LINE
  5
72DB
  8
UMCL1
 10
4944.6389615083708
 20
3971.9747023624232
 30
0.0
 11
4944.6389615083708
 21
3983.9747023624241
 31
0.0
  0
LINE
  5
72DC
  8
UMCL1
 10
4943.6389615083708
 20
3972.9747023624241
 30
0.0
 11
4943.6389615083708
 21
3982.9747023624232
 31
0.0
  0
LINE
  5
72DD
  8
UMCL1
 10
4946.1389615083708
 20
3987.4747023624232
 30
0.0
 11
4946.1389615083708
 21
3968.4747023624232
 31
0.0
  0
LINE
  5
72DE
  8
UMCL1
 10
4956.1389615083708
 20
3987.4747023624232
 30
0.0
 11
4946.1389615083708
 21
3987.4747023624232
 31
0.0
  0
LINE
  5
72DF
  8
HIDDEN
 10
4948.6389615083708
 20
3981.4388039775608
 30
0.0
 11
4943.6389615083708
 21
3981.4388039775608
 31
0.0
  0
LINE
  5
72E0
  8
UMCL1
 10
4943.6389615083708
 20
3982.9747023624232
 30
0.0
 11
4944.6389615083708
 21
3983.9747023624241
 31
0.0
  0
LINE
  5
72E1
  8
UMCL1
 10
4946.1389615083708
 20
3983.9747023624241
 30
0.0
 11
4944.6389615083708
 21
3983.9747023624241
 31
0.0
  0
LINE
  5
72E2
  8
UMCL1
 10
4946.1389615083708
 20
3983.2247023624241
 30
0.0
 11
4943.8889615083699
 21
3983.2247023624241
 31
0.0
  0
LINE
  5
72E3
  8
UMCL1
 10
4956.1389615083708
 20
3968.4747023624232
 30
0.0
 11
4946.1389615083708
 21
3968.4747023624232
 31
0.0
  0
ARC
  5
72E4
  8
UMCL1
 10
4959.8586453983498
 20
3973.2247023624232
 30
0.0
 40
13.719683889978979
 50
159.74384199958249
 51
200.25615800041751
  0
LINE
  5
72E5
  8
HIDDEN
 10
4948.6389615083708
 20
3974.5106007472859
 30
0.0
 11
4943.6389615083708
 21
3974.5106007472859
 31
0.0
  0
LINE
  5
72E6
  8
HIDDEN
 10
4948.6389615083708
 20
3976.2426515548541
 30
0.0
 11
4943.6389615083708
 21
3976.2426515548541
 31
0.0
  0
LINE
  5
72E7
  8
HIDDEN
 10
4948.6389615083708
 20
3979.7067531699922
 30
0.0
 11
4943.6389615083708
 21
3979.7067531699922
 31
0.0
  0
LINE
  5
72E8
  8
UMCL1
 10
4943.6389615083708
 20
3972.9747023624241
 30
0.0
 11
4944.6389615083708
 21
3971.9747023624232
 31
0.0
  0
LINE
  5
72E9
  8
UMCL1
 10
4946.1389615083708
 20
3972.7247023624232
 30
0.0
 11
4943.8889615083699
 21
3972.7247023624232
 31
0.0
  0
LINE
  5
72EA
  8
UMCL1
 10
4946.1389615083708
 20
3971.9747023624232
 30
0.0
 11
4944.6389615083708
 21
3971.9747023624232
 31
0.0
  0
ARC
  5
72EB
  8
UMCL1
 10
4942.4192776183918
 20
3973.2247023624232
 30
0.0
 40
13.71968388997902
 50
339.74384199958251
 51
20.256158000417489
  0
LINE
  5
72EC
  8
UMCL1
 10
4955.2904557323382
 20
3977.9747023624232
 30
0.0
 11
4946.9874672844026
 21
3977.9747023624232
 31
0.0
  0
LINE
  5
72ED
  8
HIDDEN
 10
4948.6389615083708
 20
3974.5106007472859
 30
0.0
 11
4949.438961508371
 21
3977.9747023624232
 31
0.0
  0
LINE
  5
72EE
  8
UMCL1
  6
CONTINUOUS
 10
4978.6389615083699
 20
3975.974702362425
 30
0.0
 11
5028.6389615083699
 21
3975.974702362425
 31
0.0
  0
LINE
  5
72EF
  8
UMCL1
  6
CONTINUOUS
 10
4978.6389615083699
 20
4025.9747023624241
 30
0.0
 11
5028.6389615083699
 21
4025.9747023624241
 31
0.0
  0
LINE
  5
72F0
  8
UMCL1
  6
CONTINUOUS
 10
4978.6389615083699
 20
4025.9747023624241
 30
0.0
 11
4978.6389615083699
 21
3975.974702362425
 31
0.0
  0
LINE
  5
72F1
  8
UMCL1
  6
CONTINUOUS
 10
5028.6389615083699
 20
4025.9747023624241
 30
0.0
 11
5028.6389615083699
 21
3975.974702362425
 31
0.0
  0
LINE
  5
72F2
  8
HIDDEN
 10
4987.8047927899324
 20
4009.3747023624251
 30
0.0
 11
4987.8047927899324
 21
3992.5747023624249
 31
0.0
  0
LINE
  5
72F3
  8
HIDDEN
 10
4978.6389615083699
 20
3992.0943414996759
 30
0.0
 11
4987.8047927899324
 21
3992.5747023624249
 31
0.0
  0
LINE
  5
72F4
  8
HIDDEN
 10
4978.6389615083699
 20
3992.9943414996751
 30
0.0
 11
4987.8047927899324
 21
3993.474702362425
 31
0.0
  0
LINE
  5
72F5
  8
HIDDEN
 10
4978.6389615083699
 20
4009.855063225174
 30
0.0
 11
4987.8047927899324
 21
4009.3747023624251
 31
0.0
  0
LINE
  5
72F6
  8
HIDDEN
 10
4978.6389615083699
 20
4008.9550632251749
 30
0.0
 11
4987.8047927899324
 21
4008.474702362425
 31
0.0
  0
LINE
  5
72F7
  8
CEN
 10
4725.7528640833953
 20
4279.1695894512577
 30
0.0
 11
4612.3704631680303
 21
4279.1695894512577
 31
0.0
  0
LINE
  5
72F8
  8
CEN
 10
4464.8704631680303
 20
4243.1695894512577
 30
0.0
 11
4616.3704631680303
 21
4243.1695894512577
 31
0.0
  0
ARC
  5
72F9
  8
UMCL1
 10
4693.8704631680303
 20
4177.5180952272922
 30
0.0
 40
18.151494223967038
 50
72.412046226011483
 51
107.5879537739885
  0
LINE
  5
72FA
  8
UMCL1
 10
4684.3704631680303
 20
4185.6695894512586
 30
0.0
 11
4703.3704631680303
 21
4185.6695894512586
 31
0.0
  0
ARC
  5
72FB
  8
UMCL1
 10
4693.8704631680303
 20
4203.821083675226
 30
0.0
 40
18.151494223967038
 50
252.41204622601151
 51
287.58795377398849
  0
LINE
  5
72FC
  8
UMCL1
 10
4698.8704631680303
 20
4183.1695894512577
 30
0.0
 11
4688.8704631680303
 21
4183.1695894512577
 31
0.0
  0
LINE
  5
72FD
  8
HIDDEN
 10
4697.3345647831684
 20
4188.1695894512577
 30
0.0
 11
4690.4063615528912
 21
4188.1695894512577
 31
0.0
  0
LINE
  5
72FE
  8
HIDDEN
 10
4690.4063615528912
 20
4188.1695894512577
 30
0.0
 11
4693.8704631680303
 21
4188.9695894512588
 31
0.0
  0
LINE
  5
72FF
  8
UMCL1
 10
4699.8704631680303
 20
4184.1695894512586
 30
0.0
 11
4687.8704631680303
 21
4184.1695894512586
 31
0.0
  0
LINE
  5
7300
  8
UMCL1
 10
4720.3704631680303
 20
4195.6695894512586
 30
0.0
 11
4617.3704631680303
 21
4195.6695894512586
 31
0.0
  0
LINE
  5
7301
  8
UMCL1
 10
4649.8704631680303
 20
4184.1695894512586
 30
0.0
 11
4637.8704631680303
 21
4184.1695894512586
 31
0.0
  0
LINE
  5
7302
  8
UMCL1
 10
4648.8704631680303
 20
4183.1695894512577
 30
0.0
 11
4638.8704631680303
 21
4183.1695894512577
 31
0.0
  0
ARC
  5
7303
  8
UMCL1
 10
4643.8704631680303
 20
4203.821083675226
 30
0.0
 40
18.151494223967038
 50
252.41204622601151
 51
287.58795377398849
  0
LINE
  5
7304
  8
UMCL1
 10
4634.3704631680303
 20
4185.6695894512586
 30
0.0
 11
4653.3704631680293
 21
4185.6695894512586
 31
0.0
  0
LINE
  5
7305
  8
HIDDEN
 10
4640.406361552893
 20
4188.1695894512577
 30
0.0
 11
4643.8704631680303
 21
4188.9695894512588
 31
0.0
  0
LINE
  5
7306
  8
HIDDEN
 10
4647.3345647831684
 20
4188.1695894512577
 30
0.0
 11
4640.406361552893
 21
4188.1695894512577
 31
0.0
  0
ARC
  5
7307
  8
UMCL1
 10
4643.8704631680303
 20
4177.5180952272922
 30
0.0
 40
18.151494223967038
 50
72.412046226011483
 51
107.5879537739885
  0
LINE
  5
7308
  8
UMCL1
 10
4617.3704631680303
 20
4195.6695894512586
 30
0.0
 11
4616.3704631680303
 21
4196.6695894512586
 31
0.0
  0
LINE
  5
7309
  8
HIDDEN
 10
4642.1384123604621
 20
4188.1695894512577
 30
0.0
 11
4642.1384123604621
 21
4183.1695894512577
 31
0.0
  0
LINE
  5
730A
  8
UMCL1
 10
4632.9008080534268
 20
4186.5180952272904
 30
0.0
 11
4634.3704631680303
 21
4185.6695894512586
 31
0.0
  0
ARC
  5
730B
  8
UMCL1
 10
4635.6432218320779
 20
4190.5256526732628
 30
0.0
 40
4.8560632220039688
 50
235.6157525319469
 51
304.3842474680531
  0
LINE
  5
730C
  8
HIDDEN
 10
4640.406361552893
 20
4188.1695894512577
 30
0.0
 11
4640.406361552893
 21
4183.1695894512577
 31
0.0
  0
LINE
  5
730D
  8
UMCL1
 10
4638.8704631680303
 20
4183.1695894512577
 30
0.0
 11
4637.8704631680303
 21
4184.1695894512586
 31
0.0
  0
LINE
  5
730E
  8
UMCL1
 10
4637.8704631680312
 20
4185.6695894512586
 30
0.0
 11
4637.8704631680312
 21
4184.1695894512586
 31
0.0
  0
LINE
  5
730F
  8
UMCL1
 10
4638.6204631680303
 20
4185.6695894512586
 30
0.0
 11
4638.6204631680303
 21
4183.4195894512586
 31
0.0
  0
LINE
  5
7310
  8
UMCL1
 10
4632.9008080534268
 20
4194.821083675226
 30
0.0
 11
4634.3704631680303
 21
4195.6695894512586
 31
0.0
  0
ARC
  5
7311
  8
UMCL1
 10
4635.6432218320779
 20
4190.8135262292553
 30
0.0
 40
4.8560632220039688
 50
55.61575253194686
 51
124.3842474680531
  0
LINE
  5
7312
  8
UMCL1
 10
4638.3856356107281
 20
4194.821083675226
 30
0.0
 11
4638.3856356107281
 21
4186.5180952272904
 31
0.0
  0
LINE
  5
7313
  8
UMCL1
 10
4632.9008080534268
 20
4194.821083675226
 30
0.0
 11
4632.9008080534268
 21
4186.5180952272904
 31
0.0
  0
LINE
  5
7314
  8
CEN
 10
4643.8704631680303
 20
4178.4284265091737
 30
0.0
 11
4643.8704631680303
 21
4215.644484866074
 31
0.0
  0
LINE
  5
7315
  8
UMCL1
 10
4654.8401182826337
 20
4186.5180952272904
 30
0.0
 11
4653.3704631680293
 21
4185.6695894512586
 31
0.0
  0
LINE
  5
7316
  8
HIDDEN
 10
4647.3345647831684
 20
4188.1695894512577
 30
0.0
 11
4647.3345647831684
 21
4183.1695894512577
 31
0.0
  0
LINE
  5
7317
  8
HIDDEN
 10
4645.6025139755993
 20
4188.1695894512577
 30
0.0
 11
4645.6025139755993
 21
4183.1695894512577
 31
0.0
  0
ARC
  5
7318
  8
UMCL1
 10
4652.0977045039817
 20
4190.5256526732628
 30
0.0
 40
4.8560632220039688
 50
235.6157525319469
 51
304.3842474680531
  0
LINE
  5
7319
  8
UMCL1
 10
4648.8704631680303
 20
4183.1695894512577
 30
0.0
 11
4649.8704631680303
 21
4184.1695894512586
 31
0.0
  0
LINE
  5
731A
  8
UMCL1
 10
4649.1204631680303
 20
4185.6695894512586
 30
0.0
 11
4649.1204631680303
 21
4183.4195894512586
 31
0.0
  0
LINE
  5
731B
  8
UMCL1
 10
4649.8704631680303
 20
4185.6695894512586
 30
0.0
 11
4649.8704631680303
 21
4184.1695894512586
 31
0.0
  0
LINE
  5
731C
  8
UMCL1
 10
4654.8401182826337
 20
4194.821083675226
 30
0.0
 11
4653.3704631680293
 21
4195.6695894512586
 31
0.0
  0
ARC
  5
731D
  8
UMCL1
 10
4652.0977045039817
 20
4190.8135262292553
 30
0.0
 40
4.8560632220039688
 50
55.61575253194686
 51
124.3842474680531
  0
LINE
  5
731E
  8
HIDDEN
 10
4647.3345647831684
 20
4188.1695894512577
 30
0.0
 11
4643.8704631680303
 21
4188.9695894512588
 31
0.0
  0
LINE
  5
731F
  8
UMCL1
 10
4654.8401182826337
 20
4194.821083675226
 30
0.0
 11
4654.8401182826337
 21
4186.5180952272904
 31
0.0
  0
LINE
  5
7320
  8
UMCL1
 10
4649.3552907253325
 20
4194.821083675226
 30
0.0
 11
4649.3552907253325
 21
4186.5180952272904
 31
0.0
  0
ARC
  5
7321
  8
UMCL1
 10
4685.6432218320788
 20
4190.5256526732628
 30
0.0
 40
4.8560632220039688
 50
235.6157525319469
 51
304.3842474680531
  0
LINE
  5
7322
  8
UMCL1
 10
4682.9008080534268
 20
4186.5180952272904
 30
0.0
 11
4684.3704631680303
 21
4185.6695894512586
 31
0.0
  0
LINE
  5
7323
  8
HIDDEN
 10
4692.138412360463
 20
4188.1695894512577
 30
0.0
 11
4692.138412360463
 21
4183.1695894512577
 31
0.0
  0
LINE
  5
7324
  8
HIDDEN
 10
4690.4063615528912
 20
4188.1695894512577
 30
0.0
 11
4690.4063615528912
 21
4183.1695894512577
 31
0.0
  0
LINE
  5
7325
  8
UMCL1
 10
4688.6204631680303
 20
4185.6695894512586
 30
0.0
 11
4688.6204631680303
 21
4183.4195894512586
 31
0.0
  0
LINE
  5
7326
  8
UMCL1
 10
4687.8704631680303
 20
4185.6695894512586
 30
0.0
 11
4687.8704631680303
 21
4184.1695894512586
 31
0.0
  0
LINE
  5
7327
  8
UMCL1
 10
4688.8704631680303
 20
4183.1695894512577
 30
0.0
 11
4687.8704631680303
 21
4184.1695894512586
 31
0.0
  0
ARC
  5
7328
  8
UMCL1
 10
4685.6432218320788
 20
4190.8135262292553
 30
0.0
 40
4.8560632220039688
 50
55.61575253194686
 51
124.3842474680531
  0
LINE
  5
7329
  8
UMCL1
 10
4682.9008080534268
 20
4194.821083675226
 30
0.0
 11
4684.3704631680303
 21
4195.6695894512586
 31
0.0
  0
LINE
  5
732A
  8
UMCL1
 10
4682.9008080534268
 20
4194.821083675226
 30
0.0
 11
4682.9008080534268
 21
4186.5180952272904
 31
0.0
  0
LINE
  5
732B
  8
UMCL1
 10
4688.3856356107281
 20
4194.821083675226
 30
0.0
 11
4688.3856356107281
 21
4186.5180952272904
 31
0.0
  0
LINE
  5
732C
  8
CEN
 10
4693.8704631680303
 20
4178.4284265091737
 30
0.0
 11
4693.8704631680303
 21
4215.644484866074
 31
0.0
  0
ARC
  5
732D
  8
UMCL1
 10
4702.0977045039826
 20
4190.5256526732628
 30
0.0
 40
4.8560632220039688
 50
235.6157525319469
 51
304.3842474680531
  0
LINE
  5
732E
  8
HIDDEN
 10
4695.6025139755993
 20
4188.1695894512577
 30
0.0
 11
4695.6025139755993
 21
4183.1695894512577
 31
0.0
  0
LINE
  5
732F
  8
HIDDEN
 10
4697.3345647831684
 20
4188.1695894512577
 30
0.0
 11
4697.3345647831684
 21
4183.1695894512577
 31
0.0
  0
LINE
  5
7330
  8
UMCL1
 10
4704.8401182826328
 20
4186.5180952272904
 30
0.0
 11
4703.3704631680303
 21
4185.6695894512586
 31
0.0
  0
LINE
  5
7331
  8
UMCL1
 10
4699.8704631680303
 20
4185.6695894512586
 30
0.0
 11
4699.8704631680303
 21
4184.1695894512586
 31
0.0
  0
LINE
  5
7332
  8
UMCL1
 10
4699.1204631680303
 20
4185.6695894512586
 30
0.0
 11
4699.1204631680303
 21
4183.4195894512586
 31
0.0
  0
LINE
  5
7333
  8
UMCL1
 10
4698.8704631680303
 20
4183.1695894512577
 30
0.0
 11
4699.8704631680303
 21
4184.1695894512586
 31
0.0
  0
ARC
  5
7334
  8
UMCL1
 10
4702.0977045039826
 20
4190.8135262292553
 30
0.0
 40
4.8560632220039688
 50
55.61575253194686
 51
124.3842474680531
  0
LINE
  5
7335
  8
UMCL1
 10
4704.8401182826328
 20
4194.821083675226
 30
0.0
 11
4703.3704631680303
 21
4195.6695894512586
 31
0.0
  0
LINE
  5
7336
  8
HIDDEN
 10
4697.3345647831684
 20
4188.1695894512577
 30
0.0
 11
4693.8704631680303
 21
4188.9695894512588
 31
0.0
  0
LINE
  5
7337
  8
UMCL1
 10
4699.3552907253325
 20
4194.821083675226
 30
0.0
 11
4699.3552907253325
 21
4186.5180952272904
 31
0.0
  0
LINE
  5
7338
  8
UMCL1
 10
4704.8401182826328
 20
4194.821083675226
 30
0.0
 11
4704.8401182826328
 21
4186.5180952272904
 31
0.0
  0
LINE
  5
7339
  8
UMCL1
 10
4721.3704631680303
 20
4196.6695894512586
 30
0.0
 11
4721.3704631680303
 21
4329.6695894512577
 31
0.0
  0
LINE
  5
733A
  8
UMCL1
 10
4720.3704631680303
 20
4195.6695894512586
 30
0.0
 11
4721.3704631680303
 21
4196.6695894512586
 31
0.0
  0
LINE
  5
733B
  8
CEN
 10
4694.2601362390978
 20
4304.1695894512577
 30
0.0
 11
4725.3704631680293
 21
4304.1695894512577
 31
0.0
  0
LINE
  5
733C
  8
UMCL1
 10
4720.3704631680303
 20
4330.6695894512577
 30
0.0
 11
4617.3704631680303
 21
4330.6695894512577
 31
0.0
  0
CIRCLE
  5
733D
  8
UMCL1
 10
4668.8704631680303
 20
4279.1695894512577
 30
0.0
 40
17.5
  0
CIRCLE
  5
733E
  8
UMCL1
 10
4668.8704631680303
 20
4279.1695894512577
 30
0.0
 40
14.0
  0
LINE
  5
733F
  8
UMCL1
 10
4616.3704631680303
 20
4196.6695894512586
 30
0.0
 11
4616.3704631680303
 21
4329.6695894512586
 31
0.0
  0
ARC
  5
7340
  8
UMCL1
 62
     2
 10
4668.8704631680303
 20
4279.1695894512577
 30
0.0
 40
4.0
 50
250.18686942893771
 51
210.78620825908101
  0
CIRCLE
  5
7341
  8
UMCL1
 10
4668.8704631680303
 20
4279.1695894512577
 30
0.0
 40
3.399999999999999
  0
LINE
  5
7342
  8
UMCL1
 10
4655.4540553030311
 20
4283.1695894512577
 30
0.0
 11
4651.8704631680293
 21
4283.1695894512577
 31
0.0
  0
LINE
  5
7343
  8
UMCL1
 10
4655.4540553030311
 20
4275.1695894512577
 30
0.0
 11
4651.8704631680293
 21
4275.1695894512577
 31
0.0
  0
LINE
  5
7344
  8
UMCL1
 10
4651.8704631680293
 20
4275.1695894512577
 30
0.0
 11
4651.8704631680293
 21
4283.1695894512577
 31
0.0
  0
LINE
  5
7345
  8
HIDDEN
 10
4655.4540553030311
 20
4283.1695894512577
 30
0.0
 11
4658.8704631680303
 21
4283.1695894512577
 31
0.0
  0
LINE
  5
7346
  8
HIDDEN
 10
4655.4540553030311
 20
4275.1695894512577
 30
0.0
 11
4658.8704631680303
 21
4275.1695894512577
 31
0.0
  0
LINE
  5
7347
  8
HIDDEN
 10
4658.8704631680303
 20
4275.1695894512577
 30
0.0
 11
4658.8704631680303
 21
4283.1695894512577
 31
0.0
  0
ARC
  5
7348
  8
UMCL1
 62
     2
 10
4627.8704631680303
 20
4320.1695894512586
 30
0.0
 40
5.0
 50
67.570468093852
 51
29.146337804650528
  0
CIRCLE
  5
7349
  8
UMCL1
 10
4627.8704631680303
 20
4320.1695894512586
 30
0.0
 40
4.25
  0
LINE
  5
734A
  8
CEN
 10
4627.8704631680303
 20
4332.1695894512577
 30
0.0
 11
4627.8704631680303
 21
4308.1695894512577
 31
0.0
  0
LINE
  5
734B
  8
UMCL1
 10
4616.3704631680303
 20
4329.6695894512586
 30
0.0
 11
4617.3704631680303
 21
4330.6695894512577
 31
0.0
  0
LINE
  5
734C
  8
CEN
 10
4639.8704631680303
 20
4320.1695894512586
 30
0.0
 11
4615.8704631680303
 21
4320.1695894512586
 31
0.0
  0
CIRCLE
  5
734D
  8
UMCL1
 10
4668.8704631680303
 20
4318.1695894512577
 30
0.0
 40
7.0
  0
CIRCLE
  5
734E
  8
UMCL1
 10
4668.8704631680303
 20
4318.1695894512577
 30
0.0
 40
6.5
  0
CIRCLE
  5
734F
  8
UMCL1
 10
4668.8704631680303
 20
4318.1695894512577
 30
0.0
 40
6.0
  0
POLYLINE
  5
7350
  8
UMCL1
 66
     1
 10
0.0
 20
0.0
 30
0.0
 70
     1
  0
VERTEX
  5
7701
  8
UMCL1
 10
4667.1384123604603
 20
4321.1695894512577
 30
0.0
  0
VERTEX
  5
7702
  8
UMCL1
 10
4665.4063615528921
 20
4318.1695894512577
 30
0.0
  0
VERTEX
  5
7703
  8
UMCL1
 10
4667.1384123604603
 20
4315.1695894512577
 30
0.0
  0
VERTEX
  5
7704
  8
UMCL1
 10
4670.6025139755993
 20
4315.1695894512577
 30
0.0
  0
VERTEX
  5
7705
  8
UMCL1
 10
4672.3345647831684
 20
4318.1695894512577
 30
0.0
  0
VERTEX
  5
7706
  8
UMCL1
 10
4670.6025139755993
 20
4321.1695894512577
 30
0.0
  0
SEQEND
  5
7707
  8
UMCL1
  0
POLYLINE
  5
7351
  8
UMCL1
 66
     1
 10
0.0
 20
0.0
 30
0.0
 70
     1
  0
VERTEX
  5
7708
  8
UMCL1
 10
4706.1384123604612
 20
4282.1695894512586
 30
0.0
  0
VERTEX
  5
7709
  8
UMCL1
 10
4704.4063615528921
 20
4279.1695894512577
 30
0.0
  0
VERTEX
  5
770A
  8
UMCL1
 10
4706.1384123604612
 20
4276.1695894512577
 30
0.0
  0
VERTEX
  5
770B
  8
UMCL1
 10
4709.6025139755993
 20
4276.1695894512577
 30
0.0
  0
VERTEX
  5
770C
  8
UMCL1
 10
4711.3345647831684
 20
4279.1695894512577
 30
0.0
  0
VERTEX
  5
770D
  8
UMCL1
 10
4709.6025139755993
 20
4282.1695894512586
 30
0.0
  0
SEQEND
  5
770E
  8
UMCL1
  0
CIRCLE
  5
7352
  8
UMCL1
 10
4707.8704631680303
 20
4279.1695894512577
 30
0.0
 40
6.0
  0
CIRCLE
  5
7353
  8
UMCL1
 10
4707.8704631680303
 20
4279.1695894512577
 30
0.0
 40
6.5
  0
CIRCLE
  5
7354
  8
UMCL1
 10
4707.8704631680303
 20
4279.1695894512577
 30
0.0
 40
7.0
  0
LINE
  5
7355
  8
CEN
 10
4709.8704631680303
 20
4332.1695894512586
 30
0.0
 11
4709.8704631680303
 21
4308.1695894512586
 31
0.0
  0
ARC
  5
7356
  8
UMCL1
 62
     2
 10
4709.8704631680303
 20
4320.1695894512604
 30
0.0
 40
5.0
 50
157.5704680938519
 51
119.1463378046505
  0
CIRCLE
  5
7357
  8
UMCL1
 10
4709.8704631680303
 20
4320.1695894512586
 30
0.0
 40
4.25
  0
LINE
  5
7358
  8
CEN
 10
4721.8704631680303
 20
4320.1695894512586
 30
0.0
 11
4697.8704631680303
 21
4320.1695894512586
 31
0.0
  0
LINE
  5
7359
  8
UMCL1
 10
4721.3704631680303
 20
4329.6695894512586
 30
0.0
 11
4720.3704631680303
 21
4330.6695894512577
 31
0.0
  0
LINE
  5
735A
  8
CEN
 10
4668.8704631680303
 20
4190.5818835656219
 30
0.0
 11
4668.8704631680303
 21
4333.1786256822243
 31
0.0
  0
LINE
  5
735B
  8
UMCL1
 10
4616.3704631680303
 20
4265.6695894512586
 30
0.0
 11
4494.8704631680293
 21
4265.6695894512586
 31
0.0
  0
LINE
  5
735C
  8
UMCL1
 10
4616.3704631680303
 20
4220.6695894512577
 30
0.0
 11
4494.8704631680293
 21
4220.6695894512577
 31
0.0
  0
LINE
  5
735D
  8
CEN
 10
4481.8704631680303
 20
4216.4052599322549
 30
0.0
 11
4481.8704631680303
 21
4276.1695894512577
 31
0.0
  0
LINE
  5
735E
  8
UMCL1
 10
4494.8704631680293
 20
4268.1695894512577
 30
0.0
 11
4468.8704631680303
 21
4268.1695894512577
 31
0.0
  0
LINE
  5
735F
  8
UMCL1
 10
4468.8704631680303
 20
4268.1695894512577
 30
0.0
 11
4468.8704631680303
 21
4218.1695894512577
 31
0.0
  0
LINE
  5
7360
  8
UMCL1
 10
4494.8704631680293
 20
4218.1695894512577
 30
0.0
 11
4468.8704631680303
 21
4218.1695894512577
 31
0.0
  0
LINE
  5
7361
  8
HIDDEN
 10
4487.8945409608596
 20
4218.1695894512577
 30
0.0
 11
4487.3704631680303
 21
4228.1695894512577
 31
0.0
  0
LINE
  5
7362
  8
HIDDEN
 10
4488.6945409608597
 20
4218.1695894512577
 30
0.0
 11
4488.1704631680313
 21
4228.1695894512577
 31
0.0
  0
LINE
  5
7363
  8
UMCL1
 10
4494.8704631680293
 20
4268.1695894512577
 30
0.0
 11
4494.8704631680293
 21
4218.1695894512577
 31
0.0
  0
LINE
  5
7364
  8
HIDDEN
 10
4471.8463853752
 20
4218.1695894512577
 30
0.0
 11
4472.3704631680303
 21
4228.1695894512577
 31
0.0
  0
LINE
  5
7365
  8
HIDDEN
 10
4471.046385375199
 20
4218.1695894512577
 30
0.0
 11
4471.5704631680301
 21
4228.1695894512577
 31
0.0
  0
CIRCLE
  5
7366
  8
UMCL1
 10
4985.1389615083708
 20
4019.474702362425
 30
0.0
 40
3.0
  0
CIRCLE
  5
7367
  8
UMCL1
 10
4985.1389615083708
 20
4019.474702362425
 30
0.0
 40
2.5
  0
CIRCLE
  5
7368
  8
UMCL1
 10
4985.1389615083708
 20
4019.474702362425
 30
0.0
 40
5.0
  0
POLYLINE
  5
7369
  8
UMCL1
 66
     1
 10
0.0
 20
0.0
 30
0.0
 70
     1
  0
VERTEX
  5
770F
  8
UMCL1
 10
4980.1389615083699
 20
4016.5879510164768
 30
0.0
  0
VERTEX
  5
7710
  8
UMCL1
 10
4985.1389615083708
 20
4013.7011996705291
 30
0.0
  0
VERTEX
  5
7711
  8
UMCL1
 10
4990.1389615083708
 20
4016.5879510164768
 30
0.0
  0
VERTEX
  5
7712
  8
UMCL1
 10
4990.1389615083708
 20
4022.3614537083731
 30
0.0
  0
VERTEX
  5
7713
  8
UMCL1
 10
4985.1389615083708
 20
4025.2482050543208
 30
0.0
  0
VERTEX
  5
7714
  8
UMCL1
 10
4980.1389615083699
 20
4022.3614537083731
 30
0.0
  0
SEQEND
  5
7715
  8
UMCL1
  0
LINE
  5
736A
  8
CEN
 10
5022.1389615083708
 20
4010.474702362425
 30
0.0
 11
5022.1389615083708
 21
4028.474702362425
 31
0.0
  0
LINE
  5
736B
  8
CEN
 10
5013.1389615083708
 20
4019.474702362425
 30
0.0
 11
5031.1389615083708
 21
4019.474702362425
 31
0.0
  0
POLYLINE
  5
736C
  8
UMCL1
 66
     1
 10
0.0
 20
0.0
 30
0.0
 70
     1
  0
VERTEX
  5
7716
  8
UMCL1
 10
5017.1389615083708
 20
4016.5879510164768
 30
0.0
  0
VERTEX
  5
7717
  8
UMCL1
 10
5022.1389615083708
 20
4013.7011996705291
 30
0.0
  0
VERTEX
  5
7718
  8
UMCL1
 10
5027.1389615083699
 20
4016.5879510164768
 30
0.0
  0
VERTEX
  5
7719
  8
UMCL1
 10
5027.1389615083699
 20
4022.3614537083731
 30
0.0
  0
VERTEX
  5
771A
  8
UMCL1
 10
5022.1389615083708
 20
4025.2482050543208
 30
0.0
  0
VERTEX
  5
771B
  8
UMCL1
 10
5017.1389615083708
 20
4022.3614537083731
 30
0.0
  0
SEQEND
  5
771C
  8
UMCL1
  0
CIRCLE
  5
736D
  8
UMCL1
 10
5022.1389615083708
 20
4019.474702362425
 30
0.0
 40
5.0
  0
CIRCLE
  5
736E
  8
UMCL1
 10
5022.1389615083708
 20
4019.474702362425
 30
0.0
 40
2.5
  0
CIRCLE
  5
736F
  8
UMCL1
 10
5022.1389615083708
 20
4019.474702362425
 30
0.0
 40
3.0
  0
LINE
  5
7370
  8
CEN
 10
5022.1389615083708
 20
3973.474702362425
 30
0.0
 11
5022.1389615083708
 21
3991.474702362425
 31
0.0
  0
LINE
  5
7371
  8
CEN
 10
5013.1389615083708
 20
3982.474702362425
 30
0.0
 11
5031.1389615083708
 21
3982.474702362425
 31
0.0
  0
POLYLINE
  5
7372
  8
UMCL1
 66
     1
 10
0.0
 20
0.0
 30
0.0
 70
     1
  0
VERTEX
  5
771D
  8
UMCL1
 10
5017.1389615083708
 20
3979.5879510164768
 30
0.0
  0
VERTEX
  5
771E
  8
UMCL1
 10
5022.1389615083708
 20
3976.7011996705291
 30
0.0
  0
VERTEX
  5
771F
  8
UMCL1
 10
5027.1389615083699
 20
3979.5879510164768
 30
0.0
  0
VERTEX
  5
7720
  8
UMCL1
 10
5027.1389615083699
 20
3985.3614537083731
 30
0.0
  0
VERTEX
  5
7721
  8
UMCL1
 10
5022.1389615083708
 20
3988.2482050543208
 30
0.0
  0
VERTEX
  5
7722
  8
UMCL1
 10
5017.1389615083708
 20
3985.3614537083731
 30
0.0
  0
SEQEND
  5
7723
  8
UMCL1
  0
CIRCLE
  5
7373
  8
UMCL1
 10
5022.1389615083708
 20
3982.474702362425
 30
0.0
 40
5.0
  0
CIRCLE
  5
7374
  8
UMCL1
 10
5022.1389615083708
 20
3982.474702362425
 30
0.0
 40
2.5
  0
CIRCLE
  5
7375
  8
UMCL1
 10
5022.1389615083708
 20
3982.474702362425
 30
0.0
 40
3.0
  0
LINE
  5
7376
  8
CEN
 10
4985.1389615083708
 20
3973.474702362425
 30
0.0
 11
4985.1389615083708
 21
3991.474702362425
 31
0.0
  0
LINE
  5
7377
  8
CEN
 10
4976.1389615083708
 20
3982.474702362425
 30
0.0
 11
4994.1389615083708
 21
3982.474702362425
 31
0.0
  0
POLYLINE
  5
7378
  8
UMCL1
 66
     1
 10
0.0
 20
0.0
 30
0.0
 70
     1
  0
VERTEX
  5
7724
  8
UMCL1
 10
4980.1389615083699
 20
3979.5879510164768
 30
0.0
  0
VERTEX
  5
7725
  8
UMCL1
 10
4985.1389615083708
 20
3976.7011996705291
 30
0.0
  0
VERTEX
  5
7726
  8
UMCL1
 10
4990.1389615083708
 20
3979.5879510164768
 30
0.0
  0
VERTEX
  5
7727
  8
UMCL1
 10
4990.1389615083708
 20
3985.3614537083731
 30
0.0
  0
VERTEX
  5
7728
  8
UMCL1
 10
4985.1389615083708
 20
3988.2482050543208
 30
0.0
  0
VERTEX
  5
7729
  8
UMCL1
 10
4980.1389615083699
 20
3985.3614537083731
 30
0.0
  0
SEQEND
  5
772A
  8
UMCL1
  0
CIRCLE
  5
7379
  8
UMCL1
 10
4985.1389615083708
 20
3982.474702362425
 30
0.0
 40
5.0
  0
CIRCLE
  5
737A
  8
UMCL1
 10
4985.1389615083708
 20
3982.474702362425
 30
0.0
 40
2.5
  0
CIRCLE
  5
737B
  8
UMCL1
 10
4985.1389615083708
 20
3982.474702362425
 30
0.0
 40
3.0
  0
LINE
  5
737C
  8
UMCL1
 10
4721.3698509574706
 20
4023.4747023624241
 30
0.0
 11
4842.8704631680303
 21
4023.4747023624241
 31
0.0
  0
LINE
  5
737D
  8
UMCL1
 10
4721.3698509574724
 20
3978.474702362425
 30
0.0
 11
4842.8704631680303
 21
3978.474702362425
 31
0.0
  0
LINE
  5
737E
  8
UMCL1
 10
4842.8704631680303
 20
3975.974702362425
 30
0.0
 11
4868.8704631680303
 21
3975.974702362425
 31
0.0
  0
LINE
  5
737F
  8
UMCL1
 10
4868.8704631680303
 20
4025.9747023624241
 30
0.0
 11
4868.8704631680303
 21
3975.974702362425
 31
0.0
  0
LINE
  5
7380
  8
UMCL1
 10
4842.8704631680303
 20
4025.9747023624241
 30
0.0
 11
4868.8704631680303
 21
4025.9747023624241
 31
0.0
  0
LINE
  5
7381
  8
UMCL1
 10
4842.8704631680303
 20
4025.9747023624241
 30
0.0
 11
4842.8704631680303
 21
3975.974702362425
 31
0.0
  0
LINE
  5
7382
  8
CEN
 10
4721.3698509574706
 20
4019.4747023624232
 30
0.0
 11
4881.8704631680312
 21
4019.474702362425
 31
0.0
  0
LINE
  5
7383
  8
UMCL1
 10
4721.3698509574706
 20
4022.4747023624241
 30
0.0
 11
4842.8704631680303
 21
4022.4747023624241
 31
0.0
  0
LINE
  5
7384
  8
UMCL1
 10
4721.3698509574706
 20
4016.4747023624241
 30
0.0
 11
4842.8704631680303
 21
4016.4747023624241
 31
0.0
  0
ARC
  5
7385
  8
UMCL1
 10
4879.87870852167
 20
4019.474702362425
 30
0.0
 40
10.00824535363974
 50
162.81943120861649
 51
197.18056879138339
  0
ARC
  5
7386
  8
UMCL1
 10
4864.8622178143896
 20
4019.474702362425
 30
0.0
 40
10.00824535363974
 50
342.81943120861661
 51
17.180568791383411
  0
LINE
  5
7387
  8
UMCL1
 10
4874.8704631680303
 20
4024.5442271756128
 30
0.0
 11
4874.8704631680303
 21
4014.4051775492362
 31
0.0
  0
LINE
  5
7388
  8
UMCL1
 10
4869.8704631680303
 20
4025.3177298675082
 30
0.0
 11
4869.8704631680303
 21
4013.6316748573399
 31
0.0
  0
LINE
  5
7389
  8
UMCL1
 10
4877.8704631680303
 20
4021.6747023624248
 30
0.0
 11
4877.8704631680303
 21
4017.2747023624238
 31
0.0
  0
LINE
  5
738A
  8
UMCL1
 10
4877.0704631680301
 20
4022.474702362425
 30
0.0
 11
4877.0704631680301
 21
4016.474702362425
 31
0.0
  0
LINE
  5
738B
  8
UMCL1
 10
4869.8704631680303
 20
4013.6316748573399
 30
0.0
 11
4868.8704631680303
 21
4013.6316748573399
 31
0.0
  0
ARC
  5
738C
  8
UMCL1
 10
4872.4262859164528
 20
4015.075050530314
 30
0.0
 40
2.5558227484234459
 50
145.61575253196841
 51
214.38424746805319
  0
LINE
  5
738D
  8
UMCL1
 10
4869.8704631680303
 20
4014.4051775492362
 30
0.0
 11
4870.317045155417
 21
4013.6316748573399
 31
0.0
  0
LINE
  5
738E
  8
UMCL1
 10
4874.4238811806454
 20
4013.6316748573399
 30
0.0
 11
4870.317045155417
 21
4013.631674857339
 31
0.0
  0
LINE
  5
738F
  8
UMCL1
 10
4874.4238811806454
 20
4016.518426203289
 30
0.0
 11
4870.317045155417
 21
4016.518426203289
 31
0.0
  0
LINE
  5
7390
  8
UMCL1
 10
4874.8704631680303
 20
4014.4051775492362
 30
0.0
 11
4874.4238811806454
 21
4013.6316748573399
 31
0.0
  0
ARC
  5
7391
  8
UMCL1
 10
4872.3146404196068
 20
4015.075050530314
 30
0.0
 40
2.5558227484234459
 50
325.61575253194678
 51
34.384247468031631
  0
LINE
  5
7392
  8
UMCL1
 62
     2
 10
4874.8704631680303
 20
4017.0747023624249
 30
0.0
 11
4877.6704631680304
 21
4017.0747023624249
 31
0.0
  0
LINE
  5
7393
  8
UMCL1
 10
4874.8704631680303
 20
4016.474702362425
 30
0.0
 11
4877.0704631680301
 21
4016.474702362425
 31
0.0
  0
LINE
  5
7394
  8
UMCL1
 10
4877.8704631680303
 20
4017.2747023624238
 30
0.0
 11
4877.0704631680301
 21
4016.474702362425
 31
0.0
  0
LINE
  5
7395
  8
UMCL1
 10
4869.8704631680303
 20
4025.3177298675082
 30
0.0
 11
4868.8704631680303
 21
4025.3177298675082
 31
0.0
  0
LINE
  5
7396
  8
UMCL1
 10
4869.8704631680303
 20
4024.5442271756128
 30
0.0
 11
4870.317045155417
 21
4025.3177298675082
 31
0.0
  0
ARC
  5
7397
  8
UMCL1
 10
4872.4262859164528
 20
4023.874354194535
 30
0.0
 40
2.5558227484234459
 50
145.61575253194681
 51
214.38424746803159
  0
ARC
  5
7398
  8
UMCL1
 10
4872.3146404196068
 20
4023.874354194535
 30
0.0
 40
2.5558227484234459
 50
325.61575253196838
 51
34.384247468053132
  0
LINE
  5
7399
  8
UMCL1
 10
4874.8704631680303
 20
4024.5442271756128
 30
0.0
 11
4874.4238811806454
 21
4025.3177298675082
 31
0.0
  0
LINE
  5
739A
  8
UMCL1
 10
4874.4238811806454
 20
4022.430978521561
 30
0.0
 11
4870.317045155417
 21
4022.430978521561
 31
0.0
  0
LINE
  5
739B
  8
UMCL1
 10
4874.4238811806454
 20
4025.3177298675082
 30
0.0
 11
4870.317045155417
 21
4025.3177298675082
 31
0.0
  0
LINE
  5
739C
  8
UMCL1
 10
4877.0704631680301
 20
4022.474702362425
 30
0.0
 11
4877.8704631680303
 21
4021.6747023624248
 31
0.0
  0
LINE
  5
739D
  8
UMCL1
 62
     2
 10
4874.8704631680303
 20
4021.8747023624242
 30
0.0
 11
4877.6704631680304
 21
4021.8747023624242
 31
0.0
  0
LINE
  5
739E
  8
UMCL1
 10
4874.8704631680303
 20
4022.474702362425
 30
0.0
 11
4877.0704631680301
 21
4022.474702362425
 31
0.0
  0
LINE
  5
739F
  8
UMCL1
 10
4721.3698509574706
 20
3979.4747023624259
 30
0.0
 11
4842.8704631680303
 21
3979.474702362425
 31
0.0
  0
LINE
  5
73A0
  8
CEN
 10
4721.3698509574706
 20
3982.474702362425
 30
0.0
 11
4881.8704631680312
 21
3982.474702362425
 31
0.0
  0
LINE
  5
73A1
  8
UMCL1
 10
4721.3698509574706
 20
3985.474702362425
 30
0.0
 11
4842.8704631680303
 21
3985.474702362425
 31
0.0
  0
ARC
  5
73A2
  8
UMCL1
 10
4872.3146404196068
 20
3986.874354194535
 30
0.0
 40
2.5558227484234459
 50
325.61575253196838
 51
34.384247468053132
  0
LINE
  5
73A3
  8
UMCL1
 10
4874.8704631680303
 20
3987.5442271756128
 30
0.0
 11
4874.4238811806454
 21
3988.3177298675091
 31
0.0
  0
LINE
  5
73A4
  8
UMCL1
 10
4869.8704631680303
 20
3987.5442271756128
 30
0.0
 11
4870.317045155417
 21
3988.3177298675091
 31
0.0
  0
ARC
  5
73A5
  8
UMCL1
 10
4872.4262859164528
 20
3986.874354194535
 30
0.0
 40
2.5558227484234459
 50
145.61575253194681
 51
214.38424746803159
  0
LINE
  5
73A6
  8
UMCL1
 10
4869.8704631680303
 20
3976.6316748573399
 30
0.0
 11
4869.8704631680303
 21
3988.3177298675091
 31
0.0
  0
LINE
  5
73A7
  8
UMCL1
 10
4874.4238811806454
 20
3988.3177298675091
 30
0.0
 11
4870.317045155417
 21
3988.3177298675091
 31
0.0
  0
LINE
  5
73A8
  8
UMCL1
 10
4869.8704631680303
 20
3988.3177298675091
 30
0.0
 11
4868.8704631680303
 21
3988.3177298675091
 31
0.0
  0
LINE
  5
73A9
  8
UMCL1
 10
4874.8704631680303
 20
3979.474702362425
 30
0.0
 11
4877.0704631680301
 21
3979.474702362425
 31
0.0
  0
LINE
  5
73AA
  8
UMCL1
 62
     2
 10
4874.8704631680303
 20
3980.0747023624249
 30
0.0
 11
4877.6704631680304
 21
3980.0747023624249
 31
0.0
  0
LINE
  5
73AB
  8
UMCL1
 10
4874.8704631680303
 20
3985.474702362425
 30
0.0
 11
4877.0704631680301
 21
3985.474702362425
 31
0.0
  0
LINE
  5
73AC
  8
UMCL1
 62
     2
 10
4874.8704631680303
 20
3984.8747023624251
 30
0.0
 11
4877.6704631680304
 21
3984.8747023624251
 31
0.0
  0
LINE
  5
73AD
  8
UMCL1
 10
4874.4238811806454
 20
3976.6316748573399
 30
0.0
 11
4870.317045155417
 21
3976.6316748573399
 31
0.0
  0
LINE
  5
73AE
  8
UMCL1
 10
4874.4238811806454
 20
3979.5184262032881
 30
0.0
 11
4870.317045155417
 21
3979.5184262032881
 31
0.0
  0
LINE
  5
73AF
  8
UMCL1
 10
4874.8704631680303
 20
3977.4051775492362
 30
0.0
 11
4874.4238811806454
 21
3976.6316748573399
 31
0.0
  0
ARC
  5
73B0
  8
UMCL1
 10
4872.3146404196068
 20
3978.075050530314
 30
0.0
 40
2.5558227484234459
 50
325.61575253194678
 51
34.384247468031631
  0
ARC
  5
73B1
  8
UMCL1
 10
4872.4262859164528
 20
3978.075050530314
 30
0.0
 40
2.5558227484234459
 50
145.61575253196841
 51
214.38424746805319
  0
LINE
  5
73B2
  8
UMCL1
 10
4869.8704631680303
 20
3977.4051775492362
 30
0.0
 11
4870.317045155417
 21
3976.6316748573399
 31
0.0
  0
LINE
  5
73B3
  8
UMCL1
 10
4869.8704631680303
 20
3976.6316748573399
 30
0.0
 11
4868.8704631680303
 21
3976.6316748573399
 31
0.0
  0
LINE
  5
73B4
  8
UMCL1
 10
4874.4238811806454
 20
3985.430978521561
 30
0.0
 11
4870.317045155417
 21
3985.430978521561
 31
0.0
  0
LINE
  5
73B5
  8
UMCL1
 10
4874.8704631680303
 20
3977.4051775492362
 30
0.0
 11
4874.8704631680303
 21
3987.5442271756128
 31
0.0
  0
ARC
  5
73B6
  8
UMCL1
 10
4864.8622178143896
 20
3982.474702362425
 30
0.0
 40
10.00824535363974
 50
342.81943120861661
 51
17.180568791383411
  0
ARC
  5
73B7
  8
UMCL1
 10
4879.87870852167
 20
3982.474702362425
 30
0.0
 40
10.00824535363974
 50
162.81943120861649
 51
197.18056879138339
  0
LINE
  5
73B8
  8
UMCL1
 10
4877.0704631680301
 20
3979.474702362425
 30
0.0
 11
4877.8704631680303
 21
3980.2747023624252
 31
0.0
  0
LINE
  5
73B9
  8
UMCL1
 10
4877.8704631680303
 20
3984.6747023624248
 30
0.0
 11
4877.0704631680301
 21
3985.474702362425
 31
0.0
  0
LINE
  5
73BA
  8
UMCL1
 10
4877.0704631680301
 20
3979.474702362425
 30
0.0
 11
4877.0704631680301
 21
3985.474702362425
 31
0.0
  0
LINE
  5
73BB
  8
UMCL1
 10
4877.8704631680303
 20
3980.2747023624252
 30
0.0
 11
4877.8704631680303
 21
3984.6747023624248
 31
0.0
  0
LINE
  5
73BC
  8
UMCL1
 10
4616.4310753785876
 20
3985.474702362425
 30
0.0
 11
4494.8704631680293
 21
3985.474702362425
 31
0.0
  0
LINE
  5
73BD
  8
CEN
 10
4616.4310753785876
 20
3982.474702362425
 30
0.0
 11
4455.8704631680312
 21
3982.474702362425
 31
0.0
  0
LINE
  5
73BE
  8
UMCL1
 10
4616.4310753785876
 20
3979.4747023624259
 30
0.0
 11
4494.8704631680293
 21
3979.474702362425
 31
0.0
  0
LINE
  5
73BF
  8
CEN
 10
4616.4310753785876
 20
4019.4747023624232
 30
0.0
 11
4455.8704631680312
 21
4019.474702362425
 31
0.0
  0
LINE
  5
73C0
  8
UMCL1
 10
4616.4310753785876
 20
4022.4747023624241
 30
0.0
 11
4494.8704631680293
 21
4022.4747023624241
 31
0.0
  0
LINE
  5
73C1
  8
UMCL1
 10
4616.4310753785876
 20
4016.4747023624241
 30
0.0
 11
4494.8704631680293
 21
4016.4747023624241
 31
0.0
  0
LINE
  5
73C2
  8
UMCL1
 10
4616.4310753785876
 20
3978.474702362425
 30
0.0
 11
4494.8704631680293
 21
3978.474702362425
 31
0.0
  0
LINE
  5
73C3
  8
UMCL1
 10
4616.4310753785876
 20
4023.4747023624241
 30
0.0
 11
4494.8704631680293
 21
4023.4747023624241
 31
0.0
  0
LINE
  5
73C4
  8
UMCL1
 10
4460.6704631680313
 20
3979.474702362425
 30
0.0
 11
4460.6704631680313
 21
3985.474702362425
 31
0.0
  0
LINE
  5
73C5
  8
UMCL1
 10
4459.8704631680303
 20
3984.6747023624248
 30
0.0
 11
4460.6704631680313
 21
3985.474702362425
 31
0.0
  0
ARC
  5
73C6
  8
UMCL1
 10
4457.8622178143896
 20
3982.474702362425
 30
0.0
 40
10.00824535363974
 50
342.81943120861661
 51
17.180568791383411
  0
ARC
  5
73C7
  8
UMCL1
 10
4472.87870852167
 20
3982.474702362425
 30
0.0
 40
10.00824535363974
 50
162.81943120861649
 51
197.18056879138339
  0
LINE
  5
73C8
  8
UMCL1
 10
4462.8704631680293
 20
3977.4051775492362
 30
0.0
 11
4462.8704631680293
 21
3987.5442271756128
 31
0.0
  0
LINE
  5
73C9
  8
UMCL1
 10
4467.8704631680303
 20
3976.6316748573399
 30
0.0
 11
4467.8704631680303
 21
3988.3177298675091
 31
0.0
  0
LINE
  5
73CA
  8
UMCL1
 10
4494.8704631680293
 20
4025.9747023624241
 30
0.0
 11
4494.8704631680293
 21
3975.974702362425
 31
0.0
  0
LINE
  5
73CB
  8
UMCL1
 10
4468.8704631680303
 20
4025.9747023624241
 30
0.0
 11
4468.8704631680303
 21
3975.974702362425
 31
0.0
  0
LINE
  5
73CC
  8
CEN
 10
4479.8704631680303
 20
3989.6497023624238
 30
0.0
 11
4479.8704631680303
 21
4012.2997023624239
 31
0.0
  0
LINE
  5
73CD
  8
UMCL1
 10
4494.8704631680293
 20
3975.974702362425
 30
0.0
 11
4468.8704631680303
 21
3975.974702362425
 31
0.0
  0
LINE
  5
73CE
  8
UMCL1
 62
     2
 10
4462.8704631680293
 20
3984.8747023624251
 30
0.0
 11
4460.070463168031
 21
3984.8747023624251
 31
0.0
  0
LINE
  5
73CF
  8
UMCL1
 62
     2
 10
4462.8704631680293
 20
3980.0747023624249
 30
0.0
 11
4460.070463168031
 21
3980.0747023624249
 31
0.0
  0
LINE
  5
73D0
  8
UMCL1
 10
4462.8704631680293
 20
3979.474702362425
 30
0.0
 11
4460.6704631680313
 21
3979.474702362425
 31
0.0
  0
LINE
  5
73D1
  8
UMCL1
 10
4467.8704631680303
 20
3976.6316748573399
 30
0.0
 11
4468.8704631680303
 21
3976.6316748573399
 31
0.0
  0
LINE
  5
73D2
  8
UMCL1
 10
4467.8704631680303
 20
3977.4051775492362
 30
0.0
 11
4467.4238811806454
 21
3976.6316748573399
 31
0.0
  0
ARC
  5
73D3
  8
UMCL1
 10
4465.3146404196068
 20
3978.075050530314
 30
0.0
 40
2.5558227484234459
 50
325.61575253194678
 51
34.384247468031631
  0
ARC
  5
73D4
  8
UMCL1
 10
4465.4262859164528
 20
3978.075050530314
 30
0.0
 40
2.5558227484234459
 50
145.61575253196841
 51
214.38424746805319
  0
LINE
  5
73D5
  8
UMCL1
 10
4462.8704631680293
 20
3977.4051775492362
 30
0.0
 11
4463.3170451554161
 21
3976.6316748573399
 31
0.0
  0
LINE
  5
73D6
  8
UMCL1
 10
4463.3170451554161
 20
3979.5184262032881
 30
0.0
 11
4467.4238811806454
 21
3979.5184262032881
 31
0.0
  0
LINE
  5
73D7
  8
UMCL1
 10
4463.3170451554161
 20
3976.6316748573399
 30
0.0
 11
4467.4238811806454
 21
3976.6316748573399
 31
0.0
  0
LINE
  5
73D8
  8
UMCL1
 10
4459.8704631680303
 20
3980.2747023624252
 30
0.0
 11
4459.8704631680303
 21
3984.6747023624248
 31
0.0
  0
LINE
  5
73D9
  8
UMCL1
 10
4460.6704631680313
 20
3979.474702362425
 30
0.0
 11
4459.8704631680303
 21
3980.2747023624252
 31
0.0
  0
ARC
  5
73DA
  8
UMCL1
 62
     2
 10
4479.8704631680303
 20
4000.9747023624241
 30
0.0
 40
8.3000000000000007
 50
167.18960874132671
 51
119.60968586855211
  0
CIRCLE
  5
73DB
  8
UMCL1
 10
4479.8704631680303
 20
4000.9747023624241
 30
0.0
 40
7.5
  0
LINE
  5
73DC
  8
UMCL1
 10
4494.8704631680293
 20
4025.9747023624241
 30
0.0
 11
4468.8704631680303
 21
4025.9747023624241
 31
0.0
  0
ARC
  5
73DD
  8
UMCL1
 10
4465.4262859164528
 20
4015.075050530314
 30
0.0
 40
2.5558227484234459
 50
145.61575253196841
 51
214.38424746805319
  0
LINE
  5
73DE
  8
UMCL1
 10
4462.8704631680293
 20
4014.4051775492362
 30
0.0
 11
4463.3170451554161
 21
4013.6316748573399
 31
0.0
  0
LINE
  5
73DF
  8
UMCL1
 10
4467.8704631680303
 20
4014.4051775492362
 30
0.0
 11
4467.4238811806454
 21
4013.6316748573399
 31
0.0
  0
ARC
  5
73E0
  8
UMCL1
 10
4465.3146404196068
 20
4015.075050530314
 30
0.0
 40
2.5558227484234459
 50
325.61575253194678
 51
34.384247468031631
  0
LINE
  5
73E1
  8
UMCL1
 10
4467.8704631680303
 20
4025.3177298675082
 30
0.0
 11
4467.8704631680303
 21
4013.6316748573399
 31
0.0
  0
LINE
  5
73E2
  8
UMCL1
 10
4462.8704631680293
 20
3985.474702362425
 30
0.0
 11
4460.6704631680313
 21
3985.474702362425
 31
0.0
  0
LINE
  5
73E3
  8
UMCL1
 10
4463.3170451554161
 20
3985.430978521561
 30
0.0
 11
4467.4238811806454
 21
3985.430978521561
 31
0.0
  0
LINE
  5
73E4
  8
UMCL1
 10
4467.8704631680303
 20
3988.3177298675091
 30
0.0
 11
4468.8704631680303
 21
3988.3177298675091
 31
0.0
  0
LINE
  5
73E5
  8
UMCL1
 10
4463.3170451554161
 20
3988.3177298675091
 30
0.0
 11
4467.4238811806454
 21
3988.3177298675091
 31
0.0
  0
ARC
  5
73E6
  8
UMCL1
 10
4465.3146404196068
 20
3986.874354194535
 30
0.0
 40
2.5558227484234459
 50
325.61575253196838
 51
34.384247468053132
  0
LINE
  5
73E7
  8
UMCL1
 10
4467.8704631680303
 20
3987.5442271756128
 30
0.0
 11
4467.4238811806454
 21
3988.3177298675091
 31
0.0
  0
LINE
  5
73E8
  8
UMCL1
 10
4462.8704631680293
 20
3987.5442271756128
 30
0.0
 11
4463.3170451554161
 21
3988.3177298675091
 31
0.0
  0
ARC
  5
73E9
  8
UMCL1
 10
4465.4262859164528
 20
3986.874354194535
 30
0.0
 40
2.5558227484234459
 50
145.61575253194681
 51
214.38424746803159
  0
LINE
  5
73EA
  8
UMCL1
 10
4463.3170451554161
 20
4013.6316748573399
 30
0.0
 11
4467.4238811806454
 21
4013.631674857339
 31
0.0
  0
LINE
  5
73EB
  8
UMCL1
 10
4467.8704631680303
 20
4013.6316748573399
 30
0.0
 11
4468.8704631680303
 21
4013.6316748573399
 31
0.0
  0
LINE
  5
73EC
  8
UMCL1
 10
4462.8704631680293
 20
4022.474702362425
 30
0.0
 11
4460.6704631680313
 21
4022.474702362425
 31
0.0
  0
LINE
  5
73ED
  8
UMCL1
 62
     2
 10
4462.8704631680293
 20
4021.8747023624242
 30
0.0
 11
4460.070463168031
 21
4021.8747023624242
 31
0.0
  0
LINE
  5
73EE
  8
UMCL1
 10
4462.8704631680293
 20
4016.474702362425
 30
0.0
 11
4460.6704631680313
 21
4016.474702362425
 31
0.0
  0
LINE
  5
73EF
  8
UMCL1
 62
     2
 10
4462.8704631680293
 20
4017.0747023624249
 30
0.0
 11
4460.070463168031
 21
4017.0747023624249
 31
0.0
  0
LINE
  5
73F0
  8
UMCL1
 10
4463.3170451554161
 20
4025.3177298675082
 30
0.0
 11
4467.4238811806454
 21
4025.3177298675082
 31
0.0
  0
LINE
  5
73F1
  8
UMCL1
 10
4463.3170451554161
 20
4022.430978521561
 30
0.0
 11
4467.4238811806454
 21
4022.430978521561
 31
0.0
  0
LINE
  5
73F2
  8
UMCL1
 10
4462.8704631680293
 20
4024.5442271756128
 30
0.0
 11
4463.3170451554161
 21
4025.3177298675082
 31
0.0
  0
ARC
  5
73F3
  8
UMCL1
 10
4465.4262859164528
 20
4023.874354194535
 30
0.0
 40
2.5558227484234459
 50
145.61575253194681
 51
214.38424746803159
  0
ARC
  5
73F4
  8
UMCL1
 10
4465.3146404196068
 20
4023.874354194535
 30
0.0
 40
2.5558227484234459
 50
325.61575253196838
 51
34.384247468053132
  0
LINE
  5
73F5
  8
UMCL1
 10
4467.8704631680303
 20
4024.5442271756128
 30
0.0
 11
4467.4238811806454
 21
4025.3177298675082
 31
0.0
  0
LINE
  5
73F6
  8
UMCL1
 10
4467.8704631680303
 20
4025.3177298675082
 30
0.0
 11
4468.8704631680303
 21
4025.3177298675082
 31
0.0
  0
LINE
  5
73F7
  8
UMCL1
 10
4463.3170451554161
 20
4016.518426203289
 30
0.0
 11
4467.4238811806454
 21
4016.518426203289
 31
0.0
  0
LINE
  5
73F8
  8
UMCL1
 10
4462.8704631680293
 20
4024.5442271756128
 30
0.0
 11
4462.8704631680293
 21
4014.4051775492362
 31
0.0
  0
ARC
  5
73F9
  8
UMCL1
 10
4472.87870852167
 20
4019.474702362425
 30
0.0
 40
10.00824535363974
 50
162.81943120861649
 51
197.18056879138339
  0
ARC
  5
73FA
  8
UMCL1
 10
4457.8622178143896
 20
4019.474702362425
 30
0.0
 40
10.00824535363974
 50
342.81943120861661
 51
17.180568791383411
  0
LINE
  5
73FB
  8
UMCL1
 10
4460.6704631680313
 20
4022.474702362425
 30
0.0
 11
4459.8704631680303
 21
4021.6747023624248
 31
0.0
  0
LINE
  5
73FC
  8
UMCL1
 10
4459.8704631680303
 20
4017.2747023624238
 30
0.0
 11
4460.6704631680313
 21
4016.474702362425
 31
0.0
  0
LINE
  5
73FD
  8
UMCL1
 10
4460.6704631680313
 20
4022.474702362425
 30
0.0
 11
4460.6704631680313
 21
4016.474702362425
 31
0.0
  0
LINE
  5
73FE
  8
UMCL1
 10
4459.8704631680303
 20
4021.6747023624248
 30
0.0
 11
4459.8704631680303
 21
4017.2747023624238
 31
0.0
  0
LINE
  5
73FF
  8
UMCL2
 10
4494.8704631680293
 20
3973.974702362425
 30
0.0
 11
4494.8704631680293
 21
3906.974702362425
 31
0.0
  0
LINE
  5
7400
  8
UMCL2
 10
4468.8704631680303
 20
3973.974702362425
 30
0.0
 11
4468.8704631680303
 21
3890.974702362425
 31
0.0
  0
LINE
  5
7401
  8
UMCL2
 10
4459.8704631680303
 20
3978.1541119064182
 30
0.0
 11
4459.8704631680303
 21
3906.974702362425
 31
0.0
  0
SOLID
  5
7402
  8
UMCL2
 10
4489.8704631680303
 20
3910.308035695758
 30
0.0
 11
4489.8704631680303
 21
3908.641369029091
 31
0.0
 12
4494.8704631680293
 22
3909.474702362425
 32
0.0
 13
4494.8704631680293
 23
3909.474702362425
 33
0.0
  0
SOLID
  5
7403
  8
UMCL2
 10
4499.8704631680303
 20
3910.308035695758
 30
0.0
 11
4499.8704631680303
 21
3908.641369029091
 31
0.0
 12
4494.8704631680293
 22
3909.474702362425
 32
0.0
 13
4494.8704631680293
 23
3909.474702362425
 33
0.0
  0
SOLID
  5
7404
  8
UMCL2
 10
4473.8704631680303
 20
3894.308035695758
 30
0.0
 11
4473.8704631680303
 21
3892.641369029091
 31
0.0
 12
4468.8704631680303
 22
3893.474702362425
 32
0.0
 13
4468.8704631680303
 23
3893.474702362425
 33
0.0
  0
SOLID
  5
7405
  8
UMCL2
 10
4473.8104631680308
 20
3910.308035695758
 30
0.0
 11
4473.8104631680308
 21
3908.641369029091
 31
0.0
 12
4468.8104631680308
 22
3909.474702362425
 32
0.0
 13
4468.8104631680308
 23
3909.474702362425
 33
0.0
  0
SOLID
  5
7406
  8
UMCL2
 10
4454.8704631680303
 20
3910.308035695758
 30
0.0
 11
4454.8704631680303
 21
3908.641369029091
 31
0.0
 12
4459.8704631680303
 22
3909.474702362425
 32
0.0
 13
4459.8704631680303
 23
3909.474702362425
 33
0.0
  0
TEXT
  5
7407
  8
UMCL2
 10
4476.3977387964487
 20
3911.8747023624251
 30
0.0
 40
6.0
  1
26
 41
0.85
 51
15.0
  7
ROMANS
  0
TEXT
  5
7408
  8
UMCL2
 10
4445.5483398907709
 20
3911.8747023624251
 30
0.0
 40
6.0
  1
9
 41
0.85
 51
15.0
  7
ROMANS
  0
LINE
  5
7409
  8
CEN
 10
4616.3704631680303
 20
4261.6695894512577
 30
0.0
 11
4455.8704631680312
 21
4261.6695894512577
 31
0.0
  0
LINE
  5
740A
  8
UMCL1
 62
     2
 10
4462.8704631680312
 20
4264.0695894512592
 30
0.0
 11
4460.070463168031
 21
4264.0695894512583
 31
0.0
  0
LINE
  5
740B
  8
UMCL1
 10
4462.8704631680312
 20
4264.6695894512577
 30
0.0
 11
4460.6704631680313
 21
4264.6695894512577
 31
0.0
  0
LINE
  5
740C
  8
UMCL1
 62
     2
 10
4462.8704631680312
 20
4259.269589451259
 30
0.0
 11
4460.070463168031
 21
4259.269589451259
 31
0.0
  0
LINE
  5
740D
  8
UMCL1
 10
4462.8704631680312
 20
4258.6695894512577
 30
0.0
 11
4460.6704631680313
 21
4258.6695894512577
 31
0.0
  0
LINE
  5
740E
  8
UMCL1
 10
4462.8704631680293
 20
4266.7391142644474
 30
0.0
 11
4462.8704631680293
 21
4256.6000646380699
 31
0.0
  0
LINE
  5
740F
  8
UMCL1
 10
4467.8704631680303
 20
4267.5126169563428
 30
0.0
 11
4467.8704631680312
 21
4255.8265619461736
 31
0.0
  0
ARC
  5
7410
  8
UMCL1
 10
4460.4536213377924
 20
4264.204351857853
 30
0.0
 40
7.4168418302387566
 50
340.01600439259789
 51
19.9839956074021
  0
ARC
  5
7411
  8
UMCL1
 10
4470.28730499827
 20
4264.204351857853
 30
0.0
 40
7.4168418302387318
 50
160.01600439259789
 51
199.98399560740211
  0
LINE
  5
7412
  8
UMCL1
 10
4463.3170451554161
 20
4261.6695894512577
 30
0.0
 11
4467.4238811806454
 21
4261.6695894512577
 31
0.0
  0
LINE
  5
7413
  8
UMCL1
 10
4462.8704631680293
 20
4256.6000646380699
 30
0.0
 11
4467.8704631680303
 21
4256.6000646380699
 31
0.0
  0
ARC
  5
7414
  8
UMCL1
 10
4460.4536213377924
 20
4259.1348270446651
 30
0.0
 40
7.4168418302387566
 50
340.01600439259789
 51
19.9839956074021
  0
ARC
  5
7415
  8
UMCL1
 10
4470.28730499827
 20
4259.1348270446651
 30
0.0
 40
7.4168418302387318
 50
160.01600439259789
 51
199.98399560740211
  0
LINE
  5
7416
  8
UMCL1
 10
4467.8704631680303
 20
4255.8265619461736
 30
0.0
 11
4468.8704631680303
 21
4255.8265619461736
 31
0.0
  0
LINE
  5
7417
  8
UMCL1
 10
4462.8704631680293
 20
4266.7391142644474
 30
0.0
 11
4467.8704631680303
 21
4266.7391142644474
 31
0.0
  0
LINE
  5
7418
  8
UMCL1
 10
4467.8704631680303
 20
4267.5126169563428
 30
0.0
 11
4468.8704631680303
 21
4267.5126169563428
 31
0.0
  0
LINE
  5
7419
  8
UMCL1
 10
4460.6704631680313
 20
4264.6695894512577
 30
0.0
 11
4459.8704631680312
 21
4263.8695894512593
 31
0.0
  0
LINE
  5
741A
  8
UMCL1
 10
4459.8704631680312
 20
4259.4695894512588
 30
0.0
 11
4460.6704631680313
 21
4258.6695894512577
 31
0.0
  0
LINE
  5
741B
  8
UMCL1
 10
4459.8704631680312
 20
4263.8695894512593
 30
0.0
 11
4459.8704631680312
 21
4259.4695894512588
 31
0.0
  0
LINE
  5
741C
  8
UMCL1
 10
4460.6704631680313
 20
4264.6695894512577
 30
0.0
 11
4460.6704631680313
 21
4258.6695894512577
 31
0.0
  0
LINE
  5
741D
  8
UMCL1
 10
4460.6704631680313
 20
4227.6695894512586
 30
0.0
 11
4460.6704631680313
 21
4221.6695894512577
 31
0.0
  0
LINE
  5
741E
  8
UMCL1
 10
4459.8704631680312
 20
4226.8695894512603
 30
0.0
 11
4459.8704631680312
 21
4222.4695894512579
 31
0.0
  0
ARC
  5
741F
  8
UMCL1
 10
4470.28730499827
 20
4222.1348270446651
 30
0.0
 40
7.4168418302387318
 50
160.01600439259789
 51
199.98399560740211
  0
ARC
  5
7420
  8
UMCL1
 10
4460.4536213377924
 20
4222.1348270446651
 30
0.0
 40
7.4168418302387566
 50
340.01600439259789
 51
19.9839956074021
  0
LINE
  5
7421
  8
UMCL1
 10
4467.8704631680303
 20
4230.5126169563428
 30
0.0
 11
4467.8704631680312
 21
4218.8265619461736
 31
0.0
  0
LINE
  5
7422
  8
UMCL1
 10
4462.8704631680293
 20
4229.7391142644474
 30
0.0
 11
4462.8704631680293
 21
4219.6000646380708
 31
0.0
  0
LINE
  5
7423
  8
UMCL1
 10
4462.8704631680312
 20
4221.6695894512577
 30
0.0
 11
4460.6704631680313
 21
4221.6695894512577
 31
0.0
  0
LINE
  5
7424
  8
UMCL1
 62
     2
 10
4462.8704631680312
 20
4222.269589451259
 30
0.0
 11
4460.070463168031
 21
4222.269589451259
 31
0.0
  0
LINE
  5
7425
  8
UMCL1
 10
4467.8704631680303
 20
4218.8265619461736
 30
0.0
 11
4468.8704631680303
 21
4218.8265619461736
 31
0.0
  0
LINE
  5
7426
  8
UMCL1
 10
4462.8704631680293
 20
4219.6000646380708
 30
0.0
 11
4467.8704631680303
 21
4219.6000646380708
 31
0.0
  0
LINE
  5
7427
  8
UMCL1
 10
4459.8704631680312
 20
4222.4695894512579
 30
0.0
 11
4460.6704631680313
 21
4221.6695894512577
 31
0.0
  0
LINE
  5
7428
  8
UMCL1
 10
4462.8704631680312
 20
4227.6695894512586
 30
0.0
 11
4460.6704631680313
 21
4227.6695894512586
 31
0.0
  0
LINE
  5
7429
  8
UMCL1
 62
     2
 10
4462.8704631680312
 20
4227.0695894512592
 30
0.0
 11
4460.070463168031
 21
4227.0695894512583
 31
0.0
  0
LINE
  5
742A
  8
UMCL1
 10
4467.8704631680303
 20
4230.5126169563428
 30
0.0
 11
4468.8704631680303
 21
4230.5126169563428
 31
0.0
  0
LINE
  5
742B
  8
UMCL1
 10
4462.8704631680293
 20
4229.7391142644474
 30
0.0
 11
4467.8704631680303
 21
4229.7391142644474
 31
0.0
  0
ARC
  5
742C
  8
UMCL1
 10
4470.28730499827
 20
4227.2043518578521
 30
0.0
 40
7.4168418302387318
 50
160.01600439259789
 51
199.98399560740211
  0
ARC
  5
742D
  8
UMCL1
 10
4460.4536213377924
 20
4227.2043518578521
 30
0.0
 40
7.4168418302387566
 50
340.01600439259789
 51
19.9839956074021
  0
LINE
  5
742E
  8
UMCL1
 10
4460.6704631680313
 20
4227.6695894512586
 30
0.0
 11
4459.8704631680312
 21
4226.8695894512603
 31
0.0
  0
LINE
  5
742F
  8
HIDDEN
 10
5085.6389615083708
 20
4028.444090151866
 30
0.0
 11
5085.6389615083708
 21
4048.4440901518669
 31
0.0
  0
LINE
  5
7430
  8
HIDDEN
 10
5084.8889615083699
 20
4023.444090151866
 30
0.0
 11
5084.8889615083699
 21
4048.4440901518669
 31
0.0
  0
LINE
  5
7431
  8
HIDDEN
 10
5075.6389615083708
 20
4028.444090151866
 30
0.0
 11
5075.6389615083708
 21
4048.4440901518669
 31
0.0
  0
LINE
  5
7432
  8
HIDDEN
 10
5076.3889615083708
 20
4023.444090151866
 30
0.0
 11
5076.3889615083708
 21
4048.4440901518669
 31
0.0
  0
LINE
  5
7433
  8
CEN
 10
5080.6389615083708
 20
4015.6781198439762
 30
0.0
 11
5080.6389615083708
 21
4053.7094311828901
 31
0.0
  0
LINE
  5
7434
  8
HIDDEN
 10
5080.6389615083708
 20
4020.9903515078108
 30
0.0
 11
5076.3889615083708
 21
4023.444090151866
 31
0.0
  0
LINE
  5
7435
  8
HIDDEN
 10
5076.3889615083708
 20
4023.444090151866
 30
0.0
 11
5084.8889615083699
 21
4023.444090151866
 31
0.0
  0
LINE
  5
7436
  8
HIDDEN
 10
5075.6389615083708
 20
4028.444090151866
 30
0.0
 11
5085.6389615083708
 21
4028.444090151866
 31
0.0
  0
LINE
  5
7437
  8
HIDDEN
 10
5080.6389615083708
 20
4020.9903515078108
 30
0.0
 11
5084.8889615083699
 21
4023.444090151866
 31
0.0
  0
LINE
  5
7438
  8
UMCL1
  6
HIDDEN
 62
     2
 10
5087.6389615083708
 20
4048.7747023624238
 30
0.0
 11
5087.3389615083706
 21
4048.4747023624241
 31
0.0
  0
LINE
  5
7439
  8
HIDDEN
 10
5076.3889615083708
 20
3978.5053145729839
 30
0.0
 11
5076.3889615083708
 21
3953.5053145729839
 31
0.0
  0
LINE
  5
743A
  8
HIDDEN
 10
5084.8889615083699
 20
3978.505314572983
 30
0.0
 11
5084.8889615083699
 21
3953.5053145729839
 31
0.0
  0
LINE
  5
743B
  8
HIDDEN
 10
5085.6389615083708
 20
3973.5053145729839
 30
0.0
 11
5085.6389615083708
 21
3953.5053145729839
 31
0.0
  0
LINE
  5
743C
  8
HIDDEN
 10
5075.6389615083708
 20
3973.5053145729839
 30
0.0
 11
5075.6389615083708
 21
3953.5053145729839
 31
0.0
  0
LINE
  5
743D
  8
UMCL1
  6
HIDDEN
 62
     2
 10
5087.6389615083708
 20
3953.1747023624248
 30
0.0
 11
5087.3389615083706
 21
3953.474702362425
 31
0.0
  0
LINE
  5
743E
  8
HIDDEN
 10
5080.6389615083708
 20
3980.95905321704
 30
0.0
 11
5076.3889615083708
 21
3978.505314572983
 31
0.0
  0
LINE
  5
743F
  8
HIDDEN
 10
5075.6389615083708
 20
3973.5053145729839
 30
0.0
 11
5085.6389615083708
 21
3973.5053145729839
 31
0.0
  0
LINE
  5
7440
  8
HIDDEN
 10
5076.3889615083708
 20
3978.5053145729839
 30
0.0
 11
5084.8889615083699
 21
3978.505314572983
 31
0.0
  0
LINE
  5
7441
  8
HIDDEN
 10
5080.6389615083708
 20
3980.95905321704
 30
0.0
 11
5084.8889615083699
 21
3978.505314572983
 31
0.0
  0
LINE
  5
7442
  8
CEN
 10
5080.6389615083708
 20
3986.2712848808742
 30
0.0
 11
5080.6389615083708
 21
3948.2399735419599
 31
0.0
  0
LINE
  5
7443
  8
CEN
 10
4998.6389615083708
 20
4015.6781198439762
 30
0.0
 11
4998.6389615083708
 21
4053.7094311828901
 31
0.0
  0
LINE
  5
7444
  8
HIDDEN
 10
5002.8889615083708
 20
4023.444090151866
 30
0.0
 11
5002.8889615083708
 21
4048.4440901518669
 31
0.0
  0
LINE
  5
7445
  8
HIDDEN
 10
5003.6389615083708
 20
4028.444090151866
 30
0.0
 11
5003.6389615083708
 21
4048.4440901518669
 31
0.0
  0
LINE
  5
7446
  8
HIDDEN
 10
4994.3889615083708
 20
4023.444090151866
 30
0.0
 11
4994.3889615083708
 21
4048.4440901518669
 31
0.0
  0
LINE
  5
7447
  8
HIDDEN
 10
4993.6389615083708
 20
4028.444090151866
 30
0.0
 11
4993.6389615083708
 21
4048.4440901518669
 31
0.0
  0
LINE
  5
7448
  8
HIDDEN
 10
5003.6389615083708
 20
4028.444090151866
 30
0.0
 11
4993.6389615083708
 21
4028.444090151866
 31
0.0
  0
LINE
  5
7449
  8
HIDDEN
 10
5002.8889615083708
 20
4023.444090151866
 30
0.0
 11
4994.3889615083708
 21
4023.444090151866
 31
0.0
  0
LINE
  5
744A
  8
HIDDEN
 10
4998.6389615083708
 20
4020.9903515078108
 30
0.0
 11
5002.8889615083708
 21
4023.444090151866
 31
0.0
  0
LINE
  5
744B
  8
HIDDEN
 10
4998.6389615083708
 20
4020.9903515078108
 30
0.0
 11
4994.3889615083708
 21
4023.444090151866
 31
0.0
  0
LINE
  5
744C
  8
UMCL1
  6
HIDDEN
 62
     2
 10
4991.6389615083699
 20
4048.7747023624238
 30
0.0
 11
4991.9389615083701
 21
4048.4747023624241
 31
0.0
  0
LINE
  5
744D
  8
UMCL1
 10
4991.6389615083699
 20
4048.7747023624238
 30
0.0
 11
4991.9389615083701
 21
4048.474702362425
 31
0.0
  0
LINE
  5
744E
  8
CEN
 10
4998.6389615083708
 20
3986.2712848808742
 30
0.0
 11
4998.6389615083708
 21
3948.2399735419599
 31
0.0
  0
LINE
  5
744F
  8
HIDDEN
 10
5003.6389615083708
 20
3973.5053145729839
 30
0.0
 11
5003.6389615083708
 21
3953.5053145729839
 31
0.0
  0
LINE
  5
7450
  8
HIDDEN
 10
4993.6389615083708
 20
3973.5053145729839
 30
0.0
 11
4993.6389615083708
 21
3953.5053145729839
 31
0.0
  0
LINE
  5
7451
  8
HIDDEN
 10
4994.3889615083708
 20
3978.505314572983
 30
0.0
 11
4994.3889615083708
 21
3953.5053145729839
 31
0.0
  0
LINE
  5
7452
  8
HIDDEN
 10
5002.8889615083708
 20
3978.5053145729839
 30
0.0
 11
5002.8889615083708
 21
3953.5053145729839
 31
0.0
  0
LINE
  5
7453
  8
UMCL1
  6
HIDDEN
 62
     2
 10
4991.6389615083699
 20
3953.1747023624248
 30
0.0
 11
4991.9389615083701
 21
3953.474702362425
 31
0.0
  0
LINE
  5
7454
  8
UMCL1
 10
4991.6389615083699
 20
3953.1747023624248
 30
0.0
 11
4991.9389615083701
 21
3953.474702362425
 31
0.0
  0
LINE
  5
7455
  8
HIDDEN
 10
5002.8889615083708
 20
3978.5053145729839
 30
0.0
 11
4994.3889615083708
 21
3978.505314572983
 31
0.0
  0
LINE
  5
7456
  8
HIDDEN
 10
5003.6389615083708
 20
3973.5053145729839
 30
0.0
 11
4993.6389615083708
 21
3973.5053145729839
 31
0.0
  0
LINE
  5
7457
  8
HIDDEN
 10
4998.6389615083708
 20
3980.95905321704
 30
0.0
 11
5002.8889615083708
 21
3978.505314572983
 31
0.0
  0
LINE
  5
7458
  8
HIDDEN
 10
4998.6389615083708
 20
3980.95905321704
 30
0.0
 11
4994.3889615083708
 21
3978.505314572983
 31
0.0
  0
LINE
  5
7459
  8
CEN
 10
4689.4122029658774
 20
4299.7113292491049
 30
0.0
 11
4703.483052302734
 21
4313.7821785859624
 31
0.0
  0
LINE
  5
745A
  8
HIDDEN
 10
4688.0204631680299
 20
4205.6695894512577
 30
0.0
 11
4687.9074848361124
 21
4203.5138344571897
 31
0.0
  0
LINE
  5
745B
  8
HIDDEN
 10
4687.2204631680297
 20
4205.6695894512577
 30
0.0
 11
4687.0632398301796
 21
4202.6695894512577
 31
0.0
  0
LINE
  5
745C
  8
HIDDEN
 10
4700.5204631680299
 20
4205.6695894512577
 30
0.0
 11
4687.2204631680297
 21
4205.6695894512577
 31
0.0
  0
LINE
  5
745D
  8
HIDDEN
 10
4699.8334414999481
 20
4203.5138344571888
 30
0.0
 11
4700.2438227304601
 21
4195.6832941037119
 31
0.0
  0
LINE
  5
745E
  8
HIDDEN
 10
4700.67768650588
 20
4202.6695894512577
 30
0.0
 11
4701.0438227304603
 21
4195.6832941037119
 31
0.0
  0
LINE
  5
745F
  8
HIDDEN
 10
4688.0632398301814
 20
4203.6695894512586
 30
0.0
 11
4699.6776865058791
 21
4203.6695894512586
 31
0.0
  0
LINE
  5
7460
  8
HIDDEN
 10
4687.0632398301796
 20
4202.6695894512577
 30
0.0
 11
4700.6776865058791
 21
4202.6695894512577
 31
0.0
  0
LINE
  5
7461
  8
HIDDEN
 10
4687.0632398301814
 20
4202.6695894512577
 30
0.0
 11
4688.0632398301814
 21
4203.6695894512586
 31
0.0
  0
LINE
  5
7462
  8
HIDDEN
 10
4700.6776865058791
 20
4202.6695894512577
 30
0.0
 11
4699.6776865058791
 21
4203.6695894512586
 31
0.0
  0
TEXT
  5
7463
  8
UMCL2
 10
4541.7900824862681
 20
3911.8747023624251
 30
0.0
 40
6.0
  1
121.5
 41
0.85
 51
15.0
  7
ROMANS
  0
ARC
  5
7464
  8
UMCL1
 62
     2
 10
4696.4476276343048
 20
4306.7467539175341
 30
0.0
 40
4.0
 50
297.35626838237039
 51
246.00402759868859
  0
CIRCLE
  5
7465
  8
UMCL1
 10
4696.4476276343048
 20
4306.7467539175341
 30
0.0
 40
3.399999999999999
  0
LINE
  5
7466
  8
HIDDEN
 10
4720.3704631680303
 20
4310.1695894512577
 30
0.0
 11
4721.3704631680303
 21
4309.1695894512586
 31
0.0
  0
LINE
  5
7467
  8
HIDDEN
 10
4710.3704631680303
 20
4310.1695894512577
 30
0.0
 11
4709.3704631680303
 21
4309.1695894512586
 31
0.0
  0
LINE
  5
7468
  8
HIDDEN
 10
4710.3704631680303
 20
4298.1695894512586
 30
0.0
 11
4710.3704631680303
 21
4310.1695894512577
 31
0.0
  0
LINE
  5
7469
  8
HIDDEN
 10
4720.3704631680303
 20
4298.1695894512586
 30
0.0
 11
4720.3704631680303
 21
4310.1695894512577
 31
0.0
  0
LINE
  5
746A
  8
HIDDEN
 10
4716.3704631680303
 20
4305.9016402588268
 30
0.0
 11
4721.3704631680303
 21
4305.9016402588268
 31
0.0
  0
LINE
  5
746B
  8
HIDDEN
 10
4716.3704631680303
 20
4307.6336910663968
 30
0.0
 11
4721.3704631680303
 21
4307.6336910663968
 31
0.0
  0
LINE
  5
746C
  8
HIDDEN
 10
4716.3704631680303
 20
4300.7054878361214
 30
0.0
 11
4721.3704631680303
 21
4300.7054878361214
 31
0.0
  0
LINE
  5
746D
  8
HIDDEN
 10
4716.3704631680303
 20
4302.4375386436886
 30
0.0
 11
4721.3704631680303
 21
4302.4375386436886
 31
0.0
  0
LINE
  5
746E
  8
HIDDEN
 10
4716.3704631680303
 20
4307.6336910663968
 30
0.0
 11
4715.5704631680301
 21
4304.1695894512577
 31
0.0
  0
LINE
  5
746F
  8
HIDDEN
 10
4716.3704631680303
 20
4300.7054878361214
 30
0.0
 11
4716.3704631680303
 21
4307.6336910663968
 31
0.0
  0
LINE
  5
7470
  8
HIDDEN
 10
4716.3704631680303
 20
4300.7054878361214
 30
0.0
 11
4715.5704631680301
 21
4304.1695894512577
 31
0.0
  0
LINE
  5
7471
  8
HIDDEN
 10
4720.7454631680312
 20
4298.5445894512586
 30
0.0
 11
4721.3704631680303
 21
4297.9195894512577
 31
0.0
  0
LINE
  5
7472
  8
HIDDEN
 10
4721.1204631680303
 20
4298.1695894512586
 30
0.0
 11
4720.3704631680303
 21
4298.1695894512586
 31
0.0
  0
LINE
  5
7473
  8
HIDDEN
 10
4721.3704631680303
 20
4299.1695894512586
 30
0.0
 11
4720.3704631680303
 21
4298.1695894512586
 31
0.0
  0
LINE
  5
7474
  8
HIDDEN
 10
4709.3704631680303
 20
4299.1695894512586
 30
0.0
 11
4709.3704631680303
 21
4309.1695894512586
 31
0.0
  0
LINE
  5
7475
  8
HIDDEN
 10
4709.3704631680303
 20
4299.1695894512586
 30
0.0
 11
4710.3704631680303
 21
4298.1695894512586
 31
0.0
  0
LINE
  5
7476
  8
HIDDEN
 10
4709.6204631680303
 20
4298.9195894512577
 30
0.0
 11
4721.1204631680303
 21
4298.9195894512577
 31
0.0
  0
LINE
  5
7477
  8
HIDDEN
 10
4710.3704631680303
 20
4298.1695894512586
 30
0.0
 11
4721.1204631680303
 21
4298.1695894512586
 31
0.0
  0
LINE
  5
7478
  8
HIDDEN
 10
4721.1204631680303
 20
4310.1695894512577
 30
0.0
 11
4720.3704631680303
 21
4310.1695894512577
 31
0.0
  0
LINE
  5
7479
  8
HIDDEN
 10
4720.7454631680312
 20
4309.7945894512577
 30
0.0
 11
4721.3704631680303
 21
4310.4195894512577
 31
0.0
  0
LINE
  5
747A
  8
HIDDEN
 10
4709.6204631680303
 20
4309.4195894512577
 30
0.0
 11
4721.1204631680303
 21
4309.4195894512577
 31
0.0
  0
LINE
  5
747B
  8
HIDDEN
 10
4710.3704631680303
 20
4310.1695894512577
 30
0.0
 11
4720.3704631680303
 21
4310.1695894512577
 31
0.0
  0
LINE
  5
747C
  8
HIDDEN
 10
4699.7204631680297
 20
4205.6695894512577
 30
0.0
 11
4699.8334414999481
 21
4203.5138344571897
 31
0.0
  0
LINE
  5
747D
  8
HIDDEN
 10
4700.5204631680308
 20
4205.6695894512577
 30
0.0
 11
4700.67768650588
 21
4202.6695894512577
 31
0.0
  0
LINE
  5
747E
  8
HIDDEN
 10
4687.0632398301814
 20
4202.6695894512577
 30
0.0
 11
4686.6971036056002
 21
4195.6832941037119
 31
0.0
  0
LINE
  5
747F
  8
HIDDEN
 10
4687.9074848361124
 20
4203.5138344571888
 30
0.0
 11
4687.4971036056013
 21
4195.6832941037119
 31
0.0
  0
LINE
  5
7480
  8
UMCL1
 10
4616.3704631680303
 20
4264.6695894512577
 30
0.0
 11
4494.8704631680293
 21
4264.6695894512577
 31
0.0
  0
LINE
  5
7481
  8
UMCL1
 10
4616.3704631680303
 20
4258.6695894512577
 30
0.0
 11
4494.8704631680293
 21
4258.6695894512577
 31
0.0
  0
LINE
  5
7482
  8
UMCL1
 10
4616.3704631680303
 20
4221.6695894512577
 30
0.0
 11
4494.8704631680293
 21
4221.6695894512568
 31
0.0
  0
LINE
  5
7483
  8
CEN
 10
4616.3704631680303
 20
4224.6695894512577
 30
0.0
 11
4455.8704631680312
 21
4224.6695894512577
 31
0.0
  0
LINE
  5
7484
  8
UMCL1
 10
4616.3704631680303
 20
4227.6695894512586
 30
0.0
 11
4494.8704631680293
 21
4227.6695894512577
 31
0.0
  0
POLYLINE
  5
7485
  8
UMCL1
 66
     1
 10
0.0
 20
0.0
 30
0.0
 70
     1
  0
VERTEX
  5
772B
  8
UMCL1
 10
4670.6025139755993
 20
4237.1695894512577
 30
0.0
  0
VERTEX
  5
772C
  8
UMCL1
 10
4672.3345647831684
 20
4240.1695894512577
 30
0.0
  0
VERTEX
  5
772D
  8
UMCL1
 10
4670.6025139755993
 20
4243.1695894512577
 30
0.0
  0
VERTEX
  5
772E
  8
UMCL1
 10
4667.1384123604603
 20
4243.1695894512577
 30
0.0
  0
VERTEX
  5
772F
  8
UMCL1
 10
4665.4063615528921
 20
4240.1695894512577
 30
0.0
  0
VERTEX
  5
7730
  8
UMCL1
 10
4667.1384123604603
 20
4237.1695894512577
 30
0.0
  0
SEQEND
  5
7731
  8
UMCL1
  0
CIRCLE
  5
7486
  8
UMCL1
 10
4668.8704631680303
 20
4240.1695894512577
 30
0.0
 40
6.0
  0
CIRCLE
  5
7487
  8
UMCL1
 10
4668.8704631680303
 20
4240.1695894512577
 30
0.0
 40
6.5
  0
CIRCLE
  5
7488
  8
UMCL1
 10
4668.8704631680303
 20
4240.1695894512577
 30
0.0
 40
7.0
  0
LINE
  5
7489
  8
CEN
 10
4648.3287233701831
 20
4258.6278496534133
 30
0.0
 11
4634.2578740333256
 21
4244.5570003165549
 31
0.0
  0
ARC
  5
748A
  8
UMCL1
 62
     2
 10
4641.2932987017539
 20
4251.5924249849832
 30
0.0
 40
4.0
 50
117.3562683823704
 51
66.004027598688623
  0
CIRCLE
  5
748B
  8
UMCL1
 10
4641.2932987017539
 20
4251.5924249849832
 30
0.0
 40
3.399999999999999
  0
CIRCLE
  5
748C
  8
UMCL1
 10
4629.8704631680303
 20
4279.1695894512577
 30
0.0
 40
7.0
  0
CIRCLE
  5
748D
  8
UMCL1
 10
4629.8704631680303
 20
4279.1695894512577
 30
0.0
 40
6.5
  0
CIRCLE
  5
748E
  8
UMCL1
 10
4629.8704631680303
 20
4279.1695894512577
 30
0.0
 40
6.0
  0
POLYLINE
  5
748F
  8
UMCL1
 66
     1
 10
0.0
 20
0.0
 30
0.0
 70
     1
  0
VERTEX
  5
7732
  8
UMCL1
 10
4631.6025139755993
 20
4276.1695894512577
 30
0.0
  0
VERTEX
  5
7733
  8
UMCL1
 10
4633.3345647831684
 20
4279.1695894512577
 30
0.0
  0
VERTEX
  5
7734
  8
UMCL1
 10
4631.6025139755993
 20
4282.1695894512586
 30
0.0
  0
VERTEX
  5
7735
  8
UMCL1
 10
4628.1384123604612
 20
4282.1695894512586
 30
0.0
  0
VERTEX
  5
7736
  8
UMCL1
 10
4626.4063615528912
 20
4279.1695894512577
 30
0.0
  0
VERTEX
  5
7737
  8
UMCL1
 10
4628.1384123604612
 20
4276.1695894512577
 30
0.0
  0
SEQEND
  5
7738
  8
UMCL1
  0
CIRCLE
  5
7490
  8
UMCL1
 10
4668.8704631680303
 20
4279.1695894512577
 30
0.0
 40
48.0
  0
CIRCLE
  5
7491
  8
CEN
 10
4668.8704631680303
 20
4279.1695894512577
 30
0.0
 40
39.0
  0
LINE
  5
7492
  8
CEN
 10
4721.3704631680303
 20
4243.1695894512577
 30
0.0
 11
4876.8704631680303
 21
4243.1695894512577
 31
0.0
  0
LINE
  5
7493
  8
CEN
 10
4639.8704631680303
 20
4238.1695894512586
 30
0.0
 11
4615.8704631680303
 21
4238.1695894512586
 31
0.0
  0
LINE
  5
7494
  8
CEN
 10
4627.8704631680303
 20
4226.1695894512577
 30
0.0
 11
4627.8704631680303
 21
4250.1695894512586
 31
0.0
  0
LINE
  5
7495
  8
CEN
 10
4721.8704631680303
 20
4238.1695894512586
 30
0.0
 11
4697.8704631680303
 21
4238.1695894512586
 31
0.0
  0
LINE
  5
7496
  8
CEN
 10
4709.8704631680303
 20
4226.1695894512577
 30
0.0
 11
4709.8704631680303
 21
4250.1695894512586
 31
0.0
  0
CIRCLE
  5
7497
  8
UMCL1
 10
4627.8704631680303
 20
4238.1695894512586
 30
0.0
 40
4.25
  0
ARC
  5
7498
  8
UMCL1
 62
     2
 10
4627.8704631680303
 20
4238.1695894512586
 30
0.0
 40
5.0
 50
67.570468093852
 51
29.146337804650528
  0
CIRCLE
  5
7499
  8
UMCL1
 10
4709.8704631680303
 20
4238.1695894512586
 30
0.0
 40
4.25
  0
ARC
  5
749A
  8
UMCL1
 62
     2
 10
4709.8704631680303
 20
4238.1695894512586
 30
0.0
 40
5.0
 50
157.5704680938519
 51
119.1463378046505
  0
CIRCLE
  5
749B
  8
UMCL1
 10
4668.8704631680303
 20
4279.1695894512577
 30
0.0
 40
23.5
  0
LINE
  5
749C
  8
CEN
 10
4721.3704631680303
 20
4261.6695894512577
 30
0.0
 11
4881.8704631680303
 21
4261.6695894512577
 31
0.0
  0
LINE
  5
749D
  8
UMCL1
 10
4721.3704631680303
 20
4220.6695894512577
 30
0.0
 11
4842.8704631680303
 21
4220.6695894512577
 31
0.0
  0
LINE
  5
749E
  8
UMCL1
 10
4721.3704631680303
 20
4221.6695894512577
 30
0.0
 11
4842.8704631680303
 21
4221.6695894512568
 31
0.0
  0
LINE
  5
749F
  8
CEN
 10
4721.3704631680303
 20
4224.6695894512577
 30
0.0
 11
4881.8704631680303
 21
4224.6695894512577
 31
0.0
  0
LINE
  5
74A0
  8
UMCL1
 10
4721.3704631680303
 20
4227.6695894512586
 30
0.0
 11
4842.8704631680303
 21
4227.6695894512586
 31
0.0
  0
LINE
  5
74A1
  8
UMCL1
 10
4721.3704631680303
 20
4258.6695894512577
 30
0.0
 11
4842.8704631680303
 21
4258.6695894512577
 31
0.0
  0
LINE
  5
74A2
  8
UMCL1
 10
4721.3704631680303
 20
4264.6695894512577
 30
0.0
 11
4842.8704631680303
 21
4264.6695894512577
 31
0.0
  0
LINE
  5
74A3
  8
UMCL1
 10
4721.3704631680303
 20
4265.6695894512586
 30
0.0
 11
4842.8704631680303
 21
4265.6695894512586
 31
0.0
  0
POLYLINE
  5
74A4
  8
UMCL1
 66
     1
 10
0.0
 20
0.0
 30
0.0
 70
     1
  0
VERTEX
  5
7739
  8
UMCL1
 10
4696.9004631680309
 20
4011.7067531699931
 30
0.0
  0
VERTEX
  5
773A
  8
UMCL1
 10
4693.9004631680309
 20
4013.4388039775608
 30
0.0
  0
VERTEX
  5
773B
  8
UMCL1
 10
4690.9004631680309
 20
4011.7067531699931
 30
0.0
  0
VERTEX
  5
773C
  8
UMCL1
 10
4690.9004631680309
 20
4008.2426515548541
 30
0.0
  0
VERTEX
  5
773D
  8
UMCL1
 10
4693.9004631680309
 20
4006.5106007472859
 30
0.0
  0
VERTEX
  5
773E
  8
UMCL1
 10
4696.9004631680309
 20
4008.2426515548541
 30
0.0
  0
SEQEND
  5
773F
  8
UMCL1
  0
CIRCLE
  5
74A5
  8
UMCL1
 10
4481.8704631680303
 20
4243.1695894512577
 30
0.0
 40
6.0
  0
POLYLINE
  5
74A6
  8
UMCL1
 66
     1
 10
0.0
 20
0.0
 30
0.0
 70
     1
  0
VERTEX
  5
7740
  8
UMCL1
 10
4478.4063615528921
 20
4249.1695894512577
 30
0.0
  0
VERTEX
  5
7741
  8
UMCL1
 10
4474.942259937754
 20
4243.1695894512577
 30
0.0
  0
VERTEX
  5
7742
  8
UMCL1
 10
4478.4063615528921
 20
4237.1695894512577
 30
0.0
  0
VERTEX
  5
7743
  8
UMCL1
 10
4485.3345647831684
 20
4237.1695894512577
 30
0.0
  0
VERTEX
  5
7744
  8
UMCL1
 10
4488.7986663983047
 20
4243.1695894512577
 30
0.0
  0
VERTEX
  5
7745
  8
UMCL1
 10
4485.3345647831684
 20
4249.1695894512577
 30
0.0
  0
SEQEND
  5
7746
  8
UMCL1
  0
LINE
  5
74A7
  8
UMCL1
 10
4487.8704631680293
 20
4268.1695894512586
 30
0.0
 11
4485.770463168029
 21
4268.1695894512586
 31
0.0
  0
LINE
  5
74A8
  8
UMCL1
 10
4475.8704631680303
 20
4268.1695894512586
 30
0.0
 11
4481.8704631680303
 21
4268.1695894512586
 31
0.0
  0
LINE
  5
74A9
  8
UMCL1
 10
4475.8704631680284
 20
4272.1730508159708
 30
0.0
 11
4487.8704631680293
 21
4272.1730508159708
 31
0.0
  0
LINE
  5
74AA
  8
UMCL1
 10
4487.8704631680293
 20
4272.1730508159708
 30
0.0
 11
4488.7986663983047
 21
4271.8352124688008
 31
0.0
  0
LINE
  5
74AB
  8
UMCL1
 10
4488.7986663983047
 20
4271.8352124688008
 30
0.0
 11
4488.7986663983047
 21
4268.3695894512603
 31
0.0
  0
LINE
  5
74AC
  8
UMCL1
 10
4487.8704631680293
 20
4268.3695894512603
 30
0.0
 11
4487.8704631680293
 21
4268.1695894512586
 31
0.0
  0
LINE
  5
74AD
  8
UMCL1
 10
4474.942259937754
 20
4268.3695894512603
 30
0.0
 11
4488.7986663983047
 21
4268.3695894512593
 31
0.0
  0
LINE
  5
74AE
  8
UMCL1
 10
4475.8704631680293
 20
4272.1730508159708
 30
0.0
 11
4474.942259937754
 21
4271.8352124688008
 31
0.0
  0
LINE
  5
74AF
  8
UMCL1
 10
4474.942259937754
 20
4271.8352124688008
 30
0.0
 11
4474.942259937754
 21
4268.3695894512603
 31
0.0
  0
LINE
  5
74B0
  8
UMCL1
 10
4475.8704631680303
 20
4268.3695894512603
 30
0.0
 11
4475.8704631680303
 21
4268.1695894512586
 31
0.0
  0
LINE
  5
74B1
  8
UMCL1
 10
4478.1651158969089
 20
4268.3695894512603
 30
0.0
 11
4478.1651158969089
 21
4271.8352124688008
 31
0.0
  0
ARC
  5
74B2
  8
UMCL1
 10
4476.5536879173324
 20
4268.1825550091107
 30
0.0
 40
3.992318455634094
 50
66.1945626177138
 51
113.8054373822862
  0
LINE
  5
74B3
  8
UMCL1
 10
4478.8888528648531
 20
4268.3695894512603
 30
0.0
 11
4478.8888528648531
 21
4271.8352124688008
 31
0.0
  0
LINE
  5
74B4
  8
UMCL1
 10
4478.1651158969089
 20
4271.8352124688008
 30
0.0
 11
4478.8888528648531
 21
4271.8352124688008
 31
0.0
  0
ARC
  5
74B5
  8
UMCL1
 10
4481.8704631680303
 20
4258.8469514784374
 30
0.0
 40
13.326099337533821
 50
77.071076092160112
 51
102.9289239078398
  0
LINE
  5
74B6
  8
UMCL1
 10
4485.5758104391498
 20
4268.3695894512603
 30
0.0
 11
4485.5758104391498
 21
4271.8352124688008
 31
0.0
  0
ARC
  5
74B7
  8
UMCL1
 10
4487.1872384187272
 20
4268.1825550091107
 30
0.0
 40
3.992318455634094
 50
66.1945626177138
 51
113.8054373822862
  0
LINE
  5
74B8
  8
UMCL1
 10
4484.8520734712047
 20
4268.3695894512603
 30
0.0
 11
4484.8520734712047
 21
4271.8352124688008
 31
0.0
  0
LINE
  5
74B9
  8
UMCL1
 10
4478.8704631680303
 20
4272.1730508159699
 30
0.0
 11
4478.8704631680303
 21
4273.3730508159688
 31
0.0
  0
LINE
  5
74BA
  8
UMCL1
 62
     2
 10
4479.4704631680297
 20
4272.1730508159699
 30
0.0
 11
4479.4704631680297
 21
4273.9730508159691
 31
0.0
  0
LINE
  5
74BB
  8
UMCL1
 10
4478.8704631680303
 20
4273.3730508159688
 30
0.0
 11
4484.8704631680303
 21
4273.3730508159688
 31
0.0
  0
LINE
  5
74BC
  8
UMCL1
 10
4479.6704631680304
 20
4274.1730508159699
 30
0.0
 11
4484.070463168031
 21
4274.1730508159699
 31
0.0
  0
LINE
  5
74BD
  8
UMCL1
 10
4484.070463168031
 20
4274.1730508159699
 30
0.0
 11
4484.8704631680303
 21
4273.3730508159688
 31
0.0
  0
LINE
  5
74BE
  8
UMCL1
 10
4478.8704631680303
 20
4273.3730508159688
 30
0.0
 11
4479.6704631680304
 21
4274.1730508159699
 31
0.0
  0
LINE
  5
74BF
  8
UMCL1
 10
4484.8704631680303
 20
4272.1730508159699
 30
0.0
 11
4484.8704631680303
 21
4273.3730508159688
 31
0.0
  0
LINE
  5
74C0
  8
UMCL1
 62
     2
 10
4484.270463168029
 20
4272.1730508159699
 30
0.0
 11
4484.270463168029
 21
4273.9730508159691
 31
0.0
  0
LINE
  5
74C1
  8
UMCL1
 10
4861.8704631680293
 20
4025.9747023624241
 30
0.0
 11
4859.7704631680299
 21
4025.9747023624241
 31
0.0
  0
LINE
  5
74C2
  8
UMCL1
 10
4849.8704631680312
 20
4025.9747023624241
 30
0.0
 11
4855.8704631680312
 21
4025.9747023624241
 31
0.0
  0
LINE
  5
74C3
  8
UMCL1
 10
4849.8704631680284
 20
4029.9781637271358
 30
0.0
 11
4861.8704631680293
 21
4029.9781637271371
 31
0.0
  0
LINE
  5
74C4
  8
UMCL1
 10
4861.8704631680293
 20
4029.9781637271371
 30
0.0
 11
4862.7986663983047
 21
4029.6403253799672
 31
0.0
  0
LINE
  5
74C5
  8
UMCL1
 10
4862.7986663983047
 20
4029.6403253799672
 30
0.0
 11
4862.7986663983047
 21
4026.1747023624239
 31
0.0
  0
LINE
  5
74C6
  8
UMCL1
 10
4861.8704631680293
 20
4026.1747023624239
 30
0.0
 11
4861.8704631680293
 21
4025.9747023624241
 31
0.0
  0
LINE
  5
74C7
  8
UMCL1
 10
4848.942259937754
 20
4026.1747023624239
 30
0.0
 11
4862.7986663983047
 21
4026.1747023624239
 31
0.0
  0
LINE
  5
74C8
  8
UMCL1
 10
4849.8704631680303
 20
4029.9781637271371
 30
0.0
 11
4848.942259937754
 21
4029.6403253799672
 31
0.0
  0
LINE
  5
74C9
  8
UMCL1
 10
4848.942259937754
 20
4029.6403253799672
 30
0.0
 11
4848.942259937754
 21
4026.1747023624239
 31
0.0
  0
LINE
  5
74CA
  8
UMCL1
 10
4849.8704631680312
 20
4026.1747023624239
 30
0.0
 11
4849.8704631680312
 21
4025.9747023624241
 31
0.0
  0
LINE
  5
74CB
  8
UMCL1
 10
4852.1651158969098
 20
4026.1747023624239
 30
0.0
 11
4852.1651158969098
 21
4029.6403253799672
 31
0.0
  0
ARC
  5
74CC
  8
UMCL1
 10
4850.5536879173333
 20
4025.9876679202771
 30
0.0
 40
3.992318455634094
 50
66.1945626177138
 51
113.8054373822862
  0
LINE
  5
74CD
  8
UMCL1
 10
4852.8888528648531
 20
4026.1747023624239
 30
0.0
 11
4852.8888528648531
 21
4029.6403253799672
 31
0.0
  0
LINE
  5
74CE
  8
UMCL1
 10
4852.1651158969098
 20
4029.6403253799672
 30
0.0
 11
4852.8888528648531
 21
4029.6403253799672
 31
0.0
  0
ARC
  5
74CF
  8
UMCL1
 10
4855.8704631680312
 20
4016.6520643896019
 30
0.0
 40
13.326099337533821
 50
77.071076092160112
 51
102.9289239078398
  0
LINE
  5
74D0
  8
UMCL1
 10
4859.5758104391489
 20
4026.1747023624239
 30
0.0
 11
4859.5758104391489
 21
4029.6403253799672
 31
0.0
  0
ARC
  5
74D1
  8
UMCL1
 10
4861.1872384187272
 20
4025.9876679202771
 30
0.0
 40
3.992318455634094
 50
66.1945626177138
 51
113.8054373822862
  0
LINE
  5
74D2
  8
UMCL1
 10
4858.8520734712047
 20
4026.1747023624239
 30
0.0
 11
4858.8520734712047
 21
4029.6403253799672
 31
0.0
  0
LINE
  5
74D3
  8
UMCL1
 10
4487.8704631680303
 20
4025.9747023624241
 30
0.0
 11
4485.770463168029
 21
4025.9747023624241
 31
0.0
  0
LINE
  5
74D4
  8
UMCL1
 10
4475.8704631680303
 20
4025.9747023624241
 30
0.0
 11
4481.8704631680303
 21
4025.9747023624241
 31
0.0
  0
LINE
  5
74D5
  8
UMCL1
 10
4475.8704631680284
 20
4029.9781637271358
 30
0.0
 11
4487.8704631680303
 21
4029.9781637271371
 31
0.0
  0
LINE
  5
74D6
  8
UMCL1
 10
4487.8704631680303
 20
4029.9781637271371
 30
0.0
 11
4488.7986663983047
 21
4029.6403253799672
 31
0.0
  0
LINE
  5
74D7
  8
UMCL1
 10
4488.7986663983047
 20
4029.6403253799672
 30
0.0
 11
4488.7986663983047
 21
4026.1747023624239
 31
0.0
  0
LINE
  5
74D8
  8
UMCL1
 10
4487.8704631680303
 20
4026.1747023624239
 30
0.0
 11
4487.8704631680303
 21
4025.9747023624241
 31
0.0
  0
LINE
  5
74D9
  8
UMCL1
 10
4474.942259937754
 20
4026.1747023624239
 30
0.0
 11
4488.7986663983047
 21
4026.1747023624239
 31
0.0
  0
LINE
  5
74DA
  8
UMCL1
 10
4475.8704631680303
 20
4029.9781637271371
 30
0.0
 11
4474.942259937754
 21
4029.6403253799672
 31
0.0
  0
LINE
  5
74DB
  8
UMCL1
 10
4474.942259937754
 20
4029.6403253799672
 30
0.0
 11
4474.942259937754
 21
4026.1747023624239
 31
0.0
  0
LINE
  5
74DC
  8
UMCL1
 10
4475.8704631680303
 20
4026.1747023624239
 30
0.0
 11
4475.8704631680303
 21
4025.9747023624241
 31
0.0
  0
LINE
  5
74DD
  8
UMCL1
 10
4478.1651158969098
 20
4026.1747023624239
 30
0.0
 11
4478.1651158969098
 21
4029.6403253799672
 31
0.0
  0
ARC
  5
74DE
  8
UMCL1
 10
4476.5536879173324
 20
4025.9876679202771
 30
0.0
 40
3.992318455634094
 50
66.1945626177138
 51
113.8054373822862
  0
LINE
  5
74DF
  8
UMCL1
 10
4478.888852864854
 20
4026.1747023624239
 30
0.0
 11
4478.888852864854
 21
4029.6403253799672
 31
0.0
  0
LINE
  5
74E0
  8
UMCL1
 10
4478.1651158969098
 20
4029.6403253799672
 30
0.0
 11
4478.888852864854
 21
4029.6403253799672
 31
0.0
  0
ARC
  5
74E1
  8
UMCL1
 10
4481.8704631680303
 20
4016.6520643896019
 30
0.0
 40
13.326099337533821
 50
77.071076092160112
 51
102.9289239078398
  0
LINE
  5
74E2
  8
UMCL1
 10
4485.5758104391498
 20
4026.1747023624239
 30
0.0
 11
4485.5758104391498
 21
4029.6403253799672
 31
0.0
  0
ARC
  5
74E3
  8
UMCL1
 10
4487.1872384187282
 20
4025.9876679202771
 30
0.0
 40
3.992318455634094
 50
66.1945626177138
 51
113.8054373822862
  0
LINE
  5
74E4
  8
UMCL1
 10
4484.8520734712047
 20
4026.1747023624239
 30
0.0
 11
4484.8520734712047
 21
4029.6403253799672
 31
0.0
  0
LINE
  5
74E5
  8
UMCL1
 10
5032.642422873083
 20
4006.9747023624259
 30
0.0
 11
5032.6424228730848
 21
3994.974702362425
 31
0.0
  0
LINE
  5
74E6
  8
UMCL1
 10
5028.8389615083706
 20
4006.974702362425
 30
0.0
 11
5028.8389615083706
 21
3994.974702362425
 31
0.0
  0
LINE
  5
74E7
  8
UMCL1
 10
5032.642422873083
 20
4006.974702362425
 30
0.0
 11
5028.6389615083699
 21
4006.974702362425
 31
0.0
  0
ARC
  5
74E8
  8
UMCL1
 10
5020.7039694435089
 20
4004.1547023624262
 30
0.0
 40
11.93845342957454
 50
346.3369526535397
 51
13.66304734646029
  0
LINE
  5
74E9
  8
UMCL1
 10
5028.8389615083706
 20
4000.6109653944809
 30
0.0
 11
5032.304584525913
 21
4000.6109653944809
 31
0.0
  0
LINE
  5
74EA
  8
UMCL1
 10
5028.8389615083706
 20
4001.3347023624251
 30
0.0
 11
5032.304584525913
 21
4001.3347023624251
 31
0.0
  0
LINE
  5
74EB
  8
UMCL1
 62
     2
 10
5032.642422873083
 20
4002.7247023624241
 30
0.0
 11
5033.8889615083699
 21
4002.7247023624241
 31
0.0
  0
LINE
  5
74EC
  8
UMCL1
 10
5032.642422873083
 20
4002.974702362425
 30
0.0
 11
5033.6389615083708
 21
4002.974702362425
 31
0.0
  0
LINE
  5
74ED
  8
UMCL1
 10
5032.642422873083
 20
3998.9747023624259
 30
0.0
 11
5033.6389615083708
 21
3998.9747023624259
 31
0.0
  0
LINE
  5
74EE
  8
UMCL1
 62
     2
 10
5032.642422873083
 20
3999.224702362425
 30
0.0
 11
5033.8889615083699
 21
3999.224702362425
 31
0.0
  0
LINE
  5
74EF
  8
UMCL1
 10
5033.6389615083708
 20
3998.9747023624259
 30
0.0
 11
5034.1389615083708
 21
3999.474702362425
 31
0.0
  0
LINE
  5
74F0
  8
UMCL1
 10
5033.6389615083708
 20
4002.974702362425
 30
0.0
 11
5034.1389615083708
 21
4002.474702362425
 31
0.0
  0
LINE
  5
74F1
  8
UMCL1
 10
5034.1389615083708
 20
3999.474702362425
 30
0.0
 11
5034.1389615083708
 21
4002.474702362425
 31
0.0
  0
LINE
  5
74F2
  8
UMCL1
 10
5033.6389615083708
 20
3998.9747023624259
 30
0.0
 11
5033.6389615083708
 21
4002.974702362425
 31
0.0
  0
LINE
  5
74F3
  8
UMCL1
 10
5032.304584525913
 20
4001.3347023624251
 30
0.0
 11
5032.304584525913
 21
4000.6109653944809
 31
0.0
  0
LINE
  5
74F4
  8
UMCL1
 10
5032.642422873083
 20
3994.974702362425
 30
0.0
 11
5028.6389615083699
 21
3994.974702362425
 31
0.0
  0
ARC
  5
74F5
  8
UMCL1
 10
5020.7039694435089
 20
3997.7947023624238
 30
0.0
 40
11.93845342957454
 50
346.3369526535397
 51
13.66304734646029
  0
LINE
  5
74F6
  8
UMCL1
 10
4997.6184863215576
 20
4030.0681637271359
 30
0.0
 11
5009.6184863215576
 21
4030.0681637271382
 31
0.0
  0
LINE
  5
74F7
  8
UMCL1
 10
4997.6184863215594
 20
4026.264702362424
 30
0.0
 11
5009.6184863215576
 21
4026.264702362424
 31
0.0
  0
LINE
  5
74F8
  8
UMCL1
 10
4997.6184863215594
 20
4030.0681637271359
 30
0.0
 11
4997.6184863215594
 21
4026.0647023624242
 31
0.0
  0
ARC
  5
74F9
  8
UMCL1
 10
5000.4384863215582
 20
4018.1297102975632
 30
0.0
 40
11.93845342957454
 50
76.336952653539711
 51
103.66304734643499
  0
LINE
  5
74FA
  8
UMCL1
 10
5003.9822232895031
 20
4026.264702362424
 30
0.0
 11
5003.9822232895031
 21
4029.7303253799678
 31
0.0
  0
LINE
  5
74FB
  8
UMCL1
 10
5003.2584863215588
 20
4026.264702362424
 30
0.0
 11
5003.2584863215588
 21
4029.7303253799678
 31
0.0
  0
LINE
  5
74FC
  8
UMCL1
 10
5003.2584863215588
 20
4029.7303253799678
 30
0.0
 11
5003.9822232895031
 21
4029.7303253799678
 31
0.0
  0
LINE
  5
74FD
  8
UMCL1
 10
5009.6184863215576
 20
4030.0681637271359
 30
0.0
 11
5009.6184863215576
 21
4026.0647023624242
 31
0.0
  0
ARC
  5
74FE
  8
UMCL1
 10
5006.7984863215597
 20
4018.1297102975632
 30
0.0
 40
11.93845342957454
 50
76.336952653565021
 51
103.6630473464603
  0
LINE
  5
74FF
  8
CEN
 10
4693.9004631680309
 20
4020.5247023624238
 30
0.0
 11
4693.9004631680309
 21
3999.4247023624239
 31
0.0
  0
LINE
  5
7500
  8
CEN
 10
4704.4504631680302
 20
4009.9747023624232
 30
0.0
 11
4683.3504631680298
 21
4009.9747023624232
 31
0.0
  0
ARC
  5
7501
  8
UMCL1
 62
     2
 10
4693.9004631680309
 20
4009.9747023624232
 30
0.0
 40
5.75
 50
75.920543728420967
 51
10.261000946527311
  0
CIRCLE
  5
7502
  8
UMCL1
 10
4693.9004631680309
 20
4009.9747023624232
 30
0.0
 40
6.5499999999999989
  0
CIRCLE
  5
7503
  8
UMCL1
 10
4693.9004631680309
 20
4009.9747023624232
 30
0.0
 40
5.5499999999999989
  0
LINE
  5
7504
  8
CEN
 10
4643.4807900969608
 20
4304.1695894512577
 30
0.0
 11
4612.3704631680303
 21
4304.1695894512577
 31
0.0
  0
LINE
  5
7505
  8
HIDDEN
 10
4626.3704631680303
 20
4310.0195894512581
 30
0.0
 11
4624.2147081739622
 21
4310.1325677831774
 31
0.0
  0
LINE
  5
7506
  8
HIDDEN
 10
4626.3704631680303
 20
4310.8195894512583
 30
0.0
 11
4623.3704631680303
 21
4310.9768127891093
 31
0.0
  0
LINE
  5
7507
  8
HIDDEN
 10
4626.3704631680303
 20
4297.5195894512581
 30
0.0
 11
4626.3704631680303
 21
4310.8195894512583
 31
0.0
  0
LINE
  5
7508
  8
HIDDEN
 10
4624.2147081739622
 20
4298.2066111193408
 30
0.0
 11
4616.3841678204844
 21
4297.7962298888297
 31
0.0
  0
LINE
  5
7509
  8
HIDDEN
 10
4623.3704631680303
 20
4297.3623661134097
 30
0.0
 11
4616.3841678204844
 21
4296.9962298888286
 31
0.0
  0
LINE
  5
750A
  8
HIDDEN
 10
4624.3704631680303
 20
4309.9768127891084
 30
0.0
 11
4624.3704631680303
 21
4298.3623661134088
 31
0.0
  0
LINE
  5
750B
  8
HIDDEN
 10
4623.3704631680303
 20
4310.9768127891093
 30
0.0
 11
4623.3704631680303
 21
4297.3623661134097
 31
0.0
  0
LINE
  5
750C
  8
HIDDEN
 10
4623.3704631680303
 20
4310.9768127891093
 30
0.0
 11
4624.3704631680303
 21
4309.9768127891084
 31
0.0
  0
LINE
  5
750D
  8
HIDDEN
 10
4623.3704631680303
 20
4297.3623661134097
 30
0.0
 11
4624.3704631680303
 21
4298.3623661134088
 31
0.0
  0
LINE
  5
750E
  8
HIDDEN
 10
4626.3704631680303
 20
4298.3195894512583
 30
0.0
 11
4624.2147081739622
 21
4298.2066111193408
 31
0.0
  0
LINE
  5
750F
  8
HIDDEN
 10
4626.3704631680303
 20
4297.5195894512572
 30
0.0
 11
4623.3704631680303
 21
4297.3623661134088
 31
0.0
  0
LINE
  5
7510
  8
HIDDEN
 10
4623.3704631680303
 20
4310.9768127891093
 30
0.0
 11
4616.3841678204844
 21
4311.3429490136878
 31
0.0
  0
LINE
  5
7511
  8
HIDDEN
 10
4624.2147081739622
 20
4310.1325677831774
 30
0.0
 11
4616.3841678204844
 21
4310.5429490136876
 31
0.0
  0
LINE
  5
7512
  8
CEN
 10
4857.8704631680303
 20
4216.4052599322549
 30
0.0
 11
4857.8704631680303
 21
4233.3282544390513
 31
0.0
  0
LINE
  5
7513
  8
UMCL1
 10
4842.8704631680303
 20
4268.1695894512577
 30
0.0
 11
4868.8704631680303
 21
4268.1695894512577
 31
0.0
  0
LINE
  5
7514
  8
UMCL1
 10
4868.8704631680303
 20
4268.1695894512577
 30
0.0
 11
4868.8704631680303
 21
4218.1695894512577
 31
0.0
  0
LINE
  5
7515
  8
UMCL1
 10
4842.8704631680303
 20
4218.1695894512577
 30
0.0
 11
4868.8704631680303
 21
4218.1695894512577
 31
0.0
  0
LINE
  5
7516
  8
HIDDEN
 10
4849.8463853752
 20
4218.1695894512577
 30
0.0
 11
4850.3704631680303
 21
4228.1695894512577
 31
0.0
  0
LINE
  5
7517
  8
HIDDEN
 10
4849.046385375199
 20
4218.1695894512577
 30
0.0
 11
4849.5704631680301
 21
4228.1695894512577
 31
0.0
  0
LINE
  5
7518
  8
UMCL1
 10
4842.8704631680303
 20
4268.1695894512577
 30
0.0
 11
4842.8704631680303
 21
4218.1695894512577
 31
0.0
  0
LINE
  5
7519
  8
HIDDEN
 10
4865.8945409608596
 20
4218.1695894512577
 30
0.0
 11
4865.3704631680303
 21
4228.1695894512577
 31
0.0
  0
LINE
  5
751A
  8
HIDDEN
 10
4866.6945409608597
 20
4218.1695894512577
 30
0.0
 11
4866.1704631680313
 21
4228.1695894512577
 31
0.0
  0
LINE
  5
751B
  8
UMCL1
 62
     2
 10
4874.8704631680293
 20
4264.0695894512592
 30
0.0
 11
4877.6704631680304
 21
4264.0695894512583
 31
0.0
  0
LINE
  5
751C
  8
UMCL1
 10
4874.8704631680293
 20
4264.6695894512577
 30
0.0
 11
4877.0704631680292
 21
4264.6695894512577
 31
0.0
  0
LINE
  5
751D
  8
UMCL1
 62
     2
 10
4874.8704631680293
 20
4259.269589451259
 30
0.0
 11
4877.6704631680304
 21
4259.269589451259
 31
0.0
  0
LINE
  5
751E
  8
UMCL1
 10
4874.8704631680293
 20
4258.6695894512577
 30
0.0
 11
4877.0704631680292
 21
4258.6695894512577
 31
0.0
  0
LINE
  5
751F
  8
UMCL1
 10
4874.8704631680303
 20
4266.7391142644474
 30
0.0
 11
4874.8704631680303
 21
4256.6000646380699
 31
0.0
  0
LINE
  5
7520
  8
UMCL1
 10
4869.8704631680303
 20
4267.5126169563428
 30
0.0
 11
4869.8704631680293
 21
4255.8265619461736
 31
0.0
  0
ARC
  5
7521
  8
UMCL1
 10
4877.2873049982691
 20
4264.204351857853
 30
0.0
 40
7.4168418302387566
 50
160.01600439259789
 51
199.98399560740211
  0
ARC
  5
7522
  8
UMCL1
 10
4867.4536213377914
 20
4264.204351857853
 30
0.0
 40
7.4168418302387318
 50
340.01600439259789
 51
19.9839956074021
  0
LINE
  5
7523
  8
UMCL1
 10
4874.4238811806454
 20
4261.6695894512577
 30
0.0
 11
4870.3170451554151
 21
4261.6695894512577
 31
0.0
  0
LINE
  5
7524
  8
UMCL1
 10
4874.8704631680303
 20
4256.6000646380699
 30
0.0
 11
4869.8704631680303
 21
4256.6000646380699
 31
0.0
  0
ARC
  5
7525
  8
UMCL1
 10
4877.2873049982691
 20
4259.1348270446651
 30
0.0
 40
7.4168418302387566
 50
160.01600439259789
 51
199.98399560740211
  0
ARC
  5
7526
  8
UMCL1
 10
4867.4536213377914
 20
4259.1348270446651
 30
0.0
 40
7.4168418302387318
 50
340.01600439259789
 51
19.9839956074021
  0
LINE
  5
7527
  8
UMCL1
 10
4869.8704631680303
 20
4255.8265619461736
 30
0.0
 11
4868.8704631680303
 21
4255.8265619461736
 31
0.0
  0
LINE
  5
7528
  8
UMCL1
 10
4874.8704631680303
 20
4266.7391142644474
 30
0.0
 11
4869.8704631680303
 21
4266.7391142644474
 31
0.0
  0
LINE
  5
7529
  8
UMCL1
 10
4869.8704631680303
 20
4267.5126169563428
 30
0.0
 11
4868.8704631680303
 21
4267.5126169563428
 31
0.0
  0
LINE
  5
752A
  8
UMCL1
 10
4877.0704631680292
 20
4264.6695894512577
 30
0.0
 11
4877.8704631680293
 21
4263.8695894512593
 31
0.0
  0
LINE
  5
752B
  8
UMCL1
 10
4877.8704631680293
 20
4259.4695894512588
 30
0.0
 11
4877.0704631680292
 21
4258.6695894512577
 31
0.0
  0
LINE
  5
752C
  8
UMCL1
 10
4877.8704631680293
 20
4263.8695894512593
 30
0.0
 11
4877.8704631680293
 21
4259.4695894512588
 31
0.0
  0
LINE
  5
752D
  8
UMCL1
 10
4877.0704631680292
 20
4264.6695894512577
 30
0.0
 11
4877.0704631680292
 21
4258.6695894512577
 31
0.0
  0
LINE
  5
752E
  8
UMCL1
 10
4877.0704631680292
 20
4227.6695894512586
 30
0.0
 11
4877.0704631680292
 21
4221.6695894512577
 31
0.0
  0
LINE
  5
752F
  8
UMCL1
 10
4877.8704631680293
 20
4226.8695894512603
 30
0.0
 11
4877.8704631680293
 21
4222.4695894512579
 31
0.0
  0
ARC
  5
7530
  8
UMCL1
 10
4867.4536213377914
 20
4222.1348270446651
 30
0.0
 40
7.4168418302387318
 50
340.01600439259789
 51
19.9839956074021
  0
ARC
  5
7531
  8
UMCL1
 10
4877.2873049982691
 20
4222.1348270446651
 30
0.0
 40
7.4168418302387566
 50
160.01600439259789
 51
199.98399560740211
  0
LINE
  5
7532
  8
UMCL1
 10
4869.8704631680303
 20
4230.5126169563428
 30
0.0
 11
4869.8704631680293
 21
4218.8265619461736
 31
0.0
  0
LINE
  5
7533
  8
UMCL1
 10
4874.8704631680303
 20
4229.7391142644474
 30
0.0
 11
4874.8704631680303
 21
4219.6000646380708
 31
0.0
  0
LINE
  5
7534
  8
UMCL1
 10
4874.8704631680293
 20
4221.6695894512577
 30
0.0
 11
4877.0704631680292
 21
4221.6695894512577
 31
0.0
  0
LINE
  5
7535
  8
UMCL1
 62
     2
 10
4874.8704631680293
 20
4222.269589451259
 30
0.0
 11
4877.6704631680304
 21
4222.269589451259
 31
0.0
  0
LINE
  5
7536
  8
UMCL1
 10
4869.8704631680303
 20
4218.8265619461736
 30
0.0
 11
4868.8704631680303
 21
4218.8265619461736
 31
0.0
  0
LINE
  5
7537
  8
UMCL1
 10
4874.8704631680303
 20
4219.6000646380708
 30
0.0
 11
4869.8704631680303
 21
4219.6000646380708
 31
0.0
  0
LINE
  5
7538
  8
UMCL1
 10
4877.8704631680293
 20
4222.4695894512579
 30
0.0
 11
4877.0704631680292
 21
4221.6695894512577
 31
0.0
  0
LINE
  5
7539
  8
UMCL1
 10
4874.8704631680293
 20
4227.6695894512586
 30
0.0
 11
4877.0704631680292
 21
4227.6695894512586
 31
0.0
  0
LINE
  5
753A
  8
UMCL1
 62
     2
 10
4874.8704631680293
 20
4227.0695894512592
 30
0.0
 11
4877.6704631680304
 21
4227.0695894512583
 31
0.0
  0
LINE
  5
753B
  8
UMCL1
 10
4869.8704631680303
 20
4230.5126169563428
 30
0.0
 11
4868.8704631680303
 21
4230.5126169563428
 31
0.0
  0
LINE
  5
753C
  8
UMCL1
 10
4874.8704631680303
 20
4229.7391142644474
 30
0.0
 11
4869.8704631680303
 21
4229.7391142644474
 31
0.0
  0
ARC
  5
753D
  8
UMCL1
 10
4867.4536213377914
 20
4227.2043518578521
 30
0.0
 40
7.4168418302387318
 50
340.01600439259789
 51
19.9839956074021
  0
ARC
  5
753E
  8
UMCL1
 10
4877.2873049982691
 20
4227.2043518578521
 30
0.0
 40
7.4168418302387566
 50
160.01600439259789
 51
199.98399560740211
  0
LINE
  5
753F
  8
UMCL1
 10
4877.0704631680292
 20
4227.6695894512586
 30
0.0
 11
4877.8704631680293
 21
4226.8695894512603
 31
0.0
  0
CIRCLE
  5
7540
  8
UMCL1
 10
4855.8704631680312
 20
4243.1695894512577
 30
0.0
 40
6.0
  0
POLYLINE
  5
7541
  8
UMCL1
 66
     1
 10
0.0
 20
0.0
 30
0.0
 70
     1
  0
VERTEX
  5
7747
  8
UMCL1
 10
4859.3345647831684
 20
4249.1695894512577
 30
0.0
  0
VERTEX
  5
7748
  8
UMCL1
 10
4862.7986663983056
 20
4243.1695894512577
 30
0.0
  0
VERTEX
  5
7749
  8
UMCL1
 10
4859.3345647831684
 20
4237.1695894512577
 30
0.0
  0
VERTEX
  5
774A
  8
UMCL1
 10
4852.4063615528921
 20
4237.1695894512577
 30
0.0
  0
VERTEX
  5
774B
  8
UMCL1
 10
4848.942259937754
 20
4243.1695894512577
 30
0.0
  0
VERTEX
  5
774C
  8
UMCL1
 10
4852.4063615528921
 20
4249.1695894512577
 30
0.0
  0
SEQEND
  5
774D
  8
UMCL1
  0
LINE
  5
7542
  8
UMCL1
 10
4849.8704631680312
 20
4268.1695894512586
 30
0.0
 11
4851.9704631680297
 21
4268.1695894512586
 31
0.0
  0
LINE
  5
7543
  8
UMCL1
 10
4861.8704631680312
 20
4268.1695894512586
 30
0.0
 11
4855.8704631680312
 21
4268.1695894512586
 31
0.0
  0
LINE
  5
7544
  8
UMCL1
 10
4861.8704631680321
 20
4272.1730508159708
 30
0.0
 11
4849.8704631680312
 21
4272.1730508159708
 31
0.0
  0
LINE
  5
7545
  8
UMCL1
 10
4849.8704631680312
 20
4272.1730508159708
 30
0.0
 11
4848.9422599377558
 21
4271.8352124688008
 31
0.0
  0
LINE
  5
7546
  8
UMCL1
 10
4848.9422599377558
 20
4271.8352124688008
 30
0.0
 11
4848.9422599377558
 21
4268.3695894512603
 31
0.0
  0
LINE
  5
7547
  8
UMCL1
 10
4849.8704631680312
 20
4268.3695894512603
 30
0.0
 11
4849.8704631680312
 21
4268.1695894512586
 31
0.0
  0
LINE
  5
7548
  8
UMCL1
 10
4862.7986663983056
 20
4268.3695894512603
 30
0.0
 11
4848.9422599377558
 21
4268.3695894512593
 31
0.0
  0
LINE
  5
7549
  8
UMCL1
 10
4861.8704631680312
 20
4272.1730508159708
 30
0.0
 11
4862.7986663983056
 21
4271.8352124688008
 31
0.0
  0
LINE
  5
754A
  8
UMCL1
 10
4862.7986663983056
 20
4271.8352124688008
 30
0.0
 11
4862.7986663983056
 21
4268.3695894512603
 31
0.0
  0
LINE
  5
754B
  8
UMCL1
 10
4861.8704631680312
 20
4268.3695894512603
 30
0.0
 11
4861.8704631680312
 21
4268.1695894512586
 31
0.0
  0
LINE
  5
754C
  8
UMCL1
 10
4859.5758104391498
 20
4268.3695894512603
 30
0.0
 11
4859.5758104391498
 21
4271.8352124688008
 31
0.0
  0
ARC
  5
754D
  8
UMCL1
 10
4861.1872384187282
 20
4268.1825550091107
 30
0.0
 40
3.992318455634094
 50
66.1945626177138
 51
113.8054373822862
  0
LINE
  5
754E
  8
UMCL1
 10
4858.8520734712083
 20
4268.3695894512603
 30
0.0
 11
4858.8520734712083
 21
4271.8352124688008
 31
0.0
  0
LINE
  5
754F
  8
UMCL1
 10
4859.5758104391498
 20
4271.8352124688008
 30
0.0
 11
4858.8520734712083
 21
4271.8352124688008
 31
0.0
  0
ARC
  5
7550
  8
UMCL1
 10
4855.8704631680312
 20
4258.8469514784374
 30
0.0
 40
13.326099337533821
 50
77.071076092160112
 51
102.9289239078398
  0
LINE
  5
7551
  8
UMCL1
 10
4852.1651158969107
 20
4268.3695894512603
 30
0.0
 11
4852.1651158969107
 21
4271.8352124688008
 31
0.0
  0
ARC
  5
7552
  8
UMCL1
 10
4850.5536879173333
 20
4268.1825550091107
 30
0.0
 40
3.992318455634094
 50
66.1945626177138
 51
113.8054373822862
  0
LINE
  5
7553
  8
UMCL1
 10
4852.8888528648549
 20
4268.3695894512603
 30
0.0
 11
4852.8888528648549
 21
4271.8352124688008
 31
0.0
  0
LINE
  5
7554
  8
UMCL1
 10
4858.8704631680303
 20
4272.1730508159699
 30
0.0
 11
4858.8704631680303
 21
4273.3730508159688
 31
0.0
  0
LINE
  5
7555
  8
UMCL1
 62
     2
 10
4858.2704631680299
 20
4272.1730508159699
 30
0.0
 11
4858.2704631680299
 21
4273.9730508159691
 31
0.0
  0
LINE
  5
7556
  8
UMCL1
 10
4858.8704631680303
 20
4273.3730508159688
 30
0.0
 11
4852.8704631680312
 21
4273.3730508159688
 31
0.0
  0
LINE
  5
7557
  8
UMCL1
 10
4858.0704631680301
 20
4274.1730508159699
 30
0.0
 11
4853.6704631680313
 21
4274.1730508159699
 31
0.0
  0
LINE
  5
7558
  8
UMCL1
 10
4853.6704631680313
 20
4274.1730508159699
 30
0.0
 11
4852.8704631680312
 21
4273.3730508159688
 31
0.0
  0
LINE
  5
7559
  8
UMCL1
 10
4858.8704631680303
 20
4273.3730508159688
 30
0.0
 11
4858.0704631680301
 21
4274.1730508159699
 31
0.0
  0
LINE
  5
755A
  8
UMCL1
 10
4852.8704631680312
 20
4272.1730508159699
 30
0.0
 11
4852.8704631680312
 21
4273.3730508159688
 31
0.0
  0
LINE
  5
755B
  8
UMCL1
 62
     2
 10
4853.4704631680297
 20
4272.1730508159699
 30
0.0
 11
4853.4704631680297
 21
4273.9730508159691
 31
0.0
  0
LINE
  5
755C
  8
CEN
 10
4857.8704631680303
 20
3989.6497023624252
 30
0.0
 11
4857.8704631680303
 21
4012.2997023624248
 31
0.0
  0
ENDSEC
  0
EOF
