  0
SECTION
  2
HEADER
  9
$ACADVER
  1
AC1009
  9
$INSBASE
 10
0.0
 20
0.0
 30
0.0
  9
$EXTMIN
 10
276.99999999999977
 20
-25.662136860989609
 30
0.0
  9
$EXTMAX
 10
1107.0
 20
625.00000000000023
 30
0.0
  9
$LIMMIN
 10
0.0
 20
0.0
  9
$LIMMAX
 10
1188.0
 20
840.0
  9
$ORTHOMODE
 70
     1
  9
$REGENMODE
 70
     1
  9
$FILLMODE
 70
     1
  9
$QTEXTMODE
 70
     0
  9
$MIRRTEXT
 70
     1
  9
$DRAGMODE
 70
     2
  9
$LTSCALE
 40
1.0
  9
$OSMODE
 70
    39
  9
$ATTMODE
 70
     1
  9
$TEXTSIZE
 40
3.0
  9
$TRACEWID
 40
0.05
  9
$TEXTSTYLE
  7
ITALICT
  9
$CLAYER
  8
0
  9
$CELTYPE
  6
CONTINUOUS
  9
$CECOLOR
 62
   256
  9
$DIMSCALE
 40
1.0
  9
$DIMASZ
 40
3.0
  9
$DIMEXO
 40
1.0
  9
$DIMDLI
 40
1.4824161510814720E+016
  9
$DIMRND
 40
0.0
  9
$DIMDLE
 40
0.0
  9
$DIMEXE
 40
1.0
  9
$DIMTP
 40
0.15
  9
$DIMTM
 40
-0.1
  9
$DIMTXT
 40
3.0
  9
$DIMCEN
 40
2.0
  9
$DIMTSZ
 40
0.0
  9
$DIMTOL
 70
     0
  9
$DIMLIM
 70
     0
  9
$DIMTIH
 70
     0
  9
$DIMTOH
 70
     0
  9
$DIMSE1
 70
     0
  9
$DIMSE2
 70
     0
  9
$DIMTAD
 70
     1
  9
$DIMZIN
 70
     0
  9
$DIMBLK
  1

  9
$DIMASO
 70
     0
  9
$DIMSHO
 70
     0
  9
$DIMPOST
  1

  9
$DIMAPOST
  1

  9
$DIMALT
 70
     0
  9
$DIMALTD
 70
     2
  9
$DIMALTF
 40
25.399999999999999
  9
$DIMLFAC
 40
1.0
  9
$DIMTOFL
 70
     1
  9
$DIMTVP
 40
1.0
  9
$DIMTIX
 70
     0
  9
$DIMSOXD
 70
     0
  9
$DIMSAH
 70
     0
  9
$DIMBLK1
  1

  9
$DIMBLK2
  1

  9
$DIMSTYLE
  2
STANDARD
  9
$DIMCLRD
 70
     0
  9
$DIMCLRE
 70
     0
  9
$DIMCLRT
 70
     0
  9
$DIMTFAC
 40
1.0
  9
$DIMGAP
 40
0.09
  9
$LUNITS
 70
     2
  9
$LUPREC
 70
     2
  9
$SKETCHINC
 40
0.1
  9
$FILLETRAD
 40
0.75
  9
$AUNITS
 70
     0
  9
$AUPREC
 70
     2
  9
$MENU
  1
ACAD
  9
$ELEVATION
 40
0.0
  9
$PELEVATION
 40
0.0
  9
$THICKNESS
 40
0.0
  9
$LIMCHECK
 70
     0
  9
$BLIPMODE
 70
     0
  9
$CHAMFERA
 40
0.0
  9
$CHAMFERB
 40
0.0
  9
$SKPOLY
 70
     1
  9
$TDCREATE
 40
2450580.7034460641
  9
$TDUPDATE
 40
2451929.4997347682
  9
$TDINDWG
 40
0.0946596412
  9
$TDUSRTIMER
 40
0.0946596412
  9
$USRTIMER
 70
     1
  9
$ANGBASE
 50
0.0
  9
$ANGDIR
 70
     0
  9
$PDMODE
 70
     0
  9
$PDSIZE
 40
0.0
  9
$PLINEWID
 40
0.0
  9
$COORDS
 70
     2
  9
$SPLFRAME
 70
     0
  9
$SPLINETYPE
 70
     6
  9
$SPLINESEGS
 70
     8
  9
$ATTDIA
 70
     0
  9
$ATTREQ
 70
     1
  9
$HANDLING
 70
 12289
  9
$HANDSEED
  5
144E
  9
$SURFTAB1
 70
     6
  9
$SURFTAB2
 70
     6
  9
$SURFTYPE
 70
     6
  9
$SURFU
 70
     6
  9
$SURFV
 70
     6
  9
$UCSNAME
  2

  9
$UCSORG
 10
0.0
 20
0.0
 30
0.0
  9
$UCSXDIR
 10
1.0
 20
0.0
 30
0.0
  9
$UCSYDIR
 10
0.0
 20
1.0
 30
0.0
  9
$PUCSNAME
  2

  9
$PUCSORG
 10
0.0
 20
0.0
 30
0.0
  9
$PUCSXDIR
 10
1.0
 20
0.0
 30
0.0
  9
$PUCSYDIR
 10
0.0
 20
1.0
 30
0.0
  9
$USERI1
 70
     0
  9
$USERI2
 70
-31485
  9
$USERI3
 70
     0
  9
$USERI4
 70
     0
  9
$USERI5
 70
     0
  9
$USERR1
 40
0.0
  9
$USERR2
 40
0.0
  9
$USERR3
 40
0.0
  9
$USERR4
 40
0.0
  9
$USERR5
 40
0.0
  9
$WORLDVIEW
 70
     1
  9
$SHADEDGE
 70
     3
  9
$SHADEDIF
 70
    70
  9
$TILEMODE
 70
     1
  9
$MAXACTVP
 70
    64
  9
$PLIMCHECK
 70
     0
  9
$PEXTMIN
 10
1.0000000000000000E+020
 20
1.0000000000000000E+020
 30
1.0000000000000000E+020
  9
$PEXTMAX
 10
-1.0000000000000000E+020
 20
-1.0000000000000000E+020
 30
-1.0000000000000000E+020
  9
$PLIMMIN
 10
0.0
 20
0.0
  9
$PLIMMAX
 10
12.0
 20
9.0
  9
$UNITMODE
 70
     0
  9
$VISRETAIN
 70
     1
  9
$PLINEGEN
 70
     0
  9
$PSLTSCALE
 70
     0
  0
ENDSEC
  0
SECTION
  2
TABLES
  0
TABLE
  2
VPORT
 70
     2
  0
VPORT
  2
*ACTIVE
 70
     0
 10
0.0
 20
0.0
 11
1.0
 21
1.0
 12
691.97882368087164
 22
299.64477720629048
 13
0.0
 23
0.0
 14
1.0
 24
1.0
 15
0.0
 25
0.0
 16
0.0
 26
0.0
 36
1.0
 17
0.0
 27
0.0
 37
0.0
 40
657.91578831555626
 41
1.727440147329649
 42
1.0
 43
0.0
 44
0.0
 50
0.0
 51
0.0
 71
     0
 72
   100
 73
     1
 74
     1
 75
     0
 76
     0
 77
     0
 78
     0
  0
ENDTAB
  0
TABLE
  2
LTYPE
 70
     3
  0
LTYPE
  2
CONTINUOUS
 70
     0
  3
Solid line
 72
    65
 73
     0
 40
0.0
  0
LTYPE
  2
CENTER
 70
     0
  3
_______________ _ _______________ _ ___________
 72
    65
 73
     4
 40
18.0
 49
15.0
 49
-1.0
 49
1.0
 49
-1.0
  0
LTYPE
  2
HIDDEN
 70
     0
  3
___ ___ ___ ___ ___ ___ ___ ___ ___ ___ 
 72
    65
 73
     2
 40
4.0
 49
3.0
 49
-1.0
  0
ENDTAB
  0
TABLE
  2
LAYER
 70
     5
  0
LAYER
  2
0
 70
     0
 62
     7
  6
CONTINUOUS
  0
LAYER
  2
DIM
 70
     0
 62
     5
  6
CONTINUOUS
  0
LAYER
  2
HIDDEN
 70
     0
 62
     6
  6
HIDDEN
  0
LAYER
  2
CENTER
 70
     0
 62
     1
  6
CENTER
  0
LAYER
  2
LOGO
 70
     0
 62
     7
  6
CONTINUOUS
  0
ENDTAB
  0
TABLE
  2
STYLE
 70
     8
  0
STYLE
  2
STANDARD
 70
     0
 40
0.0
 41
1.0
 50
0.0
 71
     0
 42
3.0
  3
txt
  4

  0
STYLE
  2
ITALICT
 70
     0
 40
0.0
 41
1.0
 50
0.0
 71
     0
 42
3.0
  3
ITALICT.SHX
  4

  0
STYLE
  2
ROMANSS
 70
     0
 40
0.0
 41
1.0
 50
0.0
 71
     0
 42
3.0
  3
ROMANSS.SHX
  4
LMP
  0
STYLE
  2
CHINESET
 70
     0
 40
0.0
 41
1.0
 50
0.0
 71
     0
 42
4.0
  3
C:\r13\com\fonts\simplex.shx
  4
C:\r13\com\fonts\chineset.shx
  0
STYLE
  2
LOGO
 70
     0
 40
0.0
 41
1.0
 50
0.0
 71
     0
 42
5.0
  3
txt
  4

  0
ENDTAB
  0
TABLE
  2
VIEW
 70
     0
  0
ENDTAB
  0
TABLE
  2
UCS
 70
     0
  0
ENDTAB
  0
TABLE
  2
APPID
 70
     2
  0
APPID
  2
ACAD
 70
     0
  0
APPID
  2
TCAD
 70
     0
  0
ENDTAB
  0
TABLE
  2
DIMSTYLE
 70
     1
  0
DIMSTYLE
  2
STANDARD
 70
     0
  3

  4

  5

  6

  7

 40
1.0
 41
0.18
 42
0.0625
 43
0.38
 44
0.18
 45
0.0
 46
0.0
 47
0.0
 48
0.0
140
0.18
141
0.09
142
0.0
143
25.399999999999999
144
1.0
145
0.0
146
1.0
147
0.09
 71
     0
 72
     0
 73
     1
 74
     1
 75
     0
 76
     0
 77
     0
 78
     0
170
     0
171
     2
172
     0
173
     0
174
     0
175
     0
176
     0
177
     0
178
     0
  0
ENDTAB
  0
ENDSEC
  0
SECTION
  2
BLOCKS
  0
BLOCK
  8
0
  2
$MODEL_SPACE
 70
     0
 10
0.0
 20
0.0
 30
0.0
  3
$MODEL_SPACE
  1

  0
ENDBLK
  5
3F
  8
0
  0
BLOCK
 67
     1
  8
0
  2
$PAPER_SPACE
 70
     0
 10
0.0
 20
0.0
 30
0.0
  3
$PAPER_SPACE
  1

  0
ENDBLK
  5
3D
 67
     1
  8
0
  0
ENDSEC
  0
SECTION
  2
ENTITIES
  0
LINE
  5
B29
  8
LOGO
 62
     4
 10
277.0
 20
109.0
 30
0.0
 11
277.0
 21
625.00000000000023
 31
0.0
  0
LINE
  5
B2A
  8
LOGO
 62
     4
 10
1107.0
 20
109.0
 30
0.0
 11
277.0
 21
109.0
 31
0.0
  0
LINE
  5
B2E
  8
LOGO
 62
     4
 10
277.0
 20
625.00000000000023
 30
0.0
 11
1107.0
 21
624.99999999999989
 31
0.0
  0
LINE
  5
B2F
  8
LOGO
 62
     4
 10
1107.0
 20
624.99999999999989
 30
0.0
 11
1107.0
 21
109.0
 31
0.0
  0
LINE
  5
B30
  8
CENTER
  6
CENTER
 10
733.20419093510145
 20
349.19804680619347
 30
0.0
 11
703.20419093510145
 21
349.19804680619347
 31
0.0
  0
LINE
  5
B31
  8
CENTER
  6
CENTER
 10
500.20419093510128
 20
217.9290284635598
 30
0.0
 11
893.20419093510134
 21
217.9290284635598
 31
0.0
  0
LINE
  5
B32
  8
CENTER
  6
CENTER
 10
648.70419093510145
 20
187.9290284635598
 30
0.0
 11
744.70419093510145
 21
187.9290284635598
 31
0.0
  0
LINE
  5
B33
  8
0
 10
651.70419093510134
 20
145.42902846355969
 30
0.0
 11
741.70419093510145
 21
145.42902846355969
 31
0.0
  0
LINE
  5
B34
  8
0
 10
651.70419093510145
 20
255.42902846355989
 30
0.0
 11
741.70419093510145
 21
255.42902846355989
 31
0.0
  0
CIRCLE
  5
B35
  8
0
  6
CONTINUOUS
 10
696.70419093510145
 20
187.9290284635598
 30
0.0
 40
41.0
  0
CIRCLE
  5
B36
  8
0
  6
CONTINUOUS
 10
696.70419093510145
 20
187.9290284635598
 30
0.0
 40
40.0
  0
CIRCLE
  5
B37
  8
CENTER
  6
CENTER
 10
696.70419093510145
 20
187.9290284635598
 30
0.0
 40
33.5
  0
CIRCLE
  5
B38
  8
CENTER
  6
CENTER
 10
696.70419093510145
 20
544.41387932977455
 30
0.0
 40
33.5
  0
LINE
  5
B39
  8
DIM
  6
CONTINUOUS
 10
664.70419093510145
 20
594.91387932977466
 30
0.0
 11
728.70419093510145
 21
594.91387932977466
 31
0.0
  0
LINE
  5
B3A
  8
DIM
  6
CONTINUOUS
 10
494.34746491838467
 20
297.19804680619347
 30
0.0
 11
898.68021066332926
 21
297.19804680619347
 31
0.0
  0
LINE
  5
B3B
  8
DIM
  6
CONTINUOUS
 10
654.70419093510145
 20
305.19804680619347
 30
0.0
 11
738.70419093510145
 21
305.19804680619347
 31
0.0
  0
LINE
  5
B3C
  8
DIM
  6
CONTINUOUS
 10
658.70419093510145
 20
313.19804680619347
 30
0.0
 11
734.70419093510145
 21
313.19804680619347
 31
0.0
  0
CIRCLE
  5
B3D
  8
0
  6
CONTINUOUS
 10
696.70419093510145
 20
544.41387932977455
 30
0.0
 40
40.0
  0
CIRCLE
  5
B3E
  8
0
  6
CONTINUOUS
 10
696.70419093510145
 20
544.41387932977455
 30
0.0
 40
41.0
  0
LINE
  5
B3F
  8
0
 10
651.70419093510145
 20
476.91387932977449
 30
0.0
 11
741.70419093510145
 21
476.91387932977449
 31
0.0
  0
LINE
  5
B40
  8
0
 10
651.70419093510134
 20
586.91387932977466
 30
0.0
 11
741.70419093510145
 21
586.91387932977466
 31
0.0
  0
LINE
  5
B41
  8
CENTER
  6
CENTER
 10
648.70419093510145
 20
544.41387932977455
 30
0.0
 11
744.70419093510145
 21
544.41387932977455
 31
0.0
  0
LINE
  5
B42
  8
0
  6
CONTINUOUS
 10
656.70419093510145
 20
321.19804680619347
 30
0.0
 11
736.70419093510145
 21
321.19804680619347
 31
0.0
  0
LINE
  5
B43
  8
0
  6
CONTINUOUS
 10
656.70419093510145
 20
416.19804680619347
 30
0.0
 11
736.70419093510145
 21
416.19804680619347
 31
0.0
  0
LINE
  5
B44
  8
0
  6
CONTINUOUS
 10
651.70419093510145
 20
331.19804680619359
 30
0.0
 11
741.70419093510145
 21
331.19804680619359
 31
0.0
  0
LINE
  5
B45
  8
0
  6
CONTINUOUS
 10
651.70419093510134
 20
406.19804680619359
 30
0.0
 11
741.70419093510145
 21
406.19804680619359
 31
0.0
  0
LINE
  5
B46
  8
CENTER
  6
CENTER
 10
500.20419093510128
 20
514.41387932977455
 30
0.0
 11
893.20419093510134
 21
514.41387932977455
 31
0.0
  0
LINE
  5
B47
  8
CENTER
  6
CENTER
 10
500.20419093510128
 20
368.69804680619359
 30
0.0
 11
892.20419093510122
 21
368.69804680619359
 31
0.0
  0
LINE
  5
B48
  8
CENTER
  6
CENTER
 10
394.44860186367572
 20
409.19804680619342
 30
0.0
 11
394.44860186367572
 21
328.19804680619342
 31
0.0
  0
CIRCLE
  5
B49
  8
0
 10
394.44860186367572
 20
368.69804680619342
 30
0.0
 40
22.999999999999979
  0
CIRCLE
  5
B4A
  8
0
 10
394.44860186367572
 20
368.69804680619342
 30
0.0
 40
22.499999999999979
  0
LINE
  5
B4B
  8
0
 10
428.94860186367578
 20
366.19804680619342
 30
0.0
 11
428.94860186367578
 21
350.36961422268553
 31
0.0
  0
LINE
  5
B4C
  8
0
 10
431.44860186367589
 20
396.69804680619347
 30
0.0
 11
431.44860186367589
 21
340.69804680619342
 31
0.0
  0
LINE
  5
B4D
  8
0
 10
359.94860186367572
 20
366.1980468061933
 30
0.0
 11
359.94860186367572
 21
350.36961422268553
 31
0.0
  0
LINE
  5
B4E
  8
0
 10
356.94860186367572
 20
396.69804680619347
 30
0.0
 11
356.94860186367572
 21
340.69804680619342
 31
0.0
  0
LINE
  5
B4F
  8
0
 10
357.44860186367572
 20
396.69804680619347
 30
0.0
 11
357.44860186367572
 21
340.69804680619342
 31
0.0
  0
LINE
  5
B50
  8
0
 10
431.94860186367578
 20
406.19804680619359
 30
0.0
 11
431.94860186367578
 21
331.1980468061933
 31
0.0
  0
LINE
  5
B51
  8
0
 10
321.94860186367561
 20
406.19804680619359
 30
0.0
 11
321.94860186367572
 21
331.1980468061933
 31
0.0
  0
LINE
  5
B52
  8
CENTER
  6
CENTER
 10
364.44860186367578
 20
420.35769188276078
 30
0.0
 11
364.44860186367578
 21
318.1980468061933
 31
0.0
  0
CIRCLE
  5
B53
  8
0
  6
CONTINUOUS
 10
696.70419093510134
 20
368.69804680619359
 30
0.0
 40
4.0
  0
LINE
  5
B54
  8
0
 10
503.20419093510128
 20
347.1980468061937
 30
0.0
 11
503.20419093510128
 21
390.1980468061937
 31
0.0
  0
LINE
  5
B55
  8
0
 10
508.20419093510139
 20
331.69804680619347
 30
0.0
 11
508.20419093510128
 21
405.69804680619359
 31
0.0
  0
LINE
  5
B56
  8
0
 10
540.20419093510145
 20
331.19804680619359
 30
0.0
 11
540.20419093510134
 21
406.19804680619359
 31
0.0
  0
LINE
  5
B57
  8
0
 10
540.20419093510145
 20
333.69804680619347
 30
0.0
 11
540.20419093510145
 21
403.69804680619347
 31
0.0
  0
ARC
  5
B58
  8
0
 62
     2
 10
524.20419093510134
 20
361.69804680619347
 30
0.0
 40
8.25
 50
77.924803836954695
 51
18.66239316544393
  0
CIRCLE
  5
B59
  8
0
 10
524.20419093510134
 20
361.69804680619347
 30
0.0
 40
11.5
  0
CIRCLE
  5
B5A
  8
0
 10
524.20419093510134
 20
361.69804680619347
 30
0.0
 40
8.4999999999999574
  0
CIRCLE
  5
B5B
  8
0
 10
524.20419093510134
 20
361.69804680619342
 30
0.0
 40
6.5
  0
CIRCLE
  5
B5C
  8
0
 10
524.20419093510134
 20
361.69804680619347
 30
0.0
 40
7.5
  0
LINE
  5
B5D
  8
CENTER
  6
CENTER
 10
524.20419093510145
 20
374.1980468061937
 30
0.0
 11
524.20419093510134
 21
349.1980468061937
 31
0.0
  0
LINE
  5
B5E
  8
0
 10
651.70419093510134
 20
406.19804680619359
 30
0.0
 11
651.70419093510145
 21
331.19804680619359
 31
0.0
  0
LINE
  5
B5F
  8
CENTER
  6
CENTER
 10
696.70419093510134
 20
420.95691018560512
 30
0.0
 11
696.70419093510145
 21
318.19804680619359
 31
0.0
  0
ARC
  5
B60
  8
0
 10
405.94860186367589
 20
347.06473915340962
 30
0.0
 40
1.5
 50
117.99456173225229
 51
180.0
  0
ARC
  5
B61
  8
0
 10
405.94860186367589
 20
335.69804680619342
 30
0.0
 40
1.5
 50
180.0
 51
270.0
  0
LINE
  5
B62
  8
0
  6
CONTINUOUS
 10
404.44860186367572
 20
321.1980468061933
 30
0.0
 11
405.44860186367572
 21
322.1980468061933
 31
0.0
  0
LINE
  5
B63
  8
0
 10
396.94860186367589
 20
334.19804680619342
 30
0.0
 11
412.77703444718372
 21
334.19804680619342
 31
0.0
  0
LINE
  5
B64
  8
0
 10
422.44860186367572
 20
331.69804680619347
 30
0.0
 11
366.44860186367578
 21
331.69804680619347
 31
0.0
  0
LINE
  5
B65
  8
0
  6
CONTINUOUS
 10
405.44860186367572
 20
322.1980468061933
 30
0.0
 11
323.44860186367572
 21
322.1980468061933
 31
0.0
  0
LINE
  5
B66
  8
0
  6
CONTINUOUS
 10
431.94860186367578
 20
331.19804680619342
 30
0.0
 11
321.94860186367561
 21
331.19804680619342
 31
0.0
  0
LINE
  5
B67
  8
0
  6
CONTINUOUS
 10
404.44860186367572
 20
321.1980468061933
 30
0.0
 11
324.44860186367572
 21
321.1980468061933
 31
0.0
  0
LINE
  5
B68
  8
CENTER
  6
CENTER
 10
329.44860186367572
 20
328.91786544341079
 30
0.0
 11
329.44860186367572
 21
342.91786544341079
 31
0.0
  0
LINE
  5
B69
  8
0
 10
323.44860186367572
 20
322.1980468061933
 30
0.0
 11
323.44860186367572
 21
331.19804680619342
 31
0.0
  0
LINE
  5
B6A
  8
0
  6
CONTINUOUS
 10
324.44860186367572
 20
321.1980468061933
 30
0.0
 11
323.44860186367572
 21
322.1980468061933
 31
0.0
  0
ARC
  5
B6B
  8
0
 10
371.78524338110878
 20
349.9237756201523
 30
0.0
 40
1.5
 50
239.4775121859314
 51
314.99999999999841
  0
LINE
  5
B6C
  8
0
 10
361.44860186367572
 20
358.6980468061933
 30
0.0
 11
372.81529421089181
 21
358.6980468061933
 31
0.0
  0
LINE
  5
B6D
  8
CENTER
  6
CENTER
 10
373.69860186367572
 20
340.44804680619342
 30
0.0
 11
358.69860186367572
 21
340.44804680619342
 31
0.0
  0
CIRCLE
  5
B6E
  8
0
 10
366.19860186367572
 20
340.44804680619342
 30
0.0
 40
6.5
  0
LINE
  5
B6F
  8
CENTER
  6
CENTER
 10
366.19860186367572
 20
347.94804680619342
 30
0.0
 11
366.19860186367572
 21
332.94804680619342
 31
0.0
  0
ARC
  5
B70
  8
0
  6
CONTINUOUS
 62
     2
 10
366.19860186367572
 20
340.44804680619342
 30
0.0
 40
4.0
 50
165.54611884332431
 51
122.22581883937571
  0
CIRCLE
  5
B71
  8
0
  6
CONTINUOUS
 10
366.19860186367572
 20
340.44804680619342
 30
0.0
 40
3.399999999999999
  0
POLYLINE
  5
B72
  8
0
  6
CONTINUOUS
 66
     1
 10
0.0
 20
0.0
 30
0.0
 70
     1
  0
VERTEX
  5
1392
  8
0
  6
CONTINUOUS
 10
368.50800294043421
 20
344.44804680619342
 30
0.0
  0
VERTEX
  5
1393
  8
0
  6
CONTINUOUS
 10
370.8174040171927
 20
340.44804680619342
 30
0.0
  0
VERTEX
  5
1394
  8
0
  6
CONTINUOUS
 10
368.50800294043421
 20
336.44804680619342
 30
0.0
  0
VERTEX
  5
1395
  8
0
  6
CONTINUOUS
 10
363.88920078691729
 20
336.44804680619342
 30
0.0
  0
VERTEX
  5
1396
  8
0
  6
CONTINUOUS
 10
361.5797997101588
 20
340.44804680619342
 30
0.0
  0
VERTEX
  5
1397
  8
0
  6
CONTINUOUS
 10
363.88920078691729
 20
344.44804680619342
 30
0.0
  0
SEQEND
  5
1398
  8
0
  6
CONTINUOUS
  0
ARC
  5
B7A
  8
0
 10
366.44860186367578
 20
340.69804680619342
 30
0.0
 40
9.5
 50
180.0
 51
270.0
  0
ARC
  5
B7B
  8
0
 10
366.44860186367578
 20
340.69804680619342
 30
0.0
 40
9.0
 50
180.0
 51
270.0
  0
ARC
  5
B7C
  8
0
 10
366.19860186367572
 20
340.44804680619342
 30
0.0
 40
9.5
 50
59.477512185930138
 51
115.58300197739329
  0
ARC
  5
B7D
  8
0
 10
361.44860186367572
 20
350.36961422268553
 30
0.0
 40
1.5
 50
180.0
 51
295.58300197742591
  0
ARC
  5
B7E
  8
0
 10
361.44860186367572
 20
357.1980468061933
 30
0.0
 40
1.5
 50
90.0
 51
180.0
  0
LINE
  5
B7F
  8
0
 10
384.44860186367572
 20
335.69804680619342
 30
0.0
 11
384.44860186367572
 21
347.06473915340962
 31
0.0
  0
ARC
  5
B80
  8
0
 10
366.19860186367572
 20
340.44804680619342
 30
0.0
 40
9.5
 50
334.41699802262252
 51
30.52248781407032
  0
LINE
  5
B81
  8
0
 10
395.44860186367578
 20
335.69804680619342
 30
0.0
 11
395.44860186367578
 21
344.3259315922856
 31
0.0
  0
LINE
  5
B82
  8
0
 10
404.44860186367578
 20
335.69804680619342
 30
0.0
 11
404.44860186367578
 21
347.06473915340962
 31
0.0
  0
LINE
  5
B83
  8
0
 10
393.44860186367572
 20
335.69804680619342
 30
0.0
 11
393.44860186367572
 21
344.3259315922856
 31
0.0
  0
LINE
  5
B84
  8
CENTER
  6
CENTER
 10
399.44860186367572
 20
328.91786544341068
 30
0.0
 11
399.44860186367572
 21
342.91786544341068
 31
0.0
  0
LINE
  5
B85
  8
0
 10
391.94860186367572
 20
334.19804680619342
 30
0.0
 11
376.12016928016777
 21
334.19804680619342
 31
0.0
  0
ARC
  5
B86
  8
0
 10
376.12016928016777
 20
335.69804680619342
 30
0.0
 40
1.5
 50
154.41699802258859
 51
270.0
  0
ARC
  5
B87
  8
0
 10
382.94860186367572
 20
335.69804680619342
 30
0.0
 40
1.5
 50
270.0
 51
0.0
  0
ARC
  5
B88
  8
0
 10
396.94860186367589
 20
335.69804680619342
 30
0.0
 40
1.5
 50
180.0
 51
270.0
  0
ARC
  5
B89
  8
0
 10
391.94860186367572
 20
335.69804680619342
 30
0.0
 40
1.5
 50
270.0
 51
0.0
  0
ARC
  5
B8A
  8
0
 10
375.2894205485897
 20
353.42795278763339
 30
0.0
 40
1.5
 50
314.99999999999841
 51
38.555259660229609
  0
ARC
  5
B8B
  8
0
 10
379.17850784511569
 20
349.53886549110752
 30
0.0
 40
1.5
 50
51.444740339770391
 51
135.00000000000151
  0
LINE
  5
B8C
  8
0
 10
376.3500807203697
 20
352.36729261585361
 30
0.0
 11
372.8459035528885
 21
348.86311544837258
 31
0.0
  0
LINE
  5
B8D
  8
0
 10
378.11784767333592
 20
350.5995256628874
 30
0.0
 11
374.61367050585471
 21
347.0953484954062
 31
0.0
  0
ARC
  5
B8E
  8
0
 10
375.67433067763471
 20
346.03468832362643
 30
0.0
 40
1.5
 50
135.00000000000151
 51
210.52248781407189
  0
ARC
  5
B8F
  8
0
 10
382.94860186367572
 20
347.06473915340962
 30
0.0
 40
1.5
 50
0.0
 51
62.005438267747621
  0
ARC
  5
B90
  8
0
 10
372.81529421089181
 20
357.1980468061933
 30
0.0
 40
1.5
 50
27.99456173225046
 51
90.0
  0
ARC
  5
B91
  8
0
 10
396.94860186367589
 20
344.3259315922856
 30
0.0
 40
1.5
 50
95.856701909919025
 51
180.0
  0
ARC
  5
B92
  8
0
 10
391.94860186367572
 20
344.3259315922856
 30
0.0
 40
1.5
 50
0.0
 51
84.143298090080961
  0
LINE
  5
B93
  8
CENTER
  6
CENTER
 10
696.70419093510145
 20
142.42902846355969
 30
0.0
 11
696.70419093510145
 21
258.42902846355992
 31
0.0
  0
LINE
  5
B94
  8
0
 10
651.70419093510134
 20
145.42902846355969
 30
0.0
 11
651.70419093510145
 21
255.42902846355989
 31
0.0
  0
LINE
  5
B95
  8
CENTER
  6
CENTER
 10
668.77347307823266
 20
159.99831060669109
 30
0.0
 11
677.25875445247129
 21
168.4835919809297
 31
0.0
  0
LINE
  5
B96
  8
CENTER
  6
CENTER
 10
654.70419093510145
 20
152.9290284635598
 30
0.0
 11
668.70419093510145
 21
152.9290284635598
 31
0.0
  0
LINE
  5
B97
  8
CENTER
  6
CENTER
 10
661.70419093510145
 20
145.9290284635598
 30
0.0
 11
661.70419093510145
 21
159.9290284635598
 31
0.0
  0
ARC
  5
B98
  8
0
  6
CONTINUOUS
 62
     2
 10
661.70419093510145
 20
152.9290284635598
 30
0.0
 40
4.0
 50
335.22857957427379
 51
294.32248297488059
  0
CIRCLE
  5
B99
  8
0
  6
CONTINUOUS
 10
661.70419093510145
 20
152.9290284635598
 30
0.0
 40
3.399999999999999
  0
LINE
  5
B9A
  8
0
 10
651.70419093510122
 20
182.9290284635598
 30
0.0
 11
540.20419093510145
 21
182.9290284635598
 31
0.0
  0
LINE
  5
B9B
  8
0
 10
651.70419093510145
 20
252.9290284635598
 30
0.0
 11
540.20419093510145
 21
252.9290284635598
 31
0.0
  0
LINE
  5
B9C
  8
0
 10
651.70419093510145
 20
236.7191379221332
 30
0.0
 11
540.20419093510145
 21
236.7191379221332
 31
0.0
  0
LINE
  5
B9D
  8
0
 10
651.70419093510145
 20
199.13891900498629
 30
0.0
 11
540.20419093510145
 21
199.13891900498629
 31
0.0
  0
LINE
  5
B9E
  8
0
 10
651.70419093510145
 20
349.90793734762019
 30
0.0
 11
540.20419093510145
 21
349.90793734762019
 31
0.0
  0
LINE
  5
B9F
  8
0
 10
651.70419093510145
 20
333.6980468061937
 30
0.0
 11
540.20419093510145
 21
333.6980468061937
 31
0.0
  0
LINE
  5
BA0
  8
0
 10
540.20419093510145
 20
180.42902846355969
 30
0.0
 11
540.20419093510134
 21
255.4290284635598
 31
0.0
  0
LINE
  5
BA1
  8
0
 10
508.20419093510139
 20
180.92902846355969
 30
0.0
 11
508.20419093510128
 21
254.9290284635598
 31
0.0
  0
LINE
  5
BA2
  8
0
 10
540.20419093510134
 20
180.42902846355969
 30
0.0
 11
508.20419093510128
 21
180.92902846355969
 31
0.0
  0
LINE
  5
BA3
  8
0
 10
503.20419093510128
 20
196.4290284635598
 30
0.0
 11
503.20419093510128
 21
239.42902846355989
 31
0.0
  0
ARC
  5
BA4
  8
0
 10
504.20419093510128
 20
196.4290284635598
 30
0.0
 40
1.0
 50
180.0
 51
270.0
  0
LINE
  5
BA5
  8
0
 10
508.20419093510139
 20
195.4290284635598
 30
0.0
 11
504.20419093510128
 21
195.4290284635598
 31
0.0
  0
ARC
  5
BA6
  8
0
 10
504.20419093510128
 20
239.42902846355989
 30
0.0
 40
1.0
 50
90.0
 51
180.0
  0
LINE
  5
BA7
  8
0
 10
508.20419093510128
 20
240.42902846355989
 30
0.0
 11
504.20419093510128
 21
240.42902846355989
 31
0.0
  0
LINE
  5
BA8
  8
0
 10
540.20419093510145
 20
182.92902846355969
 30
0.0
 11
540.20419093510145
 21
252.9290284635598
 31
0.0
  0
LINE
  5
BA9
  8
0
 10
540.20419093510134
 20
255.4290284635598
 30
0.0
 11
508.20419093510128
 21
254.9290284635598
 31
0.0
  0
SOLID
  5
BAA
  8
DIM
  6
CONTINUOUS
 10
511.20419093510139
 20
297.69804680619359
 30
0.0
 11
511.20419093510139
 21
296.69804680619347
 31
0.0
 12
508.20419093510139
 22
297.19804680619347
 32
0.0
 13
508.20419093510139
 23
297.19804680619347
 33
0.0
  0
LINE
  5
BAB
  8
0
 10
540.20419093510134
 20
331.19804680619359
 30
0.0
 11
508.20419093510128
 21
331.69804680619347
 31
0.0
  0
LINE
  5
BAC
  8
DIM
  6
CONTINUOUS
 10
503.20419093510139
 20
345.12032388200367
 30
0.0
 11
503.20419093510139
 21
296.19804680619359
 31
0.0
  0
LINE
  5
BAD
  8
DIM
  6
CONTINUOUS
 10
508.20419093510139
 20
330.69804680619359
 30
0.0
 11
508.20419093510139
 21
296.19804680619359
 31
0.0
  0
TEXT
  5
BAE
  8
DIM
  6
CONTINUOUS
 10
495.98332230456049
 20
298.69804680619347
 30
0.0
 40
3.0
  1
5
  7
ROMANSS
 72
     1
 11
496.9833223045606
 21
300.19804680619347
 31
0.0
 73
     2
  0
SOLID
  5
BB0
  8
DIM
  6
CONTINUOUS
 10
500.20419093510139
 20
297.69804680619359
 30
0.0
 11
500.20419093510139
 21
296.69804680619347
 31
0.0
 12
503.20419093510139
 22
297.19804680619347
 32
0.0
 13
503.20419093510139
 23
297.19804680619347
 33
0.0
  0
LINE
  5
BB1
  8
CENTER
  6
CENTER
 10
420.81158203537638
 20
349.19804680619347
 30
0.0
 11
442.94860186367572
 21
349.19804680619347
 31
0.0
  0
LINE
  5
BB2
  8
0
  6
CONTINUOUS
 10
436.94860186367578
 20
344.19804680619347
 30
0.0
 11
438.44860186367572
 21
344.19804680619347
 31
0.0
  0
LINE
  5
BB3
  8
0
  6
CONTINUOUS
 10
436.94860186367578
 20
354.19804680619359
 30
0.0
 11
438.44860186367572
 21
354.19804680619359
 31
0.0
  0
LINE
  5
BB4
  8
0
  6
CONTINUOUS
 62
     2
 10
436.94860186367578
 20
345.19804680619359
 30
0.0
 11
439.44860186367572
 21
345.19804680619359
 31
0.0
  0
LINE
  5
BB5
  8
0
  6
CONTINUOUS
 62
     2
 10
436.94860186367578
 20
353.19804680619347
 30
0.0
 11
439.44860186367572
 21
353.19804680619347
 31
0.0
  0
ARC
  5
BB6
  8
0
  6
CONTINUOUS
 10
442.12082408590362
 20
344.9480468061937
 30
0.0
 40
10.19983357405331
 50
155.3752531507765
 51
204.6247468492239
  0
ARC
  5
BB7
  8
0
  6
CONTINUOUS
 10
426.7763796414477
 20
344.94804680619347
 30
0.0
 40
10.19983357405331
 50
335.37525315077369
 51
24.624746849226248
  0
LINE
  5
BB8
  8
0
  6
CONTINUOUS
 10
436.94860186367578
 20
340.69804680619347
 30
0.0
 11
436.94860186367578
 21
357.69804680619359
 31
0.0
  0
ARC
  5
BB9
  8
0
 10
422.69860186367578
 20
340.44804680619342
 30
0.0
 40
9.5
 50
149.47751218592961
 51
205.58300197738259
  0
LINE
  5
BBA
  8
CENTER
  6
CENTER
 10
422.69860186367578
 20
347.94804680619342
 30
0.0
 11
422.69860186367578
 21
332.94804680619342
 31
0.0
  0
CIRCLE
  5
BBB
  8
0
 10
422.69860186367578
 20
340.44804680619342
 30
0.0
 40
6.5
  0
ARC
  5
BBC
  8
0
  6
CONTINUOUS
 62
     2
 10
422.69860186367578
 20
340.44804680619342
 30
0.0
 40
4.0
 50
165.54611884332431
 51
122.22581883937571
  0
CIRCLE
  5
BBD
  8
0
  6
CONTINUOUS
 10
422.69860186367578
 20
340.44804680619342
 30
0.0
 40
3.399999999999999
  0
POLYLINE
  5
BBE
  8
0
  6
CONTINUOUS
 66
     1
 10
0.0
 20
0.0
 30
0.0
 70
     1
  0
VERTEX
  5
1399
  8
0
  6
CONTINUOUS
 10
425.00800294043421
 20
344.44804680619342
 30
0.0
  0
VERTEX
  5
139A
  8
0
  6
CONTINUOUS
 10
427.31740401719281
 20
340.44804680619342
 30
0.0
  0
VERTEX
  5
139B
  8
0
  6
CONTINUOUS
 10
425.00800294043421
 20
336.44804680619342
 30
0.0
  0
VERTEX
  5
139C
  8
0
  6
CONTINUOUS
 10
420.38920078691717
 20
336.44804680619342
 30
0.0
  0
VERTEX
  5
139D
  8
0
  6
CONTINUOUS
 10
418.0797997101588
 20
340.44804680619342
 30
0.0
  0
VERTEX
  5
139E
  8
0
  6
CONTINUOUS
 10
420.38920078691717
 20
344.44804680619342
 30
0.0
  0
SEQEND
  5
139F
  8
0
  6
CONTINUOUS
  0
LINE
  5
BC6
  8
CENTER
  6
CENTER
 10
430.19860186367578
 20
340.44804680619342
 30
0.0
 11
415.19860186367572
 21
340.44804680619342
 31
0.0
  0
LINE
  5
BC7
  8
0
 10
405.44860186367572
 20
322.1980468061933
 30
0.0
 11
405.44860186367572
 21
331.19804680619342
 31
0.0
  0
ARC
  5
BC8
  8
0
 10
412.77703444718372
 20
335.69804680619342
 30
0.0
 40
1.5
 50
270.0
 51
25.58300197741622
  0
ARC
  5
BC9
  8
0
 10
422.44860186367572
 20
340.69804680619342
 30
0.0
 40
9.5
 50
270.0
 51
0.0
  0
ARC
  5
BCA
  8
0
 10
422.44860186367572
 20
340.69804680619342
 30
0.0
 40
9.0
 50
270.0
 51
0.0
  0
LINE
  5
BCB
  8
0
  6
CONTINUOUS
 10
436.94860186367578
 20
340.69804680619347
 30
0.0
 11
431.94860186367589
 21
340.69804680619347
 31
0.0
  0
LINE
  5
BCC
  8
CENTER
  6
CENTER
 10
435.1398959470157
 20
361.69804680619347
 30
0.0
 11
411.4752385259182
 21
361.69804680619347
 31
0.0
  0
ARC
  5
BCD
  8
0
 10
422.69860186367578
 20
340.44804680619342
 30
0.0
 40
9.5
 50
64.416998022611821
 51
120.5224878140702
  0
ARC
  5
BCE
  8
0
 10
413.60778317876162
 20
353.4279527876335
 30
0.0
 40
1.5
 50
141.44474033977031
 51
225.00000000000151
  0
LINE
  5
BCF
  8
0
 10
412.54712300698191
 20
352.36729261585361
 30
0.0
 11
416.05130017446299
 21
348.86311544837258
 31
0.0
  0
LINE
  5
BD0
  8
0
 10
410.77935605401552
 20
350.5995256628874
 30
0.0
 11
414.28353322149661
 21
347.0953484954062
 31
0.0
  0
ARC
  5
BD1
  8
0
 10
409.71869588223581
 20
349.53886549110752
 30
0.0
 40
1.5
 50
44.999999999998458
 51
128.55525966023399
  0
ARC
  5
BD2
  8
0
 10
417.11196034624271
 20
349.92377562015241
 30
0.0
 40
1.5
 50
225.00000000000151
 51
300.52248781406939
  0
ARC
  5
BD3
  8
0
 10
413.22287304971678
 20
346.03468832362643
 30
0.0
 40
1.5
 50
329.47751218592748
 51
44.999999999998458
  0
ARC
  5
BD4
  8
0
  6
CONTINUOUS
 10
442.12082408590362
 20
353.4480468061937
 30
0.0
 40
10.19983357405331
 50
155.3752531507765
 51
204.6247468492239
  0
ARC
  5
BD5
  8
0
  6
CONTINUOUS
 10
426.7763796414477
 20
353.44804680619359
 30
0.0
 40
10.19983357405331
 50
335.37525315077369
 51
24.624746849225541
  0
ARC
  5
BD6
  8
0
 10
427.44860186367572
 20
350.36961422268553
 30
0.0
 40
1.5
 50
244.41699802258179
 51
0.0
  0
LINE
  5
BD7
  8
0
  6
CONTINUOUS
 10
429.94860186367572
 20
349.19804680619347
 30
0.0
 11
436.04860186367608
 21
349.19804680619347
 31
0.0
  0
LINE
  5
BD8
  8
0
  6
CONTINUOUS
 10
429.94860186367572
 20
349.19804680619347
 30
0.0
 11
436.04860186367608
 21
349.19804680619347
 31
0.0
  0
LINE
  5
BD9
  8
0
  6
CONTINUOUS
 10
436.94860186367578
 20
357.69804680619359
 30
0.0
 11
431.94860186367589
 21
357.69804680619359
 31
0.0
  0
LINE
  5
BDA
  8
0
  6
CONTINUOUS
 10
438.44860186367572
 20
354.19804680619359
 30
0.0
 11
439.94860186367572
 21
352.69804680619347
 31
0.0
  0
LINE
  5
BDB
  8
0
  6
CONTINUOUS
 10
438.44860186367572
 20
344.19804680619347
 30
0.0
 11
438.44860186367572
 21
354.19804680619359
 31
0.0
  0
LINE
  5
BDC
  8
0
  6
CONTINUOUS
 10
439.94860186367572
 20
345.69804680619359
 30
0.0
 11
439.94860186367572
 21
352.69804680619347
 31
0.0
  0
LINE
  5
BDD
  8
0
  6
CONTINUOUS
 10
438.44860186367572
 20
344.19804680619347
 30
0.0
 11
439.94860186367572
 21
345.69804680619359
 31
0.0
  0
LINE
  5
BDE
  8
0
 10
508.20419093510139
 20
346.1980468061937
 30
0.0
 11
505.20419093510128
 21
346.1980468061937
 31
0.0
  0
ARC
  5
BDF
  8
0
 10
505.0929997222558
 20
348.47566438050251
 30
0.0
 40
2.2803300858899109
 50
214.07498890478081
 51
272.79490874106091
  0
LINE
  5
BE0
  8
CENTER
  6
CENTER
 10
536.70419093510134
 20
361.69804680619347
 30
0.0
 11
511.70419093510128
 21
361.6980468061937
 31
0.0
  0
LINE
  5
BE1
  8
CENTER
  6
CENTER
 10
675.20419093510145
 20
242.60266052886161
 30
0.0
 11
675.20419093510145
 21
267.19746893441169
 31
0.0
  0
CIRCLE
  5
BE2
  8
0
  6
CONTINUOUS
 10
673.01611376535186
 20
164.2409512938105
 30
0.0
 40
2.5
  0
ARC
  5
BE3
  8
0
  6
CONTINUOUS
 62
     2
 10
673.01611376535186
 20
164.2409512938105
 30
0.0
 40
3.0
 50
206.9635988910145
 51
149.15498767399501
  0
LINE
  5
BE4
  8
CENTER
  6
CENTER
 10
654.70419093510145
 20
222.92902846355989
 30
0.0
 11
668.70419093510145
 21
222.92902846355989
 31
0.0
  0
LINE
  5
BE5
  8
CENTER
  6
CENTER
 10
661.70419093510145
 20
215.9290284635598
 30
0.0
 11
661.70419093510145
 21
229.92902846355989
 31
0.0
  0
ARC
  5
BE6
  8
0
  6
CONTINUOUS
 62
     2
 10
661.70419093510145
 20
222.92902846355989
 30
0.0
 40
4.0
 50
335.22857957427448
 51
294.32248297488059
  0
CIRCLE
  5
BE7
  8
0
  6
CONTINUOUS
 10
661.70419093510145
 20
222.92902846355989
 30
0.0
 40
3.399999999999999
  0
LINE
  5
BE8
  8
DIM
  6
CONTINUOUS
 10
651.70419093510145
 20
330.19804680619347
 30
0.0
 11
651.70419093510145
 21
304.19804680619359
 31
0.0
  0
LINE
  5
BE9
  8
DIM
  6
CONTINUOUS
 10
655.70419093510145
 20
321.19804680619347
 30
0.0
 11
655.70419093510145
 21
312.19804680619359
 31
0.0
  0
LINE
  5
BEA
  8
0
  6
CONTINUOUS
 10
678.70419093509918
 20
263.42902846355992
 30
0.0
 11
671.70419093509895
 21
263.42902846355992
 31
0.0
  0
ARC
  5
BEB
  8
0
  6
CONTINUOUS
 10
675.21023072595403
 20
245.42902967952901
 30
0.0
 40
14.999999999999989
 50
90.023070302298393
 51
109.4956922330536
  0
LINE
  5
BEC
  8
0
  6
CONTINUOUS
 10
683.45419093509906
 20
260.42902846355992
 30
0.0
 11
666.95419093509895
 21
260.42902846355992
 31
0.0
  0
LINE
  5
BED
  8
0
  6
CONTINUOUS
 10
680.20419093509906
 20
261.92902846355992
 30
0.0
 11
670.20419093509895
 21
261.92902846355992
 31
0.0
  0
ARC
  5
BEE
  8
0
  6
CONTINUOUS
 10
675.21023072589867
 20
270.42902724759068
 30
0.0
 40
14.999999999999989
 50
250.50430776694591
 51
269.97692969770111
  0
LINE
  5
BEF
  8
0
  6
CONTINUOUS
 62
     2
 10
671.20419093509906
 20
260.42902846355992
 30
0.0
 11
671.20419093509906
 21
262.92902846355992
 31
0.0
  0
LINE
  5
BF0
  8
0
  6
CONTINUOUS
 10
665.4041909350999
 20
259.5341092949684
 30
0.0
 11
666.95419093509906
 21
260.42902846355992
 31
0.0
  0
ARC
  5
BF1
  8
0
  6
CONTINUOUS
 10
667.89773172160164
 20
256.90725038016973
 30
0.0
 40
3.5220472269320542
 50
49.090720066529038
 51
119.2051441578367
  0
LINE
  5
BF2
  8
0
  6
CONTINUOUS
 10
670.20419093509918
 20
260.42902846355992
 30
0.0
 11
670.20419093509918
 21
261.92902846355992
 31
0.0
  0
ARC
  5
BF3
  8
0
  6
CONTINUOUS
 10
667.89773172154639
 20
258.95080654694988
 30
0.0
 40
3.5220472269320542
 50
240.7948558421632
 51
310.90927993346969
  0
LINE
  5
BF4
  8
0
  6
CONTINUOUS
 10
665.40419093504454
 20
256.32394763215137
 30
0.0
 11
666.95419093504381
 21
255.42902846355989
 31
0.0
  0
LINE
  5
BF5
  8
0
  6
CONTINUOUS
 10
665.4041909350999
 20
256.32394763211943
 30
0.0
 11
665.4041909350999
 21
259.5341092949684
 31
0.0
  0
LINE
  5
BF6
  8
0
  6
CONTINUOUS
 10
670.20419093509918
 20
256.28902846354077
 30
0.0
 11
670.20419093509918
 21
259.56902846355928
 31
0.0
  0
LINE
  5
BF7
  8
0
  6
CONTINUOUS
 10
670.20419093509918
 20
261.92902846355992
 30
0.0
 11
671.70419093509906
 21
263.42902846355992
 31
0.0
  0
SOLID
  5
BF8
  8
DIM
  6
CONTINUOUS
 10
658.70419093510145
 20
313.69804680619347
 30
0.0
 11
658.70419093510145
 21
312.69804680619347
 31
0.0
 12
655.70419093510145
 22
313.19804680619347
 32
0.0
 13
655.70419093510145
 23
313.19804680619347
 33
0.0
  0
SOLID
  5
BF9
  8
DIM
  6
CONTINUOUS
 10
654.70419093510145
 20
305.69804680619359
 30
0.0
 11
654.70419093510145
 21
304.69804680619347
 31
0.0
 12
651.70419093510145
 22
305.19804680619347
 32
0.0
 13
651.70419093510145
 23
305.19804680619347
 33
0.0
  0
ARC
  5
BFA
  8
0
  6
CONTINUOUS
 10
682.5106501485966
 20
256.90725038016973
 30
0.0
 40
3.5220472269320542
 50
60.794855842163209
 51
130.90927993347091
  0
ARC
  5
BFB
  8
0
  6
CONTINUOUS
 10
682.51065014854123
 20
258.95080654694988
 30
0.0
 40
3.5220472269320542
 50
229.0907200665302
 51
299.2051441578368
  0
LINE
  5
BFC
  8
0
  6
CONTINUOUS
 62
     2
 10
679.20419093509918
 20
260.42902846355992
 30
0.0
 11
679.20419093509918
 21
262.92902846355992
 31
0.0
  0
LINE
  5
BFD
  8
0
  6
CONTINUOUS
 10
680.20419093509906
 20
260.42902846355992
 30
0.0
 11
680.20419093509906
 21
261.92902846355992
 31
0.0
  0
LINE
  5
BFE
  8
0
  6
CONTINUOUS
 10
680.20419093509906
 20
261.92902846355992
 30
0.0
 11
678.70419093509918
 21
263.42902846355992
 31
0.0
  0
LINE
  5
BFF
  8
0
  6
CONTINUOUS
 10
680.20419093509906
 20
256.28902846358
 30
0.0
 11
680.20419093509906
 21
259.56902846355928
 31
0.0
  0
ARC
  5
C00
  8
0
  6
CONTINUOUS
 10
675.19815114424409
 20
245.42902967952901
 30
0.0
 40
14.999999999999989
 50
70.504307766945388
 51
89.976929697700726
  0
ARC
  5
C01
  8
0
  6
CONTINUOUS
 10
675.19815114418884
 20
270.42902724759068
 30
0.0
 40
14.999999999999989
 50
270.02307030229878
 51
289.49569223305389
  0
LINE
  5
C02
  8
0
  6
CONTINUOUS
 10
685.00419093509845
 20
259.5341092949684
 30
0.0
 11
683.45419093509906
 21
260.42902846355992
 31
0.0
  0
LINE
  5
C03
  8
0
  6
CONTINUOUS
 10
685.00419093504297
 20
256.32394763215137
 30
0.0
 11
683.45419093504381
 21
255.42902846355989
 31
0.0
  0
LINE
  5
C04
  8
0
  6
CONTINUOUS
 10
685.00419093509845
 20
256.32394763218332
 30
0.0
 11
685.00419093509845
 21
259.5341092949684
 31
0.0
  0
TEXT
  5
C05
  8
DIM
  6
CONTINUOUS
 10
694.27561950653001
 20
306.69804680619347
 30
0.0
 40
3.0
  1
90
  7
ROMANSS
 72
     1
 11
696.70419093510145
 21
308.19804680619359
 31
0.0
 73
     2
  0
TEXT
  5
C06
  8
DIM
  6
CONTINUOUS
 10
692.84704807795845
 20
298.69804680619347
 30
0.0
 40
3.0
  1
377
  7
ROMANSS
 72
     1
 11
696.70419093510145
 21
300.19804680619347
 31
0.0
 73
     2
  0
TEXT
  5
C07
  8
DIM
  6
CONTINUOUS
 10
692.91847664938712
 20
314.69804680619347
 30
0.0
 40
3.0
  1
%%c82
  7
ROMANSS
 72
     1
 11
696.70419093510145
 21
316.19804680619359
 31
0.0
 73
     2
  0
POLYLINE
  5
C08
  8
0
  6
CONTINUOUS
 66
     1
 10
0.0
 20
0.0
 30
0.0
 70
     1
  0
VERTEX
  5
13A0
  8
0
  6
CONTINUOUS
 10
670.30419093510181
 20
357.6850957632812
 30
0.0
  0
VERTEX
  5
13A1
  8
0
  6
CONTINUOUS
 10
665.40419093510218
 20
349.19804680619347
 30
0.0
  0
VERTEX
  5
13A2
  8
0
  6
CONTINUOUS
 10
670.30419093510181
 20
340.71099784910592
 30
0.0
  0
VERTEX
  5
13A3
  8
0
  6
CONTINUOUS
 10
680.10419093510109
 20
340.71099784910592
 30
0.0
  0
VERTEX
  5
13A4
  8
0
  6
CONTINUOUS
 10
685.00419093510061
 20
349.19804680619347
 30
0.0
  0
VERTEX
  5
13A5
  8
0
  6
CONTINUOUS
 10
680.10419093510109
 20
357.6850957632812
 30
0.0
  0
SEQEND
  5
13A6
  8
0
  6
CONTINUOUS
  0
CIRCLE
  5
C10
  8
0
  6
CONTINUOUS
 10
675.20419093510145
 20
349.19804680619347
 30
0.0
 40
8.25
  0
POLYLINE
  5
C11
  8
0
  6
CONTINUOUS
 66
     1
 10
0.0
 20
0.0
 30
0.0
 70
     1
  0
VERTEX
  5
13A7
  8
0
  6
CONTINUOUS
 10
673.76081526212727
 20
351.69804680619359
 30
0.0
  0
VERTEX
  5
13A8
  8
0
  6
CONTINUOUS
 10
672.31743958915331
 20
349.19804680619347
 30
0.0
  0
VERTEX
  5
13A9
  8
0
  6
CONTINUOUS
 10
673.76081526212727
 20
346.69804680619347
 30
0.0
  0
VERTEX
  5
13AA
  8
0
  6
CONTINUOUS
 10
676.64756660807552
 20
346.69804680619347
 30
0.0
  0
VERTEX
  5
13AB
  8
0
  6
CONTINUOUS
 10
678.09094228104959
 20
349.19804680619347
 30
0.0
  0
VERTEX
  5
13AC
  8
0
  6
CONTINUOUS
 10
676.64756660807552
 20
351.69804680619359
 30
0.0
  0
SEQEND
  5
13AD
  8
0
  6
CONTINUOUS
  0
ARC
  5
C19
  8
0
  6
CONTINUOUS
 62
     2
 10
675.20419093510145
 20
349.19804680619347
 30
0.0
 40
4.25
 50
69.487813016515673
 51
22.414620147485479
  0
CIRCLE
  5
C1A
  8
0
  6
CONTINUOUS
 10
675.20419093510145
 20
349.19804680619347
 30
0.0
 40
5.0
  0
LINE
  5
C1B
  8
CENTER
  6
CENTER
 10
660.20419093510145
 20
349.19804680619347
 30
0.0
 11
690.20419093510145
 21
349.19804680619347
 31
0.0
  0
LINE
  5
C1C
  8
CENTER
  6
CENTER
 10
661.70419093510145
 20
328.9178654434109
 30
0.0
 11
661.70419093510145
 21
347.05090246825091
 31
0.0
  0
LINE
  5
C1D
  8
0
  6
CONTINUOUS
 10
655.70419093510145
 20
322.19804680619359
 30
0.0
 11
656.70419093510145
 21
321.19804680619347
 31
0.0
  0
LINE
  5
C1E
  8
0
 10
655.70419093510145
 20
331.19804680619359
 30
0.0
 11
655.70419093510145
 21
322.19804680619359
 31
0.0
  0
LINE
  5
C1F
  8
CENTER
  6
CENTER
 10
675.20419093510145
 20
364.19804680619359
 30
0.0
 11
675.20419093510145
 21
334.19804680619347
 31
0.0
  0
LINE
  5
C20
  8
0
  6
CONTINUOUS
 10
404.44860186367572
 20
416.19804680619347
 30
0.0
 11
405.44860186367572
 21
415.19804680619347
 31
0.0
  0
ARC
  5
C21
  8
0
 10
405.94860186367589
 20
401.69804680619347
 30
0.0
 40
1.5
 50
90.0
 51
180.0
  0
ARC
  5
C22
  8
0
 10
405.94860186367589
 20
390.33135445897727
 30
0.0
 40
1.5
 50
180.0
 51
242.00543826774759
  0
LINE
  5
C23
  8
0
 10
396.94860186367589
 20
403.19804680619342
 30
0.0
 11
412.77703444718372
 21
403.19804680619342
 31
0.0
  0
LINE
  5
C24
  8
CENTER
  6
CENTER
 10
434.94860186367589
 20
368.69804680619359
 30
0.0
 11
318.94860186367572
 21
368.69804680619342
 31
0.0
  0
LINE
  5
C25
  8
0
 10
422.44860186367572
 20
405.69804680619347
 30
0.0
 11
366.44860186367578
 21
405.69804680619347
 31
0.0
  0
LINE
  5
C26
  8
0
  6
CONTINUOUS
 10
405.44860186367572
 20
415.19804680619347
 30
0.0
 11
323.44860186367572
 21
415.19804680619347
 31
0.0
  0
LINE
  5
C27
  8
0
  6
CONTINUOUS
 10
431.94860186367578
 20
406.19804680619359
 30
0.0
 11
321.94860186367561
 21
406.19804680619359
 31
0.0
  0
LINE
  5
C28
  8
0
  6
CONTINUOUS
 10
404.44860186367572
 20
416.19804680619347
 30
0.0
 11
324.44860186367572
 21
416.19804680619347
 31
0.0
  0
LINE
  5
C29
  8
0
 10
323.44860186367572
 20
415.19804680619347
 30
0.0
 11
323.44860186367572
 21
406.19804680619359
 31
0.0
  0
LINE
  5
C2A
  8
CENTER
  6
CENTER
 10
329.44860186367572
 20
408.4782281689761
 30
0.0
 11
329.44860186367572
 21
394.47822816897622
 31
0.0
  0
LINE
  5
C2B
  8
0
  6
CONTINUOUS
 10
324.44860186367572
 20
416.19804680619347
 30
0.0
 11
323.44860186367572
 21
415.19804680619347
 31
0.0
  0
ARC
  5
C2C
  8
0
 10
371.7852433811085
 20
387.47231799223442
 30
0.0
 40
1.5
 50
44.999999999998458
 51
120.5224878140716
  0
LINE
  5
C2D
  8
CENTER
  6
CENTER
 10
373.69860186367572
 20
396.94804680619342
 30
0.0
 11
358.69860186367572
 21
396.94804680619342
 31
0.0
  0
CIRCLE
  5
C2E
  8
0
 10
366.19860186367572
 20
396.94804680619342
 30
0.0
 40
6.5
  0
ARC
  5
C2F
  8
0
 10
370.0764866497679
 20
366.1980468061933
 30
0.0
 40
1.5
 50
5.856701909916989
 51
90.0
  0
ARC
  5
C30
  8
0
 10
370.0764866497679
 20
371.19804680619342
 30
0.0
 40
1.5
 50
270.0
 51
354.14329809007859
  0
LINE
  5
C31
  8
0
 10
361.44860186367572
 20
378.69804680619342
 30
0.0
 11
372.81529421089181
 21
378.69804680619342
 31
0.0
  0
ARC
  5
C32
  8
0
 10
366.19860186367572
 20
396.94804680619342
 30
0.0
 40
9.5
 50
244.41699802261209
 51
300.52248781407019
  0
ARC
  5
C33
  8
0
 10
361.44860186367572
 20
387.02647938970142
 30
0.0
 40
1.5
 50
64.416998022577985
 51
180.0
  0
LINE
  5
C34
  8
0
 10
359.94860186367572
 20
371.19804680619342
 30
0.0
 11
359.94860186367572
 21
387.02647938970142
 31
0.0
  0
LINE
  5
C35
  8
0
 10
361.44860186367572
 20
367.6980468061933
 30
0.0
 11
370.0764866497679
 21
367.6980468061933
 31
0.0
  0
LINE
  5
C36
  8
0
 10
361.44860186367572
 20
369.69804680619342
 30
0.0
 11
370.0764866497679
 21
369.69804680619342
 31
0.0
  0
ARC
  5
C37
  8
0
 10
361.44860186367572
 20
366.1980468061933
 30
0.0
 40
1.5
 50
90.0
 51
180.0
  0
ARC
  5
C38
  8
0
 10
361.44860186367572
 20
371.19804680619342
 30
0.0
 40
1.5
 50
180.0
 51
270.0
  0
ARC
  5
C39
  8
0
 10
361.44860186367572
 20
380.19804680619342
 30
0.0
 40
1.5
 50
180.0
 51
270.0
  0
ARC
  5
C3A
  8
0
 10
366.44860186367578
 20
396.69804680619347
 30
0.0
 40
9.5
 50
90.0
 51
180.0
  0
ARC
  5
C3B
  8
0
 10
366.44860186367578
 20
396.69804680619347
 30
0.0
 40
9.0
 50
90.0
 51
180.0
  0
LINE
  5
C3C
  8
CENTER
  6
CENTER
 10
366.19860186367572
 20
404.44804680619347
 30
0.0
 11
366.19860186367572
 21
389.44804680619342
 31
0.0
  0
ARC
  5
C3D
  8
0
  6
CONTINUOUS
 62
     2
 10
366.19860186367572
 20
396.94804680619342
 30
0.0
 40
4.0
 50
165.54611884332431
 51
122.22581883937571
  0
CIRCLE
  5
C3E
  8
0
  6
CONTINUOUS
 10
366.19860186367572
 20
396.94804680619342
 30
0.0
 40
3.399999999999999
  0
POLYLINE
  5
C3F
  8
0
  6
CONTINUOUS
 66
     1
 10
0.0
 20
0.0
 30
0.0
 70
     1
  0
VERTEX
  5
13AE
  8
0
  6
CONTINUOUS
 10
368.50800294043421
 20
400.94804680619342
 30
0.0
  0
VERTEX
  5
13AF
  8
0
  6
CONTINUOUS
 10
370.8174040171927
 20
396.94804680619342
 30
0.0
  0
VERTEX
  5
13B0
  8
0
  6
CONTINUOUS
 10
368.50800294043421
 20
392.94804680619342
 30
0.0
  0
VERTEX
  5
13B1
  8
0
  6
CONTINUOUS
 10
363.88920078691729
 20
392.94804680619342
 30
0.0
  0
VERTEX
  5
13B2
  8
0
  6
CONTINUOUS
 10
361.5797997101588
 20
396.94804680619342
 30
0.0
  0
VERTEX
  5
13B3
  8
0
  6
CONTINUOUS
 10
363.88920078691729
 20
400.94804680619342
 30
0.0
  0
SEQEND
  5
13B4
  8
0
  6
CONTINUOUS
  0
LINE
  5
C47
  8
0
 10
378.11784767333592
 20
386.7965679494996
 30
0.0
 11
374.61367050585471
 21
390.30074511698058
 31
0.0
  0
LINE
  5
C48
  8
0
 10
376.35008072036948
 20
385.02880099653322
 30
0.0
 11
372.8459035528885
 21
388.53297816401431
 31
0.0
  0
ARC
  5
C49
  8
0
 10
379.17850784511569
 20
387.85722812127932
 30
0.0
 40
1.5
 50
225.00000000000151
 51
308.55525966022958
  0
ARC
  5
C4A
  8
0
 10
375.2894205485897
 20
383.96814082475339
 30
0.0
 40
1.5
 50
321.44474033977031
 51
44.999999999998458
  0
ARC
  5
C4B
  8
0
 10
372.81529421089181
 20
380.19804680619342
 30
0.0
 40
1.5
 50
270.0
 51
332.00543826774572
  0
LINE
  5
C4C
  8
0
 10
391.94860186367572
 20
403.19804680619342
 30
0.0
 11
376.12016928016777
 21
403.19804680619342
 31
0.0
  0
LINE
  5
C4D
  8
0
 10
384.44860186367572
 20
401.69804680619347
 30
0.0
 11
384.44860186367572
 21
390.33135445897727
 31
0.0
  0
ARC
  5
C4E
  8
0
 10
366.19860186367572
 20
396.94804680619342
 30
0.0
 40
9.5
 50
329.47751218592958
 51
25.583001977382661
  0
ARC
  5
C4F
  8
0
 10
375.67433067763471
 20
391.36140528876041
 30
0.0
 40
1.5
 50
149.47751218592811
 51
224.99999999999841
  0
ARC
  5
C50
  8
0
 10
382.94860186367572
 20
390.33135445897727
 30
0.0
 40
1.5
 50
297.99456173225229
 51
0.0
  0
ARC
  5
C51
  8
0
 10
376.12016928016777
 20
401.69804680619347
 30
0.0
 40
1.5
 50
90.0
 51
205.5830019774171
  0
ARC
  5
C52
  8
0
 10
382.94860186367572
 20
401.69804680619347
 30
0.0
 40
1.5
 50
0.0
 51
90.0
  0
LINE
  5
C53
  8
0
 10
393.44860186367572
 20
401.69804680619347
 30
0.0
 11
393.44860186367572
 21
393.07016202010129
 31
0.0
  0
LINE
  5
C54
  8
0
 10
395.44860186367578
 20
401.69804680619347
 30
0.0
 11
395.44860186367578
 21
393.07016202010129
 31
0.0
  0
LINE
  5
C55
  8
CENTER
  6
CENTER
 10
399.44860186367572
 20
408.4782281689761
 30
0.0
 11
399.44860186367572
 21
394.47822816897622
 31
0.0
  0
LINE
  5
C56
  8
0
 10
404.44860186367578
 20
401.69804680619347
 30
0.0
 11
404.44860186367578
 21
390.33135445897727
 31
0.0
  0
ARC
  5
C57
  8
0
 10
396.94860186367589
 20
393.07016202010129
 30
0.0
 40
1.5
 50
180.0
 51
264.14329809008092
  0
ARC
  5
C58
  8
0
 10
391.94860186367572
 20
393.07016202010129
 30
0.0
 40
1.5
 50
275.85670190991902
 51
0.0
  0
ARC
  5
C59
  8
0
 10
396.94860186367589
 20
401.69804680619347
 30
0.0
 40
1.5
 50
90.0
 51
180.0
  0
ARC
  5
C5A
  8
0
 10
391.94860186367572
 20
401.69804680619347
 30
0.0
 40
1.5
 50
0.0
 51
90.0
  0
LINE
  5
C5B
  8
0
 10
508.20419093510139
 20
551.41387932977466
 30
0.0
 11
508.20419093510128
 21
477.41387932977477
 31
0.0
  0
LINE
  5
C5C
  8
0
 10
503.20419093510128
 20
535.91387932977455
 30
0.0
 11
503.20419093510128
 21
492.91387932977449
 31
0.0
  0
LINE
  5
C5D
  8
0
 10
540.20419093510145
 20
551.91387932977477
 30
0.0
 11
540.20419093510134
 21
476.91387932977477
 31
0.0
  0
LINE
  5
C5E
  8
0
 10
540.20419093510145
 20
549.41387932977466
 30
0.0
 11
540.20419093510145
 21
479.41387932977472
 31
0.0
  0
LINE
  5
C5F
  8
0
 10
651.70419093510134
 20
586.91387932977466
 30
0.0
 11
651.70419093510145
 21
476.91387932977449
 31
0.0
  0
LINE
  5
C60
  8
CENTER
  6
CENTER
 10
696.70419093510145
 20
589.91387932977477
 30
0.0
 11
696.70419093510145
 21
473.91387932977449
 31
0.0
  0
LINE
  5
C61
  8
0
 10
651.70419093510145
 20
533.20398878834806
 30
0.0
 11
540.20419093510145
 21
533.20398878834806
 31
0.0
  0
LINE
  5
C62
  8
0
 10
651.70419093510145
 20
495.62376987120138
 30
0.0
 11
540.20419093510145
 21
495.62376987120138
 31
0.0
  0
LINE
  5
C63
  8
0
 10
651.70419093510145
 20
479.41387932977472
 30
0.0
 11
540.20419093510145
 21
479.41387932977472
 31
0.0
  0
LINE
  5
C64
  8
0
 10
651.70419093510145
 20
403.69804680619347
 30
0.0
 11
540.20419093510145
 21
403.69804680619347
 31
0.0
  0
LINE
  5
C65
  8
0
 10
651.70419093510145
 20
387.48815626476699
 30
0.0
 11
540.20419093510145
 21
387.48815626476699
 31
0.0
  0
LINE
  5
C66
  8
0
 10
540.20419093510134
 20
406.19804680619359
 30
0.0
 11
508.20419093510128
 21
405.69804680619359
 31
0.0
  0
LINE
  5
C67
  8
0
 10
405.44860186367572
 20
415.19804680619347
 30
0.0
 11
405.44860186367572
 21
406.19804680619359
 31
0.0
  0
LINE
  5
C68
  8
0
 10
410.77935605401552
 20
386.7965679494996
 30
0.0
 11
414.28353322149661
 21
390.30074511698058
 31
0.0
  0
LINE
  5
C69
  8
0
 10
412.8601420574729
 20
385.3418200470241
 30
0.0
 11
416.05130017446299
 21
388.53297816401431
 31
0.0
  0
ARC
  5
C6A
  8
0
 10
427.44860186367589
 20
387.02647938970142
 30
0.0
 40
1.5
 50
0.0
 51
115.5830019774006
  0
ARC
  5
C6B
  8
0
 10
422.69860186367578
 20
396.94804680619342
 30
0.0
 40
9.5
 50
239.47751218592981
 51
295.58300197739891
  0
LINE
  5
C6C
  8
CENTER
  6
CENTER
 10
435.00332379544392
 20
377.69804680619347
 30
0.0
 11
411.4752385259182
 21
377.69804680619347
 31
0.0
  0
LINE
  5
C6D
  8
0
 10
427.44860186367572
 20
367.69804680619342
 30
0.0
 11
418.82071707758359
 21
367.69804680619342
 31
0.0
  0
LINE
  5
C6E
  8
0
 10
427.44860186367589
 20
369.69804680619342
 30
0.0
 11
419.26794915565739
 21
369.69804680619342
 31
0.0
  0
LINE
  5
C6F
  8
0
 10
427.44860186367572
 20
374.19804680619347
 30
0.0
 11
418.29708189909928
 21
374.19804680619347
 31
0.0
  0
ARC
  5
C70
  8
0
 10
418.82071707758359
 20
366.19804680619342
 30
0.0
 40
1.5
 50
90.0
 51
174.14329809008311
  0
ARC
  5
C71
  8
0
 10
419.26794915565739
 20
371.69804680619342
 30
0.0
 40
2.0
 50
186.89210257934661
 51
270.0
  0
ARC
  5
C72
  8
0
 10
418.29708189909928
 20
376.19804680619347
 30
0.0
 40
2.0
 50
197.45760312372269
 51
270.0
  0
ARC
  5
C73
  8
0
 10
414.27435561984601
 20
383.92760648465099
 30
0.0
 40
2.0
 50
134.99999999999881
 51
217.53040768358429
  0
ARC
  5
C74
  8
0
 10
409.71869588223581
 20
387.85722812127932
 30
0.0
 40
1.5
 50
231.44474033976871
 51
314.99999999999841
  0
LINE
  5
C75
  8
0
 10
428.94860186367578
 20
387.02647938970142
 30
0.0
 11
428.94860186367578
 21
371.19804680619342
 31
0.0
  0
ARC
  5
C76
  8
0
 10
427.44860186367589
 20
371.19804680619342
 30
0.0
 40
1.5
 50
270.0
 51
0.0
  0
ARC
  5
C77
  8
0
 10
427.44860186367572
 20
366.19804680619342
 30
0.0
 40
1.5
 50
0.0
 51
90.0
  0
ARC
  5
C78
  8
0
 10
427.44860186367572
 20
375.69804680619347
 30
0.0
 40
1.5
 50
270.0
 51
0.0
  0
LINE
  5
C79
  8
CENTER
  6
CENTER
 10
430.19860186367578
 20
396.94804680619342
 30
0.0
 11
415.19860186367572
 21
396.94804680619342
 31
0.0
  0
CIRCLE
  5
C7A
  8
0
 10
422.69860186367578
 20
396.94804680619342
 30
0.0
 40
6.5
  0
ARC
  5
C7B
  8
0
  6
CONTINUOUS
 62
     2
 10
422.69860186367578
 20
396.94804680619342
 30
0.0
 40
4.0
 50
165.54611884332431
 51
122.22581883937571
  0
CIRCLE
  5
C7C
  8
0
  6
CONTINUOUS
 10
422.69860186367578
 20
396.94804680619342
 30
0.0
 40
3.399999999999999
  0
POLYLINE
  5
C7D
  8
0
  6
CONTINUOUS
 66
     1
 10
0.0
 20
0.0
 30
0.0
 70
     1
  0
VERTEX
  5
13B5
  8
0
  6
CONTINUOUS
 10
425.00800294043421
 20
400.94804680619342
 30
0.0
  0
VERTEX
  5
13B6
  8
0
  6
CONTINUOUS
 10
427.31740401719281
 20
396.94804680619342
 30
0.0
  0
VERTEX
  5
13B7
  8
0
  6
CONTINUOUS
 10
425.00800294043421
 20
392.94804680619342
 30
0.0
  0
VERTEX
  5
13B8
  8
0
  6
CONTINUOUS
 10
420.38920078691717
 20
392.94804680619342
 30
0.0
  0
VERTEX
  5
13B9
  8
0
  6
CONTINUOUS
 10
418.0797997101588
 20
396.94804680619342
 30
0.0
  0
VERTEX
  5
13BA
  8
0
  6
CONTINUOUS
 10
420.38920078691717
 20
400.94804680619342
 30
0.0
  0
SEQEND
  5
13BB
  8
0
  6
CONTINUOUS
  0
ARC
  5
C85
  8
0
 10
422.69860186367578
 20
396.94804680619342
 30
0.0
 40
9.5
 50
154.41699802261189
 51
210.5224878140703
  0
ARC
  5
C86
  8
0
 10
417.11196034624271
 20
387.47231799223448
 30
0.0
 40
1.5
 50
59.477512185928319
 51
135.00000000000151
  0
ARC
  5
C87
  8
0
 10
413.22287304971678
 20
391.36140528876041
 30
0.0
 40
1.5
 50
315.00000000000148
 51
30.522487814072448
  0
ARC
  5
C88
  8
0
 10
412.77703444718372
 20
401.69804680619347
 30
0.0
 40
1.5
 50
334.4169980225779
 51
90.0
  0
ARC
  5
C89
  8
0
 10
422.44860186367572
 20
396.69804680619347
 30
0.0
 40
9.5
 50
0.0
 51
90.0
  0
ARC
  5
C8A
  8
0
 10
422.44860186367572
 20
396.69804680619347
 30
0.0
 40
9.0
 50
0.0
 51
90.0
  0
LINE
  5
C8B
  8
CENTER
  6
CENTER
 10
422.69860186367578
 20
404.44804680619347
 30
0.0
 11
422.69860186367578
 21
389.44804680619342
 31
0.0
  0
LINE
  5
C8C
  8
0
 10
431.94860186367589
 20
393.69804680619342
 30
0.0
 11
431.44860186367589
 21
393.69804680619342
 31
0.0
  0
ARC
  5
C8D
  8
0
 10
505.0929997222558
 20
388.92042923188478
 30
0.0
 40
2.2803300858899109
 50
87.205091258939206
 51
145.92501109521669
  0
LINE
  5
C8E
  8
0
 10
508.20419093510128
 20
391.1980468061937
 30
0.0
 11
505.20419093510128
 21
391.1980468061937
 31
0.0
  0
ARC
  5
C8F
  8
0
  6
CONTINUOUS
 10
533.20419093510134
 20
377.69804680619347
 30
0.0
 40
3.5
 50
158.2132107017394
 51
201.78678929826219
  0
ARC
  5
C90
  8
0
  6
CONTINUOUS
 10
533.20419093510134
 20
377.69804680619347
 30
0.0
 40
3.5
 50
338.21321070173769
 51
21.786789298262239
  0
LINE
  5
C91
  8
CENTER
  6
CENTER
 10
533.20419093510134
 20
384.19804680619347
 30
0.0
 11
533.20419093510134
 21
371.19804680619347
 31
0.0
  0
CIRCLE
  5
C92
  8
0
  6
CONTINUOUS
 10
533.20419093510134
 20
377.69804680619347
 30
0.0
 40
2.5
  0
CIRCLE
  5
C93
  8
0
 10
533.20419093510134
 20
377.69804680619347
 30
0.0
 40
5.0
  0
CIRCLE
  5
C94
  8
0
 10
533.20419093510134
 20
377.69804680619347
 30
0.0
 40
5.2999999999999989
  0
POLYLINE
  5
C95
  8
0
  6
CONTINUOUS
 66
     1
 10
0.0
 20
0.0
 30
0.0
 70
     1
  0
VERTEX
  5
13BC
  8
0
  6
CONTINUOUS
 10
534.07021633888564
 20
376.19804680619347
 30
0.0
  0
VERTEX
  5
13BD
  8
0
  6
CONTINUOUS
 10
534.93624174267018
 20
377.69804680619347
 30
0.0
  0
VERTEX
  5
13BE
  8
0
  6
CONTINUOUS
 10
534.07021633888564
 20
379.19804680619359
 30
0.0
  0
VERTEX
  5
13BF
  8
0
  6
CONTINUOUS
 10
532.33816553131692
 20
379.19804680619359
 30
0.0
  0
VERTEX
  5
13C0
  8
0
  6
CONTINUOUS
 10
531.4721401275325
 20
377.69804680619347
 30
0.0
  0
VERTEX
  5
13C1
  8
0
  6
CONTINUOUS
 10
532.33816553131692
 20
376.19804680619347
 30
0.0
  0
SEQEND
  5
13C2
  8
0
  6
CONTINUOUS
  0
LINE
  5
C9D
  8
0
  6
CONTINUOUS
 10
529.95419093510134
 20
376.3990087005169
 30
0.0
 11
528.64576895019775
 21
375.64359091531918
 31
0.0
  0
LINE
  5
C9E
  8
0
  6
CONTINUOUS
 10
530.45419093510134
 20
375.53298329673248
 30
0.0
 11
529.14576895019775
 21
374.77756551153482
 31
0.0
  0
LINE
  5
C9F
  8
0
  6
CONTINUOUS
 10
532.70419093510134
 20
372.72310962066041
 30
0.0
 11
532.70419093510134
 21
374.2339451910558
 31
0.0
  0
ARC
  5
CA0
  8
0
  6
CONTINUOUS
 10
533.20419093510134
 20
377.69804680619347
 30
0.0
 40
3.5
 50
218.21321070173829
 51
261.78678929826191
  0
LINE
  5
CA1
  8
0
  6
CONTINUOUS
 10
533.70419093510134
 20
372.72310962066041
 30
0.0
 11
533.70419093510134
 21
374.2339451910558
 31
0.0
  0
LINE
  5
CA2
  8
0
  6
CONTINUOUS
 10
536.45419093510134
 20
376.3990087005169
 30
0.0
 11
537.76261292000481
 21
375.64359091531918
 31
0.0
  0
ARC
  5
CA3
  8
0
  6
CONTINUOUS
 10
533.20419093510134
 20
377.69804680619347
 30
0.0
 40
3.5
 50
278.21321070173809
 51
321.78678929826162
  0
LINE
  5
CA4
  8
0
  6
CONTINUOUS
 10
535.95419093510134
 20
375.53298329673248
 30
0.0
 11
537.26261292000493
 21
374.77756551153482
 31
0.0
  0
LINE
  5
CA5
  8
CENTER
  6
CENTER
 10
539.70419093510156
 20
377.69804680619347
 30
0.0
 11
526.70419093510145
 21
377.69804680619347
 31
0.0
  0
LINE
  5
CA6
  8
0
  6
CONTINUOUS
 10
528.64576895019775
 20
379.75250269706788
 30
0.0
 11
529.95419093510134
 21
378.99708491187022
 31
0.0
  0
LINE
  5
CA7
  8
0
  6
CONTINUOUS
 10
529.14576895019775
 20
380.6185281008523
 30
0.0
 11
530.45419093510134
 21
379.86311031565469
 31
0.0
  0
LINE
  5
CA8
  8
0
  6
CONTINUOUS
 10
532.70419093510134
 20
381.16214842133132
 30
0.0
 11
532.70419093510134
 21
382.67298399172671
 31
0.0
  0
ARC
  5
CA9
  8
0
  6
CONTINUOUS
 10
533.20419093510134
 20
377.69804680619347
 30
0.0
 40
3.5
 50
98.213210701738376
 51
141.7867892982616
  0
ARC
  5
CAA
  8
0
  6
CONTINUOUS
 10
533.20419093510134
 20
377.69804680619347
 30
0.0
 40
3.5
 50
38.213210701738312
 51
81.786789298261638
  0
LINE
  5
CAB
  8
0
  6
CONTINUOUS
 10
537.26261292000493
 20
380.6185281008523
 30
0.0
 11
535.95419093510134
 21
379.86311031565469
 31
0.0
  0
LINE
  5
CAC
  8
0
  6
CONTINUOUS
 10
533.70419093510134
 20
381.16214842133132
 30
0.0
 11
533.70419093510134
 21
382.67298399172671
 31
0.0
  0
LINE
  5
CAD
  8
0
  6
CONTINUOUS
 10
537.76261292000481
 20
379.75250269706788
 30
0.0
 11
536.45419093510134
 21
378.99708491187022
 31
0.0
  0
LINE
  5
CAE
  8
HIDDEN
  6
HIDDEN
 10
508.20419093510139
 20
482.16387932977472
 30
0.0
 11
526.20419093510145
 21
482.16387932977472
 31
0.0
  0
LINE
  5
CAF
  8
HIDDEN
  6
HIDDEN
 10
508.20419093510128
 20
490.16387932977472
 30
0.0
 11
526.20419093510145
 21
490.16387932977472
 31
0.0
  0
LINE
  5
CB0
  8
0
 10
540.20419093510134
 20
476.91387932977477
 30
0.0
 11
508.20419093510128
 21
477.41387932977477
 31
0.0
  0
LINE
  5
CB1
  8
CENTER
  6
CENTER
 10
540.20419093510145
 20
486.16387932977449
 30
0.0
 11
505.20419093510128
 21
486.16387932977449
 31
0.0
  0
LINE
  5
CB2
  8
0
 10
508.20419093510128
 20
491.91387932977449
 30
0.0
 11
504.20419093510128
 21
491.91387932977449
 31
0.0
  0
ARC
  5
CB3
  8
0
 10
504.20419093510128
 20
492.91387932977449
 30
0.0
 40
1.0
 50
180.0
 51
270.0
  0
LINE
  5
CB4
  8
HIDDEN
  6
HIDDEN
 10
514.20419093510145
 20
482.16387932977472
 30
0.0
 11
514.20419093510145
 21
490.16387932977472
 31
0.0
  0
LINE
  5
CB5
  8
HIDDEN
  6
HIDDEN
 10
529.20419093510145
 20
489.56387932977458
 30
0.0
 11
531.16718185034608
 21
486.16387932977472
 31
0.0
  0
LINE
  5
CB6
  8
HIDDEN
  6
HIDDEN
 10
529.20419093510145
 20
482.76387932977462
 30
0.0
 11
529.20419093510145
 21
489.56387932977458
 31
0.0
  0
LINE
  5
CB7
  8
HIDDEN
  6
HIDDEN
 10
526.20419093510145
 20
482.16387932977472
 30
0.0
 11
526.20419093510145
 21
490.16387932977472
 31
0.0
  0
LINE
  5
CB8
  8
CENTER
  6
CENTER
 10
524.20419093510145
 20
474.15954864631732
 30
0.0
 11
524.20419093510145
 21
493.93397315008048
 31
0.0
  0
LINE
  5
CB9
  8
HIDDEN
  6
HIDDEN
 10
514.20419093510145
 20
482.76387932977462
 30
0.0
 11
529.20419093510145
 21
482.76387932977462
 31
0.0
  0
LINE
  5
CBA
  8
CENTER
  6
CENTER
 10
533.20419093510134
 20
474.38141043898622
 30
0.0
 11
533.20419093510145
 21
494.12638949397183
 31
0.0
  0
LINE
  5
CBB
  8
HIDDEN
  6
HIDDEN
 10
529.20419093510145
 20
482.76387932977462
 30
0.0
 11
531.16718185034608
 21
486.16387932977472
 31
0.0
  0
LINE
  5
CBC
  8
HIDDEN
  6
HIDDEN
 10
514.20419093510145
 20
489.56387932977458
 30
0.0
 11
529.20419093510145
 21
489.56387932977458
 31
0.0
  0
LINE
  5
CBD
  8
DIM
  6
CONTINUOUS
 10
679.78523829443691
 20
415.19804680619342
 30
0.0
 11
634.70419093510122
 21
415.19804680619347
 31
0.0
  0
LINE
  5
CBE
  8
DIM
  6
CONTINUOUS
 10
655.80654373133837
 20
416.19804680619347
 30
0.0
 11
634.70419093510134
 21
416.19804680619347
 31
0.0
  0
LINE
  5
CBF
  8
DIM
  6
CONTINUOUS
 10
635.70419093510145
 20
422.6986473329211
 30
0.0
 11
635.70419093510134
 21
408.13886974235328
 31
0.0
  0
TEXT
  5
CC0
  8
DIM
  6
CONTINUOUS
 10
634.20419093510134
 20
409.3592578157307
 30
0.0
 40
3.0
  1
1
 50
90.0
  7
ROMANSS
 72
     1
 11
632.70419093510134
 21
409.71640067287359
 31
0.0
 73
     2
  0
SOLID
  5
CC1
  8
DIM
  6
CONTINUOUS
 10
635.20419093510122
 20
412.19804680619347
 30
0.0
 11
636.20419093510122
 21
412.19804680619347
 31
0.0
 12
635.70419093510111
 22
415.19804680619347
 32
0.0
 13
635.70419093510111
 23
415.19804680619347
 33
0.0
  0
SOLID
  5
CC2
  8
DIM
  6
CONTINUOUS
 10
635.20419093510134
 20
419.19804680619347
 30
0.0
 11
636.20419093510134
 21
419.19804680619347
 31
0.0
 12
635.70419093510134
 22
416.19804680619347
 32
0.0
 13
635.70419093510134
 23
416.19804680619347
 33
0.0
  0
LINE
  5
CC3
  8
0
 10
655.70419093510145
 20
415.19804680619347
 30
0.0
 11
655.70419093510145
 21
406.19804680619359
 31
0.0
  0
LINE
  5
CC4
  8
CENTER
  6
CENTER
 10
661.70419093510145
 20
408.4782281689761
 30
0.0
 11
661.70419093510145
 21
390.7946783557544
 31
0.0
  0
POLYLINE
  5
CC5
  8
0
  6
CONTINUOUS
 66
     1
 10
0.0
 20
0.0
 30
0.0
 70
     1
 40
1.0
 41
1.0
  0
VERTEX
  5
13C3
  8
0
  6
CONTINUOUS
 10
697.20419093510134
 20
368.69804680619359
 30
0.0
 42
1.0
  0
VERTEX
  5
13C4
  8
0
  6
CONTINUOUS
 10
696.20419093510134
 20
368.69804680619359
 30
0.0
 42
1.0
  0
SEQEND
  5
13C5
  8
0
  6
CONTINUOUS
  0
LINE
  5
CC9
  8
0
  6
CONTINUOUS
 10
656.70419093510145
 20
416.19804680619347
 30
0.0
 11
655.70419093510145
 21
415.19804680619347
 31
0.0
  0
LINE
  5
CCA
  8
CENTER
  6
CENTER
 10
675.20419093510145
 20
489.74024726447283
 30
0.0
 11
675.20419093510145
 21
465.14543885892272
 31
0.0
  0
ARC
  5
CCB
  8
0
  6
CONTINUOUS
 10
675.21023072589867
 20
461.91388054574372
 30
0.0
 40
14.999999999999989
 50
90.023070302298805
 51
109.495692233054
  0
LINE
  5
CCC
  8
0
  6
CONTINUOUS
 10
678.70419093509918
 20
468.91387932977449
 30
0.0
 11
671.70419093509895
 21
468.91387932977449
 31
0.0
  0
ARC
  5
CCD
  8
0
  6
CONTINUOUS
 10
675.21023072595403
 20
486.91387811380542
 30
0.0
 40
14.999999999999989
 50
250.50430776694631
 51
269.97692969770151
  0
LINE
  5
CCE
  8
0
  6
CONTINUOUS
 10
683.45419093509906
 20
471.91387932977449
 30
0.0
 11
666.95419093509895
 21
471.91387932977449
 31
0.0
  0
LINE
  5
CCF
  8
0
  6
CONTINUOUS
 10
680.20419093509906
 20
470.41387932977449
 30
0.0
 11
670.20419093509895
 21
470.41387932977449
 31
0.0
  0
LINE
  5
CD0
  8
0
  6
CONTINUOUS
 10
665.40419093504454
 20
476.01896016118297
 30
0.0
 11
666.95419093504381
 21
476.91387932977449
 31
0.0
  0
ARC
  5
CD1
  8
0
  6
CONTINUOUS
 10
667.89773172154639
 20
473.39210124638453
 30
0.0
 40
3.5220472269320542
 50
49.090720066529038
 51
119.2051441578367
  0
LINE
  5
CD2
  8
0
  6
CONTINUOUS
 10
670.20419093509918
 20
470.41387932977449
 30
0.0
 11
671.70419093509906
 21
468.91387932977449
 31
0.0
  0
LINE
  5
CD3
  8
0
  6
CONTINUOUS
 10
670.20419093509918
 20
471.91387932977449
 30
0.0
 11
670.20419093509918
 21
470.41387932977449
 31
0.0
  0
ARC
  5
CD4
  8
0
  6
CONTINUOUS
 10
667.89773172160164
 20
475.43565741316468
 30
0.0
 40
3.5220472269320542
 50
240.79485584216471
 51
310.90927993346833
  0
LINE
  5
CD5
  8
0
  6
CONTINUOUS
 10
665.4041909350999
 20
472.808798498366
 30
0.0
 11
666.95419093509906
 21
471.91387932977449
 31
0.0
  0
LINE
  5
CD6
  8
0
  6
CONTINUOUS
 10
665.4041909350999
 20
476.01896016121498
 30
0.0
 11
665.4041909350999
 21
472.808798498366
 31
0.0
  0
LINE
  5
CD7
  8
0
  6
CONTINUOUS
 62
     2
 10
671.20419093509906
 20
471.91387932977449
 30
0.0
 11
671.20419093509906
 21
469.41387932977449
 31
0.0
  0
LINE
  5
CD8
  8
0
  6
CONTINUOUS
 10
670.20419093509918
 20
476.05387932979369
 30
0.0
 11
670.20419093509918
 21
472.77387932977513
 31
0.0
  0
SOLID
  5
CD9
  8
DIM
  6
CONTINUOUS
 10
690.20419093510122
 20
524.4281631578408
 30
0.0
 11
690.20419093510122
 21
523.4281631578408
 31
0.0
 12
687.20419093510122
 22
523.9281631578408
 32
0.0
 13
687.20419093510122
 23
523.9281631578408
 33
0.0
  0
TEXT
  5
CDA
  8
DIM
  6
CONTINUOUS
 10
697.1830897214694
 20
525.42816315784069
 30
0.0
 40
3.0
  1
22
  7
ROMANSS
 72
     1
 11
699.61166115004085
 21
526.92816315784069
 31
0.0
 73
     2
  0
ARC
  5
CDB
  8
0
  6
CONTINUOUS
 10
682.51065014854123
 20
473.39210124638453
 30
0.0
 40
3.5220472269320542
 50
60.794855842163209
 51
130.90927993347091
  0
ARC
  5
CDC
  8
0
  6
CONTINUOUS
 10
682.5106501485966
 20
475.43565741316468
 30
0.0
 40
3.5220472269320542
 50
229.09072006653159
 51
299.20514415783521
  0
ARC
  5
CDD
  8
0
  6
CONTINUOUS
 10
675.19815114418884
 20
461.91388054574372
 30
0.0
 40
14.999999999999989
 50
70.504307766945956
 51
89.976929697701195
  0
LINE
  5
CDE
  8
0
  6
CONTINUOUS
 10
680.20419093509906
 20
470.41387932977449
 30
0.0
 11
678.70419093509918
 21
468.91387932977449
 31
0.0
  0
LINE
  5
CDF
  8
0
  6
CONTINUOUS
 10
680.20419093509906
 20
471.91387932977449
 30
0.0
 11
680.20419093509906
 21
470.41387932977449
 31
0.0
  0
ARC
  5
CE0
  8
0
  6
CONTINUOUS
 10
675.19815114424409
 20
486.91387811380542
 30
0.0
 40
14.999999999999989
 50
270.02307030229929
 51
289.4956922330544
  0
LINE
  5
CE1
  8
0
  6
CONTINUOUS
 62
     2
 10
679.20419093509918
 20
471.91387932977449
 30
0.0
 11
679.20419093509918
 21
469.41387932977449
 31
0.0
  0
LINE
  5
CE2
  8
0
  6
CONTINUOUS
 10
680.20419093509906
 20
476.05387932975441
 30
0.0
 11
680.20419093509906
 21
472.77387932977513
 31
0.0
  0
LINE
  5
CE3
  8
0
  6
CONTINUOUS
 10
685.00419093504297
 20
476.01896016118297
 30
0.0
 11
683.45419093504381
 21
476.91387932977449
 31
0.0
  0
LINE
  5
CE4
  8
0
  6
CONTINUOUS
 10
685.00419093509845
 20
472.808798498366
 30
0.0
 11
683.45419093509906
 21
471.91387932977449
 31
0.0
  0
LINE
  5
CE5
  8
0
  6
CONTINUOUS
 10
685.00419093509845
 20
476.0189601611512
 30
0.0
 11
685.00419093509845
 21
472.808798498366
 31
0.0
  0
LINE
  5
CE6
  8
CENTER
  6
CENTER
 10
661.70419093510145
 20
516.41387932977455
 30
0.0
 11
661.70419093510145
 21
502.41387932977449
 31
0.0
  0
CIRCLE
  5
CE7
  8
0
  6
CONTINUOUS
 10
661.70419093510145
 20
509.41387932977449
 30
0.0
 40
3.399999999999999
  0
ARC
  5
CE8
  8
0
  6
CONTINUOUS
 62
     2
 10
661.70419093510145
 20
509.41387932977449
 30
0.0
 40
4.0
 50
65.677517025119315
 51
24.771420425728412
  0
LINE
  5
CE9
  8
CENTER
  6
CENTER
 10
654.70419093510145
 20
509.41387932977449
 30
0.0
 11
668.70419093510145
 21
509.41387932977449
 31
0.0
  0
LINE
  5
CEA
  8
0
 10
651.70419093510122
 20
549.41387932977455
 30
0.0
 11
540.20419093510145
 21
549.41387932977455
 31
0.0
  0
LINE
  5
CEB
  8
HIDDEN
  6
HIDDEN
 10
508.20419093510128
 20
538.66387932977455
 30
0.0
 11
526.20419093510145
 21
538.66387932977455
 31
0.0
  0
LINE
  5
CEC
  8
HIDDEN
  6
HIDDEN
 10
508.20419093510139
 20
546.66387932977455
 30
0.0
 11
526.20419093510145
 21
546.66387932977455
 31
0.0
  0
LINE
  5
CED
  8
0
 10
540.20419093510134
 20
551.91387932977477
 30
0.0
 11
508.20419093510128
 21
551.41387932977466
 31
0.0
  0
LINE
  5
CEE
  8
CENTER
  6
CENTER
 10
540.20419093510145
 20
542.66387932977455
 30
0.0
 11
505.20419093510139
 21
542.66387932977455
 31
0.0
  0
ARC
  5
CEF
  8
0
 10
504.20419093510128
 20
535.91387932977455
 30
0.0
 40
1.0
 50
90.0
 51
180.0
  0
LINE
  5
CF0
  8
0
 10
508.20419093510139
 20
536.91387932977455
 30
0.0
 11
504.20419093510128
 21
536.91387932977455
 31
0.0
  0
LINE
  5
CF1
  8
HIDDEN
  6
HIDDEN
 10
514.20419093510145
 20
546.06387932977464
 30
0.0
 11
529.20419093510145
 21
546.06387932977464
 31
0.0
  0
LINE
  5
CF2
  8
HIDDEN
  6
HIDDEN
 10
514.20419093510145
 20
539.26387932977468
 30
0.0
 11
529.20419093510145
 21
539.26387932977468
 31
0.0
  0
LINE
  5
CF3
  8
HIDDEN
  6
HIDDEN
 10
514.20419093510145
 20
546.66387932977455
 30
0.0
 11
514.20419093510145
 21
538.66387932977455
 31
0.0
  0
LINE
  5
CF4
  8
HIDDEN
  6
HIDDEN
 10
529.20419093510145
 20
539.26387932977468
 30
0.0
 11
531.16718185034608
 21
542.66387932977455
 31
0.0
  0
LINE
  5
CF5
  8
HIDDEN
  6
HIDDEN
 10
526.20419093510145
 20
546.66387932977455
 30
0.0
 11
526.20419093510145
 21
538.66387932977455
 31
0.0
  0
LINE
  5
CF6
  8
HIDDEN
  6
HIDDEN
 10
529.20419093510145
 20
546.06387932977464
 30
0.0
 11
529.20419093510145
 21
539.26387932977468
 31
0.0
  0
LINE
  5
CF7
  8
HIDDEN
  6
HIDDEN
 10
529.20419093510145
 20
546.06387932977464
 30
0.0
 11
531.16718185034608
 21
542.66387932977455
 31
0.0
  0
LINE
  5
CF8
  8
DIM
  6
CONTINUOUS
 10
647.70419093510145
 20
544.41387932977455
 30
0.0
 11
600.71913676027486
 21
544.41387932977455
 31
0.0
  0
SOLID
  5
CF9
  8
DIM
  6
CONTINUOUS
 10
790.20375437877726
 20
541.42569492813789
 30
0.0
 11
791.20350885849291
 21
541.40353685311788
 31
0.0
 12
790.77010584369543
 22
544.41387932977477
 32
0.0
 13
790.77010584369543
 23
544.41387932977477
 33
0.0
  0
ARC
  5
CFA
  8
0
  6
CONTINUOUS
 62
     2
 10
661.70419093510145
 20
579.41387932977455
 30
0.0
 40
4.0
 50
65.677517025119315
 51
24.771420425728412
  0
CIRCLE
  5
CFB
  8
0
  6
CONTINUOUS
 10
661.70419093510145
 20
579.41387932977455
 30
0.0
 40
3.399999999999999
  0
LINE
  5
CFC
  8
CENTER
  6
CENTER
 10
661.70419093510145
 20
586.41387932977455
 30
0.0
 11
661.70419093510145
 21
572.41387932977455
 31
0.0
  0
CIRCLE
  5
CFD
  8
0
  6
CONTINUOUS
 10
673.01611376535186
 20
568.10195649952391
 30
0.0
 40
2.5
  0
ARC
  5
CFE
  8
0
  6
CONTINUOUS
 62
     2
 10
673.01611376535186
 20
568.10195649952391
 30
0.0
 40
3.0
 50
210.845012326004
 51
153.036401108983
  0
LINE
  5
CFF
  8
CENTER
  6
CENTER
 10
668.77347307823266
 20
572.34459718664334
 30
0.0
 11
677.25875445247129
 21
563.8593158124047
 31
0.0
  0
LINE
  5
D00
  8
CENTER
  6
CENTER
 10
654.70419093510145
 20
579.41387932977455
 30
0.0
 11
668.70419093510145
 21
579.41387932977455
 31
0.0
  0
LINE
  5
D01
  8
DIM
  6
CONTINUOUS
 10
661.70419093510145
 20
587.41387932977455
 30
0.0
 11
661.70419093510145
 21
595.91387932977466
 31
0.0
  0
SOLID
  5
D02
  8
DIM
  6
CONTINUOUS
 10
664.70419093510145
 20
595.41387932977466
 30
0.0
 11
664.70419093510145
 21
594.41387932977477
 31
0.0
 12
661.70419093510145
 22
594.91387932977466
 32
0.0
 13
661.70419093510145
 23
594.91387932977466
 33
0.0
  0
TEXT
  5
D03
  8
DIM
  6
CONTINUOUS
 10
694.27561950653001
 20
596.41387932977466
 30
0.0
 40
3.0
  1
70
  7
ROMANSS
 72
     1
 11
696.70419093510145
 21
597.91387932977477
 31
0.0
 73
     2
  0
TEXT
  5
D04
  8
DIM
  6
CONTINUOUS
 10
943.95978000652701
 20
364.12661823476492
 30
0.0
 40
3.0
  1
56.5
 50
90.0
  7
ROMANSS
 72
     1
 11
942.4597800065269
 21
368.69804680619342
 31
0.0
 73
     2
  0
LINE
  5
D05
  8
DIM
  6
CONTINUOUS
 10
945.45978000652678
 20
343.44804680619342
 30
0.0
 11
945.45978000652678
 21
393.94804680619342
 31
0.0
  0
LINE
  5
D06
  8
DIM
  6
CONTINUOUS
 10
1079.4597800065269
 20
314.23081844512342
 30
0.0
 11
1079.4597800065269
 21
423.80968216612769
 31
0.0
  0
TEXT
  5
D07
  8
DIM
  6
CONTINUOUS
 10
896.70419093510145
 20
364.91233252047931
 30
0.0
 40
3.0
  1
%%c45
 50
90.0
  7
ROMANSS
 72
     1
 11
895.20419093510145
 21
368.69804680619359
 31
0.0
 73
     2
  0
LINE
  5
D08
  8
DIM
  6
CONTINUOUS
 10
898.20419093510145
 20
349.19804680619347
 30
0.0
 11
898.20419093510145
 21
388.19804680619347
 31
0.0
  0
LINE
  5
D09
  8
CENTER
  6
CENTER
 10
1028.9597800065269
 20
419.6225440637823
 30
0.0
 11
1028.9597800065269
 21
318.1980468061933
 31
0.0
  0
LINE
  5
D0A
  8
0
 10
1071.4597800065269
 20
406.19804680619359
 30
0.0
 11
1071.459780006526
 21
331.1980468061933
 31
0.0
  0
LINE
  5
D0B
  8
0
 10
961.45978000652678
 20
406.19804680619359
 30
0.0
 11
961.45978000652678
 21
331.1980468061933
 31
0.0
  0
LINE
  5
D0C
  8
0
 10
741.70419093510145
 20
406.19804680619359
 30
0.0
 11
741.70419093510145
 21
331.19804680619359
 31
0.0
  0
LINE
  5
D0D
  8
0
 10
1035.959780006526
 20
396.69804680619347
 30
0.0
 11
1035.959780006526
 21
340.69804680619342
 31
0.0
  0
LINE
  5
D0E
  8
0
 10
1036.459780006526
 20
396.69804680619347
 30
0.0
 11
1036.459780006526
 21
340.69804680619342
 31
0.0
  0
LINE
  5
D0F
  8
0
 10
1033.4597800065269
 20
366.1980468061933
 30
0.0
 11
1033.4597800065269
 21
350.36961422268553
 31
0.0
  0
LINE
  5
D10
  8
0
 10
961.9597800065269
 20
396.69804680619347
 30
0.0
 11
961.9597800065269
 21
340.69804680619342
 31
0.0
  0
LINE
  5
D11
  8
0
 10
961.45978000652678
 20
396.69804680619347
 30
0.0
 11
961.45978000652678
 21
340.69804680619342
 31
0.0
  0
LINE
  5
D12
  8
0
 10
964.45978000652678
 20
366.19804680619342
 30
0.0
 11
964.45978000652678
 21
350.36961422268553
 31
0.0
  0
CIRCLE
  5
D13
  8
0
 10
998.95978000652678
 20
368.69804680619342
 30
0.0
 40
22.499999999999979
  0
CIRCLE
  5
D14
  8
0
 10
998.95978000652678
 20
368.69804680619342
 30
0.0
 40
22.999999999999979
  0
LINE
  5
D15
  8
CENTER
  6
CENTER
 10
860.20419093510134
 20
353.19804680619347
 30
0.0
 11
860.20419093510134
 21
366.19804680619359
 31
0.0
  0
LINE
  5
D16
  8
CENTER
  6
CENTER
 10
869.20419093510111
 20
363.19804680619347
 30
0.0
 11
869.20419093510145
 21
388.19804680619347
 31
0.0
  0
CIRCLE
  5
D17
  8
0
 10
869.20419093510145
 20
375.69804680619347
 30
0.0
 40
11.5
  0
LINE
  5
D18
  8
0
 10
853.20419093510111
 20
406.19804680619359
 30
0.0
 11
853.20419093510145
 21
331.19804680619359
 31
0.0
  0
LINE
  5
D19
  8
0
 10
890.20419093510145
 20
390.19804680619347
 30
0.0
 11
890.20419093510145
 21
347.19804680619359
 31
0.0
  0
LINE
  5
D1A
  8
0
 10
885.20419093510122
 20
405.69804680619359
 30
0.0
 11
885.20419093510134
 21
331.69804680619347
 31
0.0
  0
LINE
  5
D1B
  8
0
 10
853.20419093510111
 20
403.69804680619347
 30
0.0
 11
853.20419093510111
 21
333.6980468061937
 31
0.0
  0
LINE
  5
D1C
  8
CENTER
  6
CENTER
 10
998.95978000652678
 20
409.19804680619342
 30
0.0
 11
998.95978000652678
 21
328.19804680619342
 31
0.0
  0
LINE
  5
D1D
  8
DIM
  6
CONTINUOUS
 10
964.45978000652678
 20
305.19804680619347
 30
0.0
 11
1033.4597800065269
 21
305.19804680619347
 31
0.0
  0
LINE
  5
D1E
  8
DIM
  6
CONTINUOUS
 10
964.45978000652678
 20
297.19804680619347
 30
0.0
 11
1068.459780006526
 21
297.19804680619347
 31
0.0
  0
LINE
  5
D1F
  8
0
  6
CONTINUOUS
 10
961.45978000652678
 20
331.19804680619342
 30
0.0
 11
1071.4597800065269
 21
331.19804680619342
 31
0.0
  0
LINE
  5
D20
  8
0
  6
CONTINUOUS
 10
987.9597800065269
 20
322.1980468061933
 30
0.0
 11
1069.9597800065269
 21
322.1980468061933
 31
0.0
  0
LINE
  5
D21
  8
0
  6
CONTINUOUS
 10
988.9597800065269
 20
321.1980468061933
 30
0.0
 11
1068.9597800065269
 21
321.1980468061933
 31
0.0
  0
LINE
  5
D22
  8
0
 10
1001.459780006527
 20
334.19804680619342
 30
0.0
 11
1017.288212590034
 21
334.19804680619342
 31
0.0
  0
LINE
  5
D23
  8
0
 10
970.9597800065269
 20
331.69804680619347
 30
0.0
 11
1026.959780006526
 21
331.69804680619347
 31
0.0
  0
LINE
  5
D24
  8
0
 10
741.70419093510145
 20
145.42902846355969
 30
0.0
 11
741.70419093510145
 21
255.42902846355989
 31
0.0
  0
LINE
  5
D25
  8
CENTER
  6
CENTER
 10
724.70419093510145
 20
152.9290284635598
 30
0.0
 11
738.70419093510145
 21
152.9290284635598
 31
0.0
  0
LINE
  5
D26
  8
CENTER
  6
CENTER
 10
731.70419093510145
 20
145.9290284635598
 30
0.0
 11
731.70419093510145
 21
159.9290284635598
 31
0.0
  0
ARC
  5
D27
  8
0
  6
CONTINUOUS
 62
     2
 10
731.70419093510145
 20
152.9290284635598
 30
0.0
 40
4.0
 50
245.22857957427141
 51
204.3224829748799
  0
CIRCLE
  5
D28
  8
0
  6
CONTINUOUS
 10
731.70419093510145
 20
152.9290284635598
 30
0.0
 40
3.399999999999999
  0
LINE
  5
D29
  8
0
 10
741.70419093510145
 20
182.9290284635598
 30
0.0
 11
853.20419093510111
 21
182.9290284635598
 31
0.0
  0
LINE
  5
D2A
  8
0
 10
741.70419093510145
 20
252.9290284635598
 30
0.0
 11
853.20419093510111
 21
252.9290284635598
 31
0.0
  0
LINE
  5
D2B
  8
0
 10
741.70419093510145
 20
236.7191379221332
 30
0.0
 11
853.20419093510111
 21
236.7191379221332
 31
0.0
  0
LINE
  5
D2C
  8
0
 10
741.70419093510145
 20
199.13891900498629
 30
0.0
 11
853.20419093510111
 21
199.13891900498629
 31
0.0
  0
LINE
  5
D2D
  8
0
 10
741.70419093510145
 20
349.90793734762019
 30
0.0
 11
853.20419093510111
 21
349.90793734762019
 31
0.0
  0
LINE
  5
D2E
  8
0
 10
741.70419093510145
 20
333.69804680619347
 30
0.0
 11
853.20419093510111
 21
333.6980468061937
 31
0.0
  0
LINE
  5
D2F
  8
CENTER
  6
CENTER
 10
718.20419093510145
 20
242.60266052886161
 30
0.0
 11
718.20419093510145
 21
267.19746893441169
 31
0.0
  0
LINE
  5
D30
  8
CENTER
  6
CENTER
 10
724.70419093510145
 20
222.92902846355989
 30
0.0
 11
738.70419093510145
 21
222.92902846355989
 31
0.0
  0
ARC
  5
D31
  8
0
  6
CONTINUOUS
 62
     2
 10
720.39226810485059
 20
211.61710563330919
 30
0.0
 40
3.0
 50
206.96359889101501
 51
149.15498767399501
  0
CIRCLE
  5
D32
  8
0
  6
CONTINUOUS
 10
720.39226810485059
 20
211.61710563330919
 30
0.0
 40
2.5
  0
LINE
  5
D33
  8
CENTER
  6
CENTER
 10
716.14962741773138
 20
207.37446494618979
 30
0.0
 11
724.63490879197002
 21
215.85974632042851
 31
0.0
  0
LINE
  5
D34
  8
CENTER
  6
CENTER
 10
731.70419093510145
 20
215.9290284635598
 30
0.0
 11
731.70419093510145
 21
229.92902846355989
 31
0.0
  0
ARC
  5
D35
  8
0
  6
CONTINUOUS
 62
     2
 10
731.70419093510145
 20
222.92902846355989
 30
0.0
 40
4.0
 50
335.22857957427448
 51
294.32248297488059
  0
CIRCLE
  5
D36
  8
0
  6
CONTINUOUS
 10
731.70419093510145
 20
222.92902846355989
 30
0.0
 40
3.399999999999999
  0
LINE
  5
D37
  8
DIM
  6
CONTINUOUS
 10
741.70419093510145
 20
330.19804680619347
 30
0.0
 11
741.70419093510145
 21
304.19804680619359
 31
0.0
  0
LINE
  5
D38
  8
DIM
  6
CONTINUOUS
 10
737.70419093510145
 20
321.19804680619347
 30
0.0
 11
737.70419093510145
 21
312.19804680619359
 31
0.0
  0
ARC
  5
D39
  8
0
  6
CONTINUOUS
 10
718.19815114429264
 20
270.42902724759068
 30
0.0
 40
14.999999999999989
 50
270.02307030229878
 51
289.49569223305389
  0
LINE
  5
D3A
  8
0
  6
CONTINUOUS
 10
723.20419093520275
 20
261.92902846355992
 30
0.0
 11
721.70419093520275
 21
263.42902846355992
 31
0.0
  0
ARC
  5
D3B
  8
0
  6
CONTINUOUS
 10
718.19815114434789
 20
245.42902967952901
 30
0.0
 40
14.999999999999989
 50
70.504307766946354
 51
89.976929697701607
  0
LINE
  5
D3C
  8
0
  6
CONTINUOUS
 10
723.20419093520275
 20
261.92902846355992
 30
0.0
 11
713.20419093520275
 21
261.92902846355992
 31
0.0
  0
LINE
  5
D3D
  8
0
  6
CONTINUOUS
 10
726.45419093520275
 20
260.42902846355992
 30
0.0
 11
709.95419093520275
 21
260.42902846355992
 31
0.0
  0
LINE
  5
D3E
  8
0
  6
CONTINUOUS
 10
713.20419093520275
 20
261.92902846355992
 30
0.0
 11
714.70419093520275
 21
263.42902846355992
 31
0.0
  0
ARC
  5
D3F
  8
0
  6
CONTINUOUS
 10
718.21023072600246
 20
270.42902724759068
 30
0.0
 40
14.999999999999989
 50
250.50430776694591
 51
269.97692969770111
  0
ARC
  5
D40
  8
0
  6
CONTINUOUS
 10
718.21023072605794
 20
245.42902967952901
 30
0.0
 40
14.999999999999989
 50
90.023070302299274
 51
109.4956922330546
  0
LINE
  5
D41
  8
0
  6
CONTINUOUS
 10
713.20419093520297
 20
256.28902846354077
 30
0.0
 11
713.20419093520275
 21
259.56902846355928
 31
0.0
  0
LINE
  5
D42
  8
0
  6
CONTINUOUS
 10
708.40419093520359
 20
256.32394763211943
 30
0.0
 11
708.40419093520359
 21
259.5341092949684
 31
0.0
  0
LINE
  5
D43
  8
0
  6
CONTINUOUS
 10
708.40419093514834
 20
256.32394763215137
 30
0.0
 11
709.95419093514761
 21
255.42902846355989
 31
0.0
  0
ARC
  5
D44
  8
0
  6
CONTINUOUS
 10
710.89773172165019
 20
258.95080654694988
 30
0.0
 40
3.5220472269320542
 50
240.7948558421632
 51
310.90927993346969
  0
LINE
  5
D45
  8
0
  6
CONTINUOUS
 10
713.20419093520275
 20
260.42902846355992
 30
0.0
 11
713.20419093520275
 21
261.92902846355992
 31
0.0
  0
ARC
  5
D46
  8
0
  6
CONTINUOUS
 10
710.89773172170544
 20
256.90725038016973
 30
0.0
 40
3.5220472269320542
 50
49.090720066529038
 51
119.2051441578367
  0
LINE
  5
D47
  8
0
  6
CONTINUOUS
 10
708.40419093520359
 20
259.5341092949684
 30
0.0
 11
709.95419093520275
 21
260.42902846355992
 31
0.0
  0
LINE
  5
D48
  8
0
  6
CONTINUOUS
 62
     2
 10
714.20419093520286
 20
260.42902846355992
 30
0.0
 11
714.20419093520286
 21
262.92902846355992
 31
0.0
  0
LINE
  5
D49
  8
0
  6
CONTINUOUS
 10
721.70419093520275
 20
263.42902846355992
 30
0.0
 11
714.70419093520275
 21
263.42902846355992
 31
0.0
  0
LINE
  5
D4A
  8
0
  6
CONTINUOUS
 10
728.00419093520213
 20
256.32394763218332
 30
0.0
 11
728.00419093520213
 21
259.5341092949684
 31
0.0
  0
LINE
  5
D4B
  8
0
  6
CONTINUOUS
 10
728.00419093514677
 20
256.32394763215137
 30
0.0
 11
726.45419093514761
 21
255.42902846355989
 31
0.0
  0
LINE
  5
D4C
  8
0
  6
CONTINUOUS
 10
728.00419093520213
 20
259.5341092949684
 30
0.0
 11
726.45419093520275
 21
260.42902846355992
 31
0.0
  0
LINE
  5
D4D
  8
0
  6
CONTINUOUS
 10
723.20419093520286
 20
256.28902846358
 30
0.0
 11
723.20419093520275
 21
259.56902846355928
 31
0.0
  0
LINE
  5
D4E
  8
0
  6
CONTINUOUS
 10
723.20419093520275
 20
260.42902846355992
 30
0.0
 11
723.20419093520275
 21
261.92902846355992
 31
0.0
  0
LINE
  5
D4F
  8
0
  6
CONTINUOUS
 62
     2
 10
722.20419093520286
 20
260.42902846355992
 30
0.0
 11
722.20419093520286
 21
262.92902846355992
 31
0.0
  0
ARC
  5
D50
  8
0
  6
CONTINUOUS
 10
725.51065014864503
 20
258.95080654694988
 30
0.0
 40
3.5220472269320542
 50
229.0907200665302
 51
299.2051441578368
  0
ARC
  5
D51
  8
0
  6
CONTINUOUS
 10
725.51065014870017
 20
256.90725038016973
 30
0.0
 40
3.5220472269320542
 50
60.794855842163209
 51
130.90927993347091
  0
SOLID
  5
D52
  8
DIM
  6
CONTINUOUS
 10
734.70419093510145
 20
313.69804680619347
 30
0.0
 11
734.70419093510145
 21
312.69804680619347
 31
0.0
 12
737.70419093510145
 22
313.19804680619347
 32
0.0
 13
737.70419093510145
 23
313.19804680619347
 33
0.0
  0
SOLID
  5
D53
  8
DIM
  6
CONTINUOUS
 10
738.70419093510145
 20
305.69804680619359
 30
0.0
 11
738.70419093510145
 21
304.69804680619347
 31
0.0
 12
741.70419093510145
 22
305.19804680619347
 32
0.0
 13
741.70419093510145
 23
305.19804680619347
 33
0.0
  0
POLYLINE
  5
D54
  8
0
  6
CONTINUOUS
 66
     1
 10
0.0
 20
0.0
 30
0.0
 70
     1
  0
VERTEX
  5
13C6
  8
0
  6
CONTINUOUS
 10
713.30419093510181
 20
357.6850957632812
 30
0.0
  0
VERTEX
  5
13C7
  8
0
  6
CONTINUOUS
 10
708.40419093510218
 20
349.19804680619347
 30
0.0
  0
VERTEX
  5
13C8
  8
0
  6
CONTINUOUS
 10
713.30419093510181
 20
340.71099784910592
 30
0.0
  0
VERTEX
  5
13C9
  8
0
  6
CONTINUOUS
 10
723.10419093510097
 20
340.71099784910592
 30
0.0
  0
VERTEX
  5
13CA
  8
0
  6
CONTINUOUS
 10
728.00419093510072
 20
349.19804680619347
 30
0.0
  0
VERTEX
  5
13CB
  8
0
  6
CONTINUOUS
 10
723.10419093510097
 20
357.6850957632812
 30
0.0
  0
SEQEND
  5
13CC
  8
0
  6
CONTINUOUS
  0
CIRCLE
  5
D5C
  8
0
  6
CONTINUOUS
 10
718.20419093510145
 20
349.19804680619347
 30
0.0
 40
8.25
  0
LINE
  5
D5D
  8
CENTER
  6
CENTER
 10
718.20419093510145
 20
364.19804680619359
 30
0.0
 11
718.20419093510145
 21
334.19804680619347
 31
0.0
  0
LINE
  5
D5E
  8
CENTER
  6
CENTER
 10
731.70419093510111
 20
328.9178654434109
 30
0.0
 11
731.70419093510145
 21
346.03322767615839
 31
0.0
  0
LINE
  5
D5F
  8
0
 10
737.70419093510145
 20
331.19804680619359
 30
0.0
 11
737.70419093510145
 21
322.19804680619359
 31
0.0
  0
LINE
  5
D60
  8
0
  6
CONTINUOUS
 10
737.70419093510145
 20
322.19804680619359
 30
0.0
 11
736.70419093510145
 21
321.19804680619347
 31
0.0
  0
CIRCLE
  5
D61
  8
0
  6
CONTINUOUS
 10
718.20419093510145
 20
349.19804680619347
 30
0.0
 40
5.0
  0
ARC
  5
D62
  8
0
  6
CONTINUOUS
 62
     2
 10
718.20419093510145
 20
349.19804680619347
 30
0.0
 40
4.25
 50
69.487813016515673
 51
22.414620147485479
  0
POLYLINE
  5
D63
  8
0
  6
CONTINUOUS
 66
     1
 10
0.0
 20
0.0
 30
0.0
 70
     1
  0
VERTEX
  5
13CD
  8
0
  6
CONTINUOUS
 10
716.76081526212738
 20
351.69804680619359
 30
0.0
  0
VERTEX
  5
13CE
  8
0
  6
CONTINUOUS
 10
715.3174395891532
 20
349.19804680619347
 30
0.0
  0
VERTEX
  5
13CF
  8
0
  6
CONTINUOUS
 10
716.76081526212738
 20
346.69804680619347
 30
0.0
  0
VERTEX
  5
13D0
  8
0
  6
CONTINUOUS
 10
719.64756660807552
 20
346.69804680619347
 30
0.0
  0
VERTEX
  5
13D1
  8
0
  6
CONTINUOUS
 10
721.09094228104948
 20
349.19804680619347
 30
0.0
  0
VERTEX
  5
13D2
  8
0
  6
CONTINUOUS
 10
719.64756660807552
 20
351.69804680619359
 30
0.0
  0
SEQEND
  5
13D3
  8
0
  6
CONTINUOUS
  0
LINE
  5
D6B
  8
0
 10
885.20419093510122
 20
180.92902846355969
 30
0.0
 11
885.20419093510134
 21
254.9290284635598
 31
0.0
  0
LINE
  5
D6C
  8
0
 10
853.20419093510111
 20
180.42902846355969
 30
0.0
 11
853.20419093510145
 21
255.4290284635598
 31
0.0
  0
LINE
  5
D6D
  8
0
 10
853.20419093510111
 20
182.92902846355969
 30
0.0
 11
853.20419093510111
 21
252.9290284635598
 31
0.0
  0
LINE
  5
D6E
  8
0
 10
890.20419093510145
 20
196.4290284635598
 30
0.0
 11
890.20419093510145
 21
239.42902846355989
 31
0.0
  0
LINE
  5
D6F
  8
0
 10
853.20419093510145
 20
180.42902846355969
 30
0.0
 11
885.20419093510134
 21
180.92902846355969
 31
0.0
  0
LINE
  5
D70
  8
0
 10
885.20419093510122
 20
195.4290284635598
 30
0.0
 11
889.20419093510145
 21
195.4290284635598
 31
0.0
  0
ARC
  5
D71
  8
0
 10
889.20419093510145
 20
196.4290284635598
 30
0.0
 40
1.0
 50
270.0
 51
0.0
  0
LINE
  5
D72
  8
0
 10
885.20419093510134
 20
240.42902846355989
 30
0.0
 11
889.20419093510145
 21
240.42902846355989
 31
0.0
  0
ARC
  5
D73
  8
0
 10
889.20419093510145
 20
239.42902846355989
 30
0.0
 40
1.0
 50
0.0
 51
90.0
  0
LINE
  5
D74
  8
DIM
  6
CONTINUOUS
 10
890.20419093510145
 20
345.12032388200367
 30
0.0
 11
890.20419093510145
 21
296.19804680619359
 31
0.0
  0
LINE
  5
D75
  8
DIM
  6
CONTINUOUS
 10
885.20419093510134
 20
330.69804680619359
 30
0.0
 11
885.20419093510134
 21
296.19804680619359
 31
0.0
  0
LINE
  5
D76
  8
0
 10
853.20419093510145
 20
255.4290284635598
 30
0.0
 11
885.20419093510134
 21
254.9290284635598
 31
0.0
  0
SOLID
  5
D77
  8
DIM
  6
CONTINUOUS
 10
882.20419093510145
 20
297.69804680619359
 30
0.0
 11
882.20419093510145
 21
296.69804680619347
 31
0.0
 12
885.20419093510134
 22
297.19804680619347
 32
0.0
 13
885.20419093510134
 23
297.19804680619347
 33
0.0
  0
SOLID
  5
D78
  8
DIM
  6
CONTINUOUS
 10
893.20419093510134
 20
297.69804680619359
 30
0.0
 11
893.20419093510134
 21
296.69804680619347
 31
0.0
 12
890.20419093510145
 22
297.19804680619347
 32
0.0
 13
890.20419093510145
 23
297.19804680619347
 33
0.0
  0
TEXT
  5
D79
  8
DIM
  6
CONTINUOUS
 10
895.57944265517881
 20
298.69804680619347
 30
0.0
 40
3.0
  1
5
  7
ROMANSS
 72
     1
 11
896.57944265517881
 21
300.19804680619347
 31
0.0
 73
     2
  0
LINE
  5
D7A
  8
0
 10
853.20419093510145
 20
331.19804680619359
 30
0.0
 11
885.20419093510134
 21
331.69804680619347
 31
0.0
  0
ARC
  5
D7B
  8
0
  6
CONTINUOUS
 10
860.20419093510134
 20
359.69804680619359
 30
0.0
 40
3.5
 50
38.213210701738312
 51
81.786789298261638
  0
ARC
  5
D7C
  8
0
  6
CONTINUOUS
 10
860.20419093510134
 20
359.69804680619359
 30
0.0
 40
3.5
 50
278.21321070173809
 51
321.78678929826162
  0
POLYLINE
  5
D7D
  8
0
  6
CONTINUOUS
 66
     1
 10
0.0
 20
0.0
 30
0.0
 70
     1
  0
VERTEX
  5
13D4
  8
0
  6
CONTINUOUS
 10
859.33816553131692
 20
361.19804680619347
 30
0.0
  0
VERTEX
  5
13D5
  8
0
  6
CONTINUOUS
 10
858.4721401275325
 20
359.69804680619359
 30
0.0
  0
VERTEX
  5
13D6
  8
0
  6
CONTINUOUS
 10
859.33816553131692
 20
358.19804680619359
 30
0.0
  0
VERTEX
  5
13D7
  8
0
  6
CONTINUOUS
 10
861.07021633888564
 20
358.19804680619359
 30
0.0
  0
VERTEX
  5
13D8
  8
0
  6
CONTINUOUS
 10
861.93624174267029
 20
359.69804680619359
 30
0.0
  0
VERTEX
  5
13D9
  8
0
  6
CONTINUOUS
 10
861.07021633888564
 20
361.19804680619347
 30
0.0
  0
SEQEND
  5
13DA
  8
0
  6
CONTINUOUS
  0
CIRCLE
  5
D85
  8
0
 10
860.20419093510134
 20
359.69804680619359
 30
0.0
 40
5.2999999999999989
  0
CIRCLE
  5
D86
  8
0
 10
860.20419093510134
 20
359.69804680619359
 30
0.0
 40
5.0
  0
CIRCLE
  5
D87
  8
0
  6
CONTINUOUS
 10
860.20419093510134
 20
359.69804680619359
 30
0.0
 40
2.5
  0
LINE
  5
D88
  8
CENTER
  6
CENTER
 10
853.704190935101
 20
359.69804680619359
 30
0.0
 11
866.70419093510111
 21
359.69804680619359
 31
0.0
  0
LINE
  5
D89
  8
0
  6
CONTINUOUS
 10
859.70419093510145
 20
364.6729839917266
 30
0.0
 11
859.70419093510145
 21
363.16214842133132
 31
0.0
  0
LINE
  5
D8A
  8
0
  6
CONTINUOUS
 10
860.70419093510145
 20
364.6729839917266
 30
0.0
 11
860.70419093510145
 21
363.16214842133132
 31
0.0
  0
LINE
  5
D8B
  8
0
  6
CONTINUOUS
 10
859.70419093510145
 20
356.23394519105591
 30
0.0
 11
859.70419093510145
 21
354.72310962066052
 31
0.0
  0
LINE
  5
D8C
  8
0
  6
CONTINUOUS
 10
860.70419093510145
 20
356.23394519105591
 30
0.0
 11
860.70419093510145
 21
354.72310962066052
 31
0.0
  0
LINE
  5
D8D
  8
0
  6
CONTINUOUS
 10
857.45419093510145
 20
361.86311031565469
 30
0.0
 11
856.14576895019775
 21
362.6185281008523
 31
0.0
  0
ARC
  5
D8E
  8
0
  6
CONTINUOUS
 10
860.20419093510134
 20
359.69804680619359
 30
0.0
 40
3.5
 50
158.21321070173769
 51
201.78678929826219
  0
LINE
  5
D8F
  8
0
  6
CONTINUOUS
 10
856.95419093510145
 20
360.99708491187027
 30
0.0
 11
855.64576895019786
 21
361.75250269706788
 31
0.0
  0
LINE
  5
D90
  8
0
  6
CONTINUOUS
 10
856.14576895019775
 20
356.77756551153482
 30
0.0
 11
857.45419093510145
 21
357.5329832967326
 31
0.0
  0
LINE
  5
D91
  8
0
  6
CONTINUOUS
 10
855.64576895019786
 20
357.64359091531918
 30
0.0
 11
856.95419093510145
 21
358.3990087005169
 31
0.0
  0
ARC
  5
D92
  8
0
  6
CONTINUOUS
 10
860.20419093510134
 20
359.69804680619359
 30
0.0
 40
3.5
 50
98.213210701738376
 51
141.7867892982631
  0
ARC
  5
D93
  8
0
  6
CONTINUOUS
 10
860.20419093510134
 20
359.69804680619359
 30
0.0
 40
3.5
 50
218.21321070173829
 51
261.78678929826191
  0
ARC
  5
D94
  8
0
  6
CONTINUOUS
 10
860.20419093510134
 20
359.69804680619359
 30
0.0
 40
3.5
 50
338.21321070173769
 51
21.786789298260508
  0
LINE
  5
D95
  8
0
  6
CONTINUOUS
 10
862.95419093510145
 20
361.86311031565469
 30
0.0
 11
864.26261292000515
 21
362.6185281008523
 31
0.0
  0
LINE
  5
D96
  8
0
  6
CONTINUOUS
 10
863.45419093510145
 20
360.99708491187027
 30
0.0
 11
864.76261292000504
 21
361.75250269706788
 31
0.0
  0
LINE
  5
D97
  8
0
  6
CONTINUOUS
 10
864.26261292000515
 20
356.77756551153482
 30
0.0
 11
862.95419093510145
 21
357.5329832967326
 31
0.0
  0
LINE
  5
D98
  8
0
  6
CONTINUOUS
 10
864.76261292000504
 20
357.64359091531918
 30
0.0
 11
863.45419093510145
 21
358.3990087005169
 31
0.0
  0
LINE
  5
D99
  8
0
 10
885.20419093510134
 20
346.19804680619347
 30
0.0
 11
889.20419093510145
 21
346.19804680619342
 31
0.0
  0
LINE
  5
D9A
  8
DIM
  6
CONTINUOUS
 10
890.82867877233662
 20
346.19804680619347
 30
0.0
 11
899.20419093510145
 21
346.19804680619347
 31
0.0
  0
ARC
  5
D9B
  8
0
 10
889.20419093510145
 20
347.19804680619359
 30
0.0
 40
1.0
 50
270.0
 51
0.0
  0
SOLID
  5
D9C
  8
DIM
  6
CONTINUOUS
 10
897.70419093510134
 20
349.19804680619347
 30
0.0
 11
898.70419093510145
 21
349.19804680619347
 31
0.0
 12
898.20419093510145
 22
346.19804680619347
 32
0.0
 13
898.20419093510145
 23
346.19804680619347
 33
0.0
  0
LINE
  5
D9D
  8
DIM
  6
CONTINUOUS
 10
961.45978000652678
 20
330.19804680619342
 30
0.0
 11
961.45978000652678
 21
296.19804680619359
 31
0.0
  0
LINE
  5
D9E
  8
DIM
  6
CONTINUOUS
 10
998.95978000652678
 20
327.19804680619342
 30
0.0
 11
998.95978000652678
 21
312.19804680619359
 31
0.0
  0
SOLID
  5
D9F
  8
DIM
  6
CONTINUOUS
 10
964.45978000652678
 20
305.69804680619359
 30
0.0
 11
964.45978000652678
 21
304.69804680619347
 31
0.0
 12
961.45978000652678
 22
305.19804680619347
 32
0.0
 13
961.45978000652678
 23
305.19804680619347
 33
0.0
  0
SOLID
  5
DA0
  8
DIM
  6
CONTINUOUS
 10
964.45978000652678
 20
297.69804680619359
 30
0.0
 11
964.45978000652678
 21
296.69804680619347
 31
0.0
 12
961.45978000652678
 22
297.19804680619347
 32
0.0
 13
961.45978000652678
 23
297.19804680619347
 33
0.0
  0
POLYLINE
  5
DA1
  8
DIM
  6
CONTINUOUS
 66
     1
 10
0.0
 20
0.0
 30
0.0
 70
     1
  0
VERTEX
  5
13DB
  8
DIM
  6
CONTINUOUS
 10
992.7869134842415
 20
309.2337446241084
 30
0.0
  0
VERTEX
  5
13DC
  8
DIM
  6
CONTINUOUS
 10
992.7869134842415
 20
306.58972356395509
 30
0.0
  0
VERTEX
  5
13DD
  8
DIM
  6
CONTINUOUS
 10
995.19228466814832
 20
306.58972356395509
 30
0.0
  0
VERTEX
  5
13DE
  8
DIM
  6
CONTINUOUS
 10
995.19228466814832
 20
309.2337446241084
 30
0.0
  0
SEQEND
  5
13DF
  8
DIM
  6
CONTINUOUS
  0
TEXT
  5
DA7
  8
DIM
  6
CONTINUOUS
 10
996.53120857795545
 20
306.69804680619347
 30
0.0
 40
3.0
  1
75
  7
ROMANSS
 72
     1
 11
998.95978000652678
 21
308.19804680619359
 31
0.0
 73
     2
  0
SOLID
  5
DA8
  8
DIM
  6
CONTINUOUS
 10
1001.959780006526
 20
313.69804680619347
 30
0.0
 11
1001.959780006526
 21
312.69804680619347
 31
0.0
 12
998.95978000652678
 22
313.19804680619347
 32
0.0
 13
998.95978000652678
 23
313.19804680619347
 33
0.0
  0
LINE
  5
DA9
  8
CENTER
  6
CENTER
 10
958.26848592318697
 20
359.69804680619359
 30
0.0
 11
981.93314334428464
 21
359.69804680619359
 31
0.0
  0
POLYLINE
  5
DAA
  8
0
  6
CONTINUOUS
 66
     1
 10
0.0
 20
0.0
 30
0.0
 70
     1
  0
VERTEX
  5
13E0
  8
0
  6
CONTINUOUS
 10
968.40037892976852
 20
344.44804680619342
 30
0.0
  0
VERTEX
  5
13E1
  8
0
  6
CONTINUOUS
 10
966.09097785300992
 20
340.44804680619342
 30
0.0
  0
VERTEX
  5
13E2
  8
0
  6
CONTINUOUS
 10
968.40037892976852
 20
336.44804680619342
 30
0.0
  0
VERTEX
  5
13E3
  8
0
  6
CONTINUOUS
 10
973.01918108328539
 20
336.44804680619342
 30
0.0
  0
VERTEX
  5
13E4
  8
0
  6
CONTINUOUS
 10
975.32858216004388
 20
340.44804680619342
 30
0.0
  0
VERTEX
  5
13E5
  8
0
  6
CONTINUOUS
 10
973.01918108328539
 20
344.44804680619342
 30
0.0
  0
SEQEND
  5
13E6
  8
0
  6
CONTINUOUS
  0
CIRCLE
  5
DB2
  8
0
  6
CONTINUOUS
 10
970.70978000652678
 20
340.44804680619342
 30
0.0
 40
3.399999999999999
  0
ARC
  5
DB3
  8
0
  6
CONTINUOUS
 62
     2
 10
970.70978000652678
 20
340.44804680619342
 30
0.0
 40
4.0
 50
57.77418116062497
 51
14.453881156675809
  0
CIRCLE
  5
DB4
  8
0
 10
970.70978000652678
 20
340.44804680619342
 30
0.0
 40
6.5
  0
LINE
  5
DB5
  8
0
 10
965.95978000652678
 20
363.19804680619342
 30
0.0
 11
975.11129997110334
 21
363.19804680619342
 31
0.0
  0
ARC
  5
DB6
  8
0
 10
970.70978000652678
 20
340.44804680619342
 30
0.0
 40
9.5
 50
59.477512185929498
 51
115.58300197738819
  0
LINE
  5
DB7
  8
CENTER
  6
CENTER
 10
963.2097800065269
 20
340.44804680619342
 30
0.0
 11
978.2097800065269
 21
340.44804680619342
 31
0.0
  0
ARC
  5
DB8
  8
0
  6
CONTINUOUS
 10
966.63200222875503
 20
344.94804680619347
 30
0.0
 40
10.19983357405331
 50
155.3752531507765
 51
204.6247468492239
  0
LINE
  5
DB9
  8
0
  6
CONTINUOUS
 10
956.45978000652701
 20
340.69804680619347
 30
0.0
 11
956.45978000652701
 21
357.69804680619359
 31
0.0
  0
ARC
  5
DBA
  8
0
  6
CONTINUOUS
 10
951.287557784299
 20
344.9480468061937
 30
0.0
 40
10.19983357405331
 50
335.37525315077852
 51
24.624746849221388
  0
SOLID
  5
DBB
  8
DIM
  6
CONTINUOUS
 10
944.9597800065269
 20
343.44804680619342
 30
0.0
 11
945.9597800065269
 21
343.44804680619342
 31
0.0
 12
945.45978000652678
 22
340.44804680619342
 32
0.0
 13
945.45978000652678
 23
340.44804680619342
 33
0.0
  0
LINE
  5
DBC
  8
CENTER
  6
CENTER
 10
970.70978000652678
 20
347.94804680619342
 30
0.0
 11
970.70978000652678
 21
332.94804680619342
 31
0.0
  0
LINE
  5
DBD
  8
0
  6
CONTINUOUS
 10
956.45978000652701
 20
340.69804680619347
 30
0.0
 11
961.45978000652678
 21
340.69804680619347
 31
0.0
  0
LINE
  5
DBE
  8
DIM
  6
CONTINUOUS
 10
962.2097800065269
 20
340.44804680619342
 30
0.0
 11
944.01663338358514
 21
340.44804680619342
 31
0.0
  0
ARC
  5
DBF
  8
0
 10
970.9597800065269
 20
340.69804680619342
 30
0.0
 40
9.0
 50
180.0
 51
270.0
  0
ARC
  5
DC0
  8
0
 10
970.9597800065269
 20
340.69804680619342
 30
0.0
 40
9.5
 50
180.0
 51
270.0
  0
LINE
  5
DC1
  8
CENTER
  6
CENTER
 10
972.59679983482636
 20
349.19804680619347
 30
0.0
 11
950.4597800065269
 21
349.19804680619347
 31
0.0
  0
ARC
  5
DC2
  8
0
  6
CONTINUOUS
 10
966.63200222875503
 20
353.44804680619359
 30
0.0
 40
10.19983357405331
 50
155.3752531507765
 51
204.6247468492239
  0
LINE
  5
DC3
  8
0
  6
CONTINUOUS
 10
956.45978000652701
 20
357.69804680619359
 30
0.0
 11
961.45978000652678
 21
357.69804680619359
 31
0.0
  0
LINE
  5
DC4
  8
0
  6
CONTINUOUS
 10
954.9597800065269
 20
354.19804680619359
 30
0.0
 11
953.45978000652678
 21
352.69804680619347
 31
0.0
  0
LINE
  5
DC5
  8
0
  6
CONTINUOUS
 10
954.9597800065269
 20
344.19804680619347
 30
0.0
 11
954.9597800065269
 21
354.19804680619359
 31
0.0
  0
LINE
  5
DC6
  8
0
  6
CONTINUOUS
 10
954.9597800065269
 20
344.19804680619347
 30
0.0
 11
953.45978000652678
 21
345.69804680619359
 31
0.0
  0
LINE
  5
DC7
  8
0
  6
CONTINUOUS
 62
     2
 10
956.45978000652701
 20
345.19804680619359
 30
0.0
 11
953.9597800065269
 21
345.19804680619359
 31
0.0
  0
LINE
  5
DC8
  8
0
  6
CONTINUOUS
 62
     2
 10
956.45978000652701
 20
353.19804680619347
 30
0.0
 11
953.9597800065269
 21
353.19804680619347
 31
0.0
  0
LINE
  5
DC9
  8
0
  6
CONTINUOUS
 10
956.45978000652701
 20
344.19804680619347
 30
0.0
 11
954.9597800065269
 21
344.19804680619347
 31
0.0
  0
LINE
  5
DCA
  8
0
  6
CONTINUOUS
 10
953.45978000652678
 20
345.69804680619359
 30
0.0
 11
953.45978000652678
 21
352.69804680619347
 31
0.0
  0
POLYLINE
  5
DCB
  8
DIM
  6
CONTINUOUS
 66
     1
 10
0.0
 20
0.0
 30
0.0
 70
     1
  0
VERTEX
  5
13E7
  8
DIM
  6
CONTINUOUS
 10
941.24970114078587
 20
363.31599759349513
 30
0.0
  0
VERTEX
  5
13E8
  8
DIM
  6
CONTINUOUS
 10
941.24970114078587
 20
360.67197653334171
 30
0.0
  0
VERTEX
  5
13E9
  8
DIM
  6
CONTINUOUS
 10
943.6550723246927
 20
360.67197653334171
 30
0.0
  0
VERTEX
  5
13EA
  8
DIM
  6
CONTINUOUS
 10
943.6550723246927
 20
363.31599759349513
 30
0.0
  0
SEQEND
  5
13EB
  8
DIM
  6
CONTINUOUS
  0
LINE
  5
DD1
  8
0
  6
CONTINUOUS
 10
956.45978000652701
 20
354.19804680619359
 30
0.0
 11
954.9597800065269
 21
354.19804680619359
 31
0.0
  0
ARC
  5
DD2
  8
0
  6
CONTINUOUS
 10
951.287557784299
 20
353.4480468061937
 30
0.0
 40
10.19983357405331
 50
335.37525315077852
 51
24.624746849221388
  0
ARC
  5
DD3
  8
0
 10
965.95978000652678
 20
350.36961422268553
 30
0.0
 40
1.5
 50
180.0
 51
295.58300197742591
  0
LINE
  5
DD4
  8
0
 10
961.45978000652678
 20
343.69804680619342
 30
0.0
 11
961.9597800065269
 21
343.69804680619342
 31
0.0
  0
ARC
  5
DD5
  8
0
 10
965.95978000652678
 20
361.69804680619342
 30
0.0
 40
1.5
 50
90.0
 51
180.0
  0
LINE
  5
DD6
  8
CENTER
  6
CENTER
 10
993.95978000652701
 20
328.91786544341068
 30
0.0
 11
993.95978000652701
 21
342.91786544341068
 31
0.0
  0
LINE
  5
DD7
  8
0
 10
999.95978000652678
 20
335.69804680619342
 30
0.0
 11
999.95978000652678
 21
344.3259315922856
 31
0.0
  0
LINE
  5
DD8
  8
0
 10
988.9597800065269
 20
335.69804680619342
 30
0.0
 11
988.9597800065269
 21
347.06473915340962
 31
0.0
  0
LINE
  5
DD9
  8
0
 10
997.9597800065269
 20
335.69804680619342
 30
0.0
 11
997.9597800065269
 21
344.3259315922856
 31
0.0
  0
ARC
  5
DDA
  8
0
 10
970.70978000652678
 20
340.44804680619342
 30
0.0
 40
9.5
 50
334.41699802261212
 51
30.52248781406956
  0
LINE
  5
DDB
  8
0
 10
996.45978000652678
 20
334.19804680619342
 30
0.0
 11
980.63134742301895
 21
334.19804680619342
 31
0.0
  0
LINE
  5
DDC
  8
0
 10
987.9597800065269
 20
322.1980468061933
 30
0.0
 11
987.9597800065269
 21
331.19804680619342
 31
0.0
  0
LINE
  5
DDD
  8
0
  6
CONTINUOUS
 10
988.9597800065269
 20
321.1980468061933
 30
0.0
 11
987.9597800065269
 21
322.1980468061933
 31
0.0
  0
ARC
  5
DDE
  8
0
 10
980.63134742301895
 20
335.69804680619342
 30
0.0
 40
1.5
 50
154.4169980225779
 51
270.0
  0
ARC
  5
DDF
  8
0
 10
987.45978000652678
 20
335.69804680619342
 30
0.0
 40
1.5
 50
270.0
 51
0.0
  0
ARC
  5
DE0
  8
0
 10
996.45978000652678
 20
335.69804680619342
 30
0.0
 40
1.5
 50
270.0
 51
0.0
  0
ARC
  5
DE1
  8
0
 10
1001.459780006527
 20
335.69804680619342
 30
0.0
 40
1.5
 50
180.0
 51
270.0
  0
ARC
  5
DE2
  8
0
 10
979.80059869144111
 20
353.4279527876335
 30
0.0
 40
1.5
 50
314.99999999999687
 51
38.555259660229609
  0
LINE
  5
DE3
  8
0
 10
982.62902581618698
 20
350.5995256628874
 30
0.0
 11
979.12484864870612
 21
347.0953484954062
 31
0.0
  0
ARC
  5
DE4
  8
0
 10
980.18550882048578
 20
346.03468832362643
 30
0.0
 40
1.5
 50
135.0
 51
210.5224878140713
  0
ARC
  5
DE5
  8
0
 10
976.29642152395979
 20
349.92377562015241
 30
0.0
 40
1.5
 50
239.47751218593231
 51
314.99999999999687
  0
LINE
  5
DE6
  8
0
 10
980.86125886322088
 20
352.36729261585361
 30
0.0
 11
977.35708169573968
 21
348.86311544837258
 31
0.0
  0
ARC
  5
DE7
  8
0
 10
987.45978000652678
 20
347.06473915340962
 30
0.0
 40
1.5
 50
0.0
 51
62.005438267749533
  0
ARC
  5
DE8
  8
0
 10
983.68968598796687
 20
349.53886549110752
 30
0.0
 40
1.5
 50
51.444740339770391
 51
135.0
  0
ARC
  5
DE9
  8
0
 10
975.11129997110334
 20
361.19804680619342
 30
0.0
 40
2.0
 50
17.457603123722262
 51
90.0
  0
ARC
  5
DEA
  8
0
 10
996.45978000652678
 20
344.3259315922856
 30
0.0
 40
1.5
 50
0.0
 51
84.143298090078375
  0
ARC
  5
DEB
  8
0
 10
1001.459780006527
 20
344.3259315922856
 30
0.0
 40
1.5
 50
95.85670190992164
 51
180.0
  0
LINE
  5
DEC
  8
DIM
  6
CONTINUOUS
 10
1069.9597800065269
 20
321.1980468061933
 30
0.0
 11
1088.4597800065269
 21
321.1980468061933
 31
0.0
  0
LINE
  5
DED
  8
DIM
  6
CONTINUOUS
 10
1036.459780006526
 20
337.55480335195517
 30
0.0
 11
1036.459780006526
 21
314.88060539520791
 31
0.0
  0
LINE
  5
DEE
  8
DIM
  6
CONTINUOUS
 10
1071.459780006526
 20
330.19804680619342
 30
0.0
 11
1071.459780006526
 21
296.19804680619359
 31
0.0
  0
LINE
  5
DEF
  8
DIM
  6
CONTINUOUS
 10
998.95978000652667
 20
313.19804680619347
 30
0.0
 11
1068.459780006526
 21
313.19804680619347
 31
0.0
  0
TEXT
  5
DF0
  8
DIM
  6
CONTINUOUS
 10
1013.174065720812
 20
298.69804680619347
 30
0.0
 40
3.0
  1
110
  7
ROMANSS
 72
     1
 11
1016.459780006526
 21
300.19804680619347
 31
0.0
 73
     2
  0
TEXT
  5
DF1
  8
DIM
  6
CONTINUOUS
 10
1011.531208577955
 20
314.69804680619347
 30
0.0
 40
3.0
  1
30
  7
ROMANSS
 72
     1
 11
1013.959780006526
 21
316.19804680619359
 31
0.0
 73
     2
  0
LINE
  5
DF2
  8
DIM
  6
CONTINUOUS
 10
1036.459780006526
 20
311.27512186391539
 30
0.0
 11
1036.459780006526
 21
304.19804680619359
 31
0.0
  0
SOLID
  5
DF3
  8
DIM
  6
CONTINUOUS
 10
1033.4597800065269
 20
305.69804680619359
 30
0.0
 11
1033.4597800065269
 21
304.69804680619347
 31
0.0
 12
1036.459780006526
 22
305.19804680619347
 32
0.0
 13
1036.459780006526
 23
305.19804680619347
 33
0.0
  0
SOLID
  5
DF4
  8
DIM
  6
CONTINUOUS
 10
1031.959780006526
 20
313.69804680619347
 30
0.0
 11
1031.959780006526
 21
312.69804680619347
 31
0.0
 12
1028.9597800065269
 22
313.19804680619347
 32
0.0
 13
1028.9597800065269
 23
313.19804680619347
 33
0.0
  0
LINE
  5
DF5
  8
DIM
  6
CONTINUOUS
 10
1028.9597800065269
 20
317.1980468061933
 30
0.0
 11
1028.9597800065269
 21
312.19804680619359
 31
0.0
  0
SOLID
  5
DF6
  8
DIM
  6
CONTINUOUS
 10
1025.959780006526
 20
313.69804680619347
 30
0.0
 11
1025.959780006526
 21
312.69804680619347
 31
0.0
 12
1028.9597800065269
 22
313.19804680619347
 32
0.0
 13
1028.9597800065269
 23
313.19804680619347
 33
0.0
  0
LINE
  5
DF7
  8
DIM
  6
CONTINUOUS
 10
1028.9597800065269
 20
317.1980468061933
 30
0.0
 11
1028.9597800065269
 21
312.19804680619359
 31
0.0
  0
TEXT
  5
DF8
  8
DIM
  6
CONTINUOUS
 10
1045.638351435098
 20
314.69804680619347
 30
0.0
 40
3.0
  1
42.5
  7
ROMANSS
 72
     1
 11
1050.2097800065269
 21
316.19804680619359
 31
0.0
 73
     2
  0
SOLID
  5
DF9
  8
DIM
  6
CONTINUOUS
 10
1068.459780006526
 20
297.69804680619359
 30
0.0
 11
1068.459780006526
 21
296.69804680619347
 31
0.0
 12
1071.459780006526
 22
297.19804680619347
 32
0.0
 13
1071.459780006526
 23
297.19804680619347
 33
0.0
  0
SOLID
  5
DFA
  8
DIM
  6
CONTINUOUS
 10
1068.459780006526
 20
313.69804680619347
 30
0.0
 11
1068.459780006526
 21
312.69804680619347
 31
0.0
 12
1071.459780006526
 22
313.19804680619347
 32
0.0
 13
1071.459780006526
 23
313.19804680619347
 33
0.0
  0
POLYLINE
  5
DFB
  8
0
  6
CONTINUOUS
 66
     1
 10
0.0
 20
0.0
 30
0.0
 70
     1
  0
VERTEX
  5
13EC
  8
0
  6
CONTINUOUS
 10
1024.9003789297681
 20
344.44804680619342
 30
0.0
  0
VERTEX
  5
13ED
  8
0
  6
CONTINUOUS
 10
1022.59097785301
 20
340.44804680619342
 30
0.0
  0
VERTEX
  5
13EE
  8
0
  6
CONTINUOUS
 10
1024.9003789297681
 20
336.44804680619342
 30
0.0
  0
VERTEX
  5
13EF
  8
0
  6
CONTINUOUS
 10
1029.519181083285
 20
336.44804680619342
 30
0.0
  0
VERTEX
  5
13F0
  8
0
  6
CONTINUOUS
 10
1031.828582160043
 20
340.44804680619342
 30
0.0
  0
VERTEX
  5
13F1
  8
0
  6
CONTINUOUS
 10
1029.519181083285
 20
344.44804680619342
 30
0.0
  0
SEQEND
  5
13F2
  8
0
  6
CONTINUOUS
  0
CIRCLE
  5
E03
  8
0
  6
CONTINUOUS
 10
1027.209780006526
 20
340.44804680619342
 30
0.0
 40
3.399999999999999
  0
ARC
  5
E04
  8
0
  6
CONTINUOUS
 62
     2
 10
1027.209780006526
 20
340.44804680619342
 30
0.0
 40
4.0
 50
57.77418116062497
 51
14.453881156675809
  0
CIRCLE
  5
E05
  8
0
 10
1027.209780006526
 20
340.44804680619342
 30
0.0
 40
6.5
  0
ARC
  5
E06
  8
0
 10
1027.209780006526
 20
340.44804680619342
 30
0.0
 40
9.5
 50
149.4775121859295
 51
205.58300197738259
  0
LINE
  5
E07
  8
CENTER
  6
CENTER
 10
1027.209780006526
 20
347.94804680619342
 30
0.0
 11
1027.209780006526
 21
332.94804680619342
 31
0.0
  0
LINE
  5
E08
  8
0
 10
1008.959780006526
 20
335.69804680619342
 30
0.0
 11
1008.959780006526
 21
347.06473915340962
 31
0.0
  0
LINE
  5
E09
  8
CENTER
  6
CENTER
 10
1019.709780006526
 20
340.44804680619342
 30
0.0
 11
1034.7097800065269
 21
340.44804680619342
 31
0.0
  0
ARC
  5
E0A
  8
0
 10
1010.459780006526
 20
335.69804680619342
 30
0.0
 40
1.5
 50
180.0
 51
270.0
  0
ARC
  5
E0B
  8
0
 10
1017.288212590034
 20
335.69804680619342
 30
0.0
 40
1.5
 50
270.0
 51
25.58300197741622
  0
ARC
  5
E0C
  8
0
 10
1026.959780006526
 20
340.69804680619342
 30
0.0
 40
9.0
 50
270.0
 51
0.0
  0
ARC
  5
E0D
  8
0
 10
1026.959780006526
 20
340.69804680619342
 30
0.0
 40
9.5
 50
270.0
 51
0.0
  0
LINE
  5
E0E
  8
0
 10
1031.959780006526
 20
358.6980468061933
 30
0.0
 11
1020.593087659311
 21
358.6980468061933
 31
0.0
  0
ARC
  5
E0F
  8
0
 10
1027.209780006526
 20
340.44804680619342
 30
0.0
 40
9.5
 50
64.416998022605981
 51
120.5224878140705
  0
ARC
  5
E10
  8
0
 10
1018.118961321613
 20
353.42795278763339
 30
0.0
 40
1.5
 50
141.44474033977031
 51
225.00000000000301
  0
ARC
  5
E11
  8
0
 10
1014.229874025087
 20
349.53886549110752
 30
0.0
 40
1.5
 50
45.0
 51
128.55525966022961
  0
ARC
  5
E12
  8
0
 10
1010.459780006526
 20
347.06473915340962
 30
0.0
 40
1.5
 50
117.9945617322504
 51
180.0
  0
ARC
  5
E13
  8
0
 10
1021.623138489093
 20
349.9237756201523
 30
0.0
 40
1.5
 50
225.00000000000301
 51
300.52248781406757
  0
ARC
  5
E14
  8
0
 10
1017.734051192568
 20
346.03468832362643
 30
0.0
 40
1.5
 50
329.47751218592862
 51
45.0
  0
LINE
  5
E15
  8
0
 10
1015.290534196866
 20
350.5995256628874
 30
0.0
 11
1018.794711364348
 21
347.0953484954062
 31
0.0
  0
LINE
  5
E16
  8
0
 10
1017.058301149833
 20
352.36729261585361
 30
0.0
 11
1020.562478317314
 21
348.86311544837258
 31
0.0
  0
ARC
  5
E17
  8
0
 10
1020.593087659311
 20
357.1980468061933
 30
0.0
 40
1.5
 50
90.0
 51
152.0054382677456
  0
ARC
  5
E18
  8
0
 10
1031.959780006526
 20
350.36961422268553
 30
0.0
 40
1.5
 50
244.41699802257401
 51
0.0
  0
ARC
  5
E19
  8
0
 10
1031.959780006526
 20
357.1980468061933
 30
0.0
 40
1.5
 50
0.0
 51
90.0
  0
LINE
  5
E1A
  8
CENTER
  6
CENTER
 10
1063.9597800065269
 20
328.91786544341079
 30
0.0
 11
1063.9597800065269
 21
342.91786544341079
 31
0.0
  0
LINE
  5
E1B
  8
0
 10
1069.9597800065269
 20
322.1980468061933
 30
0.0
 11
1069.9597800065269
 21
331.19804680619342
 31
0.0
  0
LINE
  5
E1C
  8
0
  6
CONTINUOUS
 10
1068.9597800065269
 20
321.1980468061933
 30
0.0
 11
1069.9597800065269
 21
322.1980468061933
 31
0.0
  0
SOLID
  5
E1D
  8
DIM
  6
CONTINUOUS
 10
1078.9597800065269
 20
318.1980468061933
 30
0.0
 11
1079.9597800065269
 21
318.1980468061933
 31
0.0
 12
1079.4597800065269
 22
321.1980468061933
 32
0.0
 13
1079.4597800065269
 23
321.1980468061933
 33
0.0
  0
TEXT
  5
E1E
  8
DIM
  6
CONTINUOUS
 10
1077.9597800065269
 20
324.04728573135009
 30
0.0
 40
3.0
  1
10
 50
90.0
  7
ROMANSS
 72
     1
 11
1076.4597800065269
 21
326.1901428742072
 31
0.0
 73
     2
  0
SOLID
  5
E1F
  8
DIM
  6
CONTINUOUS
 10
1086.9597800065269
 20
324.1980468061933
 30
0.0
 11
1087.9597800065269
 21
324.1980468061933
 31
0.0
 12
1087.4597800065269
 22
321.1980468061933
 32
0.0
 13
1087.4597800065269
 23
321.1980468061933
 33
0.0
  0
LINE
  5
E20
  8
DIM
  6
CONTINUOUS
 10
1072.459780006526
 20
331.1980468061933
 30
0.0
 11
1080.4597800065269
 21
331.1980468061933
 31
0.0
  0
SOLID
  5
E21
  8
DIM
  6
CONTINUOUS
 10
1078.9597800065269
 20
334.1980468061933
 30
0.0
 11
1079.9597800065269
 21
334.1980468061933
 31
0.0
 12
1079.4597800065269
 22
331.1980468061933
 32
0.0
 13
1079.4597800065269
 23
331.1980468061933
 33
0.0
  0
LINE
  5
E22
  8
0
  6
CONTINUOUS
 10
961.45978000652678
 20
406.19804680619359
 30
0.0
 11
1071.4597800065269
 21
406.19804680619359
 31
0.0
  0
LINE
  5
E23
  8
0
  6
CONTINUOUS
 10
988.9597800065269
 20
416.19804680619347
 30
0.0
 11
1068.9597800065269
 21
416.19804680619347
 31
0.0
  0
LINE
  5
E24
  8
0
  6
CONTINUOUS
 10
987.9597800065269
 20
415.19804680619347
 30
0.0
 11
1069.9597800065269
 21
415.19804680619347
 31
0.0
  0
LINE
  5
E25
  8
0
 10
1001.459780006527
 20
403.19804680619342
 30
0.0
 11
1017.288212590034
 21
403.19804680619342
 31
0.0
  0
LINE
  5
E26
  8
0
 10
970.9597800065269
 20
405.69804680619347
 30
0.0
 11
1026.959780006526
 21
405.69804680619347
 31
0.0
  0
LINE
  5
E27
  8
CENTER
  6
CENTER
 10
958.4597800065269
 20
368.69804680619359
 30
0.0
 11
1074.459780006526
 21
368.69804680619342
 31
0.0
  0
LINE
  5
E28
  8
DIM
  6
CONTINUOUS
 10
748.924627644569
 20
512.41387932977455
 30
0.0
 11
748.924627644569
 21
576.41387932977455
 31
0.0
  0
LINE
  5
E29
  8
0
 10
741.70419093510145
 20
586.91387932977466
 30
0.0
 11
741.70419093510145
 21
476.91387932977449
 31
0.0
  0
LINE
  5
E2A
  8
0
 10
853.20419093510111
 20
551.91387932977477
 30
0.0
 11
853.20419093510145
 21
476.91387932977477
 31
0.0
  0
LINE
  5
E2B
  8
0
 10
890.20419093510145
 20
535.91387932977455
 30
0.0
 11
890.20419093510145
 21
492.91387932977449
 31
0.0
  0
LINE
  5
E2C
  8
0
 10
885.20419093510122
 20
551.41387932977466
 30
0.0
 11
885.20419093510134
 21
477.41387932977477
 31
0.0
  0
LINE
  5
E2D
  8
0
 10
853.20419093510111
 20
549.41387932977466
 30
0.0
 11
853.20419093510111
 21
479.41387932977472
 31
0.0
  0
LINE
  5
E2E
  8
DIM
  6
CONTINUOUS
 10
739.70419093510145
 20
509.41387932977449
 30
0.0
 11
750.86563242838577
 21
509.41387932977449
 31
0.0
  0
LINE
  5
E2F
  8
0
 10
741.70419093510145
 20
533.20398878834806
 30
0.0
 11
853.20419093510111
 21
533.20398878834806
 31
0.0
  0
LINE
  5
E30
  8
0
 10
741.70419093510145
 20
495.62376987120138
 30
0.0
 11
853.20419093510111
 21
495.62376987120138
 31
0.0
  0
LINE
  5
E31
  8
0
 10
741.70419093510145
 20
479.41387932977472
 30
0.0
 11
853.20419093510111
 21
479.41387932977472
 31
0.0
  0
LINE
  5
E32
  8
0
 10
741.70419093510145
 20
387.48815626476699
 30
0.0
 11
853.20419093510111
 21
387.48815626476699
 31
0.0
  0
LINE
  5
E33
  8
0
 10
741.70419093510145
 20
403.69804680619347
 30
0.0
 11
853.20419093510111
 21
403.69804680619347
 31
0.0
  0
LINE
  5
E34
  8
0
 10
737.70419093510145
 20
415.19804680619347
 30
0.0
 11
737.70419093510145
 21
406.19804680619359
 31
0.0
  0
LINE
  5
E35
  8
CENTER
  6
CENTER
 10
731.70419093510145
 20
408.4782281689761
 30
0.0
 11
731.70419093510145
 21
390.46447879731659
 31
0.0
  0
LINE
  5
E36
  8
0
  6
CONTINUOUS
 10
736.70419093510145
 20
416.19804680619347
 30
0.0
 11
737.70419093510145
 21
415.19804680619347
 31
0.0
  0
LINE
  5
E37
  8
CENTER
  6
CENTER
 10
718.20419093510145
 20
489.74024726447283
 30
0.0
 11
718.20419093510145
 21
465.14543885892272
 31
0.0
  0
SOLID
  5
E38
  8
DIM
  6
CONTINUOUS
 10
706.20419093510145
 20
524.4281631578408
 30
0.0
 11
706.20419093510145
 21
523.4281631578408
 31
0.0
 12
709.20419093510145
 22
523.9281631578408
 32
0.0
 13
709.20419093510145
 23
523.9281631578408
 33
0.0
  0
ARC
  5
E39
  8
0
  6
CONTINUOUS
 10
718.19815114434459
 20
461.91388054574372
 30
0.0
 40
14.999999999999989
 50
70.504307766946354
 51
89.976929697701607
  0
ARC
  5
E3A
  8
0
  6
CONTINUOUS
 10
718.19815114439984
 20
486.91387811380542
 30
0.0
 40
14.999999999999989
 50
270.02307030229878
 51
289.49569223305389
  0
LINE
  5
E3B
  8
0
  6
CONTINUOUS
 10
723.20419093525481
 20
470.41387932977449
 30
0.0
 11
721.7041909352547
 21
468.91387932977449
 31
0.0
  0
LINE
  5
E3C
  8
0
  6
CONTINUOUS
 10
723.20419093525481
 20
470.41387932977449
 30
0.0
 11
713.2041909352547
 21
470.41387932977449
 31
0.0
  0
LINE
  5
E3D
  8
0
  6
CONTINUOUS
 10
726.45419093525481
 20
471.91387932977449
 30
0.0
 11
709.9541909352547
 21
471.91387932977449
 31
0.0
  0
LINE
  5
E3E
  8
0
  6
CONTINUOUS
 10
713.20419093525481
 20
470.41387932977449
 30
0.0
 11
714.70419093525481
 21
468.91387932977449
 31
0.0
  0
ARC
  5
E3F
  8
0
  6
CONTINUOUS
 10
718.21023072605453
 20
461.91388054574372
 30
0.0
 40
14.999999999999989
 50
90.023070302299274
 51
109.4956922330544
  0
ARC
  5
E40
  8
0
  6
CONTINUOUS
 10
718.21023072610967
 20
486.91387811380542
 30
0.0
 40
14.999999999999989
 50
250.50430776694591
 51
269.97692969770111
  0
LINE
  5
E41
  8
0
  6
CONTINUOUS
 10
713.20419093525493
 20
476.05387932979352
 30
0.0
 11
713.20419093525481
 21
472.77387932977513
 31
0.0
  0
LINE
  5
E42
  8
0
  6
CONTINUOUS
 10
708.40419093525554
 20
476.01896016121498
 30
0.0
 11
708.40419093525554
 21
472.808798498366
 31
0.0
  0
LINE
  5
E43
  8
0
  6
CONTINUOUS
 10
708.40419093520006
 20
476.01896016118297
 30
0.0
 11
709.95419093519945
 21
476.91387932977449
 31
0.0
  0
ARC
  5
E44
  8
0
  6
CONTINUOUS
 10
710.89773172170203
 20
473.39210124638453
 30
0.0
 40
3.5220472269320542
 50
49.090720066529038
 51
119.2051441578367
  0
LINE
  5
E45
  8
0
  6
CONTINUOUS
 10
713.20419093525481
 20
471.91387932977449
 30
0.0
 11
713.20419093525481
 21
470.41387932977449
 31
0.0
  0
ARC
  5
E46
  8
0
  6
CONTINUOUS
 10
710.8977317217574
 20
475.43565741316451
 30
0.0
 40
3.5220472269320542
 50
240.7948558421632
 51
310.90927993347088
  0
LINE
  5
E47
  8
0
  6
CONTINUOUS
 10
708.40419093525554
 20
472.808798498366
 30
0.0
 11
709.95419093525481
 21
471.91387932977449
 31
0.0
  0
LINE
  5
E48
  8
0
  6
CONTINUOUS
 62
     2
 10
714.20419093525481
 20
471.91387932977449
 30
0.0
 11
714.20419093525481
 21
469.41387932977449
 31
0.0
  0
LINE
  5
E49
  8
0
  6
CONTINUOUS
 10
721.7041909352547
 20
468.91387932977449
 30
0.0
 11
714.70419093525459
 21
468.91387932977449
 31
0.0
  0
LINE
  5
E4A
  8
0
  6
CONTINUOUS
 10
728.00419093525397
 20
476.01896016115091
 30
0.0
 11
728.00419093525397
 21
472.808798498366
 31
0.0
  0
LINE
  5
E4B
  8
0
  6
CONTINUOUS
 10
728.00419093519872
 20
476.01896016118297
 30
0.0
 11
726.45419093519945
 21
476.91387932977449
 31
0.0
  0
LINE
  5
E4C
  8
0
  6
CONTINUOUS
 10
728.00419093525397
 20
472.808798498366
 30
0.0
 11
726.45419093525481
 21
471.91387932977449
 31
0.0
  0
LINE
  5
E4D
  8
0
  6
CONTINUOUS
 10
723.20419093525493
 20
476.05387932975441
 30
0.0
 11
723.20419093525481
 21
472.77387932977513
 31
0.0
  0
LINE
  5
E4E
  8
0
  6
CONTINUOUS
 10
723.20419093525481
 20
471.91387932977449
 30
0.0
 11
723.20419093525481
 21
470.41387932977449
 31
0.0
  0
LINE
  5
E4F
  8
0
  6
CONTINUOUS
 62
     2
 10
722.2041909352547
 20
471.91387932977449
 30
0.0
 11
722.2041909352547
 21
469.41387932977449
 31
0.0
  0
ARC
  5
E50
  8
0
  6
CONTINUOUS
 10
725.51065014869675
 20
473.39210124638453
 30
0.0
 40
3.5220472269320542
 50
60.794855842163209
 51
130.90927993347091
  0
ARC
  5
E51
  8
0
  6
CONTINUOUS
 10
725.51065014875223
 20
475.43565741316451
 30
0.0
 40
3.5220472269320542
 50
229.090720066529
 51
299.2051441578368
  0
LINE
  5
E52
  8
CENTER
  6
CENTER
 10
724.70419093510145
 20
509.41387932977449
 30
0.0
 11
738.70419093510145
 21
509.41387932977449
 31
0.0
  0
LINE
  5
E53
  8
CENTER
  6
CENTER
 10
731.70419093510145
 20
516.41387932977455
 30
0.0
 11
731.70419093510145
 21
502.41387932977449
 31
0.0
  0
CIRCLE
  5
E54
  8
0
  6
CONTINUOUS
 10
731.70419093510145
 20
509.41387932977449
 30
0.0
 40
3.399999999999999
  0
ARC
  5
E55
  8
0
  6
CONTINUOUS
 62
     2
 10
731.70419093510145
 20
509.41387932977449
 30
0.0
 40
4.0
 50
65.677517025119315
 51
24.771420425728412
  0
LINE
  5
E56
  8
CENTER
  6
CENTER
 10
716.14962741773138
 20
524.96844284714462
 30
0.0
 11
724.63490879197002
 21
516.48316147290598
 31
0.0
  0
CIRCLE
  5
E57
  8
0
  6
CONTINUOUS
 10
720.39226810485059
 20
520.72580216002518
 30
0.0
 40
2.5
  0
ARC
  5
E58
  8
0
  6
CONTINUOUS
 62
     2
 10
720.39226810485059
 20
520.72580216002518
 30
0.0
 40
3.0
 50
210.845012326004
 51
153.036401108983
  0
LINE
  5
E59
  8
DIM
  6
CONTINUOUS
 10
874.81321675153595
 20
384.5737314873914
 30
0.0
 11
896.44658138448597
 21
420.03714386241461
 31
0.0
  0
CIRCLE
  5
E5A
  8
0
 10
869.20419093510145
 20
375.6980468061937
 30
0.0
 40
6.5
  0
CIRCLE
  5
E5B
  8
0
 10
869.20419093510145
 20
375.69804680619347
 30
0.0
 40
7.5
  0
ARC
  5
E5C
  8
0
 62
     2
 10
869.20419093510145
 20
375.69804680619347
 30
0.0
 40
8.25
 50
257.92480383695391
 51
198.66239316544471
  0
LINE
  5
E5D
  8
0
 10
853.20419093510145
 20
406.19804680619359
 30
0.0
 11
885.20419093510134
 21
405.69804680619359
 31
0.0
  0
LINE
  5
E5E
  8
CENTER
  6
CENTER
 10
856.70419093510145
 20
375.69804680619347
 30
0.0
 11
881.70419093510145
 21
375.69804680619347
 31
0.0
  0
CIRCLE
  5
E5F
  8
0
 10
869.20419093510145
 20
375.69804680619347
 30
0.0
 40
8.4999999999999574
  0
SOLID
  5
E60
  8
DIM
  6
CONTINUOUS
 10
897.70419093510134
 20
388.19804680619347
 30
0.0
 11
898.70419093510145
 21
388.19804680619347
 31
0.0
 12
898.20419093510145
 22
391.19804680619359
 32
0.0
 13
898.20419093510145
 23
391.19804680619359
 33
0.0
  0
SOLID
  5
E61
  8
DIM
  6
CONTINUOUS
 10
875.24006490122974
 20
384.31334589427428
 30
0.0
 11
874.38636860184215
 21
384.83411708050852
 31
0.0
 12
873.25090319283345
 22
382.01264258922839
 32
0.0
 13
873.25090319283345
 23
382.01264258922839
 33
0.0
  0
LINE
  5
E62
  8
0
 10
885.20419093510122
 20
391.19804680619359
 30
0.0
 11
889.20419093510145
 21
391.19804680619359
 31
0.0
  0
LINE
  5
E63
  8
DIM
  6
CONTINUOUS
 10
890.82867877233662
 20
391.19804680619359
 30
0.0
 11
899.20419093510145
 21
391.19804680619359
 31
0.0
  0
ARC
  5
E64
  8
0
 10
889.20419093510145
 20
390.19804680619347
 30
0.0
 40
1.0
 50
0.0
 51
90.0
  0
TEXT
  5
E65
  8
DIM
  6
CONTINUOUS
 10
879.44398962772925
 20
421.53714386241461
 30
0.0
 40
3.0
  1
2-G3/8
  7
ROMANSS
 11
879.44398962772925
 21
423.0371438624145
 31
0.0
 73
     2
  0
LINE
  5
E66
  8
DIM
  6
CONTINUOUS
 10
878.90476895198287
 20
420.03714386241461
 30
0.0
 11
896.44658138448597
 21
420.03714386241461
 31
0.0
  0
LINE
  5
E67
  8
DIM
  6
CONTINUOUS
 10
967.20573299745377
 20
403.00483395802343
 30
0.0
 11
953.02184284956593
 21
425.82000654717109
 31
0.0
  0
LINE
  5
E68
  8
0
 10
987.9597800065269
 20
415.19804680619347
 30
0.0
 11
987.9597800065269
 21
406.19804680619359
 31
0.0
  0
LINE
  5
E69
  8
CENTER
  6
CENTER
 10
958.40505807475859
 20
375.69804680619347
 30
0.0
 11
981.93314334428464
 21
375.69804680619347
 31
0.0
  0
POLYLINE
  5
E6A
  8
0
  6
CONTINUOUS
 66
     1
 10
0.0
 20
0.0
 30
0.0
 70
     1
  0
VERTEX
  5
13F3
  8
0
  6
CONTINUOUS
 10
968.40037892976852
 20
400.94804680619342
 30
0.0
  0
VERTEX
  5
13F4
  8
0
  6
CONTINUOUS
 10
966.09097785300992
 20
396.94804680619342
 30
0.0
  0
VERTEX
  5
13F5
  8
0
  6
CONTINUOUS
 10
968.40037892976852
 20
392.94804680619342
 30
0.0
  0
VERTEX
  5
13F6
  8
0
  6
CONTINUOUS
 10
973.01918108328539
 20
392.94804680619342
 30
0.0
  0
VERTEX
  5
13F7
  8
0
  6
CONTINUOUS
 10
975.32858216004388
 20
396.94804680619342
 30
0.0
  0
VERTEX
  5
13F8
  8
0
  6
CONTINUOUS
 10
973.01918108328539
 20
400.94804680619342
 30
0.0
  0
SEQEND
  5
13F9
  8
0
  6
CONTINUOUS
  0
CIRCLE
  5
E72
  8
0
  6
CONTINUOUS
 10
970.70978000652678
 20
396.94804680619342
 30
0.0
 40
3.399999999999999
  0
ARC
  5
E73
  8
0
  6
CONTINUOUS
 62
     2
 10
970.70978000652678
 20
396.94804680619342
 30
0.0
 40
4.0
 50
57.77418116062497
 51
14.453881156675809
  0
CIRCLE
  5
E74
  8
0
 10
970.70978000652678
 20
396.94804680619342
 30
0.0
 40
6.5
  0
ARC
  5
E75
  8
0
 10
970.70978000652678
 20
396.94804680619342
 30
0.0
 40
9.5
 50
244.41699802260129
 51
300.52248781407019
  0
LINE
  5
E76
  8
CENTER
  6
CENTER
 10
963.2097800065269
 20
396.94804680619342
 30
0.0
 11
978.2097800065269
 21
396.94804680619342
 31
0.0
  0
LINE
  5
E77
  8
0
 10
965.95978000652678
 20
369.69804680619342
 30
0.0
 11
974.14043271454534
 21
369.69804680619342
 31
0.0
  0
LINE
  5
E78
  8
0
 10
965.95978000652678
 20
367.69804680619342
 30
0.0
 11
974.58766479261908
 21
367.69804680619342
 31
0.0
  0
ARC
  5
E79
  8
0
 10
965.95978000652678
 20
387.02647938970142
 30
0.0
 40
1.5
 50
64.416998022601334
 51
180.0
  0
LINE
  5
E7A
  8
0
 10
964.45978000652678
 20
387.02647938970142
 30
0.0
 11
964.45978000652678
 21
371.19804680619342
 31
0.0
  0
ARC
  5
E7B
  8
0
 10
965.95978000652678
 20
366.19804680619342
 30
0.0
 40
1.5
 50
90.0
 51
180.0
  0
ARC
  5
E7C
  8
0
 10
965.95978000652678
 20
371.19804680619342
 30
0.0
 40
1.5
 50
180.0
 51
270.0
  0
LINE
  5
E7D
  8
DIM
  6
CONTINUOUS
 10
962.2097800065269
 20
396.94804680619342
 30
0.0
 11
944.01663338358514
 21
396.94804680619342
 31
0.0
  0
SOLID
  5
E7E
  8
DIM
  6
CONTINUOUS
 10
944.9597800065269
 20
393.94804680619342
 30
0.0
 11
945.9597800065269
 21
393.94804680619342
 31
0.0
 12
945.45978000652678
 22
396.94804680619342
 32
0.0
 13
945.45978000652678
 23
396.94804680619342
 33
0.0
  0
LINE
  5
E7F
  8
CENTER
  6
CENTER
 10
970.70978000652678
 20
404.44804680619347
 30
0.0
 11
970.70978000652678
 21
389.44804680619342
 31
0.0
  0
ARC
  5
E80
  8
0
 10
970.9597800065269
 20
396.69804680619347
 30
0.0
 40
9.0
 50
90.0
 51
180.0
  0
ARC
  5
E81
  8
0
 10
970.9597800065269
 20
396.69804680619347
 30
0.0
 40
9.5
 50
90.0
 51
180.0
  0
LINE
  5
E82
  8
0
 10
961.45978000652678
 20
393.69804680619342
 30
0.0
 11
961.9597800065269
 21
393.69804680619342
 31
0.0
  0
SOLID
  5
E83
  8
DIM
  6
CONTINUOUS
 10
967.63036326275198
 20
403.2688209610987
 30
0.0
 11
966.78110273215555
 21
402.74084695494781
 31
0.0
 12
968.78965501590665
 22
400.457052366234
 32
0.0
 13
968.78965501590665
 23
400.457052366234
 33
0.0
  0
LINE
  5
E84
  8
0
 10
980.54823981272989
 20
385.3418200470241
 30
0.0
 11
977.35708169573968
 21
388.53297816401431
 31
0.0
  0
LINE
  5
E85
  8
0
 10
982.62902581618698
 20
386.7965679494996
 30
0.0
 11
979.12484864870612
 21
390.30074511698058
 31
0.0
  0
ARC
  5
E86
  8
0
 10
974.14043271454534
 20
371.69804680619342
 30
0.0
 40
2.0
 50
270.0
 51
353.10789742065339
  0
ARC
  5
E87
  8
0
 10
974.58766479261908
 20
366.19804680619342
 30
0.0
 40
1.5
 50
5.856701909916878
 51
90.0
  0
ARC
  5
E88
  8
0
 10
979.13402625035667
 20
383.92760648465099
 30
0.0
 40
2.0
 50
322.46959231641563
 51
45.0
  0
ARC
  5
E89
  8
0
 10
983.68968598796687
 20
387.85722812127932
 30
0.0
 40
1.5
 50
225.00000000000301
 51
308.55525966022958
  0
LINE
  5
E8A
  8
0
 10
996.45978000652678
 20
403.19804680619342
 30
0.0
 11
980.63134742301895
 21
403.19804680619342
 31
0.0
  0
LINE
  5
E8B
  8
0
 10
988.9597800065269
 20
401.69804680619347
 30
0.0
 11
988.9597800065269
 21
390.33135445897727
 31
0.0
  0
ARC
  5
E8C
  8
0
 10
970.70978000652678
 20
396.94804680619342
 30
0.0
 40
9.5
 50
329.47751218592981
 51
25.583001977392779
  0
ARC
  5
E8D
  8
0
 10
980.18550882048578
 20
391.36140528876041
 30
0.0
 40
1.5
 50
149.47751218592859
 51
225.0
  0
ARC
  5
E8E
  8
0
 10
976.29642152395979
 20
387.47231799223448
 30
0.0
 40
1.5
 50
44.999999999993861
 51
120.5224878140676
  0
ARC
  5
E8F
  8
0
 10
987.45978000652678
 20
390.33135445897727
 30
0.0
 40
1.5
 50
297.99456173225042
 51
0.0
  0
ARC
  5
E90
  8
0
 10
980.63134742301895
 20
401.69804680619347
 30
0.0
 40
1.5
 50
90.0
 51
205.5830019774298
  0
ARC
  5
E91
  8
0
 10
987.45978000652678
 20
401.69804680619347
 30
0.0
 40
1.5
 50
0.0
 51
90.0
  0
LINE
  5
E92
  8
CENTER
  6
CENTER
 10
993.95978000652701
 20
408.4782281689761
 30
0.0
 11
993.95978000652701
 21
394.47822816897622
 31
0.0
  0
LINE
  5
E93
  8
0
 10
997.9597800065269
 20
401.69804680619347
 30
0.0
 11
997.9597800065269
 21
393.07016202010129
 31
0.0
  0
LINE
  5
E94
  8
0
 10
999.95978000652678
 20
401.69804680619347
 30
0.0
 11
999.95978000652678
 21
393.07016202010129
 31
0.0
  0
ARC
  5
E95
  8
0
 10
996.45978000652678
 20
393.07016202010129
 30
0.0
 40
1.5
 50
275.85670190992113
 51
0.0
  0
ARC
  5
E96
  8
0
 10
1001.459780006527
 20
393.07016202010129
 30
0.0
 40
1.5
 50
180.0
 51
264.14329809007882
  0
ARC
  5
E97
  8
0
 10
996.45978000652678
 20
401.69804680619347
 30
0.0
 40
1.5
 50
0.0
 51
90.0
  0
ARC
  5
E98
  8
0
 10
1001.459780006527
 20
401.69804680619347
 30
0.0
 40
1.5
 50
90.0
 51
180.0
  0
TEXT
  5
E99
  8
DIM
  6
CONTINUOUS
 10
951.48417596702609
 20
427.32000654717109
 30
0.0
 40
3.0
  1
2x4-M8x15L
  7
ROMANSS
 72
     2
 11
978.91274739559753
 21
428.82000654717109
 31
0.0
 73
     2
  0
LINE
  5
E9A
  8
DIM
  6
CONTINUOUS
 10
979.06329574452343
 20
425.82000654717109
 30
0.0
 11
953.02184284956593
 21
425.82000654717109
 31
0.0
  0
LINE
  5
E9B
  8
0
  6
CONTINUOUS
 10
988.9597800065269
 20
416.19804680619347
 30
0.0
 11
987.9597800065269
 21
415.19804680619347
 31
0.0
  0
LINE
  5
E9C
  8
0
 10
853.20419093510145
 20
476.91387932977477
 30
0.0
 11
885.20419093510134
 21
477.41387932977477
 31
0.0
  0
SOLID
  5
E9D
  8
DIM
  6
CONTINUOUS
 10
748.424627644569
 20
512.41387932977455
 30
0.0
 11
749.42462764456911
 21
512.41387932977455
 31
0.0
 12
748.924627644569
 22
509.41387932977449
 32
0.0
 13
748.924627644569
 23
509.41387932977449
 33
0.0
  0
LINE
  5
E9E
  8
0
 10
885.20419093510134
 20
491.91387932977449
 30
0.0
 11
889.20419093510145
 21
491.91387932977449
 31
0.0
  0
ARC
  5
E9F
  8
0
 10
889.20419093510145
 20
492.91387932977449
 30
0.0
 40
1.0
 50
270.0
 51
0.0
  0
LINE
  5
EA0
  8
DIM
  6
CONTINUOUS
 10
739.70419093510145
 20
579.41387932977455
 30
0.0
 11
750.47452433300873
 21
579.41387932977455
 31
0.0
  0
LINE
  5
EA1
  8
0
 10
741.70419093510145
 20
549.41387932977455
 30
0.0
 11
853.20419093510111
 21
549.41387932977455
 31
0.0
  0
TEXT
  5
EA2
  8
DIM
  6
CONTINUOUS
 10
749.66138378635685
 20
596.95834349765732
 30
0.0
 40
3.0
  1
2x4-M8x15L
  7
ROMANSS
 11
749.66138378635685
 21
598.45834349765732
 31
0.0
 73
     2
  0
LINE
  5
EA3
  8
DIM
  6
CONTINUOUS
 10
749.57138378635705
 20
595.45834349765732
 30
0.0
 11
774.28638378635685
 21
595.45834349765732
 31
0.0
  0
CIRCLE
  5
EA4
  8
0
  6
CONTINUOUS
 10
731.70419093510145
 20
579.41387932977455
 30
0.0
 40
3.399999999999999
  0
ARC
  5
EA5
  8
0
  6
CONTINUOUS
 62
     2
 10
731.70419093510145
 20
579.41387932977455
 30
0.0
 40
4.0
 50
155.67751702511919
 51
114.77142042572839
  0
LINE
  5
EA6
  8
CENTER
  6
CENTER
 10
731.70419093510145
 20
586.41387932977455
 30
0.0
 11
731.70419093510145
 21
572.41387932977455
 31
0.0
  0
LINE
  5
EA7
  8
CENTER
  6
CENTER
 10
724.70419093510145
 20
579.41387932977455
 30
0.0
 11
738.70419093510145
 21
579.41387932977455
 31
0.0
  0
LINE
  5
EA8
  8
DIM
  6
CONTINUOUS
 10
745.70419093510145
 20
544.41387932977455
 30
0.0
 11
792.32309053836332
 21
544.41387932977455
 31
0.0
  0
SOLID
  5
EA9
  8
DIM
  6
CONTINUOUS
 10
603.20462749142553
 20
541.42569492813766
 30
0.0
 11
602.20487301170988
 21
541.40353685311754
 31
0.0
 12
602.63827602650747
 22
544.41387932977443
 32
0.0
 13
602.63827602650747
 23
544.41387932977443
 33
0.0
  0
LINE
  5
EAA
  8
DIM
  6
CONTINUOUS
 10
736.7251596761763
 20
584.26670242891032
 30
0.0
 11
746.57138378635705
 21
595.45834349765732
 31
0.0
  0
LINE
  5
EAB
  8
DIM
  6
CONTINUOUS
 10
731.70419093510145
 20
587.41387932977455
 30
0.0
 11
731.70419093510145
 21
595.91387932977466
 31
0.0
  0
SOLID
  5
EAC
  8
DIM
  6
CONTINUOUS
 10
737.10055668955283
 20
583.93643423130709
 30
0.0
 11
736.34976266279989
 21
584.59697062651344
 31
0.0
 12
734.74355049055748
 22
582.01432034865161
 32
0.0
 13
734.74355049055748
 23
582.01432034865161
 33
0.0
  0
SOLID
  5
EAD
  8
DIM
  6
CONTINUOUS
 10
728.70419093510145
 20
595.41387932977466
 30
0.0
 11
728.70419093510145
 21
594.41387932977477
 31
0.0
 12
731.70419093510145
 22
594.91387932977466
 32
0.0
 13
731.70419093510145
 23
594.91387932977466
 33
0.0
  0
LINE
  5
EAE
  8
DIM
  6
CONTINUOUS
 10
746.57138378635705
 20
595.45834349765732
 30
0.0
 11
749.57138378635705
 21
595.45834349765732
 31
0.0
  0
LINE
  5
EAF
  8
0
 10
853.20419093510145
 20
551.91387932977477
 30
0.0
 11
885.20419093510134
 21
551.41387932977466
 31
0.0
  0
LINE
  5
EB0
  8
0
 10
885.20419093510122
 20
536.91387932977455
 30
0.0
 11
889.20419093510145
 21
536.91387932977455
 31
0.0
  0
TEXT
  5
EB1
  8
DIM
  6
CONTINUOUS
 10
747.42462764456911
 20
551.83186902168461
 30
0.0
 40
3.0
  1
70
 50
90.0
  7
ROMANSS
 72
     1
 11
745.92462764456911
 21
554.26044045025606
 31
0.0
 73
     2
  0
ARC
  5
EB2
  8
0
 10
889.20419093510145
 20
535.91387932977455
 30
0.0
 40
1.0
 50
0.0
 51
90.0
  0
SOLID
  5
EB3
  8
DIM
  6
CONTINUOUS
 10
748.424627644569
 20
576.41387932977455
 30
0.0
 11
749.42462764456911
 21
576.41387932977455
 31
0.0
 12
748.924627644569
 22
579.41387932977455
 32
0.0
 13
748.924627644569
 23
579.41387932977455
 33
0.0
  0
LINE
  5
EB4
  8
0
 10
1069.9597800065269
 20
415.19804680619347
 30
0.0
 11
1069.9597800065269
 21
406.19804680619359
 31
0.0
  0
ARC
  5
EB5
  8
0
 10
1031.959780006526
 20
387.02647938970142
 30
0.0
 40
1.5
 50
0.0
 51
115.58300197741811
  0
LINE
  5
EB6
  8
0
 10
1017.058301149833
 20
385.02880099653322
 30
0.0
 11
1020.562478317314
 21
388.53297816401431
 31
0.0
  0
LINE
  5
EB7
  8
0
 10
1015.290534196866
 20
386.7965679494996
 30
0.0
 11
1018.794711364348
 21
390.30074511698058
 31
0.0
  0
ARC
  5
EB8
  8
0
 10
1027.209780006526
 20
396.94804680619342
 30
0.0
 40
9.5
 50
239.47751218592981
 51
295.58300197738782
  0
LINE
  5
EB9
  8
0
 10
1031.959780006526
 20
378.69804680619342
 30
0.0
 11
1020.593087659311
 21
378.69804680619342
 31
0.0
  0
ARC
  5
EBA
  8
0
 10
1023.331895220434
 20
371.19804680619342
 30
0.0
 40
1.5
 50
185.8567019099211
 51
270.0
  0
ARC
  5
EBB
  8
0
 10
1023.331895220434
 20
366.1980468061933
 30
0.0
 40
1.5
 50
90.0
 51
174.14329809008311
  0
ARC
  5
EBC
  8
0
 10
1014.229874025087
 20
387.85722812127932
 30
0.0
 40
1.5
 50
231.44474033977039
 51
314.99999999999687
  0
ARC
  5
EBD
  8
0
 10
1020.593087659311
 20
380.19804680619342
 30
0.0
 40
1.5
 50
207.99456173225431
 51
270.0
  0
ARC
  5
EBE
  8
0
 10
1018.118961321613
 20
383.96814082475339
 30
0.0
 40
1.5
 50
135.0
 51
218.55525966023299
  0
LINE
  5
EBF
  8
0
 10
1033.4597800065269
 20
371.19804680619342
 30
0.0
 11
1033.4597800065269
 21
387.02647938970142
 31
0.0
  0
LINE
  5
EC0
  8
0
 10
1031.959780006526
 20
369.69804680619342
 30
0.0
 11
1023.331895220434
 21
369.69804680619342
 31
0.0
  0
LINE
  5
EC1
  8
0
 10
1031.959780006526
 20
367.6980468061933
 30
0.0
 11
1023.331895220434
 21
367.6980468061933
 31
0.0
  0
ARC
  5
EC2
  8
0
 10
1031.959780006526
 20
371.19804680619342
 30
0.0
 40
1.5
 50
270.0
 51
0.0
  0
ARC
  5
EC3
  8
0
 10
1031.959780006526
 20
366.1980468061933
 30
0.0
 40
1.5
 50
0.0
 51
90.0
  0
ARC
  5
EC4
  8
0
 10
1031.959780006526
 20
380.19804680619342
 30
0.0
 40
1.5
 50
270.0
 51
0.0
  0
POLYLINE
  5
EC5
  8
0
  6
CONTINUOUS
 66
     1
 10
0.0
 20
0.0
 30
0.0
 70
     1
  0
VERTEX
  5
13FA
  8
0
  6
CONTINUOUS
 10
1024.9003789297681
 20
400.94804680619342
 30
0.0
  0
VERTEX
  5
13FB
  8
0
  6
CONTINUOUS
 10
1022.59097785301
 20
396.94804680619342
 30
0.0
  0
VERTEX
  5
13FC
  8
0
  6
CONTINUOUS
 10
1024.9003789297681
 20
392.94804680619342
 30
0.0
  0
VERTEX
  5
13FD
  8
0
  6
CONTINUOUS
 10
1029.519181083285
 20
392.94804680619342
 30
0.0
  0
VERTEX
  5
13FE
  8
0
  6
CONTINUOUS
 10
1031.828582160043
 20
396.94804680619342
 30
0.0
  0
VERTEX
  5
13FF
  8
0
  6
CONTINUOUS
 10
1029.519181083285
 20
400.94804680619342
 30
0.0
  0
SEQEND
  5
1400
  8
0
  6
CONTINUOUS
  0
CIRCLE
  5
ECD
  8
0
 10
1027.209780006526
 20
396.94804680619342
 30
0.0
 40
6.5
  0
LINE
  5
ECE
  8
CENTER
  6
CENTER
 10
1019.709780006526
 20
396.94804680619342
 30
0.0
 11
1034.7097800065269
 21
396.94804680619342
 31
0.0
  0
ARC
  5
ECF
  8
0
 10
1027.209780006526
 20
396.94804680619342
 30
0.0
 40
9.5
 50
154.41699802261181
 51
210.5224878140705
  0
LINE
  5
ED0
  8
0
 10
1008.959780006526
 20
401.69804680619347
 30
0.0
 11
1008.959780006526
 21
390.33135445897727
 31
0.0
  0
ARC
  5
ED1
  8
0
 10
1010.459780006526
 20
390.33135445897727
 30
0.0
 40
1.5
 50
180.0
 51
242.0054382677495
  0
ARC
  5
ED2
  8
0
 10
1017.734051192568
 20
391.36140528876041
 30
0.0
 40
1.5
 50
315.0
 51
30.52248781407134
  0
ARC
  5
ED3
  8
0
 10
1021.623138489094
 20
387.47231799223442
 30
0.0
 40
1.5
 50
59.47751218593239
 51
135.0
  0
ARC
  5
ED4
  8
0
 10
1010.459780006526
 20
401.69804680619347
 30
0.0
 40
1.5
 50
90.0
 51
180.0
  0
ARC
  5
ED5
  8
0
 10
1017.288212590034
 20
401.69804680619347
 30
0.0
 40
1.5
 50
334.4169980225779
 51
90.0
  0
CIRCLE
  5
ED6
  8
0
  6
CONTINUOUS
 10
1027.209780006526
 20
396.94804680619342
 30
0.0
 40
3.399999999999999
  0
ARC
  5
ED7
  8
0
  6
CONTINUOUS
 62
     2
 10
1027.209780006526
 20
396.94804680619342
 30
0.0
 40
4.0
 50
57.77418116062497
 51
14.453881156675809
  0
LINE
  5
ED8
  8
CENTER
  6
CENTER
 10
1027.209780006526
 20
404.44804680619347
 30
0.0
 11
1027.209780006526
 21
389.44804680619342
 31
0.0
  0
ARC
  5
ED9
  8
0
 10
1026.959780006526
 20
396.69804680619347
 30
0.0
 40
9.0
 50
0.0
 51
90.0
  0
ARC
  5
EDA
  8
0
 10
1026.959780006526
 20
396.69804680619347
 30
0.0
 40
9.5
 50
0.0
 51
90.0
  0
LINE
  5
EDB
  8
CENTER
  6
CENTER
 10
1063.9597800065269
 20
408.4782281689761
 30
0.0
 11
1063.9597800065269
 21
394.47822816897622
 31
0.0
  0
LINE
  5
EDC
  8
0
  6
CONTINUOUS
 10
1068.9597800065269
 20
416.19804680619347
 30
0.0
 11
1069.9597800065269
 21
415.19804680619347
 31
0.0
  0
TEXT
  5
EDD
  8
DIM
  6
CONTINUOUS
 10
1077.9597800065269
 20
408.77741177957938
 30
0.0
 40
3.0
  1
10
 50
90.0
  7
ROMANSS
 72
     1
 11
1076.4597800065269
 21
410.92026892243661
 31
0.0
 73
     2
  0
TEXT
  5
EDE
  8
DIM
  6
CONTINUOUS
 10
1085.9597800065269
 20
366.07619448279439
 30
0.0
 40
3.0
  1
95
 50
90.0
  7
ROMANSS
 72
     1
 11
1084.4597800065269
 21
368.50476591136589
 31
0.0
 73
     2
  0
TEXT
  5
EDF
  8
DIM
  6
CONTINUOUS
 10
1077.9597800065269
 20
366.12663348911161
 30
0.0
 40
3.0
  1
75
 50
90.0
  7
ROMANSS
 72
     1
 11
1076.4597800065269
 21
368.555204917683
 31
0.0
 73
     2
  0
LINE
  5
EE0
  8
DIM
  6
CONTINUOUS
 10
1072.459780006526
 20
406.19804680619359
 30
0.0
 11
1080.4597800065269
 21
406.19804680619359
 31
0.0
  0
SOLID
  5
EE1
  8
DIM
  6
CONTINUOUS
 10
1078.9597800065269
 20
403.19804680619347
 30
0.0
 11
1079.9597800065269
 21
403.19804680619347
 31
0.0
 12
1079.4597800065269
 22
406.19804680619359
 32
0.0
 13
1079.4597800065269
 23
406.19804680619359
 33
0.0
  0
SOLID
  5
EE2
  8
DIM
  6
CONTINUOUS
 10
1078.9597800065269
 20
419.19804680619347
 30
0.0
 11
1079.9597800065269
 21
419.19804680619347
 31
0.0
 12
1079.4597800065269
 22
416.19804680619347
 32
0.0
 13
1079.4597800065269
 23
416.19804680619347
 33
0.0
  0
TEXT
  5
EE3
  8
DIM
  6
CONTINUOUS
 10
689.9813633295247
 20
452.504049261913
 30
0.0
 40
3.0
  1
180%%p5%%d
  7
ROMANSS
 72
     1
 11
697.55279190095325
 21
454.00404926191288
 31
0.0
 73
     2
  0
LINE
  5
EE6
  8
HIDDEN
  6
HIDDEN
 10
885.20419093510168
 20
482.16387932977472
 30
0.0
 11
867.20419093510168
 21
482.16387932977472
 31
0.0
  0
LINE
  5
EE7
  8
HIDDEN
  6
HIDDEN
 10
885.20419093510168
 20
490.16387932977472
 30
0.0
 11
867.20419093510168
 21
490.16387932977472
 31
0.0
  0
LINE
  5
EE8
  8
CENTER
  6
CENTER
 10
853.20419093510168
 20
486.16387932977449
 30
0.0
 11
888.20419093510179
 21
486.16387932977449
 31
0.0
  0
LINE
  5
EE9
  8
HIDDEN
  6
HIDDEN
 10
879.20419093510156
 20
482.16387932977472
 30
0.0
 11
879.20419093510156
 21
490.16387932977472
 31
0.0
  0
LINE
  5
EEA
  8
HIDDEN
  6
HIDDEN
 10
864.20419093510156
 20
489.56387932977458
 30
0.0
 11
862.24120001985682
 21
486.16387932977472
 31
0.0
  0
LINE
  5
EEB
  8
HIDDEN
  6
HIDDEN
 10
864.20419093510156
 20
482.76387932977462
 30
0.0
 11
864.20419093510156
 21
489.56387932977458
 31
0.0
  0
LINE
  5
EEC
  8
HIDDEN
  6
HIDDEN
 10
867.20419093510168
 20
482.16387932977472
 30
0.0
 11
867.20419093510168
 21
490.16387932977472
 31
0.0
  0
LINE
  5
EED
  8
CENTER
  6
CENTER
 10
869.20419093510145
 20
474.15954864631732
 30
0.0
 11
869.20419093510168
 21
493.93397315008048
 31
0.0
  0
LINE
  5
EEE
  8
HIDDEN
  6
HIDDEN
 10
879.20419093510156
 20
482.76387932977462
 30
0.0
 11
864.20419093510156
 21
482.76387932977462
 31
0.0
  0
LINE
  5
EEF
  8
CENTER
  6
CENTER
 10
860.20419093510168
 20
474.38141043898622
 30
0.0
 11
860.20419093510168
 21
494.12638949397183
 31
0.0
  0
LINE
  5
EF0
  8
HIDDEN
  6
HIDDEN
 10
864.20419093510156
 20
482.76387932977462
 30
0.0
 11
862.24120001985682
 21
486.16387932977472
 31
0.0
  0
LINE
  5
EF1
  8
HIDDEN
  6
HIDDEN
 10
879.20419093510156
 20
489.56387932977458
 30
0.0
 11
864.20419093510156
 21
489.56387932977458
 31
0.0
  0
LINE
  5
EF2
  8
HIDDEN
  6
HIDDEN
 10
885.20419093510168
 20
538.66387932977455
 30
0.0
 11
867.20419093510168
 21
538.66387932977455
 31
0.0
  0
LINE
  5
EF3
  8
HIDDEN
  6
HIDDEN
 10
885.20419093510168
 20
546.66387932977455
 30
0.0
 11
867.20419093510168
 21
546.66387932977455
 31
0.0
  0
LINE
  5
EF4
  8
CENTER
  6
CENTER
 10
853.20419093510168
 20
542.66387932977455
 30
0.0
 11
888.20419093510156
 21
542.66387932977455
 31
0.0
  0
LINE
  5
EF5
  8
HIDDEN
  6
HIDDEN
 10
879.20419093510156
 20
546.06387932977464
 30
0.0
 11
864.20419093510156
 21
546.06387932977464
 31
0.0
  0
LINE
  5
EF6
  8
HIDDEN
  6
HIDDEN
 10
879.20419093510156
 20
539.26387932977468
 30
0.0
 11
864.20419093510156
 21
539.26387932977468
 31
0.0
  0
LINE
  5
EF7
  8
HIDDEN
  6
HIDDEN
 10
879.20419093510156
 20
546.66387932977455
 30
0.0
 11
879.20419093510156
 21
538.66387932977455
 31
0.0
  0
LINE
  5
EF8
  8
HIDDEN
  6
HIDDEN
 10
864.20419093510156
 20
539.26387932977468
 30
0.0
 11
862.24120001985682
 21
542.66387932977455
 31
0.0
  0
LINE
  5
EF9
  8
HIDDEN
  6
HIDDEN
 10
867.20419093510168
 20
546.66387932977455
 30
0.0
 11
867.20419093510168
 21
538.66387932977455
 31
0.0
  0
LINE
  5
EFA
  8
HIDDEN
  6
HIDDEN
 10
864.20419093510156
 20
546.06387932977464
 30
0.0
 11
864.20419093510156
 21
539.26387932977468
 31
0.0
  0
LINE
  5
EFB
  8
HIDDEN
  6
HIDDEN
 10
864.20419093510156
 20
546.06387932977464
 30
0.0
 11
862.24120001985682
 21
542.66387932977455
 31
0.0
  0
LINE
  5
EFC
  8
HIDDEN
  6
HIDDEN
 10
508.20419093510139
 20
336.4480468061937
 30
0.0
 11
526.20419093510145
 21
336.4480468061937
 31
0.0
  0
LINE
  5
EFD
  8
HIDDEN
  6
HIDDEN
 10
508.20419093510122
 20
344.4480468061937
 30
0.0
 11
526.20419093510145
 21
344.4480468061937
 31
0.0
  0
LINE
  5
EFE
  8
CENTER
  6
CENTER
 10
540.20419093510145
 20
340.44804680619342
 30
0.0
 11
505.20419093510122
 21
340.44804680619342
 31
0.0
  0
LINE
  5
EFF
  8
HIDDEN
  6
HIDDEN
 10
514.20419093510145
 20
336.4480468061937
 30
0.0
 11
514.20419093510145
 21
344.4480468061937
 31
0.0
  0
LINE
  5
F00
  8
HIDDEN
  6
HIDDEN
 10
529.20419093510145
 20
343.84804680619351
 30
0.0
 11
531.16718185034608
 21
340.4480468061937
 31
0.0
  0
LINE
  5
F01
  8
HIDDEN
  6
HIDDEN
 10
529.20419093510145
 20
337.04804680619361
 30
0.0
 11
529.20419093510145
 21
343.84804680619351
 31
0.0
  0
LINE
  5
F02
  8
HIDDEN
  6
HIDDEN
 10
526.20419093510145
 20
336.4480468061937
 30
0.0
 11
526.20419093510145
 21
344.4480468061937
 31
0.0
  0
LINE
  5
F03
  8
HIDDEN
  6
HIDDEN
 10
514.20419093510145
 20
337.04804680619361
 30
0.0
 11
529.20419093510145
 21
337.04804680619361
 31
0.0
  0
LINE
  5
F04
  8
HIDDEN
  6
HIDDEN
 10
529.20419093510145
 20
337.04804680619361
 30
0.0
 11
531.16718185034608
 21
340.4480468061937
 31
0.0
  0
LINE
  5
F05
  8
HIDDEN
  6
HIDDEN
 10
514.20419093510145
 20
343.84804680619351
 30
0.0
 11
529.20419093510145
 21
343.84804680619351
 31
0.0
  0
LINE
  5
F06
  8
HIDDEN
  6
HIDDEN
 10
508.20419093510122
 20
392.94804680619342
 30
0.0
 11
526.20419093510145
 21
392.94804680619342
 31
0.0
  0
LINE
  5
F07
  8
HIDDEN
  6
HIDDEN
 10
508.20419093510139
 20
400.94804680619342
 30
0.0
 11
526.20419093510145
 21
400.94804680619342
 31
0.0
  0
LINE
  5
F08
  8
CENTER
  6
CENTER
 10
540.20419093510145
 20
396.94804680619342
 30
0.0
 11
505.20419093510139
 21
396.94804680619342
 31
0.0
  0
LINE
  5
F09
  8
HIDDEN
  6
HIDDEN
 10
514.20419093510145
 20
400.34804680619351
 30
0.0
 11
529.20419093510145
 21
400.34804680619351
 31
0.0
  0
LINE
  5
F0A
  8
HIDDEN
  6
HIDDEN
 10
514.20419093510145
 20
393.54804680619361
 30
0.0
 11
529.20419093510145
 21
393.54804680619361
 31
0.0
  0
LINE
  5
F0B
  8
HIDDEN
  6
HIDDEN
 10
514.20419093510145
 20
400.94804680619342
 30
0.0
 11
514.20419093510145
 21
392.94804680619342
 31
0.0
  0
LINE
  5
F0C
  8
HIDDEN
  6
HIDDEN
 10
529.20419093510145
 20
393.54804680619361
 30
0.0
 11
531.16718185034608
 21
396.94804680619342
 31
0.0
  0
LINE
  5
F0D
  8
HIDDEN
  6
HIDDEN
 10
526.20419093510145
 20
400.94804680619342
 30
0.0
 11
526.20419093510145
 21
392.94804680619342
 31
0.0
  0
LINE
  5
F0E
  8
HIDDEN
  6
HIDDEN
 10
529.20419093510145
 20
400.34804680619351
 30
0.0
 11
529.20419093510145
 21
393.54804680619361
 31
0.0
  0
LINE
  5
F0F
  8
HIDDEN
  6
HIDDEN
 10
529.20419093510145
 20
400.34804680619351
 30
0.0
 11
531.16718185034608
 21
396.94804680619342
 31
0.0
  0
LINE
  5
F10
  8
HIDDEN
  6
HIDDEN
 10
885.20419093510168
 20
336.4480468061937
 30
0.0
 11
867.20419093510168
 21
336.4480468061937
 31
0.0
  0
LINE
  5
F11
  8
HIDDEN
  6
HIDDEN
 10
885.20419093510168
 20
344.4480468061937
 30
0.0
 11
867.20419093510168
 21
344.4480468061937
 31
0.0
  0
LINE
  5
F12
  8
CENTER
  6
CENTER
 10
853.20419093510168
 20
340.44804680619342
 30
0.0
 11
888.20419093510156
 21
340.44804680619342
 31
0.0
  0
LINE
  5
F13
  8
HIDDEN
  6
HIDDEN
 10
879.20419093510156
 20
336.4480468061937
 30
0.0
 11
879.20419093510156
 21
344.4480468061937
 31
0.0
  0
LINE
  5
F14
  8
HIDDEN
  6
HIDDEN
 10
864.20419093510156
 20
343.84804680619351
 30
0.0
 11
862.24120001985682
 21
340.4480468061937
 31
0.0
  0
LINE
  5
F15
  8
HIDDEN
  6
HIDDEN
 10
864.20419093510156
 20
337.04804680619361
 30
0.0
 11
864.20419093510156
 21
343.84804680619351
 31
0.0
  0
LINE
  5
F16
  8
HIDDEN
  6
HIDDEN
 10
867.20419093510168
 20
336.4480468061937
 30
0.0
 11
867.20419093510168
 21
344.4480468061937
 31
0.0
  0
LINE
  5
F17
  8
HIDDEN
  6
HIDDEN
 10
879.20419093510156
 20
337.04804680619361
 30
0.0
 11
864.20419093510156
 21
337.04804680619361
 31
0.0
  0
LINE
  5
F18
  8
HIDDEN
  6
HIDDEN
 10
864.20419093510156
 20
337.04804680619361
 30
0.0
 11
862.24120001985682
 21
340.4480468061937
 31
0.0
  0
LINE
  5
F19
  8
HIDDEN
  6
HIDDEN
 10
879.20419093510156
 20
343.84804680619351
 30
0.0
 11
864.20419093510156
 21
343.84804680619351
 31
0.0
  0
LINE
  5
F1A
  8
HIDDEN
  6
HIDDEN
 10
885.20419093510168
 20
392.94804680619342
 30
0.0
 11
867.20419093510168
 21
392.94804680619342
 31
0.0
  0
LINE
  5
F1B
  8
HIDDEN
  6
HIDDEN
 10
885.20419093510168
 20
400.94804680619342
 30
0.0
 11
867.20419093510168
 21
400.94804680619342
 31
0.0
  0
LINE
  5
F1C
  8
CENTER
  6
CENTER
 10
853.20419093510168
 20
396.94804680619342
 30
0.0
 11
888.20419093510156
 21
396.94804680619342
 31
0.0
  0
LINE
  5
F1D
  8
HIDDEN
  6
HIDDEN
 10
879.20419093510156
 20
400.34804680619351
 30
0.0
 11
864.20419093510156
 21
400.34804680619351
 31
0.0
  0
LINE
  5
F1E
  8
HIDDEN
  6
HIDDEN
 10
879.20419093510156
 20
393.54804680619361
 30
0.0
 11
864.20419093510156
 21
393.54804680619361
 31
0.0
  0
LINE
  5
F1F
  8
HIDDEN
  6
HIDDEN
 10
879.20419093510156
 20
400.94804680619342
 30
0.0
 11
879.20419093510156
 21
392.94804680619342
 31
0.0
  0
LINE
  5
F20
  8
HIDDEN
  6
HIDDEN
 10
864.20419093510156
 20
393.54804680619361
 30
0.0
 11
862.24120001985682
 21
396.94804680619342
 31
0.0
  0
LINE
  5
F21
  8
HIDDEN
  6
HIDDEN
 10
867.20419093510168
 20
400.94804680619342
 30
0.0
 11
867.20419093510168
 21
392.94804680619342
 31
0.0
  0
LINE
  5
F22
  8
HIDDEN
  6
HIDDEN
 10
864.20419093510156
 20
400.34804680619351
 30
0.0
 11
864.20419093510156
 21
393.54804680619361
 31
0.0
  0
LINE
  5
F23
  8
HIDDEN
  6
HIDDEN
 10
864.20419093510156
 20
400.34804680619351
 30
0.0
 11
862.24120001985682
 21
396.94804680619342
 31
0.0
  0
LINE
  5
F24
  8
HIDDEN
  6
HIDDEN
 10
508.20419093510139
 20
185.67902846356
 30
0.0
 11
526.20419093510145
 21
185.67902846356
 31
0.0
  0
LINE
  5
F25
  8
HIDDEN
  6
HIDDEN
 10
508.20419093510128
 20
193.67902846356
 30
0.0
 11
526.20419093510145
 21
193.67902846356
 31
0.0
  0
LINE
  5
F26
  8
CENTER
  6
CENTER
 10
540.20419093510145
 20
189.67902846355969
 30
0.0
 11
505.20419093510128
 21
189.67902846355969
 31
0.0
  0
LINE
  5
F27
  8
HIDDEN
  6
HIDDEN
 10
514.20419093510145
 20
185.67902846356
 30
0.0
 11
514.20419093510145
 21
193.67902846356
 31
0.0
  0
LINE
  5
F28
  8
HIDDEN
  6
HIDDEN
 10
529.20419093510145
 20
193.07902846355981
 30
0.0
 11
531.16718185034608
 21
189.67902846356
 31
0.0
  0
LINE
  5
F29
  8
HIDDEN
  6
HIDDEN
 10
529.20419093510145
 20
186.27902846355991
 30
0.0
 11
529.20419093510145
 21
193.07902846355981
 31
0.0
  0
LINE
  5
F2A
  8
HIDDEN
  6
HIDDEN
 10
526.20419093510145
 20
185.67902846356
 30
0.0
 11
526.20419093510145
 21
193.67902846356
 31
0.0
  0
LINE
  5
F2B
  8
HIDDEN
  6
HIDDEN
 10
514.20419093510145
 20
186.27902846355991
 30
0.0
 11
529.20419093510145
 21
186.27902846355991
 31
0.0
  0
LINE
  5
F2C
  8
HIDDEN
  6
HIDDEN
 10
529.20419093510145
 20
186.27902846355991
 30
0.0
 11
531.16718185034608
 21
189.67902846356
 31
0.0
  0
LINE
  5
F2D
  8
HIDDEN
  6
HIDDEN
 10
514.20419093510145
 20
193.07902846355981
 30
0.0
 11
529.20419093510145
 21
193.07902846355981
 31
0.0
  0
LINE
  5
F2E
  8
HIDDEN
  6
HIDDEN
 10
508.20419093510128
 20
242.17902846355969
 30
0.0
 11
526.20419093510145
 21
242.17902846355969
 31
0.0
  0
LINE
  5
F2F
  8
HIDDEN
  6
HIDDEN
 10
508.20419093510139
 20
250.17902846355969
 30
0.0
 11
526.20419093510145
 21
250.17902846355969
 31
0.0
  0
LINE
  5
F30
  8
CENTER
  6
CENTER
 10
540.20419093510145
 20
246.17902846355969
 30
0.0
 11
505.20419093510139
 21
246.17902846355969
 31
0.0
  0
LINE
  5
F31
  8
HIDDEN
  6
HIDDEN
 10
514.20419093510145
 20
249.57902846355989
 30
0.0
 11
529.20419093510145
 21
249.57902846355989
 31
0.0
  0
LINE
  5
F32
  8
HIDDEN
  6
HIDDEN
 10
514.20419093510145
 20
242.77902846355991
 30
0.0
 11
529.20419093510145
 21
242.77902846355991
 31
0.0
  0
LINE
  5
F33
  8
HIDDEN
  6
HIDDEN
 10
514.20419093510145
 20
250.17902846355969
 30
0.0
 11
514.20419093510145
 21
242.17902846355969
 31
0.0
  0
LINE
  5
F34
  8
HIDDEN
  6
HIDDEN
 10
529.20419093510145
 20
242.77902846355991
 30
0.0
 11
531.16718185034608
 21
246.17902846355969
 31
0.0
  0
LINE
  5
F35
  8
HIDDEN
  6
HIDDEN
 10
526.20419093510145
 20
250.17902846355969
 30
0.0
 11
526.20419093510145
 21
242.17902846355969
 31
0.0
  0
LINE
  5
F36
  8
HIDDEN
  6
HIDDEN
 10
529.20419093510145
 20
249.57902846355989
 30
0.0
 11
529.20419093510145
 21
242.77902846355991
 31
0.0
  0
LINE
  5
F37
  8
HIDDEN
  6
HIDDEN
 10
529.20419093510145
 20
249.57902846355989
 30
0.0
 11
531.16718185034608
 21
246.17902846355969
 31
0.0
  0
LINE
  5
F38
  8
HIDDEN
  6
HIDDEN
 10
885.20419093510168
 20
185.67902846356
 30
0.0
 11
867.20419093510168
 21
185.67902846356
 31
0.0
  0
LINE
  5
F39
  8
HIDDEN
  6
HIDDEN
 10
885.20419093510168
 20
193.67902846356
 30
0.0
 11
867.20419093510168
 21
193.67902846356
 31
0.0
  0
LINE
  5
F3A
  8
CENTER
  6
CENTER
 10
853.20419093510168
 20
189.67902846355969
 30
0.0
 11
888.20419093510179
 21
189.67902846355969
 31
0.0
  0
LINE
  5
F3B
  8
HIDDEN
  6
HIDDEN
 10
879.20419093510156
 20
185.67902846356
 30
0.0
 11
879.20419093510156
 21
193.67902846356
 31
0.0
  0
LINE
  5
F3C
  8
HIDDEN
  6
HIDDEN
 10
864.20419093510156
 20
193.07902846355981
 30
0.0
 11
862.24120001985682
 21
189.67902846356
 31
0.0
  0
LINE
  5
F3D
  8
HIDDEN
  6
HIDDEN
 10
864.20419093510156
 20
186.27902846355991
 30
0.0
 11
864.20419093510156
 21
193.07902846355981
 31
0.0
  0
LINE
  5
F3E
  8
HIDDEN
  6
HIDDEN
 10
867.20419093510168
 20
185.67902846356
 30
0.0
 11
867.20419093510168
 21
193.67902846356
 31
0.0
  0
LINE
  5
F3F
  8
HIDDEN
  6
HIDDEN
 10
879.20419093510156
 20
186.27902846355991
 30
0.0
 11
864.20419093510156
 21
186.27902846355991
 31
0.0
  0
LINE
  5
F40
  8
HIDDEN
  6
HIDDEN
 10
864.20419093510156
 20
186.27902846355991
 30
0.0
 11
862.24120001985682
 21
189.67902846356
 31
0.0
  0
LINE
  5
F41
  8
HIDDEN
  6
HIDDEN
 10
879.20419093510156
 20
193.07902846355981
 30
0.0
 11
864.20419093510156
 21
193.07902846355981
 31
0.0
  0
LINE
  5
F42
  8
HIDDEN
  6
HIDDEN
 10
885.20419093510168
 20
242.17902846355969
 30
0.0
 11
867.20419093510168
 21
242.17902846355969
 31
0.0
  0
LINE
  5
F43
  8
HIDDEN
  6
HIDDEN
 10
885.20419093510168
 20
250.17902846355969
 30
0.0
 11
867.20419093510168
 21
250.17902846355969
 31
0.0
  0
LINE
  5
F44
  8
CENTER
  6
CENTER
 10
853.20419093510168
 20
246.17902846355969
 30
0.0
 11
888.20419093510156
 21
246.17902846355969
 31
0.0
  0
LINE
  5
F45
  8
HIDDEN
  6
HIDDEN
 10
879.20419093510156
 20
249.57902846355989
 30
0.0
 11
864.20419093510156
 21
249.57902846355989
 31
0.0
  0
LINE
  5
F46
  8
HIDDEN
  6
HIDDEN
 10
879.20419093510156
 20
242.77902846355991
 30
0.0
 11
864.20419093510156
 21
242.77902846355991
 31
0.0
  0
LINE
  5
F47
  8
HIDDEN
  6
HIDDEN
 10
879.20419093510156
 20
250.17902846355969
 30
0.0
 11
879.20419093510156
 21
242.17902846355969
 31
0.0
  0
LINE
  5
F48
  8
HIDDEN
  6
HIDDEN
 10
864.20419093510156
 20
242.77902846355991
 30
0.0
 11
862.24120001985682
 21
246.17902846355969
 31
0.0
  0
LINE
  5
F49
  8
HIDDEN
  6
HIDDEN
 10
867.20419093510168
 20
250.17902846355969
 30
0.0
 11
867.20419093510168
 21
242.17902846355969
 31
0.0
  0
LINE
  5
F4A
  8
HIDDEN
  6
HIDDEN
 10
864.20419093510156
 20
249.57902846355989
 30
0.0
 11
864.20419093510156
 21
242.77902846355991
 31
0.0
  0
LINE
  5
F4B
  8
HIDDEN
  6
HIDDEN
 10
864.20419093510156
 20
249.57902846355989
 30
0.0
 11
862.24120001985682
 21
246.17902846355969
 31
0.0
  0
LINE
  5
F4C
  8
CENTER
  6
CENTER
 10
524.20419093510145
 20
258.18335914701709
 30
0.0
 11
524.20419093510145
 21
238.4089346432539
 31
0.0
  0
LINE
  5
F4D
  8
CENTER
  6
CENTER
 10
533.20419093510134
 20
257.96149735434818
 30
0.0
 11
533.20419093510145
 21
238.2165182993626
 31
0.0
  0
LINE
  5
F4E
  8
CENTER
  6
CENTER
 10
869.20419093510145
 20
258.18335914701709
 30
0.0
 11
869.20419093510168
 21
238.4089346432539
 31
0.0
  0
LINE
  5
F4F
  8
CENTER
  6
CENTER
 10
860.20419093510168
 20
257.96149735434818
 30
0.0
 11
860.20419093510168
 21
238.2165182993626
 31
0.0
  0
CIRCLE
  5
F50
  8
0
  6
CONTINUOUS
 10
696.70419093510145
 20
510.91387932977449
 30
0.0
 40
5.0
  0
CIRCLE
  5
F51
  8
0
  6
CONTINUOUS
 10
696.70419093510145
 20
510.91387932977449
 30
0.0
 40
4.5381062355658202
  0
POLYLINE
  5
F52
  8
0
  6
CONTINUOUS
 66
     1
 10
0.0
 20
0.0
 30
0.0
 70
     1
  0
VERTEX
  5
1401
  8
0
  6
CONTINUOUS
 10
695.26081526212727
 20
513.41387932977455
 30
0.0
  0
VERTEX
  5
1402
  8
0
  6
CONTINUOUS
 10
693.8174395891532
 20
510.91387932977449
 30
0.0
  0
VERTEX
  5
1403
  8
0
  6
CONTINUOUS
 10
695.26081526212727
 20
508.41387932977449
 30
0.0
  0
VERTEX
  5
1404
  8
0
  6
CONTINUOUS
 10
698.14756660807552
 20
508.41387932977449
 30
0.0
  0
VERTEX
  5
1405
  8
0
  6
CONTINUOUS
 10
699.59094228104959
 20
510.91387932977449
 30
0.0
  0
VERTEX
  5
1406
  8
0
  6
CONTINUOUS
 10
698.14756660807552
 20
513.41387932977455
 30
0.0
  0
SEQEND
  5
1407
  8
0
  6
CONTINUOUS
  0
CIRCLE
  5
F5A
  8
0
  6
CONTINUOUS
 10
696.70419093510145
 20
577.91387932977455
 30
0.0
 40
5.0
  0
CIRCLE
  5
F5B
  8
0
  6
CONTINUOUS
 10
696.70419093510145
 20
577.91387932977455
 30
0.0
 40
4.5381062355658202
  0
POLYLINE
  5
F5C
  8
0
  6
CONTINUOUS
 66
     1
 10
0.0
 20
0.0
 30
0.0
 70
     1
  0
VERTEX
  5
1408
  8
0
  6
CONTINUOUS
 10
695.26081526212727
 20
580.41387932977455
 30
0.0
  0
VERTEX
  5
1409
  8
0
  6
CONTINUOUS
 10
693.8174395891532
 20
577.91387932977455
 30
0.0
  0
VERTEX
  5
140A
  8
0
  6
CONTINUOUS
 10
695.26081526212727
 20
575.41387932977455
 30
0.0
  0
VERTEX
  5
140B
  8
0
  6
CONTINUOUS
 10
698.14756660807552
 20
575.41387932977455
 30
0.0
  0
VERTEX
  5
140C
  8
0
  6
CONTINUOUS
 10
699.59094228104959
 20
577.91387932977455
 30
0.0
  0
VERTEX
  5
140D
  8
0
  6
CONTINUOUS
 10
698.14756660807552
 20
580.41387932977455
 30
0.0
  0
SEQEND
  5
140E
  8
0
  6
CONTINUOUS
  0
CIRCLE
  5
F64
  8
0
  6
CONTINUOUS
 10
663.20419093510145
 20
544.41387932977455
 30
0.0
 40
5.0
  0
CIRCLE
  5
F65
  8
0
  6
CONTINUOUS
 10
663.20419093510145
 20
544.41387932977455
 30
0.0
 40
4.5381062355658202
  0
POLYLINE
  5
F66
  8
0
  6
CONTINUOUS
 66
     1
 10
0.0
 20
0.0
 30
0.0
 70
     1
  0
VERTEX
  5
140F
  8
0
  6
CONTINUOUS
 10
661.76081526212727
 20
546.91387932977455
 30
0.0
  0
VERTEX
  5
1410
  8
0
  6
CONTINUOUS
 10
660.3174395891532
 20
544.41387932977455
 30
0.0
  0
VERTEX
  5
1411
  8
0
  6
CONTINUOUS
 10
661.76081526212727
 20
541.91387932977455
 30
0.0
  0
VERTEX
  5
1412
  8
0
  6
CONTINUOUS
 10
664.64756660807552
 20
541.91387932977455
 30
0.0
  0
VERTEX
  5
1413
  8
0
  6
CONTINUOUS
 10
666.09094228104959
 20
544.41387932977455
 30
0.0
  0
VERTEX
  5
1414
  8
0
  6
CONTINUOUS
 10
664.64756660807552
 20
546.91387932977455
 30
0.0
  0
SEQEND
  5
1415
  8
0
  6
CONTINUOUS
  0
CIRCLE
  5
F6E
  8
0
  6
CONTINUOUS
 10
730.20419093510145
 20
544.41387932977455
 30
0.0
 40
5.0
  0
CIRCLE
  5
F6F
  8
0
  6
CONTINUOUS
 10
730.20419093510145
 20
544.41387932977455
 30
0.0
 40
4.5381062355658202
  0
POLYLINE
  5
F70
  8
0
  6
CONTINUOUS
 66
     1
 10
0.0
 20
0.0
 30
0.0
 70
     1
  0
VERTEX
  5
1416
  8
0
  6
CONTINUOUS
 10
728.76081526212738
 20
546.91387932977455
 30
0.0
  0
VERTEX
  5
1417
  8
0
  6
CONTINUOUS
 10
727.3174395891532
 20
544.41387932977455
 30
0.0
  0
VERTEX
  5
1418
  8
0
  6
CONTINUOUS
 10
728.76081526212738
 20
541.91387932977455
 30
0.0
  0
VERTEX
  5
1419
  8
0
  6
CONTINUOUS
 10
731.64756660807552
 20
541.91387932977455
 30
0.0
  0
VERTEX
  5
141A
  8
0
  6
CONTINUOUS
 10
733.09094228104959
 20
544.41387932977455
 30
0.0
  0
VERTEX
  5
141B
  8
0
  6
CONTINUOUS
 10
731.64756660807552
 20
546.91387932977455
 30
0.0
  0
SEQEND
  5
141C
  8
0
  6
CONTINUOUS
  0
CIRCLE
  5
F78
  8
0
  6
CONTINUOUS
 10
696.70419093510145
 20
154.4290284635598
 30
0.0
 40
5.0
  0
CIRCLE
  5
F79
  8
0
  6
CONTINUOUS
 10
696.70419093510145
 20
154.4290284635598
 30
0.0
 40
4.5381062355658202
  0
POLYLINE
  5
F7A
  8
0
  6
CONTINUOUS
 66
     1
 10
0.0
 20
0.0
 30
0.0
 70
     1
  0
VERTEX
  5
141D
  8
0
  6
CONTINUOUS
 10
695.26081526212727
 20
151.9290284635598
 30
0.0
  0
VERTEX
  5
141E
  8
0
  6
CONTINUOUS
 10
693.8174395891532
 20
154.4290284635598
 30
0.0
  0
VERTEX
  5
141F
  8
0
  6
CONTINUOUS
 10
695.26081526212727
 20
156.9290284635598
 30
0.0
  0
VERTEX
  5
1420
  8
0
  6
CONTINUOUS
 10
698.14756660807552
 20
156.9290284635598
 30
0.0
  0
VERTEX
  5
1421
  8
0
  6
CONTINUOUS
 10
699.59094228104959
 20
154.4290284635598
 30
0.0
  0
VERTEX
  5
1422
  8
0
  6
CONTINUOUS
 10
698.14756660807552
 20
151.9290284635598
 30
0.0
  0
SEQEND
  5
1423
  8
0
  6
CONTINUOUS
  0
CIRCLE
  5
F82
  8
0
  6
CONTINUOUS
 10
663.20419093510145
 20
187.9290284635598
 30
0.0
 40
5.0
  0
CIRCLE
  5
F83
  8
0
  6
CONTINUOUS
 10
663.20419093510145
 20
187.9290284635598
 30
0.0
 40
4.5381062355658202
  0
POLYLINE
  5
F84
  8
0
  6
CONTINUOUS
 66
     1
 10
0.0
 20
0.0
 30
0.0
 70
     1
  0
VERTEX
  5
1424
  8
0
  6
CONTINUOUS
 10
661.76081526212727
 20
185.4290284635598
 30
0.0
  0
VERTEX
  5
1425
  8
0
  6
CONTINUOUS
 10
660.3174395891532
 20
187.9290284635598
 30
0.0
  0
VERTEX
  5
1426
  8
0
  6
CONTINUOUS
 10
661.76081526212727
 20
190.4290284635598
 30
0.0
  0
VERTEX
  5
1427
  8
0
  6
CONTINUOUS
 10
664.64756660807552
 20
190.4290284635598
 30
0.0
  0
VERTEX
  5
1428
  8
0
  6
CONTINUOUS
 10
666.09094228104959
 20
187.9290284635598
 30
0.0
  0
VERTEX
  5
1429
  8
0
  6
CONTINUOUS
 10
664.64756660807552
 20
185.4290284635598
 30
0.0
  0
SEQEND
  5
142A
  8
0
  6
CONTINUOUS
  0
CIRCLE
  5
F8C
  8
0
  6
CONTINUOUS
 10
696.70419093510145
 20
221.42902846355989
 30
0.0
 40
5.0
  0
CIRCLE
  5
F8D
  8
0
  6
CONTINUOUS
 10
696.70419093510145
 20
221.42902846355989
 30
0.0
 40
4.5381062355658202
  0
POLYLINE
  5
F8E
  8
0
  6
CONTINUOUS
 66
     1
 10
0.0
 20
0.0
 30
0.0
 70
     1
  0
VERTEX
  5
142B
  8
0
  6
CONTINUOUS
 10
695.26081526212727
 20
218.92902846355989
 30
0.0
  0
VERTEX
  5
142C
  8
0
  6
CONTINUOUS
 10
693.8174395891532
 20
221.42902846355989
 30
0.0
  0
VERTEX
  5
142D
  8
0
  6
CONTINUOUS
 10
695.26081526212727
 20
223.92902846355989
 30
0.0
  0
VERTEX
  5
142E
  8
0
  6
CONTINUOUS
 10
698.14756660807552
 20
223.92902846355989
 30
0.0
  0
VERTEX
  5
142F
  8
0
  6
CONTINUOUS
 10
699.59094228104959
 20
221.42902846355989
 30
0.0
  0
VERTEX
  5
1430
  8
0
  6
CONTINUOUS
 10
698.14756660807552
 20
218.92902846355989
 30
0.0
  0
SEQEND
  5
1431
  8
0
  6
CONTINUOUS
  0
CIRCLE
  5
F96
  8
0
  6
CONTINUOUS
 10
730.20419093510145
 20
187.9290284635598
 30
0.0
 40
5.0
  0
CIRCLE
  5
F97
  8
0
  6
CONTINUOUS
 10
730.20419093510145
 20
187.9290284635598
 30
0.0
 40
4.5381062355658202
  0
POLYLINE
  5
F98
  8
0
  6
CONTINUOUS
 66
     1
 10
0.0
 20
0.0
 30
0.0
 70
     1
  0
VERTEX
  5
1432
  8
0
  6
CONTINUOUS
 10
728.76081526212738
 20
185.4290284635598
 30
0.0
  0
VERTEX
  5
1433
  8
0
  6
CONTINUOUS
 10
727.3174395891532
 20
187.9290284635598
 30
0.0
  0
VERTEX
  5
1434
  8
0
  6
CONTINUOUS
 10
728.76081526212738
 20
190.4290284635598
 30
0.0
  0
VERTEX
  5
1435
  8
0
  6
CONTINUOUS
 10
731.64756660807552
 20
190.4290284635598
 30
0.0
  0
VERTEX
  5
1436
  8
0
  6
CONTINUOUS
 10
733.09094228104959
 20
187.9290284635598
 30
0.0
  0
VERTEX
  5
1437
  8
0
  6
CONTINUOUS
 10
731.64756660807552
 20
185.4290284635598
 30
0.0
  0
SEQEND
  5
1438
  8
0
  6
CONTINUOUS
  0
LINE
  5
FA0
  8
DIM
  6
CONTINUOUS
 10
1069.9597800065269
 20
416.19804680619342
 30
0.0
 11
1088.4597800065269
 21
416.19804680619342
 31
0.0
  0
SOLID
  5
FA1
  8
DIM
  6
CONTINUOUS
 10
1086.9597800065269
 20
413.19804680619342
 30
0.0
 11
1087.9597800065269
 21
413.19804680619342
 31
0.0
 12
1087.4597800065269
 22
416.19804680619342
 32
0.0
 13
1087.4597800065269
 23
416.19804680619342
 33
0.0
  0
LINE
  5
FA2
  8
DIM
  6
CONTINUOUS
 10
1087.4597800065269
 20
321.1980468061933
 30
0.0
 11
1087.4597800065269
 21
416.19804680619347
 31
0.0
  0
ARC
  5
FA3
  8
DIM
  6
CONTINUOUS
 10
696.70419093510145
 20
544.41387932977455
 30
0.0
 40
94.065914908593953
 50
180.0
 51
0.0
  0
CIRCLE
  5
FA4
  8
0
  6
CONTINUOUS
 10
696.70419093510145
 20
544.41387932977455
 30
0.0
 40
15.00000000000005
  0
LINE
  5
FA5
  8
DIM
  6
CONTINUOUS
 10
719.70419093510168
 20
536.02714485066849
 30
0.0
 11
719.70419093510168
 21
555.5073829068906
 31
0.0
  0
LINE
  5
FA6
  8
0
 10
709.20419093510145
 20
547.41387932977455
 30
0.0
 11
709.20419093510145
 21
541.41387932977455
 31
0.0
  0
SOLID
  5
FA7
  8
DIM
  6
CONTINUOUS
 10
720.20419093510168
 20
538.41387932977455
 30
0.0
 11
719.20419093510168
 21
538.41387932977455
 31
0.0
 12
719.70419093510168
 22
541.41387932977455
 32
0.0
 13
719.70419093510168
 23
541.41387932977455
 33
0.0
  0
LINE
  5
FA8
  8
DIM
  6
CONTINUOUS
 10
710.36268805888096
 20
541.41387932977455
 30
0.0
 11
720.70419093510156
 21
541.41387932977455
 31
0.0
  0
LINE
  5
FA9
  8
0
 10
709.20419093510145
 20
541.41387932977455
 30
0.0
 11
705.71806912376144
 21
541.41387932977455
 31
0.0
  0
SOLID
  5
FAA
  8
DIM
  6
CONTINUOUS
 10
720.20419093510168
 20
550.41387932977455
 30
0.0
 11
719.20419093510168
 21
550.41387932977455
 31
0.0
 12
719.70419093510168
 22
547.41387932977455
 32
0.0
 13
719.70419093510168
 23
547.41387932977455
 33
0.0
  0
LINE
  5
FAB
  8
DIM
  6
CONTINUOUS
 10
710.37627767727577
 20
547.41387932977455
 30
0.0
 11
720.70419093510156
 21
547.41387932977455
 31
0.0
  0
LINE
  5
FAC
  8
0
 10
709.20419093510145
 20
547.41387932977455
 30
0.0
 11
705.71806912376155
 21
547.41387932977455
 31
0.0
  0
TEXT
  5
FAD
  8
DIM
  6
CONTINUOUS
 10
718.20419093510156
 20
551.61818788675828
 30
0.0
 40
3.0
  1
6
 50
90.0
  7
ROMANSS
 72
     1
 11
716.70419093510156
 21
552.54675931532984
 31
0.0
 73
     2
  0
ARC
  5
FAE
  8
0
  6
CONTINUOUS
 10
696.70419093510145
 20
544.41387932977455
 30
0.0
 40
9.5000000000000568
 50
18.408480170585811
 51
341.5915198294141
  0
LINE
  5
FAF
  8
HIDDEN
  6
HIDDEN
 10
681.70419093510145
 20
416.19804680619347
 30
0.0
 11
681.70419093510134
 21
321.19804680619347
 31
0.0
  0
LINE
  5
FB0
  8
HIDDEN
  6
HIDDEN
 10
687.20419093510134
 20
415.19804680619347
 30
0.0
 11
687.20419093510145
 21
322.1980468061937
 31
0.0
  0
LINE
  5
FB1
  8
HIDDEN
  6
HIDDEN
 10
705.71806912376155
 20
415.19804680619347
 30
0.0
 11
705.71806912376144
 21
322.1980468061937
 31
0.0
  0
LINE
  5
FB2
  8
HIDDEN
  6
HIDDEN
 10
709.20419093510145
 20
415.19804680619347
 30
0.0
 11
709.20419093510145
 21
322.1980468061937
 31
0.0
  0
LINE
  5
FB3
  8
HIDDEN
  6
HIDDEN
 10
711.70419093510134
 20
416.19804680619347
 30
0.0
 11
711.70419093510134
 21
321.19804680619347
 31
0.0
  0
CIRCLE
  5
FB4
  8
0
  6
CONTINUOUS
 10
696.70419093510145
 20
187.9290284635598
 30
0.0
 40
15.00000000000005
  0
LINE
  5
FB5
  8
0
 10
709.20419093510145
 20
190.9290284635598
 30
0.0
 11
709.20419093510145
 21
184.9290284635598
 31
0.0
  0
LINE
  5
FB6
  8
0
 10
709.20419093510145
 20
184.9290284635598
 30
0.0
 11
705.71806912376144
 21
184.9290284635598
 31
0.0
  0
LINE
  5
FB7
  8
0
 10
709.20419093510145
 20
190.9290284635598
 30
0.0
 11
705.71806912376155
 21
190.9290284635598
 31
0.0
  0
ARC
  5
FB8
  8
0
  6
CONTINUOUS
 10
696.70419093510145
 20
187.9290284635598
 30
0.0
 40
9.5000000000000568
 50
18.408480170585811
 51
341.59151982941449
  0
LINE
  5
FB9
  8
DIM
  6
CONTINUOUS
 10
690.42909518064073
 20
537.28133607562245
 30
0.0
 11
710.03286942871773
 21
559.56382756902383
 31
0.0
  0
SOLID
  5
FBA
  8
DIM
  6
CONTINUOUS
 10
692.78610137963676
 20
539.20344995827872
 30
0.0
 11
692.03530735288405
 21
539.86398635348496
 31
0.0
 12
690.42909518064153
 22
537.28133607562313
 32
0.0
 13
690.42909518064153
 23
537.28133607562313
 33
0.0
  0
SOLID
  5
FBB
  8
DIM
  6
CONTINUOUS
 10
700.62228049056534
 20
549.62430870127025
 30
0.0
 11
701.37307451731806
 21
548.96377230606413
 31
0.0
 12
702.97928668956069
 22
551.54642258392585
 32
0.0
 13
702.97928668956069
 23
551.54642258392585
 33
0.0
  0
LINE
  5
FBC
  8
DIM
  6
CONTINUOUS
 10
706.61223686319715
 20
533.15196892848155
 30
0.0
 11
683.40921102158552
 21
559.5255243160417
 31
0.0
  0
SOLID
  5
FBD
  8
DIM
  6
CONTINUOUS
 10
704.25523066420146
 20
535.07408281113783
 30
0.0
 11
705.0060246909544
 21
535.73461920634395
 31
0.0
 12
706.61223686319693
 22
533.15196892848223
 32
0.0
 13
706.61223686319693
 23
533.15196892848223
 33
0.0
  0
SOLID
  5
FBE
  8
DIM
  6
CONTINUOUS
 10
689.15315120600212
 20
553.75367584841058
 30
0.0
 11
688.40235717924929
 21
553.09313945320446
 31
0.0
 12
686.79614500700666
 22
555.67578973106629
 32
0.0
 13
686.79614500700666
 23
555.67578973106629
 33
0.0
  0
TEXT
  5
FBF
  8
DIM
  6
CONTINUOUS
 10
710.31770920745009
 20
561.06382756902372
 30
0.0
 40
3.0
  1
%%c19H7
  7
ROMANSS
 11
710.31770920745009
 21
562.56382756902372
 31
0.0
 73
     2
  0
LINE
  5
FC0
  8
DIM
  6
CONTINUOUS
 10
710.03286942871773
 20
559.56382756902383
 30
0.0
 11
724.74249727958534
 21
559.5638275690236
 31
0.0
  0
TEXT
  5
FC1
  8
DIM
  6
CONTINUOUS
 10
668.88382035801328
 20
561.02552431604192
 30
0.0
 40
3.0
  1
%%c30x1dp
  7
ROMANSS
 11
668.88382035801328
 21
562.52552431604192
 31
0.0
 73
     2
  0
LINE
  5
FC2
  8
DIM
  6
CONTINUOUS
 10
668.51817580746331
 20
559.52552431604204
 30
0.0
 11
683.40921102158552
 21
559.5255243160417
 31
0.0
  0
LINE
  5
FC3
  8
DIM
  6
CONTINUOUS
 10
687.20419093510122
 20
541.9281631578408
 30
0.0
 11
687.20419093510122
 21
522.9281631578408
 31
0.0
  0
LINE
  5
FC4
  8
DIM
  6
CONTINUOUS
 10
709.20419093510145
 20
539.9281631578408
 30
0.0
 11
709.20419093510145
 21
522.9281631578408
 31
0.0
  0
LINE
  5
FC5
  8
DIM
  6
CONTINUOUS
 10
709.20419093510145
 20
523.9281631578408
 30
0.0
 11
687.20419093510122
 21
523.9281631578408
 31
0.0
  0
LINE
  5
FC6
  8
HIDDEN
  6
HIDDEN
 10
681.70419093510134
 20
415.19804680619347
 30
0.0
 11
711.70419093510134
 21
415.19804680619347
 31
0.0
  0
LINE
  5
FC7
  8
DIM
  6
CONTINUOUS
 10
679.78523829443691
 20
322.1980468061937
 30
0.0
 11
634.70419093510122
 21
322.1980468061937
 31
0.0
  0
LINE
  5
FC8
  8
DIM
  6
CONTINUOUS
 10
655.80654373133837
 20
321.1980468061937
 30
0.0
 11
634.70419093510134
 21
321.1980468061937
 31
0.0
  0
LINE
  5
FC9
  8
DIM
  6
CONTINUOUS
 10
635.70419093510145
 20
314.69744627946602
 30
0.0
 11
635.70419093510134
 21
329.25722387003378
 31
0.0
  0
SOLID
  5
FCA
  8
DIM
  6
CONTINUOUS
 10
635.20419093510122
 20
325.1980468061937
 30
0.0
 11
636.20419093510122
 21
325.1980468061937
 31
0.0
 12
635.70419093510111
 22
322.1980468061937
 32
0.0
 13
635.70419093510111
 23
322.1980468061937
 33
0.0
  0
SOLID
  5
FCB
  8
DIM
  6
CONTINUOUS
 10
635.20419093510134
 20
318.1980468061937
 30
0.0
 11
636.20419093510134
 21
318.1980468061937
 31
0.0
 12
635.70419093510134
 22
321.1980468061937
 32
0.0
 13
635.70419093510134
 23
321.1980468061937
 33
0.0
  0
LINE
  5
FCC
  8
HIDDEN
  6
HIDDEN
 10
681.70419093510134
 20
322.1980468061937
 30
0.0
 11
711.70419093510134
 21
322.1980468061937
 31
0.0
  0
TEXT
  5
FCD
  8
DIM
  6
CONTINUOUS
 10
634.20419093510134
 20
326.86377122659292
 30
0.0
 40
3.0
  1
1
 50
90.0
  7
ROMANSS
 72
     1
 11
632.70419093510134
 21
327.22091408373569
 31
0.0
 73
     2
  0
TEXT
  5
FD2
  8
LOGO
 62
     6
 10
1007.527852801738
 20
10.808122197343319
 30
0.0
 40
17.954951581465281
  1
作動角度
 41
0.9
  7
CHINESET
 72
     4
 11
1039.8467656483749
 21
19.225242092673451
 31
0.0
  0
LINE
  5
FD3
  8
LOGO
 62
     6
 10
1086.2118778742811
 20
-14.440292122573821
 30
0.0
 11
993.48165342247046
 21
-14.44029212257395
 31
0.0
  0
LINE
  5
FD4
  8
LOGO
 62
     6
 10
1086.2118778742811
 20
34.935824726455721
 30
0.0
 11
993.48165342247046
 21
34.935824726455721
 31
0.0
  0
TEXT
  5
FD5
  8
LOGO
  6
CONTINUOUS
 62
     6
 10
997.52437977777913
 20
-6.959062296963423
 30
0.0
 40
11.2218447384158
  1
Rotary angle
 41
0.8
  7
CHINESET
 72
     4
 11
1039.8467656483749
 21
-3.2184473841581531
 31
0.0
  0
TEXT
  5
FD6
  8
LOGO
  6
CONTINUOUS
 62
     7
 10
1015.222832629045
 20
63.858108193430262
 30
0.0
 40
22.443689476831601
  1
180
  7
CHINESET
 72
     1
 11
1041.9415105776541
 21
75.079952931846066
 31
0.0
 73
     2
  0
LINE
  5
FD7
  8
LOGO
 62
     6
 10
1077.234402083548
 20
95.533786313901047
 30
0.0
 11
1002.459129213203
 21
95.533786313901047
 31
0.0
  0
LINE
  5
FD8
  8
LOGO
 62
     6
 10
1077.234402083548
 20
55.135145255604108
 30
0.0
 11
1002.459129213203
 21
55.135145255604151
 31
0.0
  0
LINE
  5
FD9
  8
LOGO
 62
     1
 10
1107.0
 20
109.0
 30
0.0
 11
277.0
 21
109.0
 31
0.0
  0
LINE
  5
FDA
  8
LOGO
 62
     1
 10
1107.0
 20
-25.662136860989609
 30
0.0
 11
277.0
 21
-25.662136860989609
 31
0.0
  0
LINE
  5
FDB
  8
LOGO
  6
CONTINUOUS
 62
     6
 10
533.03908139828263
 20
73.211288278365515
 30
0.0
 11
557.55057253736788
 21
76.448963896410504
 31
0.0
  0
LINE
  5
FDC
  8
LOGO
  6
CONTINUOUS
 62
     6
 10
533.03908139828263
 20
64.049038264276334
 30
0.0
 11
557.55057253736788
 21
60.811362646231352
 31
0.0
  0
LINE
  5
FDD
  8
LOGO
 62
     1
 10
573.25670109417695
 20
82.067572627802093
 30
0.0
 11
375.752233698059
 21
82.067572627802093
 31
0.0
  0
LINE
  5
FDE
  8
LOGO
 62
     1
 10
573.25670109417695
 20
55.135145255604151
 30
0.0
 11
375.752233698059
 21
55.135145255604151
 31
0.0
  0
TEXT
  5
FDF
  8
LOGO
 62
     6
 10
503.68348411600931
 20
88.800679470851577
 30
0.0
 40
13.466213686098961
  1
1 : 1
  7
CHINESET
 72
     1
 11
527.40967013437421
 21
95.533786313901047
 31
0.0
 73
     2
  0
TEXT
  5
FE0
  8
LOGO
 62
     6
 10
503.68348411600931
 20
34.935824726455721
 30
0.0
 40
13.466213686098961
  1
m/m
  7
CHINESET
 72
     1
 11
527.40967013437421
 21
41.668931569505197
 31
0.0
 73
     2
  0
LINE
  5
FE1
  8
LOGO
 62
     1
 10
573.25670109417695
 20
28.202717883406361
 30
0.0
 11
276.99999999999977
 21
28.202717883406361
 31
0.0
  0
TEXT
  5
FE2
  8
LOGO
  6
CONTINUOUS
 62
     5
 10
281.40771910444192
 20
0.7920367024678825
 30
0.0
 40
20.199320529148441
  1
金器工業股份有限公司
 41
0.8
  7
LOGO
  0
TEXT
  5
FE3
  8
LOGO
  6
CONTINUOUS
 62
     5
 10
287.19158619713789
 20
-19.411241309816369
 30
0.0
 40
13.466213686098961
  1
MINDMAN INDUSTRIAL CO.,LTD
 41
0.85
  7
CHINESET
  0
SOLID
  5
FE4
  8
LOGO
 62
     5
 10
290.97141281562051
 20
50.588381371964353
 30
0.0
 11
296.79385026004229
 21
50.588381371962413
 31
0.0
 12
321.08746856263281
 22
105.801150241485
 32
0.0
 13
326.90990600705402
 23
105.8011502414812
 33
0.0
  0
SOLID
  5
FE5
  8
LOGO
 62
     5
 10
299.2031347198066
 20
50.588381371964353
 30
0.0
 11
305.02557216422798
 21
50.588381371964353
 31
0.0
 12
326.90990600705402
 22
101.38412873192139
 32
0.0
 13
321.08746856263281
 23
80.035191435706054
 33
0.0
  0
SOLID
  5
FE6
  8
LOGO
 62
     2
 10
296.79385026004229
 20
50.588381371962413
 30
0.0
 11
299.2031347198066
 21
50.588381371964353
 31
0.0
 12
326.90990600705402
 22
105.8011502414812
 32
0.0
 13
329.31919046681662
 23
105.8011502414812
 33
0.0
  0
SOLID
  5
FE7
  8
LOGO
 62
     5
 10
296.95997945926081
 20
40.549696122960427
 30
0.0
 11
298.96771650905953
 21
40.549696122960427
 31
0.0
 12
296.95997945926081
 22
30.511010873958369
 32
0.0
 13
298.96771650905953
 23
30.511010873958369
 33
0.0
  0
SOLID
  5
FE8
  8
LOGO
 62
     5
 10
281.636617755651
 20
30.511010873958369
 30
0.0
 11
283.64435480545382
 21
30.511010873958369
 31
0.0
 12
289.29829860745463
 22
40.549696122960427
 32
0.0
 13
291.30603565725391
 23
40.549696122960427
 33
0.0
  0
SOLID
  5
FE9
  8
LOGO
 62
     5
 10
289.29829860745463
 20
40.549696122960427
 30
0.0
 11
291.30603565725391
 21
40.549696122960427
 31
0.0
 12
289.29829860745463
 22
30.511010873958369
 32
0.0
 13
291.30603565725391
 23
30.511010873958369
 33
0.0
  0
SOLID
  5
FEA
  8
LOGO
 62
     5
 10
289.29829860745463
 20
30.511010873958369
 30
0.0
 11
291.30603565725391
 21
30.511010873958369
 31
0.0
 12
296.95997945926081
 22
40.549696122960427
 32
0.0
 13
298.96771650905953
 23
40.549696122960427
 33
0.0
  0
LINE
  5
FEB
  8
LOGO
 62
     1
 10
277.0
 20
-25.662136860989609
 30
0.0
 11
277.0
 21
109.0
 31
0.0
  0
TEXT
  5
FEC
  8
LOGO
 62
     6
 10
386.8558482865522
 20
88.807306544515981
 30
0.0
 40
13.466213686098961
  1
比例 Scale:
 41
0.9
  7
CHINESET
 72
     4
 11
429.61708844245487
 21
95.533786313901047
 31
0.0
  0
TEXT
  5
FED
  8
LOGO
 62
     6
 10
391.5630113741484
 20
62.057675954228252
 30
0.0
 40
13.466213686098961
  1
投影 View:
 41
0.9
  7
CHINESET
 72
     4
 11
429.61708844245487
 21
68.601358941703083
 31
0.0
  0
TEXT
  5
FEE
  8
LOGO
 62
     6
 10
392.87957423006611
 20
34.935824726455721
 30
0.0
 40
13.466213686098961
  1
單位 Unit:
 41
0.9
  7
CHINESET
 72
     4
 11
429.61708844245487
 21
41.668931569505197
 31
0.0
  0
POLYLINE
  5
FEF
  8
LOGO
 62
     5
 66
     1
 10
0.0
 20
0.0
 30
0.0
 70
     1
 40
2.0109545771241111
 41
2.0109545771241111
  0
VERTEX
  5
1439
  8
LOGO
 62
     5
 10
345.84325763799683
 20
35.530353498458389
 30
0.0
 42
1.0
  0
VERTEX
  5
143A
  8
LOGO
 62
     5
 10
353.88707594649321
 20
35.530353498458389
 30
0.0
 42
1.0
  0
SEQEND
  5
143B
  8
LOGO
 62
     5
  0
LINE
  5
FF0
  8
LOGO
 62
     5
 10
365.25768365824791
 20
30.511010873958369
 30
0.0
 11
365.25768365824791
 21
36.53422202335878
 31
0.0
  0
SOLID
  5
FF1
  8
LOGO
 62
     5
 10
352.87657159324561
 20
40.549696122960427
 30
0.0
 11
354.88430864304462
 21
40.549696122960427
 31
0.0
 12
352.87657159324561
 22
30.511010873958369
 32
0.0
 13
354.88430864304462
 23
30.511010873958369
 33
0.0
  0
SOLID
  5
FF2
  8
LOGO
 62
     5
 10
357.22673545904468
 20
30.511010873958369
 30
0.0
 11
359.23447250884738
 21
30.511010873958369
 31
0.0
 12
357.22673545904468
 22
40.549696122960427
 32
0.0
 13
359.23447250884738
 23
40.549696122960427
 33
0.0
  0
SOLID
  5
FF3
  8
LOGO
 62
     5
 10
363.24994660844919
 20
36.53422202335878
 30
0.0
 11
365.25768365824791
 21
36.534222023358517
 31
0.0
 12
363.24994660844919
 22
30.511010873958369
 32
0.0
 13
365.25768365824791
 23
30.511010873958369
 33
0.0
  0
SOLID
  5
FF4
  8
LOGO
 62
     5
 10
324.09887336363028
 20
43.561301697662522
 30
0.0
 11
326.106610413429
 21
43.561301697662522
 31
0.0
 12
324.09887336363028
 22
30.511010873958369
 32
0.0
 13
326.106610413429
 23
30.511010873958369
 33
0.0
  0
SOLID
  5
FF5
  8
LOGO
 62
     5
 10
328.44903722943491
 20
40.549696122960427
 30
0.0
 11
330.45677427923391
 21
40.549696122960427
 31
0.0
 12
328.44903722943491
 22
30.511010873958369
 32
0.0
 13
330.45677427923391
 23
30.511010873958369
 33
0.0
  0
SOLID
  5
FF6
  8
LOGO
 62
     5
 10
334.4722483788355
 20
36.53422202335878
 30
0.0
 11
336.47998542863451
 21
36.53422202335878
 31
0.0
 12
334.4722483788355
 22
30.511010873958369
 32
0.0
 13
336.47998542863451
 23
30.511010873958369
 33
0.0
  0
SOLID
  5
FF7
  8
LOGO
 62
     5
 10
340.49545952823632
 20
36.53422202335878
 30
0.0
 11
342.50319657803499
 21
36.53422202335878
 31
0.0
 12
340.49545952823632
 22
30.511010873954561
 32
0.0
 13
342.50319657803499
 23
30.511010873954561
 33
0.0
  0
LINE
  5
FF8
  8
LOGO
 62
     1
 10
375.752233698059
 20
28.202717883406208
 30
0.0
 11
375.752233698059
 21
109.0
 31
0.0
  0
SOLID
  5
FF9
  8
LOGO
 62
     5
 10
305.69455014922198
 20
40.549696122960427
 30
0.0
 11
307.70228719902082
 21
40.549696122960427
 31
0.0
 12
305.69455014922198
 22
30.511010873958369
 32
0.0
 13
307.70228719902082
 23
30.511010873958369
 33
0.0
  0
SOLID
  5
FFA
  8
LOGO
 62
     5
 10
311.71776129862212
 20
36.53422202335878
 30
0.0
 11
313.72549834842471
 21
36.53422202335878
 31
0.0
 12
311.71776129862212
 22
30.511010873958369
 32
0.0
 13
313.72549834842471
 23
30.511010873958369
 33
0.0
  0
SOLID
  5
FFB
  8
LOGO
 62
     5
 10
301.34438628341672
 20
40.549696122960427
 30
0.0
 11
303.3521233332213
 21
40.549696122960427
 31
0.0
 12
301.34438628341672
 22
30.511010873954561
 32
0.0
 13
303.3521233332213
 23
30.511010873958369
 33
0.0
  0
POLYLINE
  5
FFC
  8
LOGO
 62
     5
 66
     1
 10
0.0
 20
0.0
 30
0.0
 70
     1
 40
2.0109545771241111
 41
2.0109545771241111
  0
VERTEX
  5
143C
  8
LOGO
 62
     5
 10
317.06555940838319
 20
35.530353498458389
 30
0.0
 42
1.0
  0
VERTEX
  5
143D
  8
LOGO
 62
     5
 10
325.10937771687969
 20
35.530353498458389
 30
0.0
 42
1.0
  0
SEQEND
  5
143E
  8
LOGO
 62
     5
  0
POLYLINE
  5
FFD
  8
LOGO
 62
     5
 66
     1
 10
0.0
 20
0.0
 30
0.0
 40
2.0109545771241111
 41
2.0109545771241111
  0
VERTEX
  5
143F
  8
LOGO
 62
     5
 10
364.2586414243346
 20
36.534222023358829
 30
0.0
 42
1.0
  0
VERTEX
  5
1440
  8
LOGO
 62
     5
 10
358.2257776929622
 20
36.534222023358829
 30
0.0
 42
1.0
  0
SEQEND
  5
1441
  8
LOGO
 62
     5
  0
SOLID
  5
FFE
  8
LOGO
 62
     5
 10
359.43524621382659
 20
50.588381371962413
 30
0.0
 11
365.25768365824791
 21
50.588381371962413
 31
0.0
 12
359.43524621382659
 22
105.8011502414812
 32
0.0
 13
365.25768365824791
 23
105.801150241485
 33
0.0
  0
SOLID
  5
FFF
  8
LOGO
 62
     5
 10
329.31919046681662
 20
105.8011502414812
 30
0.0
 11
335.14162791123778
 21
105.801150241485
 31
0.0
 12
329.31919046681662
 22
55.005402881524176
 32
0.0
 13
335.14162791123778
 23
76.354340177739545
 33
0.0
  0
SOLID
  5
1000
  8
LOGO
 62
     5
 10
329.31919046681662
 20
55.005402881524176
 30
0.0
 11
335.14162791123778
 21
76.354340177739545
 31
0.0
 12
357.02596175406399
 22
105.801150241485
 32
0.0
 13
351.20352430964221
 23
105.801150241485
 33
0.0
  0
SOLID
  5
1001
  8
LOGO
 62
     5
 10
357.02596175406399
 20
101.38412873192139
 30
0.0
 11
351.20352430964221
 21
80.035191435706054
 31
0.0
 12
357.02596175406399
 22
50.588381371962413
 32
0.0
 13
351.20352430964221
 23
50.588381371962413
 33
0.0
  0
SOLID
  5
1002
  8
LOGO
 62
     2
 10
357.02596175406399
 20
105.801150241485
 30
0.0
 11
359.43524621382659
 21
105.8011502414812
 31
0.0
 12
357.02596175406399
 22
50.588381371962413
 32
0.0
 13
359.43524621382659
 23
50.588381371962413
 33
0.0
  0
SOLID
  5
1003
  8
LOGO
 62
     5
 10
321.08746856263281
 20
50.588381371964353
 30
0.0
 11
326.90990600705402
 21
50.588381371964353
 31
0.0
 12
321.08746856263281
 22
80.035191435706054
 32
0.0
 13
326.90990600705402
 23
101.38412873192139
 33
0.0
  0
SOLID
  5
1004
  8
LOGO
 62
     2
 10
326.90990600705402
 20
105.8011502414812
 30
0.0
 11
329.31919046681662
 21
105.8011502414812
 31
0.0
 12
326.90990600705402
 22
50.588381371964353
 32
0.0
 13
329.31919046681662
 23
50.588381371964353
 33
0.0
  0
SOLID
  5
1005
  8
LOGO
 62
     5
 10
329.31919046681662
 20
50.588381371964353
 30
0.0
 11
335.14162791123778
 21
50.588381371964353
 31
0.0
 12
357.02596175406399
 22
101.38412873192139
 32
0.0
 13
351.20352430964221
 23
80.035191435706054
 33
0.0
  0
SOLID
  5
1006
  8
LOGO
 62
     2
 10
326.90990600705402
 20
50.588381371964353
 30
0.0
 11
329.31919046681662
 21
50.588381371964353
 31
0.0
 12
357.02596175406399
 22
105.801150241485
 32
0.0
 13
359.43524621382659
 23
105.8011502414812
 33
0.0
  0
POLYLINE
  5
1007
  8
LOGO
 62
     5
 66
     1
 10
0.0
 20
0.0
 30
0.0
 40
2.0109545771241111
 41
2.0109545771241111
  0
VERTEX
  5
1442
  8
LOGO
 62
     5
 10
335.48094319472108
 20
36.534222023358829
 30
0.0
 42
1.0
  0
VERTEX
  5
1443
  8
LOGO
 62
     5
 10
329.44807946334839
 20
36.534222023358829
 30
0.0
 42
1.0
  0
SEQEND
  5
1444
  8
LOGO
 62
     5
  0
POLYLINE
  5
1008
  8
LOGO
 62
     5
 66
     1
 10
0.0
 20
0.0
 30
0.0
 40
2.0109545771241111
 41
2.0109545771241111
  0
VERTEX
  5
1445
  8
LOGO
 62
     5
 10
312.72645611450821
 20
36.534222023358829
 30
0.0
 42
1.0
  0
VERTEX
  5
1446
  8
LOGO
 62
     5
 10
306.69359238313552
 20
36.534222023358829
 30
0.0
 42
1.0
  0
SEQEND
  5
1447
  8
LOGO
 62
     5
  0
SOLID
  5
1009
  8
LOGO
 62
     5
 10
301.34438628341672
 20
41.955112057819989
 30
0.0
 11
303.3521233332213
 21
41.955112057819989
 31
0.0
 12
301.34438628341672
 22
43.561301697662522
 32
0.0
 13
303.3521233332213
 23
43.561301697662522
 33
0.0
  0
POLYLINE
  5
100A
  8
LOGO
 62
     5
 66
     1
 10
0.0
 20
0.0
 30
0.0
 70
     1
  0
VERTEX
  5
1448
  8
LOGO
 62
     5
 10
346.85356121754472
 20
35.530353498459391
 30
0.0
 42
1.0000000573306349
  0
VERTEX
  5
1449
  8
LOGO
 62
     5
 10
352.87677236694799
 20
35.530353498459391
 30
0.0
 42
1.0000000573306349
  0
SEQEND
  5
144A
  8
LOGO
 62
     5
  0
CIRCLE
  5
100B
  8
LOGO
 62
     5
 10
349.86516679224621
 20
35.530353498459391
 30
0.0
 40
3.0116055747010702
  0
POLYLINE
  5
100C
  8
LOGO
 62
     5
 66
     1
 10
0.0
 20
0.0
 30
0.0
 40
2.0109545771241111
 41
2.0109545771241111
  0
VERTEX
  5
144B
  8
LOGO
 62
     5
 10
341.5041543441215
 20
36.534222023358829
 30
0.0
 42
1.0
  0
VERTEX
  5
144C
  8
LOGO
 62
     5
 10
335.47129061274899
 20
36.534222023358829
 30
0.0
 42
1.0
  0
SEQEND
  5
144D
  8
LOGO
 62
     5
  0
LINE
  5
100D
  8
LOGO
 62
     1
 10
483.48194318685057
 20
28.202717883406208
 30
0.0
 11
483.48194318685057
 21
109.0
 31
0.0
  0
CIRCLE
  5
100E
  8
LOGO
  6
CONTINUOUS
 62
     6
 10
508.41632215404559
 20
68.630163271320924
 30
0.0
 40
7.8188006250895778
  0
CIRCLE
  5
100F
  8
LOGO
  6
CONTINUOUS
 62
     6
 10
508.41632215404559
 20
68.630163271320924
 30
0.0
 40
4.5811250070445899
  0
LINE
  5
1010
  8
LOGO
 62
     6
 10
533.03908139828286
 20
64.049038264276334
 30
0.0
 11
533.03908139828263
 21
73.211288278365544
 31
0.0
  0
TEXT
  5
1011
  8
LOGO
  6
CONTINUOUS
 62
     6
 10
790.96840612294091
 20
-8.8293697533659419
 30
0.0
 40
11.2218447384158
  1
Model
  7
CHINESET
 72
     4
 11
812.34334848182812
 21
-3.218447384158039
 31
0.0
  0
TEXT
  5
1012
  8
LOGO
  6
CONTINUOUS
 62
     7
 10
771.73095799994235
 20
64.112621046336784
 30
0.0
 40
22.443689476831601
  1
MRTF
  7
CHINESET
 72
     1
 11
812.34334848182812
 21
75.334465784752581
 31
0.0
 73
     2
  0
LINE
  5
1013
  8
LOGO
 62
     6
 10
866.20820322622376
 20
95.533786313901047
 30
0.0
 11
758.47849373743225
 21
95.533786313901047
 31
0.0
  0
LINE
  5
1014
  8
LOGO
 62
     6
 10
866.20820322622376
 20
55.135145255604151
 30
0.0
 11
758.47849373743225
 21
55.135145255604151
 31
0.0
  0
LINE
  5
1015
  8
LOGO
 62
     6
 10
857.23072743549119
 20
34.935824726455721
 30
0.0
 11
767.45596952816504
 21
34.935824726455721
 31
0.0
  0
LINE
  5
1016
  8
LOGO
 62
     6
 10
857.23072743549119
 20
-14.440292122573849
 30
0.0
 11
767.45596952816504
 21
-14.44029212257395
 31
0.0
  0
TEXT
  5
1017
  8
LOGO
 62
     7
 10
584.27945525114217
 20
75.28366351980705
 30
0.0
 40
26.932427372197921
  1
訂購代號:
  7
CHINESET
  0
TEXT
  5
1018
  8
LOGO
 62
     7
 10
581.05818845601902
 20
50.006809313265521
 30
0.0
 40
17.954951581465281
  1
Order example:
 41
0.8
  7
CHINESET
  0
LINE
  5
1019
  8
LOGO
 62
     1
 10
573.25670109417695
 20
-25.662136860989609
 30
0.0
 11
573.25670109417695
 21
109.0
 31
0.0
  0
LINE
  5
101A
  8
LOGO
 62
     6
 10
557.55057253736788
 20
60.811362646231352
 30
0.0
 11
557.55057253736788
 21
76.448963896410504
 31
0.0
  0
LINE
  5
101B
  8
LOGO
 62
     6
 10
767.45596952816504
 20
34.935824726455721
 30
0.0
 11
767.45596952816504
 21
-14.44029212257395
 31
0.0
  0
LINE
  5
101C
  8
LOGO
 62
     6
 10
758.47849373743225
 20
95.533786313901047
 30
0.0
 11
758.47849373743225
 21
55.135145255604151
 31
0.0
  0
TEXT
  5
101D
  8
LOGO
  6
CONTINUOUS
 62
     7
 10
918.56595735014434
 20
63.858108193430539
 30
0.0
 40
22.443689476831601
  1
63
  7
CHINESET
 72
     1
 11
936.73465835519835
 21
75.079952931846336
 31
0.0
 73
     2
  0
LINE
  5
101E
  8
LOGO
 62
     6
 10
970.67416364447433
 20
-14.44029212257356
 30
0.0
 11
898.6056632073653
 21
-14.44029212257368
 31
0.0
  0
LINE
  5
101F
  8
LOGO
 62
     6
 10
970.67416364447433
 20
55.135145255604421
 30
0.0
 11
898.6056632073653
 21
55.135145255604421
 31
0.0
  0
LINE
  5
1020
  8
LOGO
 62
     6
 10
970.67416364447433
 20
34.935824726455948
 30
0.0
 11
898.6056632073653
 21
34.935824726455948
 31
0.0
  0
LINE
  5
1021
  8
LOGO
 62
     6
 10
970.67416364447433
 20
95.533786313901544
 30
0.0
 11
898.6056632073653
 21
95.533786313901274
 31
0.0
  0
LINE
  5
1022
  8
LOGO
 62
     6
 10
898.6056632073653
 20
34.935824726455948
 30
0.0
 11
898.6056632073653
 21
-14.44029212257356
 31
0.0
  0
LINE
  5
1023
  8
LOGO
 62
     6
 10
857.23072743549142
 20
34.935824726455721
 30
0.0
 11
857.23072743549142
 21
-14.440292122573821
 31
0.0
  0
TEXT
  5
1024
  8
LOGO
 62
     6
 10
794.38839690036275
 20
10.70724340934065
 30
0.0
 40
17.954951581465281
  1
型式
  7
CHINESET
 72
     4
 11
812.34334848182812
 21
19.225242092673589
 31
0.0
  0
LINE
  5
1025
  8
LOGO
 62
     6
 10
812.34334848182812
 20
55.135145255604151
 30
0.0
 11
812.34334848182812
 21
34.935824726455721
 31
0.0
  0
LINE
  5
1026
  8
LOGO
 62
     6
 10
898.6056632073653
 20
95.533786313901274
 30
0.0
 11
898.6056632073653
 21
55.135145255604421
 31
0.0
  0
LINE
  5
1027
  8
LOGO
 62
     6
 10
866.20820322622399
 20
95.533786313901047
 30
0.0
 11
866.20820322622399
 21
55.135145255604151
 31
0.0
  0
LINE
  5
1028
  8
LOGO
  6
CONTINUOUS
 62
     7
 10
873.78077636223213
 20
75.191367413629962
 30
0.0
 11
891.61934217266457
 21
75.191367413629962
 31
0.0
  0
LINE
  5
1029
  8
LOGO
 62
     6
 10
993.48165342247046
 20
34.935824726455721
 30
0.0
 11
993.48165342247046
 21
-14.44029212257395
 31
0.0
  0
LINE
  5
102A
  8
LOGO
 62
     6
 10
970.67416364447433
 20
34.935824726455948
 30
0.0
 11
970.67416364447433
 21
-14.44029212257343
 31
0.0
  0
TEXT
  5
102B
  8
LOGO
  6
CONTINUOUS
 62
     6
 10
920.74620089264317
 20
-8.8293697533657856
 30
0.0
 40
11.2218447384158
  1
Bore
 41
0.8
  7
CHINESET
 72
     4
 11
934.63991342591987
 21
-3.2184473841578831
 31
0.0
  0
TEXT
  5
102C
  8
LOGO
 62
     6
 10
917.47049097614365
 20
10.24776630194107
 30
0.0
 40
17.954951581465281
  1
內徑
 41
0.9
  7
CHINESET
 72
     4
 11
934.63991342591987
 21
19.22524209267371
 31
0.0
  0
LINE
  5
102D
  8
LOGO
  6
CONTINUOUS
 62
     7
 10
977.63424236806998
 20
75.191367413630189
 30
0.0
 11
995.47280817850265
 21
75.191367413630189
 31
0.0
  0
LINE
  5
102E
  8
LOGO
 62
     6
 10
970.67416364447433
 20
95.533786313901544
 30
0.0
 11
970.67416364447433
 21
55.135145255604421
 31
0.0
  0
LINE
  5
102F
  8
LOGO
 62
     6
 10
934.63991239088671
 20
55.135145255604421
 30
0.0
 11
934.63991239088671
 21
34.935824726455948
 31
0.0
  0
LINE
  5
1030
  8
LOGO
 62
     6
 10
1002.459129213203
 20
95.533786313901047
 30
0.0
 11
1002.459129213203
 21
55.135145255604151
 31
0.0
  0
LINE
  5
1031
  8
LOGO
 62
     6
 10
1040.7974395775259
 20
55.135145255604151
 30
0.0
 11
1040.7974395775259
 21
34.935824726455721
 31
0.0
  0
LINE
  5
1037
  8
LOGO
 62
     6
 10
1086.2118778742811
 20
34.935824726455721
 30
0.0
 11
1086.2118778742811
 21
-14.62647282331316
 31
0.0
  0
LINE
  5
1038
  8
LOGO
 62
     6
 10
1077.234402083548
 20
95.533786313901047
 30
0.0
 11
1077.234402083548
 21
55.135145255604108
 31
0.0
  0
LINE
  5
1041
  8
LOGO
 62
     1
 10
1107.0
 20
-25.662136860989609
 30
0.0
 11
1107.0
 21
109.0
 31
0.0
  0
ENDSEC
  0
EOF
