  0
SECTION
  2
HEADER
  9
$ACADVER
  1
AC1009
  9
$INSBASE
 10
0.0
 20
0.0
 30
0.0
  9
$EXTMIN
 10
176.97821342127639
 20
-41.425779342448543
 30
-0.0015258207003583
  9
$EXTMAX
 10
1107.0065944686139
 20
675.0018328183819
 30
0.0000000349246037
  9
$LIMMIN
 10
0.0
 20
0.0
  9
$LIMMAX
 10
1188.0
 20
840.0
  9
$ORTHOMODE
 70
     1
  9
$REGENMODE
 70
     1
  9
$FILLMODE
 70
     1
  9
$QTEXTMODE
 70
     0
  9
$MIRRTEXT
 70
     1
  9
$DRAGMODE
 70
     2
  9
$LTSCALE
 40
1.0
  9
$OSMODE
 70
    39
  9
$ATTMODE
 70
     1
  9
$TEXTSIZE
 40
3.0
  9
$TRACEWID
 40
0.05
  9
$TEXTSTYLE
  7
ITALICT
  9
$CLAYER
  8
HIDDEN
  9
$CELTYPE
  6
CONTINUOUS
  9
$CECOLOR
 62
   256
  9
$DIMSCALE
 40
1.0
  9
$DIMASZ
 40
3.0
  9
$DIMEXO
 40
1.0
  9
$DIMDLI
 40
1.4824161510814720E+016
  9
$DIMRND
 40
0.0
  9
$DIMDLE
 40
0.0
  9
$DIMEXE
 40
1.0
  9
$DIMTP
 40
0.15
  9
$DIMTM
 40
-0.1
  9
$DIMTXT
 40
3.0
  9
$DIMCEN
 40
2.0
  9
$DIMTSZ
 40
0.0
  9
$DIMTOL
 70
     0
  9
$DIMLIM
 70
     0
  9
$DIMTIH
 70
     0
  9
$DIMTOH
 70
     0
  9
$DIMSE1
 70
     0
  9
$DIMSE2
 70
     0
  9
$DIMTAD
 70
     1
  9
$DIMZIN
 70
     0
  9
$DIMBLK
  1

  9
$DIMASO
 70
     0
  9
$DIMSHO
 70
     0
  9
$DIMPOST
  1

  9
$DIMAPOST
  1

  9
$DIMALT
 70
     0
  9
$DIMALTD
 70
     2
  9
$DIMALTF
 40
25.399999999999999
  9
$DIMLFAC
 40
1.0
  9
$DIMTOFL
 70
     1
  9
$DIMTVP
 40
1.0
  9
$DIMTIX
 70
     0
  9
$DIMSOXD
 70
     0
  9
$DIMSAH
 70
     0
  9
$DIMBLK1
  1

  9
$DIMBLK2
  1

  9
$DIMSTYLE
  2
STANDARD
  9
$DIMCLRD
 70
     0
  9
$DIMCLRE
 70
     0
  9
$DIMCLRT
 70
     0
  9
$DIMTFAC
 40
1.0
  9
$DIMGAP
 40
0.09
  9
$LUNITS
 70
     2
  9
$LUPREC
 70
     2
  9
$SKETCHINC
 40
0.1
  9
$FILLETRAD
 40
0.75
  9
$AUNITS
 70
     0
  9
$AUPREC
 70
     2
  9
$MENU
  1
ACAD
  9
$ELEVATION
 40
0.0
  9
$PELEVATION
 40
0.0
  9
$THICKNESS
 40
0.0
  9
$LIMCHECK
 70
     0
  9
$BLIPMODE
 70
     0
  9
$CHAMFERA
 40
1.0
  9
$CHAMFERB
 40
1.0
  9
$SKPOLY
 70
     1
  9
$TDCREATE
 40
2450580.7034460641
  9
$TDUPDATE
 40
2451939.3729570722
  9
$TDINDWG
 40
0.0964589931
  9
$TDUSRTIMER
 40
0.0964589931
  9
$USRTIMER
 70
     1
  9
$ANGBASE
 50
0.0
  9
$ANGDIR
 70
     0
  9
$PDMODE
 70
     0
  9
$PDSIZE
 40
0.0
  9
$PLINEWID
 40
0.0
  9
$COORDS
 70
     2
  9
$SPLFRAME
 70
     0
  9
$SPLINETYPE
 70
     6
  9
$SPLINESEGS
 70
     8
  9
$ATTDIA
 70
     0
  9
$ATTREQ
 70
     1
  9
$HANDLING
 70
 12289
  9
$HANDSEED
  5
1489
  9
$SURFTAB1
 70
     6
  9
$SURFTAB2
 70
     6
  9
$SURFTYPE
 70
     6
  9
$SURFU
 70
     6
  9
$SURFV
 70
     6
  9
$UCSNAME
  2

  9
$UCSORG
 10
0.0
 20
0.0
 30
0.0
  9
$UCSXDIR
 10
1.0
 20
0.0
 30
0.0
  9
$UCSYDIR
 10
0.0
 20
1.0
 30
0.0
  9
$PUCSNAME
  2

  9
$PUCSORG
 10
0.0
 20
0.0
 30
0.0
  9
$PUCSXDIR
 10
1.0
 20
0.0
 30
0.0
  9
$PUCSYDIR
 10
0.0
 20
1.0
 30
0.0
  9
$USERI1
 70
     0
  9
$USERI2
 70
-31485
  9
$USERI3
 70
     0
  9
$USERI4
 70
     0
  9
$USERI5
 70
     0
  9
$USERR1
 40
0.0
  9
$USERR2
 40
0.0
  9
$USERR3
 40
0.0
  9
$USERR4
 40
0.0
  9
$USERR5
 40
0.0
  9
$WORLDVIEW
 70
     1
  9
$SHADEDGE
 70
     3
  9
$SHADEDIF
 70
    70
  9
$TILEMODE
 70
     1
  9
$MAXACTVP
 70
    64
  9
$PLIMCHECK
 70
     0
  9
$PEXTMIN
 10
1.0000000000000000E+020
 20
1.0000000000000000E+020
 30
1.0000000000000000E+020
  9
$PEXTMAX
 10
-1.0000000000000000E+020
 20
-1.0000000000000000E+020
 30
-1.0000000000000000E+020
  9
$PLIMMIN
 10
0.0
 20
0.0
  9
$PLIMMAX
 10
12.0
 20
9.0
  9
$UNITMODE
 70
     0
  9
$VISRETAIN
 70
     1
  9
$PLINEGEN
 70
     0
  9
$PSLTSCALE
 70
     0
  0
ENDSEC
  0
SECTION
  2
TABLES
  0
TABLE
  2
VPORT
 70
     2
  0
VPORT
  2
*ACTIVE
 70
     0
 10
0.0
 20
0.0
 11
1.0
 21
1.0
 12
641.99240394494529
 22
316.78802673796662
 13
0.0
 23
0.0
 14
1.0
 24
1.0
 15
0.0
 25
0.0
 16
0.0
 26
0.0
 36
1.0
 17
0.0
 27
0.0
 37
0.0
 40
724.47518191525853
 41
1.7274401473296499
 42
1.0
 43
0.0
 44
0.0
 50
0.0
 51
0.0
 71
     0
 72
   100
 73
     1
 74
     1
 75
     0
 76
     0
 77
     0
 78
     0
  0
ENDTAB
  0
TABLE
  2
LTYPE
 70
     3
  0
LTYPE
  2
CONTINUOUS
 70
     0
  3
Solid line
 72
    65
 73
     0
 40
0.0
  0
LTYPE
  2
CENTER
 70
     0
  3
_______________ _ _______________ _ ___________
 72
    65
 73
     4
 40
18.0
 49
15.0
 49
-1.0
 49
1.0
 49
-1.0
  0
LTYPE
  2
HIDDEN
 70
     0
  3
___ ___ ___ ___ ___ ___ ___ ___ ___ ___ 
 72
    65
 73
     2
 40
4.0
 49
3.0
 49
-1.0
  0
ENDTAB
  0
TABLE
  2
LAYER
 70
     5
  0
LAYER
  2
0
 70
     0
 62
     7
  6
CONTINUOUS
  0
LAYER
  2
CENTER
 70
     0
 62
     1
  6
CENTER
  0
LAYER
  2
HIDDEN
 70
     0
 62
     6
  6
HIDDEN
  0
LAYER
  2
DIM
 70
     0
 62
     5
  6
CONTINUOUS
  0
LAYER
  2
LOGO
 70
     0
 62
     7
  6
CONTINUOUS
  0
ENDTAB
  0
TABLE
  2
STYLE
 70
     8
  0
STYLE
  2
STANDARD
 70
     0
 40
0.0
 41
1.0
 50
0.0
 71
     0
 42
3.0
  3
txt
  4

  0
STYLE
  2
ITALICT
 70
     0
 40
0.0
 41
1.0
 50
0.0
 71
     0
 42
3.0
  3
ITALICT.SHX
  4

  0
STYLE
  2
ROMANSS
 70
     0
 40
0.0
 41
1.0
 50
0.0
 71
     0
 42
3.0
  3
ROMANSS.SHX
  4
LMP
  0
STYLE
  2
CHINESET
 70
     0
 40
0.0
 41
1.0
 50
0.0
 71
     0
 42
4.0
  3
C:\r13\com\fonts\simplex.shx
  4
C:\r13\com\fonts\chineset.shx
  0
STYLE
  2
LOGO
 70
     0
 40
0.0
 41
1.0
 50
0.0
 71
     0
 42
5.0
  3
txt
  4

  0
ENDTAB
  0
TABLE
  2
VIEW
 70
     0
  0
ENDTAB
  0
TABLE
  2
UCS
 70
     0
  0
ENDTAB
  0
TABLE
  2
APPID
 70
     2
  0
APPID
  2
ACAD
 70
     0
  0
APPID
  2
TCAD
 70
     0
  0
ENDTAB
  0
TABLE
  2
DIMSTYLE
 70
     1
  0
DIMSTYLE
  2
STANDARD
 70
     0
  3

  4

  5

  6

  7

 40
1.0
 41
0.18
 42
0.0625
 43
0.38
 44
0.18
 45
0.0
 46
0.0
 47
0.0
 48
0.0
140
0.18
141
0.09
142
0.0
143
25.399999999999999
144
1.0
145
0.0
146
1.0
147
0.09
 71
     0
 72
     0
 73
     1
 74
     1
 75
     0
 76
     0
 77
     0
 78
     0
170
     0
171
     2
172
     0
173
     0
174
     0
175
     0
176
     0
177
     0
178
     0
  0
ENDTAB
  0
ENDSEC
  0
SECTION
  2
BLOCKS
  0
BLOCK
  8
0
  2
$MODEL_SPACE
 70
     0
 10
0.0
 20
0.0
 30
0.0
  3
$MODEL_SPACE
  1

  0
ENDBLK
  5
3F
  8
0
  0
BLOCK
 67
     1
  8
0
  2
$PAPER_SPACE
 70
     0
 10
0.0
 20
0.0
 30
0.0
  3
$PAPER_SPACE
  1

  0
ENDBLK
  5
3D
 67
     1
  8
0
  0
ENDSEC
  0
SECTION
  2
ENTITIES
  0
LINE
  5
B29
  8
0
 62
     4
 10
177.0
 20
109.0
 30
0.0
 11
177.0
 21
675.00000000000023
 31
0.0
  0
LINE
  5
B2A
  8
0
 62
     4
 10
1107.0
 20
109.0
 30
0.0
 11
177.0
 21
109.0
 31
0.0
  0
LINE
  5
B2E
  8
0
 62
     4
 10
177.0
 20
675.00000000000023
 30
0.0
 11
1107.0
 21
674.99999999999989
 31
0.0
  0
LINE
  5
B2F
  8
0
 62
     4
 10
1107.0
 20
674.99999999999989
 30
0.0
 11
1107.0
 21
109.0
 31
0.0
  0
CIRCLE
  5
B32
  8
0
  6
CONTINUOUS
 10
616.34637392086483
 20
194.2211096786186
 30
0.0
 40
46.999999999999829
  0
CIRCLE
  5
B33
  8
0
  6
CONTINUOUS
 10
616.34637392086483
 20
590.28515874401853
 30
0.0
 40
46.999999999999829
  0
POLYLINE
  5
B34
  8
0
  6
CONTINUOUS
 66
     1
 10
0.0
 20
0.0
 30
0.0
  0
VERTEX
  5
13AD
  8
0
  6
CONTINUOUS
 10
641.34637392086483
 20
285.72110967861857
 30
0.0
 42
0.0851703918331015
  0
VERTEX
  5
13AE
  8
0
  6
CONTINUOUS
 10
635.34637392086483
 20
284.68910967861939
 30
0.0
 42
0.3910851735909245
  0
VERTEX
  5
13AF
  8
0
  6
CONTINUOUS
 10
631.37137392086436
 20
285.15817665321532
 30
0.0
  0
SEQEND
  5
13B0
  8
0
  6
CONTINUOUS
  0
LINE
  5
B39
  8
0
  6
CONTINUOUS
 10
650.34637392086483
 20
285.72110967861857
 30
0.0
 11
632.34637392086483
 21
285.72110967861857
 31
0.0
  0
LINE
  5
B3A
  8
0
  6
CONTINUOUS
 10
650.34637392086483
 20
498.78515874401847
 30
0.0
 11
632.34637392086483
 21
498.78515874401847
 31
0.0
  0
POLYLINE
  5
B3B
  8
0
  6
CONTINUOUS
 66
     1
 10
0.0
 20
0.0
 30
0.0
  0
VERTEX
  5
13B1
  8
0
  6
CONTINUOUS
 10
641.34637392086483
 20
498.78515874401847
 30
0.0
 42
-0.0851703918331015
  0
VERTEX
  5
13B2
  8
0
  6
CONTINUOUS
 10
635.34637392086483
 20
499.81715874401772
 30
0.0
 42
-0.3910851735909245
  0
VERTEX
  5
13B3
  8
0
  6
CONTINUOUS
 10
631.37137392086436
 20
499.34809176942179
 30
0.0
  0
SEQEND
  5
13B4
  8
0
  6
CONTINUOUS
  0
LINE
  5
B40
  8
CENTER
  6
CENTER
 10
625.84637392086483
 20
375.84588321249407
 30
0.0
 11
656.84637392086483
 21
375.84588321249407
 31
0.0
  0
CIRCLE
  5
B41
  8
0
  6
CONTINUOUS
 10
641.34637392086483
 20
375.84588321249407
 30
0.0
 40
9.5
  0
POLYLINE
  5
B42
  8
0
  6
CONTINUOUS
 66
     1
 10
0.0
 20
0.0
 30
0.0
 70
     1
  0
VERTEX
  5
13B5
  8
0
  6
CONTINUOUS
 10
635.86154636356332
 20
385.34588321249419
 30
0.0
  0
VERTEX
  5
13B6
  8
0
  6
CONTINUOUS
 10
630.37671880626192
 20
375.84588321249407
 30
0.0
  0
VERTEX
  5
13B7
  8
0
  6
CONTINUOUS
 10
635.86154636356332
 20
366.34588321249407
 30
0.0
  0
VERTEX
  5
13B8
  8
0
  6
CONTINUOUS
 10
646.83120147816635
 20
366.34588321249407
 30
0.0
  0
VERTEX
  5
13B9
  8
0
  6
CONTINUOUS
 10
652.31602903546775
 20
375.84588321249407
 30
0.0
  0
VERTEX
  5
13BA
  8
0
  6
CONTINUOUS
 10
646.83120147816635
 20
385.34588321249419
 30
0.0
  0
SEQEND
  5
13BB
  8
0
  6
CONTINUOUS
  0
LINE
  5
B4A
  8
DIM
  6
CONTINUOUS
 10
388.32906045704652
 20
315.3458832124943
 30
0.0
 11
846.35363288059489
 21
315.3458832124943
 31
0.0
  0
LINE
  5
B4B
  8
DIM
  6
CONTINUOUS
 10
563.84637392086483
 20
323.34588321249419
 30
0.0
 11
668.84637392086483
 21
323.34588321249419
 31
0.0
  0
LINE
  5
B4C
  8
DIM
  6
CONTINUOUS
 10
568.34637392086483
 20
331.34588321249419
 30
0.0
 11
664.34637392086483
 21
331.34588321249419
 31
0.0
  0
LINE
  5
B4D
  8
DIM
  6
CONTINUOUS
 10
578.34637392086483
 20
649.78515874401853
 30
0.0
 11
654.34637392086483
 21
649.78515874401853
 31
0.0
  0
CIRCLE
  5
B4E
  8
CENTER
  6
CENTER
 10
616.34637392086483
 20
194.2211096786186
 30
0.0
 40
39.0
  0
LINE
  5
B4F
  8
CENTER
  6
CENTER
 10
393.34637392086489
 20
230.2211096786186
 30
0.0
 11
839.34637392086483
 21
230.2211096786186
 31
0.0
  0
LINE
  5
B50
  8
CENTER
  6
CENTER
 10
399.34637392086489
 20
194.2211096786186
 30
0.0
 11
833.34637392086495
 21
194.2211096786186
 31
0.0
  0
LINE
  5
B51
  8
0
 10
563.84637392086483
 20
142.72110967861849
 30
0.0
 11
668.84637392086483
 21
142.72110967861869
 31
0.0
  0
LINE
  5
B52
  8
0
 10
563.84637392086483
 20
277.72110967861857
 30
0.0
 11
668.84637392086483
 21
277.72110967861857
 31
0.0
  0
CIRCLE
  5
B53
  8
0
  6
CONTINUOUS
 10
616.34637392086483
 20
194.2211096786186
 30
0.0
 40
47.999999999999822
  0
CIRCLE
  5
B54
  8
CENTER
  6
CENTER
 10
616.34637392086483
 20
590.28515874401853
 30
0.0
 40
39.0
  0
CIRCLE
  5
B55
  8
0
  6
CONTINUOUS
 10
616.34637392086483
 20
590.28515874401853
 30
0.0
 40
47.999999999999822
  0
LINE
  5
B56
  8
0
 10
563.84637392086483
 20
506.78515874401847
 30
0.0
 11
668.84637392086483
 21
506.78515874401847
 31
0.0
  0
LINE
  5
B57
  8
0
 10
563.84637392086483
 20
641.78515874401853
 30
0.0
 11
668.84637392086483
 21
641.78515874401842
 31
0.0
  0
LINE
  5
B58
  8
0
 10
569.34637392086483
 20
339.3458832124943
 30
0.0
 11
663.34637392086483
 21
339.34588321249419
 31
0.0
  0
LINE
  5
B59
  8
0
 10
569.34637392086483
 20
458.3458832124943
 30
0.0
 11
663.34637392086483
 21
458.3458832124943
 31
0.0
  0
LINE
  5
B5A
  8
0
 10
563.84637392086483
 20
351.34588321249407
 30
0.0
 11
668.84637392086483
 21
351.34588321249407
 31
0.0
  0
LINE
  5
B5B
  8
0
 10
563.84637392086483
 20
446.34588321249407
 30
0.0
 11
668.84637392086483
 21
446.34588321249407
 31
0.0
  0
LINE
  5
B5C
  8
CENTER
  6
CENTER
 10
393.34637392086478
 20
398.84588321249407
 30
0.0
 11
839.34637392086483
 21
398.84588321249407
 31
0.0
  0
LINE
  5
B5D
  8
CENTER
  6
CENTER
 10
393.34637392086489
 20
554.28515874401853
 30
0.0
 11
839.34637392086483
 21
554.28515874401853
 31
0.0
  0
LINE
  5
B5E
  8
CENTER
  6
CENTER
 10
399.34637392086489
 20
590.28515874401853
 30
0.0
 11
833.34637392086495
 21
590.28515874401853
 31
0.0
  0
LINE
  5
B5F
  8
0
 10
440.34637392086478
 20
351.34588321249407
 30
0.0
 11
440.34637392086478
 21
446.34588321249407
 31
0.0
  0
LINE
  5
B60
  8
0
 10
402.34637392086478
 20
351.59588321249407
 30
0.0
 11
402.34637392086478
 21
446.09588321249419
 31
0.0
  0
LINE
  5
B61
  8
0
 10
563.84637392086483
 20
446.34588321249407
 30
0.0
 11
563.84637392086483
 21
351.34588321249407
 31
0.0
  0
LINE
  5
B62
  8
CENTER
  6
CENTER
 10
616.34637392086483
 20
464.93178721523441
 30
0.0
 11
616.34637392086483
 21
336.34588321249407
 31
0.0
  0
LINE
  5
B63
  8
CENTER
  6
CENTER
 10
575.34637392086483
 20
225.22110967861869
 30
0.0
 11
575.34637392086483
 21
245.2211096786186
 31
0.0
  0
LINE
  5
B64
  8
CENTER
  6
CENTER
 10
616.34637392086483
 20
139.7211096786186
 30
0.0
 11
616.34637392086483
 21
280.72110967861857
 31
0.0
  0
LINE
  5
B65
  8
0
 10
440.34637392086489
 20
182.72110967861869
 30
0.0
 11
440.34637392086489
 21
277.72110967861852
 31
0.0
  0
LINE
  5
B66
  8
0
 10
402.34637392086489
 20
182.9711096786186
 30
0.0
 11
402.34637392086489
 21
277.47110967861852
 31
0.0
  0
LINE
  5
B67
  8
0
 10
396.34637392086489
 20
208.7211096786186
 30
0.0
 11
396.34637392086489
 21
251.72110967861849
 31
0.0
  0
LINE
  5
B68
  8
0
 10
563.84637392086483
 20
142.72110967861849
 30
0.0
 11
563.84637392086483
 21
277.72110967861857
 31
0.0
  0
CIRCLE
  5
B69
  8
0
  6
CONTINUOUS
 10
575.34637392086483
 20
235.2211096786186
 30
0.0
 40
4.25
  0
ARC
  5
B6A
  8
0
  6
CONTINUOUS
 62
     2
 10
575.34637392086483
 20
235.2211096786186
 30
0.0
 40
5.0
 50
244.7996045918774
 51
198.7093473556057
  0
LINE
  5
B6B
  8
0
 62
     7
 10
563.84637392086483
 20
205.58488816323791
 30
0.0
 11
440.34637392086489
 21
205.58488816323791
 31
0.0
  0
LINE
  5
B6C
  8
0
 10
563.84637392086483
 20
186.72110967861869
 30
0.0
 11
440.34637392086489
 21
186.72110967861869
 31
0.0
  0
LINE
  5
B6D
  8
0
 10
440.34637392086489
 20
182.72110967861869
 30
0.0
 11
402.34637392086489
 21
182.9711096786186
 31
0.0
  0
LINE
  5
B6E
  8
HIDDEN
  6
HIDDEN
 10
408.34637392086501
 20
189.2211096786186
 30
0.0
 11
408.34637392086501
 21
199.22110967861869
 31
0.0
  0
LINE
  5
B6F
  8
HIDDEN
  6
HIDDEN
 10
424.34637392086501
 20
189.2211096786186
 30
0.0
 11
424.34637392086501
 21
199.22110967861869
 31
0.0
  0
LINE
  5
B70
  8
HIDDEN
  6
HIDDEN
 10
402.34637392086501
 20
189.2211096786186
 30
0.0
 11
424.34637392086501
 21
189.2211096786186
 31
0.0
  0
LINE
  5
B71
  8
HIDDEN
  6
HIDDEN
 10
402.34637392086501
 20
199.22110967861869
 30
0.0
 11
424.34637392086501
 21
199.22110967861869
 31
0.0
  0
ARC
  5
B72
  8
0
 10
397.34637392086489
 20
208.7211096786186
 30
0.0
 40
1.0
 50
180.0
 51
270.0
  0
LINE
  5
B73
  8
0
 10
397.34637392086489
 20
207.7211096786186
 30
0.0
 11
402.34637392086489
 21
207.7211096786186
 31
0.0
  0
LINE
  5
B74
  8
HIDDEN
  6
HIDDEN
 10
408.34637392086501
 20
198.4711096786186
 30
0.0
 11
427.34637392086489
 21
198.4711096786186
 31
0.0
  0
LINE
  5
B75
  8
HIDDEN
  6
HIDDEN
 10
408.34637392086501
 20
189.9711096786186
 30
0.0
 11
427.34637392086489
 21
189.9711096786186
 31
0.0
  0
LINE
  5
B76
  8
HIDDEN
  6
HIDDEN
 10
427.34637392086489
 20
189.97110967861849
 30
0.0
 11
429.80011256492082
 21
194.2211096786186
 31
0.0
  0
LINE
  5
B77
  8
HIDDEN
  6
HIDDEN
 10
427.34637392086489
 20
198.4711096786186
 30
0.0
 11
429.80011256492088
 21
194.2211096786186
 31
0.0
  0
LINE
  5
B78
  8
HIDDEN
  6
HIDDEN
 10
427.34637392086489
 20
189.9711096786186
 30
0.0
 11
427.34637392086489
 21
198.4711096786186
 31
0.0
  0
LINE
  5
B79
  8
CENTER
  6
CENTER
 10
565.34637392086483
 20
153.2211096786186
 30
0.0
 11
585.34637392086483
 21
153.2211096786186
 31
0.0
  0
LINE
  5
B7A
  8
CENTER
  6
CENTER
 10
565.34637392086483
 20
235.2211096786186
 30
0.0
 11
585.34637392086483
 21
235.2211096786186
 31
0.0
  0
LINE
  5
B7B
  8
CENTER
  6
CENTER
 10
583.11235520509706
 20
160.9870909628508
 30
0.0
 11
594.4260637040818
 21
172.30079946183571
 31
0.0
  0
ARC
  5
B7C
  8
0
  6
CONTINUOUS
 62
     2
 10
588.76920945458949
 20
166.6439452123432
 30
0.0
 40
4.0
 50
202.52441221510509
 51
149.49721034531461
  0
CIRCLE
  5
B7D
  8
0
  6
CONTINUOUS
 10
588.76920945458949
 20
166.6439452123432
 30
0.0
 40
3.399999999999999
  0
LINE
  5
B7E
  8
CENTER
  6
CENTER
 10
575.34637392086483
 20
143.2211096786186
 30
0.0
 11
575.34637392086483
 21
163.2211096786186
 31
0.0
  0
ARC
  5
B7F
  8
0
  6
CONTINUOUS
 62
     2
 10
575.34637392086483
 20
153.2211096786186
 30
0.0
 40
5.0
 50
244.79960459187899
 51
198.7093473556057
  0
CIRCLE
  5
B80
  8
0
  6
CONTINUOUS
 10
575.34637392086483
 20
153.2211096786186
 30
0.0
 40
4.25
  0
LINE
  5
B81
  8
0
 10
563.84637392086483
 20
273.72110967861857
 30
0.0
 11
440.34637392086489
 21
273.72110967861857
 31
0.0
  0
LINE
  5
B82
  8
0
 62
     7
 10
563.84637392086483
 20
254.85733119399919
 30
0.0
 11
440.34637392086489
 21
254.85733119399919
 31
0.0
  0
LINE
  5
B83
  8
CENTER
  6
CENTER
 10
399.34637392086489
 20
266.2211096786184
 30
0.0
 11
563.84637392086483
 21
266.22110967861852
 31
0.0
  0
LINE
  5
B84
  8
0
 10
563.84637392086483
 20
355.34588321249407
 30
0.0
 11
440.34637392086478
 21
355.34588321249407
 31
0.0
  0
LINE
  5
B85
  8
0
 62
     7
 10
563.84637392086483
 20
374.20966169711329
 30
0.0
 11
440.34637392086478
 21
374.2096616971134
 31
0.0
  0
LINE
  5
B86
  8
0
 62
     7
 10
563.84637392086483
 20
423.48210472787491
 30
0.0
 11
440.34637392086478
 21
423.48210472787491
 31
0.0
  0
LINE
  5
B87
  8
CENTER
  6
CENTER
 10
399.34637392086478
 20
434.84588321249419
 30
0.0
 11
563.84637392086483
 21
434.84588321249419
 31
0.0
  0
LINE
  5
B88
  8
CENTER
  6
CENTER
 10
399.34637392086478
 20
362.84588321249419
 30
0.0
 11
563.84637392086483
 21
362.84588321249419
 31
0.0
  0
LINE
  5
B89
  8
DIM
  6
CONTINUOUS
 10
396.34637392086478
 20
375.06948844767811
 30
0.0
 11
396.34637392086478
 21
314.3458832124943
 31
0.0
  0
LINE
  5
B8A
  8
DIM
  6
CONTINUOUS
 10
402.34637392086478
 20
350.59588321249407
 30
0.0
 11
402.34637392086478
 21
314.3458832124943
 31
0.0
  0
LINE
  5
B8B
  8
0
 10
440.34637392086489
 20
277.72110967861852
 30
0.0
 11
402.34637392086489
 21
277.47110967861852
 31
0.0
  0
LINE
  5
B8C
  8
CENTER
  6
CENTER
 10
433.34637392086478
 20
262.66495622497388
 30
0.0
 11
433.34637392086478
 21
282.83586566784481
 31
0.0
  0
LINE
  5
B8D
  8
CENTER
  6
CENTER
 10
421.34637392086489
 20
263.19444168347951
 30
0.0
 11
421.34637392086489
 21
282.23237563808073
 31
0.0
  0
LINE
  5
B8E
  8
HIDDEN
  6
HIDDEN
 10
402.34637392086501
 20
271.22110967861852
 30
0.0
 11
424.34637392086501
 21
271.22110967861857
 31
0.0
  0
LINE
  5
B8F
  8
HIDDEN
  6
HIDDEN
 10
402.34637392086501
 20
261.22110967861857
 30
0.0
 11
424.34637392086501
 21
261.22110967861852
 31
0.0
  0
ARC
  5
B90
  8
0
 10
397.34637392086489
 20
251.72110967861849
 30
0.0
 40
1.0
 50
90.0
 51
180.0
  0
LINE
  5
B91
  8
0
 10
397.34637392086489
 20
252.72110967861849
 30
0.0
 11
402.34637392086489
 21
252.72110967861849
 31
0.0
  0
LINE
  5
B92
  8
HIDDEN
  6
HIDDEN
 10
408.34637392086501
 20
270.47110967861852
 30
0.0
 11
427.34637392086489
 21
270.47110967861857
 31
0.0
  0
LINE
  5
B93
  8
HIDDEN
  6
HIDDEN
 10
408.34637392086501
 20
261.97110967861852
 30
0.0
 11
427.34637392086489
 21
261.97110967861852
 31
0.0
  0
LINE
  5
B94
  8
HIDDEN
  6
HIDDEN
 10
408.34637392086501
 20
271.22110967861852
 30
0.0
 11
408.34637392086501
 21
261.22110967861857
 31
0.0
  0
LINE
  5
B95
  8
HIDDEN
  6
HIDDEN
 10
424.34637392086501
 20
271.22110967861857
 30
0.0
 11
424.34637392086501
 21
261.22110967861857
 31
0.0
  0
LINE
  5
B96
  8
HIDDEN
  6
HIDDEN
 10
427.34637392086489
 20
270.47110967861869
 30
0.0
 11
429.80011256492082
 21
266.22110967861857
 31
0.0
  0
LINE
  5
B97
  8
HIDDEN
  6
HIDDEN
 10
427.34637392086489
 20
270.47110967861857
 30
0.0
 11
427.34637392086489
 21
261.97110967861852
 31
0.0
  0
LINE
  5
B98
  8
HIDDEN
  6
HIDDEN
 10
427.34637392086489
 20
261.97110967861852
 30
0.0
 11
429.80011256492088
 21
266.22110967861857
 31
0.0
  0
SOLID
  5
B99
  8
DIM
  6
CONTINUOUS
 10
405.34637392086478
 20
315.8458832124943
 30
0.0
 11
405.34637392086478
 21
314.84588321249419
 31
0.0
 12
402.34637392086478
 22
315.3458832124943
 32
0.0
 13
402.34637392086478
 23
315.3458832124943
 33
0.0
  0
SOLID
  5
B9A
  8
DIM
  6
CONTINUOUS
 10
393.34637392086478
 20
315.8458832124943
 30
0.0
 11
393.34637392086478
 21
314.84588321249419
 31
0.0
 12
396.34637392086478
 22
315.3458832124943
 32
0.0
 13
396.34637392086478
 23
315.3458832124943
 33
0.0
  0
TEXT
  5
B9B
  8
DIM
  6
CONTINUOUS
 10
389.71798101709021
 20
316.84588321249419
 30
0.0
 40
3.0
  1
6
  7
ROMANSS
 72
     1
 11
390.6465524456616
 21
318.3458832124943
 31
0.0
 73
     2
  0
LINE
  5
B9D
  8
0
 10
440.34637392086478
 20
351.34588321249407
 30
0.0
 11
402.34637392086478
 21
351.59588321249407
 31
0.0
  0
LINE
  5
B9E
  8
0
  6
CONTINUOUS
 10
437.9047959057682
 20
410.90033910336848
 30
0.0
 11
436.59637392086478
 21
410.14492131817082
 31
0.0
  0
LINE
  5
B9F
  8
0
  6
CONTINUOUS
 10
436.59637392086478
 20
407.54684510681739
 30
0.0
 11
437.9047959057682
 21
406.79142732161978
 31
0.0
  0
LINE
  5
BA0
  8
CENTER
  6
CENTER
 10
440.34637392086478
 20
408.84588321249407
 30
0.0
 11
426.34637392086478
 21
408.84588321249407
 31
0.0
  0
CIRCLE
  5
BA1
  8
0
 10
433.34637392086478
 20
408.84588321249407
 30
0.0
 40
5.0
  0
CIRCLE
  5
BA2
  8
0
 10
433.34637392086478
 20
408.84588321249407
 30
0.0
 40
5.2999999999999989
  0
CIRCLE
  5
BA3
  8
0
 10
421.34637392086478
 20
391.84588321249419
 30
0.0
 40
5.5
  0
CIRCLE
  5
BA4
  8
0
 10
421.34637392086478
 20
391.84588321249419
 30
0.0
 40
7.5
  0
ARC
  5
BA5
  8
0
 62
     2
 10
421.34637392086478
 20
391.84588321249419
 30
0.0
 40
8.3000000000000007
 50
77.189608741317514
 51
29.60968586855638
  0
LINE
  5
BA6
  8
0
 10
396.34637392086478
 20
377.34588321249419
 30
0.0
 11
396.34637392086478
 21
420.34588321249407
 31
0.0
  0
LINE
  5
BA7
  8
CENTER
  6
CENTER
 10
421.34637392086478
 20
377.34588321249419
 30
0.0
 11
421.34637392086478
 21
406.34588321249419
 31
0.0
  0
CIRCLE
  5
BA8
  8
0
 10
421.34637392086478
 20
391.84588321249419
 30
0.0
 40
11.5
  0
LINE
  5
BA9
  8
HIDDEN
  6
HIDDEN
 10
402.34637392086478
 20
357.84588321249407
 30
0.0
 11
424.34637392086478
 21
357.84588321249407
 31
0.0
  0
LINE
  5
BAA
  8
HIDDEN
  6
HIDDEN
 10
402.34637392086478
 20
367.84588321249407
 30
0.0
 11
424.34637392086478
 21
367.84588321249407
 31
0.0
  0
ARC
  5
BAB
  8
0
 10
397.34637392086478
 20
377.34588321249419
 30
0.0
 40
1.0
 50
180.0
 51
270.0
  0
LINE
  5
BAC
  8
0
 10
397.34637392086478
 20
376.34588321249407
 30
0.0
 11
402.34637392086478
 21
376.34588321249407
 31
0.0
  0
LINE
  5
BAD
  8
HIDDEN
  6
HIDDEN
 10
408.34637392086478
 20
367.09588321249419
 30
0.0
 11
427.34637392086478
 21
367.09588321249419
 31
0.0
  0
LINE
  5
BAE
  8
HIDDEN
  6
HIDDEN
 10
408.34637392086478
 20
358.59588321249419
 30
0.0
 11
427.34637392086478
 21
358.59588321249419
 31
0.0
  0
LINE
  5
BAF
  8
HIDDEN
  6
HIDDEN
 10
408.34637392086478
 20
357.84588321249407
 30
0.0
 11
408.34637392086478
 21
367.84588321249407
 31
0.0
  0
LINE
  5
BB0
  8
HIDDEN
  6
HIDDEN
 10
424.34637392086478
 20
357.84588321249407
 30
0.0
 11
424.34637392086478
 21
367.84588321249407
 31
0.0
  0
LINE
  5
BB1
  8
HIDDEN
  6
HIDDEN
 10
427.34637392086478
 20
358.59588321249402
 30
0.0
 11
429.8001125649206
 21
362.84588321249419
 31
0.0
  0
LINE
  5
BB2
  8
HIDDEN
  6
HIDDEN
 10
427.34637392086478
 20
358.59588321249419
 30
0.0
 11
427.34637392086478
 21
367.09588321249419
 31
0.0
  0
LINE
  5
BB3
  8
HIDDEN
  6
HIDDEN
 10
427.34637392086478
 20
367.09588321249419
 30
0.0
 11
429.80011256492088
 21
362.84588321249402
 31
0.0
  0
LINE
  5
BB4
  8
CENTER
  6
CENTER
 10
435.84637392086478
 20
391.84588321249419
 30
0.0
 11
406.84637392086478
 21
391.84588321249419
 31
0.0
  0
LINE
  5
BB5
  8
HIDDEN
  6
HIDDEN
 10
402.34637392086478
 20
439.84588321249419
 30
0.0
 11
424.34637392086478
 21
439.84588321249419
 31
0.0
  0
LINE
  5
BB6
  8
HIDDEN
  6
HIDDEN
 10
402.34637392086478
 20
429.84588321249419
 30
0.0
 11
424.34637392086478
 21
429.84588321249419
 31
0.0
  0
ARC
  5
BB7
  8
0
 10
397.34637392086478
 20
420.34588321249407
 30
0.0
 40
1.0
 50
90.0
 51
180.0
  0
LINE
  5
BB8
  8
0
 10
397.34637392086478
 20
421.34588321249407
 30
0.0
 11
402.34637392086478
 21
421.34588321249407
 31
0.0
  0
ARC
  5
BB9
  8
0
  6
CONTINUOUS
 10
433.34637392086478
 20
408.84588321249407
 30
0.0
 40
3.5
 50
218.21321070173829
 51
261.78678929826191
  0
ARC
  5
BBA
  8
0
  6
CONTINUOUS
 10
433.34637392086478
 20
408.84588321249407
 30
0.0
 40
3.5
 50
278.21321070173809
 51
321.78678929826162
  0
LINE
  5
BBB
  8
CENTER
  6
CENTER
 10
433.34637392086478
 20
401.84588321249419
 30
0.0
 11
433.34637392086478
 21
415.84588321249407
 31
0.0
  0
LINE
  5
BBC
  8
0
  6
CONTINUOUS
 10
432.84637392086478
 20
403.87094602696101
 30
0.0
 11
432.84637392086478
 21
405.38178159735628
 31
0.0
  0
LINE
  5
BBD
  8
0
  6
CONTINUOUS
 10
433.84637392086478
 20
403.87094602696101
 30
0.0
 11
433.84637392086478
 21
405.38178159735628
 31
0.0
  0
LINE
  5
BBE
  8
0
  6
CONTINUOUS
 10
428.78795193596119
 20
410.90033910336848
 30
0.0
 11
430.09637392086478
 21
410.14492131817082
 31
0.0
  0
LINE
  5
BBF
  8
0
  6
CONTINUOUS
 10
430.09637392086478
 20
407.54684510681739
 30
0.0
 11
428.78795193596119
 21
406.79142732161978
 31
0.0
  0
LINE
  5
BC0
  8
0
  6
CONTINUOUS
 10
429.28795193596119
 20
411.7663645071529
 30
0.0
 11
430.59637392086478
 21
411.01094672195529
 31
0.0
  0
LINE
  5
BC1
  8
0
  6
CONTINUOUS
 10
430.59637392086478
 20
406.68081970303302
 30
0.0
 11
429.28795193596119
 21
405.92540191783542
 31
0.0
  0
ARC
  5
BC2
  8
0
  6
CONTINUOUS
 10
433.34637392086478
 20
408.84588321249407
 30
0.0
 40
3.5
 50
158.2132107017394
 51
201.78678929826219
  0
LINE
  5
BC3
  8
0
  6
CONTINUOUS
 10
437.40479590576831
 20
411.7663645071529
 30
0.0
 11
436.09637392086478
 21
411.01094672195529
 31
0.0
  0
ARC
  5
BC4
  8
0
  6
CONTINUOUS
 10
433.34637392086478
 20
408.84588321249407
 30
0.0
 40
3.5
 50
338.21321070173769
 51
21.786789298262239
  0
LINE
  5
BC5
  8
0
  6
CONTINUOUS
 10
436.09637392086478
 20
406.68081970303302
 30
0.0
 11
437.40479590576831
 21
405.92540191783542
 31
0.0
  0
CIRCLE
  5
BC6
  8
0
  6
CONTINUOUS
 10
433.34637392086478
 20
408.84588321249407
 30
0.0
 40
2.5
  0
POLYLINE
  5
BC7
  8
0
  6
CONTINUOUS
 66
     1
 10
0.0
 20
0.0
 30
0.0
 70
     1
  0
VERTEX
  5
13BC
  8
0
  6
CONTINUOUS
 10
434.21239932464931
 20
407.34588321249407
 30
0.0
  0
VERTEX
  5
13BD
  8
0
  6
CONTINUOUS
 10
435.07842472843362
 20
408.84588321249407
 30
0.0
  0
VERTEX
  5
13BE
  8
0
  6
CONTINUOUS
 10
434.21239932464931
 20
410.34588321249419
 30
0.0
  0
VERTEX
  5
13BF
  8
0
  6
CONTINUOUS
 10
432.48034851708042
 20
410.34588321249419
 30
0.0
  0
VERTEX
  5
13C0
  8
0
  6
CONTINUOUS
 10
431.614323113296
 20
408.84588321249407
 30
0.0
  0
VERTEX
  5
13C1
  8
0
  6
CONTINUOUS
 10
432.48034851708042
 20
407.34588321249407
 30
0.0
  0
SEQEND
  5
13C2
  8
0
  6
CONTINUOUS
  0
LINE
  5
BCF
  8
0
  6
CONTINUOUS
 10
432.84637392086478
 20
412.30998482763198
 30
0.0
 11
432.84637392086478
 21
413.82082039802731
 31
0.0
  0
LINE
  5
BD0
  8
0
  6
CONTINUOUS
 10
433.84637392086478
 20
412.30998482763198
 30
0.0
 11
433.84637392086478
 21
413.82082039802731
 31
0.0
  0
ARC
  5
BD1
  8
0
  6
CONTINUOUS
 10
433.34637392086478
 20
408.84588321249407
 30
0.0
 40
3.5
 50
38.213210701738312
 51
81.786789298261638
  0
ARC
  5
BD2
  8
0
  6
CONTINUOUS
 10
433.34637392086478
 20
408.84588321249407
 30
0.0
 40
3.5
 50
98.213210701738376
 51
141.7867892982616
  0
LINE
  5
BD3
  8
HIDDEN
  6
HIDDEN
 10
408.34637392086478
 20
439.09588321249407
 30
0.0
 11
427.34637392086478
 21
439.09588321249407
 31
0.0
  0
LINE
  5
BD4
  8
HIDDEN
  6
HIDDEN
 10
408.34637392086478
 20
430.59588321249407
 30
0.0
 11
427.34637392086478
 21
430.59588321249407
 31
0.0
  0
LINE
  5
BD5
  8
HIDDEN
  6
HIDDEN
 10
408.34637392086478
 20
439.84588321249419
 30
0.0
 11
408.34637392086478
 21
429.84588321249419
 31
0.0
  0
LINE
  5
BD6
  8
HIDDEN
  6
HIDDEN
 10
427.34637392086478
 20
430.59588321249407
 30
0.0
 11
429.80011256492088
 21
434.8458832124943
 31
0.0
  0
LINE
  5
BD7
  8
HIDDEN
  6
HIDDEN
 10
427.34637392086478
 20
439.0958832124943
 30
0.0
 11
429.8001125649206
 21
434.84588321249419
 31
0.0
  0
LINE
  5
BD8
  8
HIDDEN
  6
HIDDEN
 10
424.34637392086478
 20
439.84588321249419
 30
0.0
 11
424.34637392086478
 21
429.84588321249419
 31
0.0
  0
LINE
  5
BD9
  8
HIDDEN
  6
HIDDEN
 10
427.34637392086478
 20
439.09588321249407
 30
0.0
 11
427.34637392086478
 21
430.59588321249407
 31
0.0
  0
LINE
  5
BDA
  8
DIM
  6
CONTINUOUS
 10
563.84637392086483
 20
350.34588321249419
 30
0.0
 11
563.84637392086483
 21
322.3458832124943
 31
0.0
  0
LINE
  5
BDB
  8
0
 10
568.34637392086483
 20
351.34588321249407
 30
0.0
 11
568.34637392086483
 21
340.3458832124943
 31
0.0
  0
SOLID
  5
BDC
  8
DIM
  6
CONTINUOUS
 10
571.34637392086483
 20
331.84588321249419
 30
0.0
 11
571.34637392086483
 21
330.8458832124943
 31
0.0
 12
568.34637392086483
 22
331.34588321249419
 32
0.0
 13
568.34637392086483
 23
331.34588321249419
 33
0.0
  0
LINE
  5
BDD
  8
0
 10
568.34637392086483
 20
340.3458832124943
 30
0.0
 11
569.34637392086483
 21
339.3458832124943
 31
0.0
  0
SOLID
  5
BDE
  8
DIM
  6
CONTINUOUS
 10
566.84637392086483
 20
323.8458832124943
 30
0.0
 11
566.84637392086483
 21
322.8458832124943
 31
0.0
 12
563.84637392086483
 22
323.34588321249419
 32
0.0
 13
563.84637392086483
 23
323.34588321249419
 33
0.0
  0
LINE
  5
BDF
  8
DIM
  6
CONTINUOUS
 10
568.34637392086483
 20
339.3458832124943
 30
0.0
 11
568.34637392086483
 21
330.3458832124943
 31
0.0
  0
LINE
  5
BE0
  8
0
  6
CONTINUOUS
 10
630.39637392086411
 20
277.72110967861857
 30
0.0
 11
630.39637392086411
 21
284.59524362781031
 31
0.0
  0
LINE
  5
BE1
  8
CENTER
  6
CENTER
 10
591.34637392086483
 20
263.15340140190352
 30
0.0
 11
591.34637392086483
 21
291.72110967861857
 31
0.0
  0
LINE
  5
BE2
  8
0
  6
CONTINUOUS
 10
580.39637392086411
 20
277.72110967861857
 30
0.0
 11
580.39637392086411
 21
284.59524362781031
 31
0.0
  0
LINE
  5
BE3
  8
0
  6
CONTINUOUS
 10
602.29637392086545
 20
277.72110967861857
 30
0.0
 11
602.29637392086545
 21
284.59524362781031
 31
0.0
  0
LINE
  5
BE4
  8
0
  6
CONTINUOUS
 10
585.34637392086483
 20
277.72110967861857
 30
0.0
 11
585.34637392086483
 21
284.68910967861939
 31
0.0
  0
LINE
  5
BE5
  8
0
  6
CONTINUOUS
 10
597.34637392086483
 20
277.72110967861857
 30
0.0
 11
597.34637392086483
 21
284.68910967861939
 31
0.0
  0
LINE
  5
BE6
  8
0
  6
CONTINUOUS
 10
602.29637392086545
 20
284.59524362781031
 30
0.0
 11
600.34637392086483
 21
285.72110967861857
 31
0.0
  0
LINE
  5
BE7
  8
0
  6
CONTINUOUS
 10
582.34637392086483
 20
285.72110967861857
 30
0.0
 11
600.34637392086483
 21
285.72110967861857
 31
0.0
  0
POLYLINE
  5
BE8
  8
0
  6
CONTINUOUS
 66
     1
 10
0.0
 20
0.0
 30
0.0
  0
VERTEX
  5
13C3
  8
0
  6
CONTINUOUS
 10
591.34637392086483
 20
285.72110967861857
 30
0.0
 42
0.0851703918331015
  0
VERTEX
  5
13C4
  8
0
  6
CONTINUOUS
 10
585.34637392086483
 20
284.68910967861939
 30
0.0
 42
0.3910851735909245
  0
VERTEX
  5
13C5
  8
0
  6
CONTINUOUS
 10
581.37137392086436
 20
285.15817665321532
 30
0.0
  0
SEQEND
  5
13C6
  8
0
  6
CONTINUOUS
  0
LINE
  5
BED
  8
0
  6
CONTINUOUS
 10
580.39637392086411
 20
284.59524362781031
 30
0.0
 11
582.34637392086483
 21
285.72110967861857
 31
0.0
  0
LINE
  5
BEE
  8
0
  6
CONTINUOUS
 10
585.34637392086483
 20
286.72110967861857
 30
0.0
 11
597.34637392086483
 21
286.72110967861869
 31
0.0
  0
LINE
  5
BEF
  8
0
  6
CONTINUOUS
 10
587.34637392086483
 20
288.72110967861857
 30
0.0
 11
595.34637392086483
 21
288.72110967861857
 31
0.0
  0
POLYLINE
  5
BF0
  8
0
  6
CONTINUOUS
 66
     1
 10
0.0
 20
0.0
 30
0.0
  0
VERTEX
  5
13C7
  8
0
  6
CONTINUOUS
 10
591.34637392086483
 20
285.72110967861857
 30
0.0
 42
-0.0851703918331015
  0
VERTEX
  5
13C8
  8
0
  6
CONTINUOUS
 10
597.34637392086483
 20
284.68910967861939
 30
0.0
 42
-0.3910851735909245
  0
VERTEX
  5
13C9
  8
0
  6
CONTINUOUS
 10
601.32137392086508
 20
285.15817665321532
 30
0.0
  0
SEQEND
  5
13CA
  8
0
  6
CONTINUOUS
  0
LINE
  5
BF5
  8
0
  6
CONTINUOUS
 62
     2
 10
586.54637392086556
 20
285.72110967861869
 30
0.0
 11
586.54637392086556
 21
287.9211096786193
 31
0.0
  0
LINE
  5
BF6
  8
0
  6
CONTINUOUS
 10
585.34637392086483
 20
285.72110967861857
 30
0.0
 11
585.34637392086483
 21
286.72110967861857
 31
0.0
  0
LINE
  5
BF7
  8
0
  6
CONTINUOUS
 10
585.34637392086483
 20
286.72110967861857
 30
0.0
 11
587.34637392086483
 21
288.72110967861857
 31
0.0
  0
LINE
  5
BF8
  8
0
  6
CONTINUOUS
 10
597.34637392086483
 20
285.72110967861857
 30
0.0
 11
597.34637392086483
 21
286.72110967861857
 31
0.0
  0
LINE
  5
BF9
  8
0
  6
CONTINUOUS
 62
     2
 10
596.14637392086411
 20
285.72110967861869
 30
0.0
 11
596.14637392086411
 21
287.9211096786193
 31
0.0
  0
LINE
  5
BFA
  8
0
  6
CONTINUOUS
 10
597.34637392086483
 20
286.72110967861857
 30
0.0
 11
595.34637392086483
 21
288.72110967861857
 31
0.0
  0
TEXT
  5
BFB
  8
DIM
  6
CONTINUOUS
 10
612.48923106372195
 20
316.84588321249419
 30
0.0
 40
3.0
  1
428
  7
ROMANSS
 72
     1
 11
616.34637392086483
 21
318.3458832124943
 31
0.0
 73
     2
  0
LINE
  5
BFC
  8
0
  6
CONTINUOUS
 10
630.39637392086411
 20
284.59524362781031
 30
0.0
 11
632.34637392086483
 21
285.72110967861857
 31
0.0
  0
TEXT
  5
BFD
  8
DIM
  6
CONTINUOUS
 10
612.77494534943617
 20
324.8458832124943
 30
0.0
 40
3.0
  1
105
  7
ROMANSS
 72
     1
 11
616.34637392086483
 21
326.3458832124943
 31
0.0
 73
     2
  0
TEXT
  5
BFE
  8
DIM
  6
CONTINUOUS
 10
612.63208820657906
 20
332.8458832124943
 30
0.0
 40
3.0
  1
%%c96
  7
ROMANSS
 72
     1
 11
616.34637392086483
 21
334.3458832124943
 31
0.0
 73
     2
  0
POLYLINE
  5
BFF
  8
0
  6
CONTINUOUS
 66
     1
 10
0.0
 20
0.0
 30
0.0
 70
     1
  0
VERTEX
  5
13CB
  8
0
  6
CONTINUOUS
 10
585.86154636356332
 20
385.34588321249419
 30
0.0
  0
VERTEX
  5
13CC
  8
0
  6
CONTINUOUS
 10
580.37671880626192
 20
375.84588321249407
 30
0.0
  0
VERTEX
  5
13CD
  8
0
  6
CONTINUOUS
 10
585.86154636356332
 20
366.34588321249407
 30
0.0
  0
VERTEX
  5
13CE
  8
0
  6
CONTINUOUS
 10
596.83120147816635
 20
366.34588321249407
 30
0.0
  0
VERTEX
  5
13CF
  8
0
  6
CONTINUOUS
 10
602.31602903546775
 20
375.84588321249407
 30
0.0
  0
VERTEX
  5
13D0
  8
0
  6
CONTINUOUS
 10
596.83120147816635
 20
385.34588321249419
 30
0.0
  0
SEQEND
  5
13D1
  8
0
  6
CONTINUOUS
  0
LINE
  5
C07
  8
CENTER
  6
CENTER
 10
575.84637392086483
 20
375.84588321249407
 30
0.0
 11
606.84637392086483
 21
375.84588321249407
 31
0.0
  0
ARC
  5
C08
  8
0
  6
CONTINUOUS
 62
     2
 10
591.34637392086483
 20
375.84588321249407
 30
0.0
 40
5.0999999999999988
 50
162.22254855360401
 51
111.81374650251929
  0
CIRCLE
  5
C09
  8
0
  6
CONTINUOUS
 10
591.34637392086483
 20
375.84588321249407
 30
0.0
 40
6.0
  0
CIRCLE
  5
C0A
  8
0
  6
CONTINUOUS
 10
591.34637392086483
 20
375.84588321249407
 30
0.0
 40
9.5
  0
LINE
  5
C0B
  8
CENTER
  6
CENTER
 10
591.34637392086483
 20
391.34588321249419
 30
0.0
 11
591.34637392086483
 21
360.34588321249419
 31
0.0
  0
POLYLINE
  5
C0C
  8
0
  6
CONTINUOUS
 66
     1
 10
0.0
 20
0.0
 30
0.0
 70
     1
  0
VERTEX
  5
13D2
  8
0
  6
CONTINUOUS
 10
589.61432311329656
 20
378.84588321249407
 30
0.0
  0
VERTEX
  5
13D3
  8
0
  6
CONTINUOUS
 10
587.88227230572659
 20
375.84588321249407
 30
0.0
  0
VERTEX
  5
13D4
  8
0
  6
CONTINUOUS
 10
589.61432311329656
 20
372.84588321249419
 30
0.0
  0
VERTEX
  5
13D5
  8
0
  6
CONTINUOUS
 10
593.07842472843288
 20
372.84588321249419
 30
0.0
  0
VERTEX
  5
13D6
  8
0
  6
CONTINUOUS
 10
594.81047553600285
 20
375.84588321249407
 30
0.0
  0
VERTEX
  5
13D7
  8
0
  6
CONTINUOUS
 10
593.07842472843288
 20
378.84588321249407
 30
0.0
  0
SEQEND
  5
13D8
  8
0
  6
CONTINUOUS
  0
CIRCLE
  5
C14
  8
0
  6
CONTINUOUS
 10
616.34637392086483
 20
398.84588321249407
 30
0.0
 40
4.0
  0
POLYLINE
  5
C15
  8
0
  6
CONTINUOUS
 66
     1
 10
0.0
 20
0.0
 30
0.0
 70
     1
 40
1.0
 41
1.0
  0
VERTEX
  5
13D9
  8
0
  6
CONTINUOUS
 10
616.84637392086483
 20
398.84588321249407
 30
0.0
 42
1.0
  0
VERTEX
  5
13DA
  8
0
  6
CONTINUOUS
 10
615.84637392086483
 20
398.84588321249407
 30
0.0
 42
1.0
  0
SEQEND
  5
13DB
  8
0
  6
CONTINUOUS
  0
LINE
  5
C19
  8
0
 10
402.34637392086489
 20
601.53515874401853
 30
0.0
 11
402.34637392086489
 21
507.03515874401859
 31
0.0
  0
LINE
  5
C1A
  8
0
 10
440.34637392086489
 20
601.78515874401853
 30
0.0
 11
440.34637392086489
 21
506.78515874401859
 31
0.0
  0
CIRCLE
  5
C1B
  8
0
  6
CONTINUOUS
 10
616.34637392086483
 20
590.28515874401853
 30
0.0
 40
17.5
  0
LINE
  5
C1C
  8
0
 10
563.84637392086483
 20
641.78515874401853
 30
0.0
 11
563.84637392086483
 21
506.78515874401847
 31
0.0
  0
LINE
  5
C1D
  8
CENTER
  6
CENTER
 10
616.34637392086483
 20
647.24563144665024
 30
0.0
 11
616.34637392086483
 21
503.78515874401847
 31
0.0
  0
LINE
  5
C1E
  8
0
 10
563.84637392086483
 20
510.78515874401847
 30
0.0
 11
440.34637392086489
 21
510.78515874401847
 31
0.0
  0
LINE
  5
C1F
  8
0
 62
     7
 10
563.84637392086483
 20
529.64893722863792
 30
0.0
 11
440.34637392086489
 21
529.64893722863792
 31
0.0
  0
LINE
  5
C20
  8
0
 62
     7
 10
563.84637392086483
 20
578.92138025939926
 30
0.0
 11
440.34637392086489
 21
578.92138025939926
 31
0.0
  0
LINE
  5
C21
  8
0
 10
563.84637392086483
 20
442.3458832124943
 30
0.0
 11
440.34637392086478
 21
442.3458832124943
 31
0.0
  0
LINE
  5
C22
  8
CENTER
  6
CENTER
 10
399.34637392086489
 20
518.28515874401864
 30
0.0
 11
563.84637392086483
 21
518.28515874401864
 31
0.0
  0
LINE
  5
C23
  8
0
 10
440.34637392086478
 20
446.34588321249407
 30
0.0
 11
402.34637392086478
 21
446.09588321249419
 31
0.0
  0
LINE
  5
C24
  8
0
 10
440.34637392086489
 20
506.78515874401859
 30
0.0
 11
402.34637392086489
 21
507.03515874401859
 31
0.0
  0
LINE
  5
C25
  8
0
 10
396.34637392086489
 20
575.78515874401842
 30
0.0
 11
396.34637392086489
 21
532.78515874401864
 31
0.0
  0
LINE
  5
C26
  8
HIDDEN
  6
HIDDEN
 10
402.34637392086501
 20
513.28515874401864
 30
0.0
 11
424.34637392086501
 21
513.28515874401842
 31
0.0
  0
LINE
  5
C27
  8
HIDDEN
  6
HIDDEN
 10
402.34637392086501
 20
523.28515874401853
 30
0.0
 11
424.34637392086501
 21
523.28515874401864
 31
0.0
  0
ARC
  5
C28
  8
0
 10
397.34637392086489
 20
532.78515874401864
 30
0.0
 40
1.0
 50
180.0
 51
270.0
  0
LINE
  5
C29
  8
0
 10
397.34637392086489
 20
531.78515874401864
 30
0.0
 11
402.34637392086489
 21
531.78515874401864
 31
0.0
  0
LINE
  5
C2A
  8
HIDDEN
  6
HIDDEN
 10
408.34637392086501
 20
513.28515874401864
 30
0.0
 11
408.34637392086501
 21
523.28515874401853
 31
0.0
  0
LINE
  5
C2B
  8
CENTER
  6
CENTER
 10
421.34637392086489
 20
520.77709955111152
 30
0.0
 11
421.34637392086489
 21
501.45838394825961
 31
0.0
  0
LINE
  5
C2C
  8
CENTER
  6
CENTER
 10
433.34637392086478
 20
520.76489486450032
 30
0.0
 11
433.34637392086478
 21
501.67040275479229
 31
0.0
  0
LINE
  5
C2D
  8
HIDDEN
  6
HIDDEN
 10
424.34637392086501
 20
513.28515874401842
 30
0.0
 11
424.34637392086501
 21
523.28515874401853
 31
0.0
  0
LINE
  5
C2E
  8
HIDDEN
  6
HIDDEN
 10
427.34637392086489
 20
514.03515874401842
 30
0.0
 11
429.80011256492082
 21
518.28515874401853
 31
0.0
  0
LINE
  5
C2F
  8
HIDDEN
  6
HIDDEN
 10
427.34637392086489
 20
514.03515874401853
 30
0.0
 11
427.34637392086489
 21
522.53515874401864
 31
0.0
  0
LINE
  5
C30
  8
HIDDEN
  6
HIDDEN
 10
408.34637392086501
 20
514.03515874401864
 30
0.0
 11
427.34637392086489
 21
514.03515874401853
 31
0.0
  0
LINE
  5
C31
  8
HIDDEN
  6
HIDDEN
 10
408.34637392086501
 20
522.53515874401864
 30
0.0
 11
427.34637392086489
 21
522.53515874401864
 31
0.0
  0
LINE
  5
C32
  8
HIDDEN
  6
HIDDEN
 10
427.34637392086489
 20
522.53515874401864
 30
0.0
 11
429.80011256492088
 21
518.28515874401853
 31
0.0
  0
ARC
  5
C33
  8
0
 10
397.34637392086489
 20
575.78515874401842
 30
0.0
 40
1.0
 50
90.0
 51
180.0
  0
LINE
  5
C34
  8
0
 10
397.34637392086489
 20
576.78515874401853
 30
0.0
 11
402.34637392086489
 21
576.78515874401853
 31
0.0
  0
LINE
  5
C35
  8
DIM
  6
CONTINUOUS
 10
567.4807712762007
 20
458.3458832124943
 30
0.0
 11
546.84637392086483
 21
458.3458832124943
 31
0.0
  0
LINE
  5
C36
  8
DIM
  6
CONTINUOUS
 10
547.84637392086483
 20
464.05837422040008
 30
0.0
 11
547.84637392086483
 21
450.41291705503318
 31
0.0
  0
LINE
  5
C37
  8
DIM
  6
CONTINUOUS
 10
598.12139808523659
 20
457.34588321249441
 30
0.0
 11
546.84637392086483
 21
457.34588321249419
 31
0.0
  0
TEXT
  5
C38
  8
DIM
  6
CONTINUOUS
 10
546.34637392086483
 20
452.03675809616919
 30
0.0
 40
3.0
  1
1
 50
90.0
  7
ROMANSS
 72
     1
 11
544.84637392086483
 21
452.39390095331203
 31
0.0
 73
     2
  0
SOLID
  5
C39
  8
DIM
  6
CONTINUOUS
 10
547.34637392086483
 20
454.3458832124943
 30
0.0
 11
548.34637392086483
 21
454.3458832124943
 31
0.0
 12
547.84637392086483
 22
457.34588321249419
 32
0.0
 13
547.84637392086483
 23
457.34588321249419
 33
0.0
  0
SOLID
  5
C3A
  8
DIM
  6
CONTINUOUS
 10
547.34637392086483
 20
461.34588321249419
 30
0.0
 11
548.34637392086483
 21
461.34588321249419
 31
0.0
 12
547.84637392086483
 22
458.3458832124943
 32
0.0
 13
547.84637392086483
 23
458.3458832124943
 33
0.0
  0
LINE
  5
C3B
  8
0
 10
568.34637392086483
 20
457.34588321249419
 30
0.0
 11
568.34637392086483
 21
446.34588321249407
 31
0.0
  0
SOLID
  5
C3C
  8
DIM
  6
CONTINUOUS
 10
607.34637392086438
 20
565.8213073685705
 30
0.0
 11
607.34637392086438
 21
564.82130736857039
 31
0.0
 12
604.34637392086449
 22
565.32130736857039
 32
0.0
 13
604.34637392086449
 23
565.32130736857039
 33
0.0
  0
TEXT
  5
C3D
  8
DIM
  6
CONTINUOUS
 10
616.79657101477255
 20
566.8213073685705
 30
0.0
 40
3.0
  1
27.5
  7
ROMANSS
 72
     1
 11
621.36799958620111
 21
568.32130736857039
 31
0.0
 73
     2
  0
SOLID
  5
C3E
  8
DIM
  6
CONTINUOUS
 10
628.84637392086483
 20
565.8213073685705
 30
0.0
 11
628.84637392086483
 21
564.82130736857039
 31
0.0
 12
631.84637392086483
 22
565.32130736857039
 32
0.0
 13
631.84637392086483
 23
565.32130736857039
 33
0.0
  0
LINE
  5
C3F
  8
CENTER
  6
CENTER
 10
565.34637392086483
 20
549.28515874401853
 30
0.0
 11
585.34637392086483
 21
549.28515874401853
 31
0.0
  0
LINE
  5
C40
  8
0
  6
CONTINUOUS
 10
602.29637392086545
 20
499.9110247948268
 30
0.0
 11
600.34637392086483
 21
498.78515874401847
 31
0.0
  0
LINE
  5
C41
  8
CENTER
  6
CENTER
 10
591.34637392086483
 20
521.35286702073358
 30
0.0
 11
591.34637392086483
 21
492.78515874401847
 31
0.0
  0
LINE
  5
C42
  8
0
  6
CONTINUOUS
 10
582.34637392086483
 20
498.78515874401847
 30
0.0
 11
600.34637392086483
 21
498.78515874401847
 31
0.0
  0
POLYLINE
  5
C43
  8
0
  6
CONTINUOUS
 66
     1
 10
0.0
 20
0.0
 30
0.0
  0
VERTEX
  5
13DC
  8
0
  6
CONTINUOUS
 10
591.34637392086483
 20
498.78515874401847
 30
0.0
 42
-0.0851703918331015
  0
VERTEX
  5
13DD
  8
0
  6
CONTINUOUS
 10
585.34637392086483
 20
499.81715874401772
 30
0.0
 42
-0.3910851735909245
  0
VERTEX
  5
13DE
  8
0
  6
CONTINUOUS
 10
581.37137392086436
 20
499.34809176942179
 30
0.0
  0
SEQEND
  5
13DF
  8
0
  6
CONTINUOUS
  0
LINE
  5
C48
  8
0
  6
CONTINUOUS
 10
580.39637392086411
 20
506.78515874401847
 30
0.0
 11
580.39637392086411
 21
499.9110247948268
 31
0.0
  0
LINE
  5
C49
  8
0
  6
CONTINUOUS
 10
580.39637392086411
 20
499.9110247948268
 30
0.0
 11
582.34637392086483
 21
498.78515874401847
 31
0.0
  0
LINE
  5
C4A
  8
0
  6
CONTINUOUS
 10
585.34637392086483
 20
506.78515874401847
 30
0.0
 11
585.34637392086483
 21
499.81715874401772
 31
0.0
  0
LINE
  5
C4B
  8
0
  6
CONTINUOUS
 10
597.34637392086483
 20
506.78515874401847
 30
0.0
 11
597.34637392086483
 21
499.81715874401772
 31
0.0
  0
LINE
  5
C4C
  8
0
  6
CONTINUOUS
 10
587.34637392086483
 20
495.78515874401847
 30
0.0
 11
595.34637392086483
 21
495.78515874401847
 31
0.0
  0
LINE
  5
C4D
  8
0
  6
CONTINUOUS
 10
585.34637392086483
 20
497.78515874401847
 30
0.0
 11
597.34637392086483
 21
497.7851587440183
 31
0.0
  0
POLYLINE
  5
C4E
  8
0
  6
CONTINUOUS
 66
     1
 10
0.0
 20
0.0
 30
0.0
  0
VERTEX
  5
13E0
  8
0
  6
CONTINUOUS
 10
591.34637392086483
 20
498.78515874401847
 30
0.0
 42
0.0851703918331015
  0
VERTEX
  5
13E1
  8
0
  6
CONTINUOUS
 10
597.34637392086483
 20
499.81715874401772
 30
0.0
 42
0.3910851735909245
  0
VERTEX
  5
13E2
  8
0
  6
CONTINUOUS
 10
601.32137392086508
 20
499.34809176942179
 30
0.0
  0
SEQEND
  5
13E3
  8
0
  6
CONTINUOUS
  0
LINE
  5
C53
  8
0
  6
CONTINUOUS
 10
585.34637392086483
 20
497.78515874401847
 30
0.0
 11
587.34637392086483
 21
495.78515874401847
 31
0.0
  0
LINE
  5
C54
  8
0
  6
CONTINUOUS
 10
585.34637392086483
 20
498.78515874401847
 30
0.0
 11
585.34637392086483
 21
497.78515874401847
 31
0.0
  0
LINE
  5
C55
  8
0
  6
CONTINUOUS
 62
     2
 10
586.54637392086556
 20
498.78515874401842
 30
0.0
 11
586.54637392086556
 21
496.5851587440178
 31
0.0
  0
LINE
  5
C56
  8
0
  6
CONTINUOUS
 10
597.34637392086483
 20
497.78515874401847
 30
0.0
 11
595.34637392086483
 21
495.78515874401847
 31
0.0
  0
LINE
  5
C57
  8
0
  6
CONTINUOUS
 10
597.34637392086483
 20
498.78515874401847
 30
0.0
 11
597.34637392086483
 21
497.78515874401847
 31
0.0
  0
LINE
  5
C58
  8
0
  6
CONTINUOUS
 62
     2
 10
596.14637392086411
 20
498.78515874401842
 30
0.0
 11
596.14637392086411
 21
496.5851587440178
 31
0.0
  0
LINE
  5
C59
  8
0
  6
CONTINUOUS
 10
602.29637392086545
 20
506.78515874401847
 30
0.0
 11
602.29637392086545
 21
499.9110247948268
 31
0.0
  0
LINE
  5
C5A
  8
0
  6
CONTINUOUS
 10
630.39637392086411
 20
506.78515874401847
 30
0.0
 11
630.39637392086411
 21
499.9110247948268
 31
0.0
  0
LINE
  5
C5B
  8
0
  6
CONTINUOUS
 10
630.39637392086411
 20
499.9110247948268
 30
0.0
 11
632.34637392086483
 21
498.78515874401847
 31
0.0
  0
CIRCLE
  5
C5C
  8
0
  6
CONTINUOUS
 10
575.34637392086483
 20
549.28515874401853
 30
0.0
 40
4.25
  0
ARC
  5
C5D
  8
0
  6
CONTINUOUS
 62
     2
 10
575.34637392086483
 20
549.28515874401853
 30
0.0
 40
5.0
 50
161.29065264439251
 51
115.2003954081225
  0
LINE
  5
C5E
  8
CENTER
  6
CENTER
 10
575.34637392086483
 20
559.28515874401853
 30
0.0
 11
575.34637392086483
 21
539.28515874401853
 31
0.0
  0
LINE
  5
C5F
  8
0
 10
563.84637392086483
 20
597.78515874401853
 30
0.0
 11
440.34637392086489
 21
597.78515874401853
 31
0.0
  0
LINE
  5
C60
  8
0
 10
440.34637392086489
 20
601.78515874401853
 30
0.0
 11
402.34637392086489
 21
601.53515874401853
 31
0.0
  0
LINE
  5
C61
  8
HIDDEN
  6
HIDDEN
 10
402.34637392086501
 20
595.28515874401853
 30
0.0
 11
424.34637392086501
 21
595.28515874401853
 31
0.0
  0
LINE
  5
C62
  8
HIDDEN
  6
HIDDEN
 10
402.34637392086501
 20
585.28515874401853
 30
0.0
 11
424.34637392086501
 21
585.28515874401853
 31
0.0
  0
LINE
  5
C63
  8
HIDDEN
  6
HIDDEN
 10
408.34637392086501
 20
586.03515874401853
 30
0.0
 11
427.34637392086489
 21
586.03515874401853
 31
0.0
  0
LINE
  5
C64
  8
HIDDEN
  6
HIDDEN
 10
408.34637392086501
 20
594.53515874401842
 30
0.0
 11
427.34637392086489
 21
594.53515874401842
 31
0.0
  0
LINE
  5
C65
  8
HIDDEN
  6
HIDDEN
 10
408.34637392086501
 20
595.28515874401853
 30
0.0
 11
408.34637392086501
 21
585.28515874401853
 31
0.0
  0
LINE
  5
C66
  8
HIDDEN
  6
HIDDEN
 10
427.34637392086489
 20
594.53515874401864
 30
0.0
 11
429.80011256492082
 21
590.28515874401853
 31
0.0
  0
LINE
  5
C67
  8
HIDDEN
  6
HIDDEN
 10
427.34637392086489
 20
586.03515874401853
 30
0.0
 11
429.80011256492088
 21
590.28515874401853
 31
0.0
  0
LINE
  5
C68
  8
HIDDEN
  6
HIDDEN
 10
427.34637392086489
 20
594.53515874401842
 30
0.0
 11
427.34637392086489
 21
586.03515874401853
 31
0.0
  0
LINE
  5
C69
  8
HIDDEN
  6
HIDDEN
 10
424.34637392086501
 20
595.28515874401853
 30
0.0
 11
424.34637392086501
 21
585.28515874401853
 31
0.0
  0
LINE
  5
C6A
  8
CENTER
  6
CENTER
 10
565.34637392086483
 20
631.28515874401853
 30
0.0
 11
585.34637392086483
 21
631.28515874401853
 31
0.0
  0
SOLID
  5
C6B
  8
DIM
  6
CONTINUOUS
 10
725.67784720763825
 20
587.29508075601746
 30
0.0
 11
726.67767074886012
 21
587.27629548468838
 31
0.0
 12
726.23411479223614
 22
590.28515874401808
 32
0.0
 13
726.23411479223614
 23
590.28515874401808
 33
0.0
  0
CIRCLE
  5
C6C
  8
0
  6
CONTINUOUS
 10
575.34637392086483
 20
631.28515874401853
 30
0.0
 40
4.25
  0
ARC
  5
C6D
  8
0
  6
CONTINUOUS
 62
     2
 10
575.34637392086483
 20
631.28515874401853
 30
0.0
 40
5.0
 50
161.29065264439421
 51
115.2003954081208
  0
LINE
  5
C6E
  8
CENTER
  6
CENTER
 10
575.34637392086483
 20
641.28515874401853
 30
0.0
 11
575.34637392086483
 21
621.28515874401853
 31
0.0
  0
ARC
  5
C6F
  8
0
  6
CONTINUOUS
 62
     2
 10
588.76920945458949
 20
617.86232321029377
 30
0.0
 40
4.0
 50
210.50278965468681
 51
157.4755877848952
  0
LINE
  5
C70
  8
CENTER
  6
CENTER
 10
583.11235520509706
 20
623.51917745978631
 30
0.0
 11
594.4260637040818
 21
612.20546896080145
 31
0.0
  0
CIRCLE
  5
C71
  8
0
  6
CONTINUOUS
 10
588.76920945458949
 20
617.86232321029377
 30
0.0
 40
3.399999999999999
  0
SOLID
  5
C72
  8
DIM
  6
CONTINUOUS
 10
578.34637392086483
 20
650.28515874401853
 30
0.0
 11
578.34637392086483
 21
649.28515874401853
 31
0.0
 12
575.34637392086483
 22
649.78515874401853
 32
0.0
 13
575.34637392086483
 23
649.78515874401853
 33
0.0
  0
LINE
  5
C73
  8
DIM
  6
CONTINUOUS
 10
575.34637392086483
 20
642.28515874401853
 30
0.0
 11
575.34637392086483
 21
650.78515874401853
 31
0.0
  0
TEXT
  5
C74
  8
DIM
  6
CONTINUOUS
 10
613.91780249229339
 20
651.28515874401853
 30
0.0
 40
3.0
  1
82
  7
ROMANSS
 72
     1
 11
616.34637392086483
 21
652.78515874401853
 31
0.0
 73
     2
  0
TEXT
  5
C75
  8
DIM
  6
CONTINUOUS
 10
608.18345961175521
 20
481.80638451767049
 30
0.0
 40
3.0
  1
180%%p5%%d
  7
ROMANSS
 72
     1
 11
615.75488818318377
 21
483.30638451767061
 31
0.0
 73
     2
  0
LINE
  5
C76
  8
DIM
  6
CONTINUOUS
 10
807.26924394816217
 20
416.38466889389218
 30
0.0
 11
789.6657761941708
 21
461.2628023528186
 31
0.0
  0
LINE
  5
C77
  8
0
 10
668.84637392086483
 20
446.34588321249407
 30
0.0
 11
668.84637392086483
 21
351.34588321249407
 31
0.0
  0
LINE
  5
C78
  8
0
 10
830.34637392086483
 20
446.09588321249419
 30
0.0
 11
830.34637392086483
 21
351.59588321249407
 31
0.0
  0
LINE
  5
C79
  8
0
 10
792.34637392086483
 20
446.34588321249407
 30
0.0
 11
792.34637392086483
 21
351.34588321249407
 31
0.0
  0
LINE
  5
C7A
  8
0
 10
836.34637392086495
 20
208.7211096786186
 30
0.0
 11
836.34637392086495
 21
251.72110967861849
 31
0.0
  0
LINE
  5
C7B
  8
0
 10
830.34637392086483
 20
182.9711096786186
 30
0.0
 11
830.34637392086483
 21
277.47110967861852
 31
0.0
  0
LINE
  5
C7C
  8
0
 10
792.34637392086483
 20
182.72110967861869
 30
0.0
 11
792.34637392086483
 21
277.72110967861852
 31
0.0
  0
CIRCLE
  5
C7D
  8
0
  6
CONTINUOUS
 10
657.34637392086483
 20
235.2211096786186
 30
0.0
 40
4.25
  0
ARC
  5
C7E
  8
0
  6
CONTINUOUS
 62
     2
 10
657.34637392086483
 20
235.2211096786186
 30
0.0
 40
5.0
 50
244.7996045918774
 51
198.7093473556057
  0
LINE
  5
C7F
  8
CENTER
  6
CENTER
 10
657.34637392086483
 20
225.22110967861869
 30
0.0
 11
657.34637392086483
 21
245.2211096786186
 31
0.0
  0
LINE
  5
C80
  8
0
 10
668.84637392086483
 20
142.72110967861869
 30
0.0
 11
668.84637392086483
 21
277.72110967861857
 31
0.0
  0
LINE
  5
C81
  8
0
 62
     7
 10
668.84637392086483
 20
205.58488816323791
 30
0.0
 11
792.34637392086483
 21
205.58488816323791
 31
0.0
  0
LINE
  5
C82
  8
0
 10
668.84637392086483
 20
186.72110967861869
 30
0.0
 11
792.34637392086483
 21
186.72110967861869
 31
0.0
  0
LINE
  5
C83
  8
CENTER
  6
CENTER
 10
647.34637392086483
 20
153.2211096786186
 30
0.0
 11
667.34637392086483
 21
153.2211096786186
 31
0.0
  0
CIRCLE
  5
C84
  8
0
  6
CONTINUOUS
 10
657.34637392086483
 20
153.2211096786186
 30
0.0
 40
4.25
  0
ARC
  5
C85
  8
0
  6
CONTINUOUS
 62
     2
 10
657.34637392086483
 20
153.2211096786186
 30
0.0
 40
5.0
 50
244.79960459187899
 51
198.7093473556057
  0
LINE
  5
C86
  8
CENTER
  6
CENTER
 10
657.34637392086483
 20
143.2211096786186
 30
0.0
 11
657.34637392086483
 21
163.2211096786186
 31
0.0
  0
LINE
  5
C87
  8
CENTER
  6
CENTER
 10
647.34637392086483
 20
235.2211096786186
 30
0.0
 11
667.34637392086483
 21
235.2211096786186
 31
0.0
  0
LINE
  5
C88
  8
CENTER
  6
CENTER
 10
638.26668413764787
 20
216.1414198954017
 30
0.0
 11
649.5803926366325
 21
227.45512839438641
 31
0.0
  0
CIRCLE
  5
C89
  8
0
  6
CONTINUOUS
 10
643.92353838714018
 20
221.79827414489409
 30
0.0
 40
3.399999999999999
  0
ARC
  5
C8A
  8
0
  6
CONTINUOUS
 62
     2
 10
643.92353838714018
 20
221.79827414489409
 30
0.0
 40
4.0
 50
202.5244122151048
 51
149.49721034531461
  0
LINE
  5
C8B
  8
0
 10
835.34637392086472
 20
207.7211096786186
 30
0.0
 11
830.34637392086483
 21
207.7211096786186
 31
0.0
  0
LINE
  5
C8C
  8
HIDDEN
  6
HIDDEN
 10
824.34637392086483
 20
189.2211096786186
 30
0.0
 11
824.34637392086483
 21
199.22110967861869
 31
0.0
  0
LINE
  5
C8D
  8
HIDDEN
  6
HIDDEN
 10
808.34637392086483
 20
189.2211096786186
 30
0.0
 11
808.34637392086483
 21
199.22110967861869
 31
0.0
  0
LINE
  5
C8E
  8
0
 10
792.34637392086483
 20
182.72110967861869
 30
0.0
 11
830.34637392086483
 21
182.9711096786186
 31
0.0
  0
LINE
  5
C8F
  8
HIDDEN
  6
HIDDEN
 10
830.34637392086483
 20
189.2211096786186
 30
0.0
 11
808.34637392086483
 21
189.2211096786186
 31
0.0
  0
LINE
  5
C90
  8
HIDDEN
  6
HIDDEN
 10
830.34637392086483
 20
199.22110967861869
 30
0.0
 11
808.34637392086483
 21
199.22110967861869
 31
0.0
  0
LINE
  5
C91
  8
HIDDEN
  6
HIDDEN
 10
824.34637392086483
 20
189.9711096786186
 30
0.0
 11
805.34637392086483
 21
189.9711096786186
 31
0.0
  0
LINE
  5
C92
  8
HIDDEN
  6
HIDDEN
 10
824.34637392086483
 20
198.4711096786186
 30
0.0
 11
805.34637392086483
 21
198.4711096786186
 31
0.0
  0
LINE
  5
C93
  8
HIDDEN
  6
HIDDEN
 10
805.34637392086483
 20
198.4711096786186
 30
0.0
 11
802.89263527680862
 21
194.2211096786186
 31
0.0
  0
LINE
  5
C94
  8
HIDDEN
  6
HIDDEN
 10
805.34637392086483
 20
189.97110967861849
 30
0.0
 11
802.89263527680896
 21
194.2211096786186
 31
0.0
  0
LINE
  5
C95
  8
HIDDEN
  6
HIDDEN
 10
805.34637392086483
 20
189.9711096786186
 30
0.0
 11
805.34637392086483
 21
198.4711096786186
 31
0.0
  0
ARC
  5
C96
  8
0
 10
835.34637392086472
 20
208.7211096786186
 30
0.0
 40
1.0
 50
270.0
 51
0.0
  0
LINE
  5
C97
  8
0
 10
668.84637392086483
 20
273.72110967861857
 30
0.0
 11
792.34637392086483
 21
273.72110967861857
 31
0.0
  0
LINE
  5
C98
  8
0
 62
     7
 10
668.84637392086483
 20
254.85733119399919
 30
0.0
 11
792.34637392086483
 21
254.85733119399919
 31
0.0
  0
LINE
  5
C99
  8
CENTER
  6
CENTER
 10
668.84637392086483
 20
266.22110967861857
 30
0.0
 11
833.34637392086495
 21
266.22110967861857
 31
0.0
  0
LINE
  5
C9A
  8
CENTER
  6
CENTER
 10
833.34637392086483
 20
362.84588321249419
 30
0.0
 11
668.84637392086483
 21
362.84588321249419
 31
0.0
  0
LINE
  5
C9B
  8
CENTER
  6
CENTER
 10
833.34637392086483
 20
434.84588321249419
 30
0.0
 11
668.84637392086483
 21
434.84588321249419
 31
0.0
  0
LINE
  5
C9C
  8
0
 62
     7
 10
668.84637392086483
 20
423.48210472787508
 30
0.0
 11
792.34637392086483
 21
423.48210472787491
 31
0.0
  0
LINE
  5
C9D
  8
0
 62
     7
 10
668.84637392086483
 20
374.2096616971134
 30
0.0
 11
792.34637392086483
 21
374.2096616971134
 31
0.0
  0
LINE
  5
C9E
  8
0
 10
668.84637392086483
 20
355.34588321249402
 30
0.0
 11
792.34637392086483
 21
355.34588321249402
 31
0.0
  0
LINE
  5
C9F
  8
DIM
  6
CONTINUOUS
 10
668.84637392086483
 20
350.34588321249419
 30
0.0
 11
668.84637392086483
 21
322.3458832124943
 31
0.0
  0
LINE
  5
CA0
  8
0
 10
664.34637392086483
 20
351.34588321249407
 30
0.0
 11
664.34637392086483
 21
340.34588321249407
 31
0.0
  0
LINE
  5
CA1
  8
0
  6
CONTINUOUS
 10
635.34637392086483
 20
277.72110967861857
 30
0.0
 11
635.34637392086483
 21
284.68910967861939
 31
0.0
  0
LINE
  5
CA2
  8
0
  6
CONTINUOUS
 10
647.34637392086483
 20
277.72110967861857
 30
0.0
 11
647.34637392086483
 21
284.68910967861939
 31
0.0
  0
LINE
  5
CA3
  8
0
  6
CONTINUOUS
 10
652.29637392086545
 20
277.72110967861857
 30
0.0
 11
652.29637392086545
 21
284.59524362781031
 31
0.0
  0
LINE
  5
CA4
  8
CENTER
  6
CENTER
 10
641.34637392086483
 20
263.15340140190352
 30
0.0
 11
641.34637392086483
 21
291.72110967861857
 31
0.0
  0
SOLID
  5
CA5
  8
DIM
  6
CONTINUOUS
 10
665.84637392086483
 20
323.8458832124943
 30
0.0
 11
665.84637392086483
 21
322.8458832124943
 31
0.0
 12
668.84637392086483
 22
323.34588321249419
 32
0.0
 13
668.84637392086483
 23
323.34588321249419
 33
0.0
  0
POLYLINE
  5
CA6
  8
0
  6
CONTINUOUS
 66
     1
 10
0.0
 20
0.0
 30
0.0
  0
VERTEX
  5
13E4
  8
0
  6
CONTINUOUS
 10
641.34637392086483
 20
285.72110967861857
 30
0.0
 42
-0.0851703918331015
  0
VERTEX
  5
13E5
  8
0
  6
CONTINUOUS
 10
647.34637392086483
 20
284.68910967861939
 30
0.0
 42
-0.3910851735909245
  0
VERTEX
  5
13E6
  8
0
  6
CONTINUOUS
 10
651.32137392086508
 20
285.15817665321532
 30
0.0
  0
SEQEND
  5
13E7
  8
0
  6
CONTINUOUS
  0
LINE
  5
CAB
  8
0
  6
CONTINUOUS
 10
652.29637392086545
 20
284.59524362781031
 30
0.0
 11
650.34637392086483
 21
285.72110967861857
 31
0.0
  0
LINE
  5
CAC
  8
0
  6
CONTINUOUS
 10
645.34637392086483
 20
288.72110967861857
 30
0.0
 11
637.34637392086483
 21
288.72110967861857
 31
0.0
  0
LINE
  5
CAD
  8
0
  6
CONTINUOUS
 10
647.34637392086483
 20
286.72110967861857
 30
0.0
 11
635.34637392086483
 21
286.72110967861869
 31
0.0
  0
LINE
  5
CAE
  8
0
  6
CONTINUOUS
 10
635.34637392086483
 20
286.72110967861857
 30
0.0
 11
637.34637392086483
 21
288.72110967861857
 31
0.0
  0
LINE
  5
CAF
  8
0
  6
CONTINUOUS
 62
     2
 10
636.54637392086556
 20
285.72110967861869
 30
0.0
 11
636.54637392086556
 21
287.9211096786193
 31
0.0
  0
LINE
  5
CB0
  8
0
  6
CONTINUOUS
 10
635.34637392086483
 20
285.72110967861857
 30
0.0
 11
635.34637392086483
 21
286.72110967861857
 31
0.0
  0
LINE
  5
CB1
  8
0
  6
CONTINUOUS
 10
647.34637392086483
 20
286.72110967861857
 30
0.0
 11
645.34637392086483
 21
288.72110967861857
 31
0.0
  0
LINE
  5
CB2
  8
0
  6
CONTINUOUS
 10
647.34637392086483
 20
285.72110967861857
 30
0.0
 11
647.34637392086483
 21
286.72110967861857
 31
0.0
  0
LINE
  5
CB3
  8
0
  6
CONTINUOUS
 62
     2
 10
646.14637392086411
 20
285.72110967861869
 30
0.0
 11
646.14637392086411
 21
287.9211096786193
 31
0.0
  0
LINE
  5
CB4
  8
DIM
  6
CONTINUOUS
 10
664.34637392086483
 20
339.34588321249419
 30
0.0
 11
664.34637392086483
 21
330.3458832124943
 31
0.0
  0
SOLID
  5
CB5
  8
DIM
  6
CONTINUOUS
 10
661.34637392086483
 20
331.84588321249419
 30
0.0
 11
661.34637392086483
 21
330.8458832124943
 31
0.0
 12
664.34637392086483
 22
331.34588321249419
 32
0.0
 13
664.34637392086483
 23
331.34588321249419
 33
0.0
  0
LINE
  5
CB6
  8
0
 10
664.34637392086483
 20
340.34588321249407
 30
0.0
 11
663.34637392086483
 21
339.34588321249419
 31
0.0
  0
ARC
  5
CB7
  8
0
  6
CONTINUOUS
 62
     2
 10
641.34637392086483
 20
375.84588321249407
 30
0.0
 40
5.0999999999999988
 50
162.22254855360401
 51
111.81374650251929
  0
CIRCLE
  5
CB8
  8
0
  6
CONTINUOUS
 10
641.34637392086483
 20
375.84588321249407
 30
0.0
 40
6.0
  0
LINE
  5
CB9
  8
CENTER
  6
CENTER
 10
641.34637392086483
 20
391.34588321249419
 30
0.0
 11
641.34637392086483
 21
360.34588321249419
 31
0.0
  0
POLYLINE
  5
CBA
  8
0
  6
CONTINUOUS
 66
     1
 10
0.0
 20
0.0
 30
0.0
 70
     1
  0
VERTEX
  5
13E8
  8
0
  6
CONTINUOUS
 10
639.61432311329668
 20
378.84588321249407
 30
0.0
  0
VERTEX
  5
13E9
  8
0
  6
CONTINUOUS
 10
637.88227230572659
 20
375.84588321249407
 30
0.0
  0
VERTEX
  5
13EA
  8
0
  6
CONTINUOUS
 10
639.61432311329668
 20
372.84588321249419
 30
0.0
  0
VERTEX
  5
13EB
  8
0
  6
CONTINUOUS
 10
643.07842472843288
 20
372.84588321249419
 30
0.0
  0
VERTEX
  5
13EC
  8
0
  6
CONTINUOUS
 10
644.81047553600285
 20
375.84588321249407
 30
0.0
  0
VERTEX
  5
13ED
  8
0
  6
CONTINUOUS
 10
643.07842472843288
 20
378.84588321249407
 30
0.0
  0
SEQEND
  5
13EE
  8
0
  6
CONTINUOUS
  0
LINE
  5
CC2
  8
DIM
  6
CONTINUOUS
 10
836.34637392086495
 20
375.06948844767811
 30
0.0
 11
836.34637392086495
 21
314.3458832124943
 31
0.0
  0
LINE
  5
CC3
  8
DIM
  6
CONTINUOUS
 10
830.34637392086483
 20
350.59588321249407
 30
0.0
 11
830.34637392086483
 21
314.3458832124943
 31
0.0
  0
LINE
  5
CC4
  8
0
 10
835.34637392086472
 20
252.72110967861849
 30
0.0
 11
830.34637392086483
 21
252.72110967861849
 31
0.0
  0
LINE
  5
CC5
  8
CENTER
  6
CENTER
 10
799.34637392086483
 20
262.97867636469709
 30
0.0
 11
799.34637392086483
 21
282.83586566784481
 31
0.0
  0
LINE
  5
CC6
  8
CENTER
  6
CENTER
 10
811.34637392086495
 20
262.12862393003837
 30
0.0
 11
811.34637392086495
 21
282.23237563808073
 31
0.0
  0
LINE
  5
CC7
  8
0
 10
792.34637392086483
 20
277.72110967861852
 30
0.0
 11
830.34637392086483
 21
277.47110967861852
 31
0.0
  0
LINE
  5
CC8
  8
HIDDEN
  6
HIDDEN
 10
830.34637392086483
 20
261.22110967861857
 30
0.0
 11
808.34637392086483
 21
261.22110967861852
 31
0.0
  0
LINE
  5
CC9
  8
HIDDEN
  6
HIDDEN
 10
830.34637392086483
 20
271.22110967861852
 30
0.0
 11
808.34637392086483
 21
271.22110967861857
 31
0.0
  0
LINE
  5
CCA
  8
HIDDEN
  6
HIDDEN
 10
824.34637392086483
 20
261.97110967861852
 30
0.0
 11
805.34637392086483
 21
261.97110967861852
 31
0.0
  0
LINE
  5
CCB
  8
HIDDEN
  6
HIDDEN
 10
824.34637392086483
 20
270.47110967861852
 30
0.0
 11
805.34637392086483
 21
270.47110967861857
 31
0.0
  0
LINE
  5
CCC
  8
HIDDEN
  6
HIDDEN
 10
805.34637392086483
 20
270.47110967861857
 30
0.0
 11
805.34637392086483
 21
261.97110967861852
 31
0.0
  0
LINE
  5
CCD
  8
HIDDEN
  6
HIDDEN
 10
805.34637392086483
 20
270.47110967861869
 30
0.0
 11
802.89263527680896
 21
266.22110967861857
 31
0.0
  0
LINE
  5
CCE
  8
HIDDEN
  6
HIDDEN
 10
808.34637392086483
 20
271.22110967861857
 30
0.0
 11
808.34637392086483
 21
261.22110967861857
 31
0.0
  0
LINE
  5
CCF
  8
HIDDEN
  6
HIDDEN
 10
805.34637392086483
 20
261.97110967861852
 30
0.0
 11
802.89263527680862
 21
266.22110967861857
 31
0.0
  0
LINE
  5
CD0
  8
HIDDEN
  6
HIDDEN
 10
824.34637392086483
 20
271.22110967861852
 30
0.0
 11
824.34637392086483
 21
261.22110967861857
 31
0.0
  0
SOLID
  5
CD1
  8
DIM
  6
CONTINUOUS
 10
827.34637392086472
 20
315.8458832124943
 30
0.0
 11
827.34637392086472
 21
314.84588321249419
 31
0.0
 12
830.34637392086483
 22
315.3458832124943
 32
0.0
 13
830.34637392086483
 23
315.3458832124943
 33
0.0
  0
ARC
  5
CD2
  8
0
 10
835.34637392086472
 20
251.72110967861849
 30
0.0
 40
1.0
 50
0.0
 51
90.0
  0
SOLID
  5
CD3
  8
DIM
  6
CONTINUOUS
 10
839.34637392086483
 20
315.8458832124943
 30
0.0
 11
839.34637392086483
 21
314.84588321249419
 31
0.0
 12
836.34637392086495
 22
315.3458832124943
 32
0.0
 13
836.34637392086495
 23
315.3458832124943
 33
0.0
  0
TEXT
  5
CD4
  8
DIM
  6
CONTINUOUS
 10
841.60627235786865
 20
316.84588321249419
 30
0.0
 40
3.0
  1
6
  7
ROMANSS
 72
     1
 11
842.53484378644021
 21
318.3458832124943
 31
0.0
 73
     2
  0
LINE
  5
CD5
  8
0
 10
835.34637392086472
 20
421.34588321249407
 30
0.0
 11
830.34637392086483
 21
421.34588321249407
 31
0.0
  0
LINE
  5
CD6
  8
0
 10
835.34637392086472
 20
376.34588321249407
 30
0.0
 11
830.34637392086483
 21
376.34588321249407
 31
0.0
  0
CIRCLE
  5
CD7
  8
0
 10
799.34637392086483
 20
388.84588321249407
 30
0.0
 40
5.2999999999999989
  0
LINE
  5
CD8
  8
CENTER
  6
CENTER
 10
811.34637392086495
 20
420.34588321249407
 30
0.0
 11
811.34637392086495
 21
391.34588321249419
 31
0.0
  0
LINE
  5
CD9
  8
CENTER
  6
CENTER
 10
799.34637392086483
 20
395.84588321249419
 30
0.0
 11
799.34637392086483
 21
381.84588321249407
 31
0.0
  0
POLYLINE
  5
CDA
  8
0
  6
CONTINUOUS
 66
     1
 10
0.0
 20
0.0
 30
0.0
 70
     1
  0
VERTEX
  5
13EF
  8
0
  6
CONTINUOUS
 10
798.48034851708053
 20
390.34588321249407
 30
0.0
  0
VERTEX
  5
13F0
  8
0
  6
CONTINUOUS
 10
797.614323113296
 20
388.84588321249407
 30
0.0
  0
VERTEX
  5
13F1
  8
0
  6
CONTINUOUS
 10
798.48034851708053
 20
387.34588321249419
 30
0.0
  0
VERTEX
  5
13F2
  8
0
  6
CONTINUOUS
 10
800.21239932464937
 20
387.34588321249419
 30
0.0
  0
VERTEX
  5
13F3
  8
0
  6
CONTINUOUS
 10
801.07842472843356
 20
388.84588321249407
 30
0.0
  0
VERTEX
  5
13F4
  8
0
  6
CONTINUOUS
 10
800.21239932464937
 20
390.34588321249407
 30
0.0
  0
SEQEND
  5
13F5
  8
0
  6
CONTINUOUS
  0
CIRCLE
  5
CE2
  8
0
 10
799.34637392086483
 20
388.84588321249407
 30
0.0
 40
5.0
  0
ARC
  5
CE3
  8
0
  6
CONTINUOUS
 10
799.34637392086483
 20
388.84588321249407
 30
0.0
 40
3.5
 50
98.213210701738376
 51
141.7867892982616
  0
ARC
  5
CE4
  8
0
  6
CONTINUOUS
 10
799.34637392086483
 20
388.84588321249407
 30
0.0
 40
3.5
 50
218.21321070173829
 51
261.78678929826191
  0
CIRCLE
  5
CE5
  8
0
  6
CONTINUOUS
 10
799.34637392086483
 20
388.84588321249407
 30
0.0
 40
2.5
  0
LINE
  5
CE6
  8
CENTER
  6
CENTER
 10
792.34637392086483
 20
388.84588321249407
 30
0.0
 11
806.34637392086483
 21
388.84588321249407
 31
0.0
  0
LINE
  5
CE7
  8
0
 10
792.34637392086483
 20
351.34588321249407
 30
0.0
 11
830.34637392086483
 21
351.59588321249407
 31
0.0
  0
LINE
  5
CE8
  8
0
  6
CONTINUOUS
 10
796.59637392086483
 20
391.01094672195529
 30
0.0
 11
795.28795193596125
 21
391.7663645071529
 31
0.0
  0
ARC
  5
CE9
  8
0
  6
CONTINUOUS
 10
799.34637392086483
 20
388.84588321249407
 30
0.0
 40
3.5
 50
158.21321070173769
 51
201.78678929826219
  0
LINE
  5
CEA
  8
0
  6
CONTINUOUS
 10
796.09637392086483
 20
390.14492131817082
 30
0.0
 11
794.78795193596147
 21
390.90033910336848
 31
0.0
  0
LINE
  5
CEB
  8
0
  6
CONTINUOUS
 10
795.28795193596125
 20
385.92540191783542
 30
0.0
 11
796.59637392086483
 21
386.68081970303308
 31
0.0
  0
LINE
  5
CEC
  8
0
  6
CONTINUOUS
 10
794.78795193596147
 20
386.79142732161978
 30
0.0
 11
796.09637392086483
 21
387.54684510681739
 31
0.0
  0
LINE
  5
CED
  8
HIDDEN
  6
HIDDEN
 10
824.34637392086483
 20
367.09588321249419
 30
0.0
 11
805.34637392086483
 21
367.09588321249419
 31
0.0
  0
LINE
  5
CEE
  8
HIDDEN
  6
HIDDEN
 10
830.34637392086483
 20
367.84588321249407
 30
0.0
 11
808.34637392086483
 21
367.84588321249407
 31
0.0
  0
LINE
  5
CEF
  8
HIDDEN
  6
HIDDEN
 10
824.34637392086483
 20
358.59588321249419
 30
0.0
 11
805.34637392086483
 21
358.59588321249419
 31
0.0
  0
LINE
  5
CF0
  8
HIDDEN
  6
HIDDEN
 10
830.34637392086483
 20
357.84588321249407
 30
0.0
 11
808.34637392086483
 21
357.84588321249407
 31
0.0
  0
LINE
  5
CF1
  8
HIDDEN
  6
HIDDEN
 10
808.34637392086483
 20
357.84588321249407
 30
0.0
 11
808.34637392086483
 21
367.84588321249407
 31
0.0
  0
LINE
  5
CF2
  8
HIDDEN
  6
HIDDEN
 10
805.34637392086483
 20
358.59588321249419
 30
0.0
 11
805.34637392086483
 21
367.09588321249419
 31
0.0
  0
LINE
  5
CF3
  8
HIDDEN
  6
HIDDEN
 10
805.34637392086483
 20
358.59588321249402
 30
0.0
 11
802.89263527680896
 21
362.84588321249419
 31
0.0
  0
LINE
  5
CF4
  8
HIDDEN
  6
HIDDEN
 10
805.34637392086483
 20
367.09588321249419
 30
0.0
 11
802.89263527680862
 21
362.84588321249402
 31
0.0
  0
LINE
  5
CF5
  8
HIDDEN
  6
HIDDEN
 10
824.34637392086483
 20
357.84588321249407
 30
0.0
 11
824.34637392086483
 21
367.84588321249407
 31
0.0
  0
ARC
  5
CF6
  8
0
  6
CONTINUOUS
 10
799.34637392086483
 20
388.84588321249407
 30
0.0
 40
3.5
 50
38.213210701738312
 51
81.786789298261638
  0
ARC
  5
CF7
  8
0
  6
CONTINUOUS
 10
799.34637392086483
 20
388.84588321249407
 30
0.0
 40
3.5
 50
338.21321070173769
 51
21.786789298262239
  0
LINE
  5
CF8
  8
0
  6
CONTINUOUS
 10
798.84637392086483
 20
393.82082039802731
 30
0.0
 11
798.84637392086483
 21
392.30998482763192
 31
0.0
  0
LINE
  5
CF9
  8
0
  6
CONTINUOUS
 10
799.84637392086483
 20
393.82082039802731
 30
0.0
 11
799.84637392086483
 21
392.30998482763192
 31
0.0
  0
LINE
  5
CFA
  8
0
  6
CONTINUOUS
 10
802.09637392086483
 20
391.01094672195529
 30
0.0
 11
803.40479590576842
 21
391.7663645071529
 31
0.0
  0
LINE
  5
CFB
  8
0
  6
CONTINUOUS
 10
802.59637392086483
 20
390.14492131817082
 30
0.0
 11
803.90479590576842
 21
390.90033910336848
 31
0.0
  0
ARC
  5
CFC
  8
0
  6
CONTINUOUS
 10
799.34637392086483
 20
388.84588321249407
 30
0.0
 40
3.5
 50
278.21321070173809
 51
321.78678929826162
  0
LINE
  5
CFD
  8
0
  6
CONTINUOUS
 10
798.84637392086483
 20
385.38178159735651
 30
0.0
 11
798.84637392086483
 21
383.87094602696112
 31
0.0
  0
LINE
  5
CFE
  8
0
  6
CONTINUOUS
 10
799.84637392086483
 20
385.38178159735651
 30
0.0
 11
799.84637392086483
 21
383.87094602696112
 31
0.0
  0
LINE
  5
CFF
  8
0
  6
CONTINUOUS
 10
803.40479590576842
 20
385.92540191783542
 30
0.0
 11
802.09637392086483
 21
386.68081970303308
 31
0.0
  0
LINE
  5
D00
  8
0
  6
CONTINUOUS
 10
803.90479590576842
 20
386.79142732161978
 30
0.0
 11
802.59637392086483
 21
387.54684510681739
 31
0.0
  0
CIRCLE
  5
D01
  8
0
 10
811.34637392086495
 20
405.84588321249419
 30
0.0
 40
11.5
  0
ARC
  5
D02
  8
0
 62
     2
 10
811.34637392086495
 20
405.84588321249419
 30
0.0
 40
8.3000000000000007
 50
257.1896087413167
 51
209.60968586855631
  0
CIRCLE
  5
D03
  8
0
 10
811.34637392086495
 20
405.84588321249419
 30
0.0
 40
7.5
  0
CIRCLE
  5
D04
  8
0
 10
811.34637392086495
 20
405.84588321249419
 30
0.0
 40
5.5
  0
LINE
  5
D05
  8
CENTER
  6
CENTER
 10
796.84637392086483
 20
405.84588321249419
 30
0.0
 11
825.84637392086483
 21
405.84588321249419
 31
0.0
  0
SOLID
  5
D06
  8
DIM
  6
CONTINUOUS
 10
806.80377215564783
 20
416.20208737682839
 30
0.0
 11
807.73471574067707
 21
416.56725041095598
 31
0.0
 12
808.36473305054528
 22
413.59183813880509
 32
0.0
 13
808.36473305054528
 23
413.59183813880509
 33
0.0
  0
LINE
  5
D07
  8
HIDDEN
  6
HIDDEN
 10
824.34637392086483
 20
439.09588321249407
 30
0.0
 11
805.34637392086483
 21
439.09588321249407
 31
0.0
  0
LINE
  5
D08
  8
HIDDEN
  6
HIDDEN
 10
824.34637392086483
 20
430.59588321249407
 30
0.0
 11
805.34637392086483
 21
430.59588321249407
 31
0.0
  0
LINE
  5
D09
  8
HIDDEN
  6
HIDDEN
 10
830.34637392086483
 20
429.84588321249419
 30
0.0
 11
808.34637392086483
 21
429.84588321249419
 31
0.0
  0
LINE
  5
D0A
  8
HIDDEN
  6
HIDDEN
 10
830.34637392086483
 20
439.84588321249419
 30
0.0
 11
808.34637392086483
 21
439.84588321249419
 31
0.0
  0
LINE
  5
D0B
  8
HIDDEN
  6
HIDDEN
 10
805.34637392086483
 20
439.0958832124943
 30
0.0
 11
802.89263527680896
 21
434.84588321249419
 31
0.0
  0
LINE
  5
D0C
  8
HIDDEN
  6
HIDDEN
 10
805.34637392086483
 20
430.59588321249407
 30
0.0
 11
802.89263527680862
 21
434.8458832124943
 31
0.0
  0
LINE
  5
D0D
  8
HIDDEN
  6
HIDDEN
 10
805.34637392086483
 20
439.09588321249407
 30
0.0
 11
805.34637392086483
 21
430.59588321249407
 31
0.0
  0
LINE
  5
D0E
  8
HIDDEN
  6
HIDDEN
 10
808.34637392086483
 20
439.84588321249419
 30
0.0
 11
808.34637392086483
 21
429.84588321249419
 31
0.0
  0
LINE
  5
D0F
  8
HIDDEN
  6
HIDDEN
 10
824.34637392086483
 20
439.84588321249419
 30
0.0
 11
824.34637392086483
 21
429.84588321249419
 31
0.0
  0
LINE
  5
D10
  8
DIM
  6
CONTINUOUS
 10
844.34637392086495
 20
379.34588321249419
 30
0.0
 11
844.34637392086495
 21
418.34588321249419
 31
0.0
  0
LINE
  5
D11
  8
0
 10
836.34637392086495
 20
420.34588321249407
 30
0.0
 11
836.34637392086495
 21
377.34588321249419
 31
0.0
  0
LINE
  5
D12
  8
DIM
  6
CONTINUOUS
 10
836.34637392086495
 20
376.34588321249407
 30
0.0
 11
845.34637392086495
 21
376.34588321249407
 31
0.0
  0
ARC
  5
D13
  8
0
 10
835.34637392086472
 20
377.34588321249419
 30
0.0
 40
1.0
 50
270.0
 51
0.0
  0
SOLID
  5
D14
  8
DIM
  6
CONTINUOUS
 10
843.84637392086483
 20
379.34588321249419
 30
0.0
 11
844.84637392086483
 21
379.34588321249419
 31
0.0
 12
844.34637392086495
 22
376.34588321249407
 32
0.0
 13
844.34637392086495
 23
376.34588321249407
 33
0.0
  0
TEXT
  5
D15
  8
DIM
  6
CONTINUOUS
 10
842.84637392086483
 20
395.06016892677991
 30
0.0
 40
3.0
  1
%%c45
 50
90.0
  7
ROMANSS
 72
     1
 11
841.34637392086483
 21
398.84588321249407
 31
0.0
 73
     2
  0
LINE
  5
D16
  8
DIM
  6
CONTINUOUS
 10
836.34637392086495
 20
421.34588321249407
 30
0.0
 11
845.34637392086495
 21
421.34588321249407
 31
0.0
  0
ARC
  5
D17
  8
0
 10
835.34637392086472
 20
420.34588321249407
 30
0.0
 40
1.0
 50
0.0
 51
90.0
  0
SOLID
  5
D18
  8
DIM
  6
CONTINUOUS
 10
843.84637392086483
 20
418.34588321249419
 30
0.0
 11
844.84637392086483
 21
418.34588321249419
 31
0.0
 12
844.34637392086495
 22
421.34588321249407
 32
0.0
 13
844.34637392086495
 23
421.34588321249407
 33
0.0
  0
LINE
  5
D19
  8
0
 10
668.84637392086483
 20
641.78515874401842
 30
0.0
 11
668.84637392086483
 21
506.78515874401847
 31
0.0
  0
LINE
  5
D1A
  8
0
 10
792.34637392086483
 20
601.78515874401853
 30
0.0
 11
792.34637392086483
 21
506.78515874401859
 31
0.0
  0
LINE
  5
D1B
  8
0
 10
830.34637392086483
 20
601.53515874401853
 30
0.0
 11
830.34637392086483
 21
507.03515874401859
 31
0.0
  0
LINE
  5
D1C
  8
CENTER
  6
CENTER
 10
668.84637392086483
 20
518.28515874401853
 30
0.0
 11
833.34637392086495
 21
518.28515874401853
 31
0.0
  0
LINE
  5
D1D
  8
0
 62
     7
 10
668.84637392086483
 20
578.92138025939926
 30
0.0
 11
792.34637392086483
 21
578.92138025939926
 31
0.0
  0
LINE
  5
D1E
  8
0
 10
668.84637392086483
 20
510.78515874401847
 30
0.0
 11
792.34637392086483
 21
510.78515874401847
 31
0.0
  0
LINE
  5
D1F
  8
0
 62
     7
 10
668.84637392086483
 20
529.64893722863792
 30
0.0
 11
792.34637392086483
 21
529.64893722863792
 31
0.0
  0
LINE
  5
D20
  8
0
 10
668.84637392086483
 20
442.34588321249419
 30
0.0
 11
792.34637392086483
 21
442.34588321249419
 31
0.0
  0
LINE
  5
D21
  8
0
 10
664.34637392086483
 20
457.34588321249419
 30
0.0
 11
664.34637392086483
 21
446.34588321249407
 31
0.0
  0
LINE
  5
D22
  8
0
 10
663.34637392086483
 20
458.3458832124943
 30
0.0
 11
664.34637392086483
 21
457.34588321249419
 31
0.0
  0
LINE
  5
D23
  8
CENTER
  6
CENTER
 10
641.34637392086483
 20
521.35286702073358
 30
0.0
 11
641.34637392086483
 21
492.78515874401847
 31
0.0
  0
LINE
  5
D24
  8
0
  6
CONTINUOUS
 10
652.29637392086545
 20
499.9110247948268
 30
0.0
 11
650.34637392086483
 21
498.78515874401847
 31
0.0
  0
POLYLINE
  5
D25
  8
0
  6
CONTINUOUS
 66
     1
 10
0.0
 20
0.0
 30
0.0
  0
VERTEX
  5
13F6
  8
0
  6
CONTINUOUS
 10
641.34637392086483
 20
498.78515874401847
 30
0.0
 42
0.0851703918331015
  0
VERTEX
  5
13F7
  8
0
  6
CONTINUOUS
 10
647.34637392086483
 20
499.81715874401772
 30
0.0
 42
0.3910851735909245
  0
VERTEX
  5
13F8
  8
0
  6
CONTINUOUS
 10
651.32137392086508
 20
499.34809176942179
 30
0.0
  0
SEQEND
  5
13F9
  8
0
  6
CONTINUOUS
  0
LINE
  5
D2A
  8
0
  6
CONTINUOUS
 10
647.34637392086483
 20
506.78515874401847
 30
0.0
 11
647.34637392086483
 21
499.81715874401772
 31
0.0
  0
LINE
  5
D2B
  8
0
  6
CONTINUOUS
 10
635.34637392086483
 20
506.78515874401847
 30
0.0
 11
635.34637392086483
 21
499.81715874401772
 31
0.0
  0
LINE
  5
D2C
  8
0
  6
CONTINUOUS
 10
647.34637392086483
 20
497.78515874401847
 30
0.0
 11
635.34637392086483
 21
497.7851587440183
 31
0.0
  0
LINE
  5
D2D
  8
0
  6
CONTINUOUS
 10
645.34637392086483
 20
495.78515874401847
 30
0.0
 11
637.34637392086483
 21
495.78515874401847
 31
0.0
  0
LINE
  5
D2E
  8
0
  6
CONTINUOUS
 10
635.34637392086483
 20
498.78515874401847
 30
0.0
 11
635.34637392086483
 21
497.78515874401847
 31
0.0
  0
LINE
  5
D2F
  8
0
  6
CONTINUOUS
 62
     2
 10
636.54637392086556
 20
498.78515874401842
 30
0.0
 11
636.54637392086556
 21
496.5851587440178
 31
0.0
  0
LINE
  5
D30
  8
0
  6
CONTINUOUS
 10
635.34637392086483
 20
497.78515874401847
 30
0.0
 11
637.34637392086483
 21
495.78515874401847
 31
0.0
  0
LINE
  5
D31
  8
0
  6
CONTINUOUS
 62
     2
 10
646.14637392086411
 20
498.78515874401842
 30
0.0
 11
646.14637392086411
 21
496.5851587440178
 31
0.0
  0
LINE
  5
D32
  8
0
  6
CONTINUOUS
 10
647.34637392086483
 20
498.78515874401847
 30
0.0
 11
647.34637392086483
 21
497.78515874401847
 31
0.0
  0
LINE
  5
D33
  8
0
  6
CONTINUOUS
 10
647.34637392086483
 20
497.78515874401847
 30
0.0
 11
645.34637392086483
 21
495.78515874401847
 31
0.0
  0
LINE
  5
D34
  8
0
  6
CONTINUOUS
 10
652.29637392086545
 20
506.78515874401847
 30
0.0
 11
652.29637392086545
 21
499.9110247948268
 31
0.0
  0
LINE
  5
D35
  8
CENTER
  6
CENTER
 10
647.34637392086483
 20
549.28515874401853
 30
0.0
 11
667.34637392086483
 21
549.28515874401853
 31
0.0
  0
LINE
  5
D36
  8
CENTER
  6
CENTER
 10
638.26668413764787
 20
568.36484852723549
 30
0.0
 11
649.5803926366325
 21
557.05114002825076
 31
0.0
  0
CIRCLE
  5
D37
  8
0
  6
CONTINUOUS
 10
643.92353838714018
 20
562.70799427774296
 30
0.0
 40
3.399999999999999
  0
ARC
  5
D38
  8
0
  6
CONTINUOUS
 62
     2
 10
643.92353838714018
 20
562.70799427774296
 30
0.0
 40
4.0
 50
210.50278965468459
 51
157.4755877848952
  0
CIRCLE
  5
D39
  8
0
  6
CONTINUOUS
 10
657.34637392086483
 20
549.28515874401853
 30
0.0
 40
4.25
  0
ARC
  5
D3A
  8
0
  6
CONTINUOUS
 62
     2
 10
657.34637392086483
 20
549.28515874401853
 30
0.0
 40
5.0
 50
161.29065264439251
 51
115.2003954081225
  0
LINE
  5
D3B
  8
CENTER
  6
CENTER
 10
657.34637392086483
 20
559.28515874401853
 30
0.0
 11
657.34637392086483
 21
539.28515874401853
 31
0.0
  0
TEXT
  5
D3C
  8
DIM
  6
CONTINUOUS
 10
793.09190996011876
 20
462.76280235281871
 30
0.0
 40
3.0
  1
2-G3/8
  7
ROMANSS
 11
793.09190996011876
 21
464.2628023528186
 31
0.0
 73
     2
  0
LINE
  5
D3D
  8
DIM
  6
CONTINUOUS
 10
789.6657761941708
 20
461.2628023528186
 30
0.0
 11
808.46690996011876
 21
461.2628023528186
 31
0.0
  0
LINE
  5
D3E
  8
0
 10
792.34637392086483
 20
446.34588321249407
 30
0.0
 11
830.34637392086483
 21
446.09588321249419
 31
0.0
  0
LINE
  5
D3F
  8
0
 10
835.34637392086472
 20
576.78515874401853
 30
0.0
 11
830.34637392086483
 21
576.78515874401853
 31
0.0
  0
LINE
  5
D40
  8
0
 10
835.34637392086472
 20
531.78515874401864
 30
0.0
 11
830.34637392086483
 21
531.78515874401864
 31
0.0
  0
LINE
  5
D41
  8
0
 10
792.34637392086483
 20
506.78515874401859
 30
0.0
 11
830.34637392086483
 21
507.03515874401859
 31
0.0
  0
LINE
  5
D42
  8
HIDDEN
  6
HIDDEN
 10
824.34637392086483
 20
513.28515874401864
 30
0.0
 11
824.34637392086483
 21
523.28515874401853
 31
0.0
  0
LINE
  5
D43
  8
CENTER
  6
CENTER
 10
811.34637392086495
 20
521.29512954780705
 30
0.0
 11
811.34637392086495
 21
501.62242343640338
 31
0.0
  0
LINE
  5
D44
  8
HIDDEN
  6
HIDDEN
 10
805.34637392086483
 20
514.03515874401853
 30
0.0
 11
805.34637392086483
 21
522.53515874401864
 31
0.0
  0
LINE
  5
D45
  8
HIDDEN
  6
HIDDEN
 10
808.34637392086483
 20
513.28515874401842
 30
0.0
 11
808.34637392086483
 21
523.28515874401853
 31
0.0
  0
LINE
  5
D46
  8
HIDDEN
  6
HIDDEN
 10
805.34637392086483
 20
514.03515874401842
 30
0.0
 11
802.89263527680896
 21
518.28515874401853
 31
0.0
  0
LINE
  5
D47
  8
CENTER
  6
CENTER
 10
799.34637392086483
 20
521.11121331464892
 30
0.0
 11
799.34637392086483
 21
501.67040275479229
 31
0.0
  0
LINE
  5
D48
  8
HIDDEN
  6
HIDDEN
 10
830.34637392086483
 20
513.28515874401864
 30
0.0
 11
808.34637392086483
 21
513.28515874401842
 31
0.0
  0
LINE
  5
D49
  8
HIDDEN
  6
HIDDEN
 10
824.34637392086483
 20
514.03515874401864
 30
0.0
 11
805.34637392086483
 21
514.03515874401853
 31
0.0
  0
LINE
  5
D4A
  8
HIDDEN
  6
HIDDEN
 10
830.34637392086483
 20
523.28515874401853
 30
0.0
 11
808.34637392086483
 21
523.28515874401864
 31
0.0
  0
LINE
  5
D4B
  8
HIDDEN
  6
HIDDEN
 10
824.34637392086483
 20
522.53515874401864
 30
0.0
 11
805.34637392086483
 21
522.53515874401864
 31
0.0
  0
LINE
  5
D4C
  8
HIDDEN
  6
HIDDEN
 10
805.34637392086483
 20
522.53515874401864
 30
0.0
 11
802.89263527680862
 21
518.28515874401853
 31
0.0
  0
LINE
  5
D4D
  8
0
 10
836.34637392086495
 20
575.78515874401842
 30
0.0
 11
836.34637392086495
 21
532.78515874401864
 31
0.0
  0
ARC
  5
D4E
  8
0
 10
835.34637392086472
 20
532.78515874401864
 30
0.0
 40
1.0
 50
270.0
 51
0.0
  0
ARC
  5
D4F
  8
0
 10
835.34637392086472
 20
575.78515874401842
 30
0.0
 40
1.0
 50
0.0
 51
90.0
  0
LINE
  5
D50
  8
0
 10
668.84637392086483
 20
597.78515874401853
 30
0.0
 11
792.34637392086483
 21
597.78515874401853
 31
0.0
  0
TEXT
  5
D51
  8
DIM
  6
CONTINUOUS
 10
684.71524929122495
 20
652.52396155443364
 30
0.0
 40
3.0
  1
2x4-M10x15L
  7
ROMANSS
 11
684.71524929122495
 21
654.02396155443364
 31
0.0
 73
     2
  0
LINE
  5
D52
  8
DIM
  6
CONTINUOUS
 10
683.71524929122506
 20
651.02396155443364
 30
0.0
 11
711.84024929122506
 21
651.02396155443364
 31
0.0
  0
CIRCLE
  5
D53
  8
0
  6
CONTINUOUS
 10
657.34637392086483
 20
631.28515874401853
 30
0.0
 40
4.25
  0
ARC
  5
D54
  8
0
  6
CONTINUOUS
 62
     2
 10
657.34637392086483
 20
631.28515874401853
 30
0.0
 40
5.0
 50
161.29065264439421
 51
115.2003954081208
  0
LINE
  5
D55
  8
CENTER
  6
CENTER
 10
657.34637392086483
 20
641.28515874401853
 30
0.0
 11
657.34637392086483
 21
621.28515874401853
 31
0.0
  0
SOLID
  5
D56
  8
DIM
  6
CONTINUOUS
 10
507.0149006340913
 20
587.29508075601791
 30
0.0
 11
506.0150770928696
 21
587.27629548468894
 31
0.0
 12
506.45863304949353
 22
590.28515874401864
 32
0.0
 13
506.45863304949353
 23
590.28515874401864
 33
0.0
  0
LINE
  5
D57
  8
DIM
  6
CONTINUOUS
 10
663.20153249330974
 20
636.7222466130014
 30
0.0
 11
680.71524929122495
 21
651.02396155443364
 31
0.0
  0
LINE
  5
D58
  8
CENTER
  6
CENTER
 10
647.34637392086483
 20
631.28515874401853
 30
0.0
 11
667.34637392086483
 21
631.28515874401853
 31
0.0
  0
SOLID
  5
D59
  8
DIM
  6
CONTINUOUS
 10
663.51778447305333
 20
636.33496805006735
 30
0.0
 11
662.88528051356604
 21
637.10952517593546
 31
0.0
 12
660.87786111570563
 22
634.82473473453956
 32
0.0
 13
660.87786111570563
 23
634.82473473453956
 33
0.0
  0
SOLID
  5
D5A
  8
DIM
  6
CONTINUOUS
 10
654.34637392086483
 20
650.28515874401853
 30
0.0
 11
654.34637392086483
 21
649.28515874401853
 31
0.0
 12
657.34637392086483
 22
649.78515874401853
 32
0.0
 13
657.34637392086483
 23
649.78515874401853
 33
0.0
  0
LINE
  5
D5B
  8
DIM
  6
CONTINUOUS
 10
657.34637392086483
 20
642.28515874401853
 30
0.0
 11
657.34637392086483
 21
650.78515874401853
 31
0.0
  0
LINE
  5
D5C
  8
DIM
  6
CONTINUOUS
 10
680.71524929122495
 20
651.02396155443364
 30
0.0
 11
683.71524929122506
 21
651.02396155443364
 31
0.0
  0
LINE
  5
D5D
  8
0
 10
792.34637392086483
 20
601.78515874401853
 30
0.0
 11
830.34637392086483
 21
601.53515874401853
 31
0.0
  0
LINE
  5
D5E
  8
HIDDEN
  6
HIDDEN
 10
830.34637392086483
 20
595.28515874401853
 30
0.0
 11
808.34637392086483
 21
595.28515874401853
 31
0.0
  0
LINE
  5
D5F
  8
HIDDEN
  6
HIDDEN
 10
830.34637392086483
 20
585.28515874401853
 30
0.0
 11
808.34637392086483
 21
585.28515874401853
 31
0.0
  0
LINE
  5
D60
  8
HIDDEN
  6
HIDDEN
 10
824.34637392086483
 20
586.03515874401853
 30
0.0
 11
805.34637392086483
 21
586.03515874401853
 31
0.0
  0
LINE
  5
D61
  8
HIDDEN
  6
HIDDEN
 10
824.34637392086483
 20
594.53515874401842
 30
0.0
 11
805.34637392086483
 21
594.53515874401842
 31
0.0
  0
LINE
  5
D62
  8
HIDDEN
  6
HIDDEN
 10
805.34637392086483
 20
586.03515874401853
 30
0.0
 11
802.89263527680862
 21
590.28515874401853
 31
0.0
  0
LINE
  5
D63
  8
HIDDEN
  6
HIDDEN
 10
805.34637392086483
 20
594.53515874401842
 30
0.0
 11
805.34637392086483
 21
586.03515874401853
 31
0.0
  0
LINE
  5
D64
  8
HIDDEN
  6
HIDDEN
 10
805.34637392086483
 20
594.53515874401864
 30
0.0
 11
802.89263527680896
 21
590.28515874401853
 31
0.0
  0
LINE
  5
D65
  8
HIDDEN
  6
HIDDEN
 10
808.34637392086483
 20
595.28515874401853
 30
0.0
 11
808.34637392086483
 21
585.28515874401853
 31
0.0
  0
LINE
  5
D66
  8
HIDDEN
  6
HIDDEN
 10
824.34637392086483
 20
595.28515874401853
 30
0.0
 11
824.34637392086483
 21
585.28515874401853
 31
0.0
  0
LINE
  5
D67
  8
0
 10
206.53538404934571
 20
446.34588321249407
 30
0.0
 11
206.53538404934571
 21
351.34588321249407
 31
0.0
  0
ARC
  5
D68
  8
0
 10
330.03538404934551
 20
434.84588321249419
 30
0.0
 40
11.25
 50
0.0
 51
90.0
  0
ARC
  5
D69
  8
0
 10
330.03538404934551
 20
434.84588321249419
 30
0.0
 40
11.5
 50
0.0
 51
90.0
  0
CIRCLE
  5
D6A
  8
0
 10
330.03538404934551
 20
434.84588321249419
 30
0.0
 40
9.0
  0
LINE
  5
D6B
  8
0
 10
341.53538404934551
 20
446.34588321249407
 30
0.0
 11
341.53538404934551
 21
351.3458832124943
 31
0.0
  0
LINE
  5
D6C
  8
CENTER
  6
CENTER
 10
294.03538404934568
 20
449.34588321249407
 30
0.0
 11
294.03538404934568
 21
348.34588321249419
 31
0.0
  0
LINE
  5
D6D
  8
0
 10
304.03538404934551
 20
440.59588321249419
 30
0.0
 11
304.03538404934551
 21
420.4791908652781
 31
0.0
  0
LINE
  5
D6E
  8
0
 10
292.73538404934573
 20
440.59588321249419
 30
0.0
 11
292.73538404934573
 21
423.18535732349341
 31
0.0
  0
LINE
  5
D6F
  8
0
 10
295.33538404934558
 20
440.59588321249419
 30
0.0
 11
295.33538404934558
 21
423.18535732349341
 31
0.0
  0
LINE
  5
D70
  8
0
 10
284.03538404934562
 20
440.59588321249419
 30
0.0
 11
284.03538404934562
 21
420.4791908652781
 31
0.0
  0
ARC
  5
D71
  8
0
 10
269.6946078657071
 20
440.59588321249419
 30
0.0
 40
1.5
 50
90.0
 51
206.2512139349991
  0
LINE
  5
D72
  8
CENTER
  6
CENTER
 10
330.03538404934551
 20
445.34588321249407
 30
0.0
 11
330.03538404934551
 21
424.34588321249407
 31
0.0
  0
ARC
  5
D73
  8
0
 10
318.37616023298432
 20
440.59588321249419
 30
0.0
 40
1.5
 50
333.74878606499152
 51
90.0
  0
ARC
  5
D74
  8
0
 10
258.03538404934562
 20
434.84588321249419
 30
0.0
 40
11.25
 50
90.0
 51
180.0
  0
ARC
  5
D75
  8
0
 10
258.03538404934562
 20
434.84588321249419
 30
0.0
 40
11.5
 50
90.0
 51
180.0
  0
CIRCLE
  5
D76
  8
0
 10
258.03538404934562
 20
434.84588321249419
 30
0.0
 40
9.0
  0
LINE
  5
D77
  8
CENTER
  6
CENTER
 10
258.03538404934562
 20
462.9817123704899
 30
0.0
 11
258.03538404934562
 21
336.34588321249407
 31
0.0
  0
LINE
  5
D78
  8
CENTER
  6
CENTER
 10
344.48860108668498
 20
391.84588321249419
 30
0.0
 11
328.48580763575092
 21
391.84588321249419
 31
0.0
  0
LINE
  5
D79
  8
CENTER
  6
CENTER
 10
344.97540170188728
 20
408.84588321249407
 30
0.0
 11
328.96678144077038
 21
408.84588321249407
 31
0.0
  0
ARC
  5
D7A
  8
0
 10
330.03538404934551
 20
362.84588321249419
 30
0.0
 40
11.25
 50
270.0
 51
0.0
  0
ARC
  5
D7B
  8
0
 10
330.03538404934551
 20
362.84588321249419
 30
0.0
 40
11.5
 50
270.0
 51
0.0
  0
LINE
  5
D7C
  8
CENTER
  6
CENTER
 10
356.53538404934551
 20
375.84588321249407
 30
0.0
 11
321.32196002796911
 21
375.84588321249407
 31
0.0
  0
LINE
  5
D7D
  8
0
 10
341.53538404934551
 20
351.3458832124943
 30
0.0
 11
206.53538404934571
 21
351.34588321249407
 31
0.0
  0
LINE
  5
D7E
  8
CENTER
  6
CENTER
 10
344.53538404934551
 20
398.84588321249407
 30
0.0
 11
243.53538404934559
 21
398.84588321249407
 31
0.0
  0
LINE
  5
D7F
  8
0
 10
210.03538404934559
 20
351.34588321249407
 30
0.0
 11
210.03538404934559
 21
340.34588321249407
 31
0.0
  0
LINE
  5
D80
  8
0
 10
306.03538404934562
 20
351.34588321249407
 30
0.0
 11
306.03538404934551
 21
340.3458832124943
 31
0.0
  0
LINE
  5
D81
  8
0
 10
306.03538404934551
 20
340.34588321249407
 30
0.0
 11
210.03538404934559
 21
340.34588321249407
 31
0.0
  0
LINE
  5
D82
  8
0
 10
305.03538404934551
 20
339.3458832124943
 30
0.0
 11
211.03538404934559
 21
339.34588321249419
 31
0.0
  0
LINE
  5
D83
  8
0
 10
210.03538404934559
 20
340.34588321249407
 30
0.0
 11
211.03538404934559
 21
339.34588321249419
 31
0.0
  0
LINE
  5
D84
  8
0
 10
306.03538404934551
 20
340.3458832124943
 30
0.0
 11
305.03538404934551
 21
339.3458832124943
 31
0.0
  0
LINE
  5
D85
  8
0
 10
269.6946078657071
 20
355.59588321249407
 30
0.0
 11
291.23538404934573
 21
355.59588321249407
 31
0.0
  0
ARC
  5
D86
  8
0
 10
294.03538404934568
 20
398.84588321249407
 30
0.0
 40
35.5
 50
229.9885419755561
 51
251.4071774505733
  0
LINE
  5
D87
  8
0
 10
268.30256321653178
 20
370.28463525493402
 30
0.0
 11
278.30316941223651
 21
380.28524145063869
 31
0.0
  0
ARC
  5
D88
  8
0
 10
294.03538404934568
 20
398.84588321249407
 30
0.0
 40
23.0
 50
186.56242786863399
 51
216.7867892982616
  0
ARC
  5
D89
  8
0
 10
274.4140821157103
 20
384.17432874716479
 30
0.0
 40
1.5
 50
315.00000000000227
 51
36.786789298261297
  0
ARC
  5
D8A
  8
0
 10
294.03538404934568
 20
398.84588321249407
 30
0.0
 40
35.5
 50
108.5928225494267
 51
130.01145802444381
  0
LINE
  5
D8B
  8
0
 10
268.30256321653178
 20
427.40713117005407
 30
0.0
 11
278.30316941223651
 21
417.4065249743494
 31
0.0
  0
ARC
  5
D8C
  8
0
 10
294.03538404934568
 20
398.84588321249407
 30
0.0
 40
23.0
 50
143.21321070173801
 51
173.4375721313659
  0
ARC
  5
D8D
  8
0
 10
274.41408211571058
 20
413.51743767782352
 30
0.0
 40
1.5
 50
323.21321070173508
 51
44.999999999998458
  0
CIRCLE
  5
D8E
  8
0
 10
294.03538404934568
 20
398.84588321249407
 30
0.0
 40
22.5
  0
LINE
  5
D8F
  8
0
 10
330.03538404934551
 20
351.59588321249407
 30
0.0
 11
258.03538404934562
 21
351.59588321249407
 31
0.0
  0
LINE
  5
D90
  8
0
 10
250.78538404934559
 20
374.50510702885532
 30
0.0
 11
250.78538404934559
 21
396.04588321249418
 31
0.0
  0
LINE
  5
D91
  8
0
 10
246.78538404934559
 20
434.84588321249419
 30
0.0
 11
246.78538404934559
 21
362.84588321249419
 31
0.0
  0
LINE
  5
D92
  8
0
 10
246.53538404934559
 20
434.84588321249419
 30
0.0
 11
246.53538404934559
 21
362.84588321249419
 31
0.0
  0
CIRCLE
  5
D93
  8
0
 10
258.03538404934562
 20
362.84588321249419
 30
0.0
 40
9.0
  0
LINE
  5
D94
  8
CENTER
  6
CENTER
 10
268.53538404934562
 20
362.84588321249419
 30
0.0
 11
247.53538404934559
 21
362.84588321249419
 31
0.0
  0
POLYLINE
  5
D95
  8
0
  6
CONTINUOUS
 66
     1
 10
0.0
 20
0.0
 30
0.0
 70
     1
  0
VERTEX
  5
13FA
  8
0
  6
CONTINUOUS
 10
260.92213539529382
 20
367.84588321249407
 30
0.0
  0
VERTEX
  5
13FB
  8
0
  6
CONTINUOUS
 10
263.80888674124191
 20
362.84588321249419
 30
0.0
  0
VERTEX
  5
13FC
  8
0
  6
CONTINUOUS
 10
260.92213539529382
 20
357.84588321249407
 30
0.0
  0
VERTEX
  5
13FD
  8
0
  6
CONTINUOUS
 10
255.14863270339751
 20
357.84588321249407
 30
0.0
  0
VERTEX
  5
13FE
  8
0
  6
CONTINUOUS
 10
252.2618813574496
 20
362.84588321249419
 30
0.0
  0
VERTEX
  5
13FF
  8
0
  6
CONTINUOUS
 10
255.14863270339751
 20
367.84588321249407
 30
0.0
  0
SEQEND
  5
1400
  8
0
  6
CONTINUOUS
  0
ARC
  5
D9D
  8
0
 10
258.03538404934562
 20
362.84588321249419
 30
0.0
 40
11.25
 50
180.0
 51
270.0
  0
ARC
  5
D9E
  8
0
 10
258.03538404934562
 20
362.84588321249419
 30
0.0
 40
11.5
 50
180.0
 51
270.0
  0
ARC
  5
D9F
  8
0
 10
258.03538404934562
 20
362.84588321249419
 30
0.0
 40
11.5
 50
333.74878606508207
 51
29.381501724351651
  0
ARC
  5
DA0
  8
0
 10
269.6946078657071
 20
357.09588321249407
 30
0.0
 40
1.5
 50
153.74878606500999
 51
270.0
  0
ARC
  5
DA1
  8
0
 10
269.36322338831161
 20
369.22397508315419
 30
0.0
 40
1.5
 50
135.00000000000071
 51
209.38150172435169
  0
ARC
  5
DA2
  8
0
 10
258.03538404934562
 20
362.84588321249419
 30
0.0
 40
11.5
 50
60.618498275648491
 51
116.2512139349554
  0
LINE
  5
DA3
  8
0
 10
252.28538404934571
 20
388.84588321249407
 30
0.0
 11
272.40207639656171
 21
388.84588321249407
 31
0.0
  0
ARC
  5
DA4
  8
0
 10
252.28538404934571
 20
374.50510702885532
 30
0.0
 40
1.5
 50
180.0
 51
296.2512139349559
  0
ARC
  5
DA5
  8
0
 10
252.28538404934571
 20
387.34588321249419
 30
0.0
 40
1.5
 50
90.0
 51
180.0
  0
LINE
  5
DA6
  8
0
 10
265.47413609178562
 20
373.11306237968017
 30
0.0
 11
275.4747422874903
 21
383.11366857538491
 31
0.0
  0
ARC
  5
DA7
  8
0
 10
294.03538404934568
 20
398.84588321249407
 30
0.0
 40
35.5
 50
198.5928225494265
 51
220.0114580244437
  0
ARC
  5
DA8
  8
0
 10
267.61128608675659
 20
376.6644259370243
 30
0.0
 40
1.0
 50
220.01145802444381
 51
315.0
  0
ARC
  5
DA9
  8
0
 10
264.41347592000591
 20
374.17372255146012
 30
0.0
 40
1.5
 50
240.61849827564831
 51
315.00000000000227
  0
ARC
  5
DAA
  8
0
 10
271.85392677387591
 20
372.42178524990499
 30
0.0
 40
1.0
 50
135.0
 51
229.9885419755594
  0
ARC
  5
DAB
  8
0
 10
261.33599567586072
 20
387.84588321249407
 30
0.0
 40
1.0
 50
90.0
 51
198.59282254942551
  0
ARC
  5
DAC
  8
0
 10
272.40207639656171
 20
387.34588321249419
 30
0.0
 40
1.5
 50
27.994561732254802
 51
90.0
  0
LINE
  5
DAD
  8
0
 10
250.78538404934559
 20
423.18665939613288
 30
0.0
 11
250.78538404934559
 21
401.64588321249408
 31
0.0
  0
ARC
  5
DAE
  8
0
 10
294.03538404934568
 20
398.84588321249407
 30
0.0
 40
35.5
 50
139.98854197555599
 51
161.4071774505733
  0
LINE
  5
DAF
  8
0
 10
265.47413609178562
 20
424.57870404530792
 30
0.0
 11
275.4747422874903
 21
414.57809784960318
 31
0.0
  0
LINE
  5
DB0
  8
0
 10
252.28538404934571
 20
408.84588321249407
 30
0.0
 11
272.40207639656171
 21
408.84588321249407
 31
0.0
  0
LINE
  5
DB1
  8
0
 10
252.28538404934571
 20
400.14588321249408
 30
0.0
 11
269.69590993834652
 21
400.14588321249408
 31
0.0
  0
LINE
  5
DB2
  8
0
 10
252.28538404934571
 20
397.54588321249418
 30
0.0
 11
269.69590993834652
 21
397.54588321249418
 31
0.0
  0
ARC
  5
DB3
  8
0
 10
252.28538404934571
 20
396.04588321249418
 30
0.0
 40
1.5
 50
90.0
 51
180.0
  0
ARC
  5
DB4
  8
0
 10
252.28538404934571
 20
401.64588321249408
 30
0.0
 40
1.5
 50
180.0
 51
270.0
  0
ARC
  5
DB5
  8
0
 10
252.28538404934571
 20
410.34588321249419
 30
0.0
 40
1.5
 50
180.0
 51
270.0
  0
ARC
  5
DB6
  8
0
 10
269.69590993834652
 20
396.04588321249418
 30
0.0
 40
1.5
 50
6.5624278686343862
 51
90.0
  0
ARC
  5
DB7
  8
0
 10
269.69590993834652
 20
401.64588321249408
 30
0.0
 40
1.5
 50
270.0
 51
353.43757213136558
  0
ARC
  5
DB8
  8
0
 10
261.33599567586072
 20
409.84588321249419
 30
0.0
 40
1.0
 50
161.40717745057441
 51
270.0
  0
ARC
  5
DB9
  8
0
 10
272.40207639656171
 20
410.34588321249419
 30
0.0
 40
1.5
 50
270.0
 51
332.00543826774572
  0
LINE
  5
DBA
  8
CENTER
  6
CENTER
 10
268.53538404934562
 20
434.84588321249419
 30
0.0
 11
247.53538404934559
 21
434.84588321249419
 31
0.0
  0
POLYLINE
  5
DBB
  8
0
  6
CONTINUOUS
 66
     1
 10
0.0
 20
0.0
 30
0.0
 70
     1
  0
VERTEX
  5
1401
  8
0
  6
CONTINUOUS
 10
260.92213539529382
 20
439.84588321249419
 30
0.0
  0
VERTEX
  5
1402
  8
0
  6
CONTINUOUS
 10
263.80888674124191
 20
434.84588321249419
 30
0.0
  0
VERTEX
  5
1403
  8
0
  6
CONTINUOUS
 10
260.92213539529382
 20
429.84588321249419
 30
0.0
  0
VERTEX
  5
1404
  8
0
  6
CONTINUOUS
 10
255.14863270339751
 20
429.84588321249419
 30
0.0
  0
VERTEX
  5
1405
  8
0
  6
CONTINUOUS
 10
252.2618813574496
 20
434.84588321249419
 30
0.0
  0
VERTEX
  5
1406
  8
0
  6
CONTINUOUS
 10
255.14863270339751
 20
439.84588321249407
 30
0.0
  0
SEQEND
  5
1407
  8
0
  6
CONTINUOUS
  0
ARC
  5
DC3
  8
0
 10
258.03538404934562
 20
434.84588321249419
 30
0.0
 40
11.5
 50
243.74878606504441
 51
299.38150172435149
  0
ARC
  5
DC4
  8
0
 10
252.28538404934571
 20
423.18665939613288
 30
0.0
 40
1.5
 50
63.748786065043092
 51
180.0
  0
ARC
  5
DC5
  8
0
 10
269.36322338831161
 20
428.46779134183407
 30
0.0
 40
1.5
 50
150.61849827564831
 51
225.00000000000151
  0
ARC
  5
DC6
  8
0
 10
267.61128608675659
 20
421.0273404879639
 30
0.0
 40
1.0
 50
45.0
 51
139.98854197555499
  0
ARC
  5
DC7
  8
0
 10
264.41347592000591
 20
423.5180438735282
 30
0.0
 40
1.5
 50
44.999999999998458
 51
119.3815017243527
  0
ARC
  5
DC8
  8
0
 10
271.85392677387591
 20
425.26998117508322
 30
0.0
 40
1.0
 50
130.0114580244435
 51
225.0
  0
ARC
  5
DC9
  8
0
 10
258.03538404934562
 20
434.84588321249419
 30
0.0
 40
11.5
 50
330.61849827564839
 51
26.251213934927279
  0
LINE
  5
DCA
  8
0
 10
337.28538404934551
 20
374.50510702885532
 30
0.0
 11
337.28538404934551
 21
396.04588321249418
 31
0.0
  0
ARC
  5
DCB
  8
0
 10
294.03538404934568
 20
398.84588321249407
 30
0.0
 40
23.0
 50
323.21321070173809
 51
353.43757213136593
  0
ARC
  5
DCC
  8
0
 10
294.03538404934568
 20
398.84588321249407
 30
0.0
 40
35.5
 50
288.59282254942661
 51
310.0114580244437
  0
ARC
  5
DCD
  8
0
 10
308.7069385146749
 20
379.22458127885892
 30
0.0
 40
1.5
 50
45.0
 51
126.78678929826
  0
LINE
  5
DCE
  8
0
 10
318.37616023298432
 20
355.59588321249407
 30
0.0
 11
296.83538404934558
 21
355.59588321249407
 31
0.0
  0
LINE
  5
DCF
  8
0
 10
295.33538404934558
 20
357.09588321249407
 30
0.0
 11
295.33538404934558
 21
374.50640910149491
 31
0.0
  0
LINE
  5
DD0
  8
0
 10
292.73538404934573
 20
357.09588321249407
 30
0.0
 11
292.73538404934573
 21
374.50640910149491
 31
0.0
  0
LINE
  5
DD1
  8
0
 10
304.03538404934551
 20
357.09588321249407
 30
0.0
 11
304.03538404934551
 21
377.2125755597101
 31
0.0
  0
LINE
  5
DD2
  8
0
 10
284.03538404934562
 20
357.09588321249407
 30
0.0
 11
284.03538404934562
 21
377.2125755597101
 31
0.0
  0
ARC
  5
DD3
  8
0
 10
291.23538404934573
 20
357.09588321249407
 30
0.0
 40
1.5
 50
270.0
 51
0.0
  0
ARC
  5
DD4
  8
0
 10
282.53538404934562
 20
357.09588321249407
 30
0.0
 40
1.5
 50
270.0
 51
0.0
  0
ARC
  5
DD5
  8
0
 10
283.03538404934562
 20
366.14649483900922
 30
0.0
 40
1.0
 50
251.4071774505743
 51
0.0
  0
ARC
  5
DD6
  8
0
 10
296.83538404934558
 20
357.09588321249407
 30
0.0
 40
1.5
 50
180.0
 51
270.0
  0
ARC
  5
DD7
  8
0
 10
305.53538404934551
 20
357.09588321249407
 30
0.0
 40
1.5
 50
180.0
 51
270.0
  0
ARC
  5
DD8
  8
0
 10
305.03538404934551
 20
366.14649483900922
 30
0.0
 40
1.0
 50
180.0
 51
288.59282254942548
  0
ARC
  5
DD9
  8
0
 10
291.23538404934573
 20
374.50640910149491
 30
0.0
 40
1.5
 50
0.0
 51
83.437572131365485
  0
ARC
  5
DDA
  8
0
 10
294.03538404934568
 20
398.84588321249407
 30
0.0
 40
23.0
 50
233.21321070173809
 51
263.43757213136581
  0
ARC
  5
DDB
  8
0
 10
282.53538404934562
 20
377.2125755597101
 30
0.0
 40
1.5
 50
0.0
 51
62.005438267747621
  0
ARC
  5
DDC
  8
0
 10
279.36382958401629
 20
379.22458127885892
 30
0.0
 40
1.5
 50
53.213210701736521
 51
135.00000000000151
  0
ARC
  5
DDD
  8
0
 10
294.03538404934568
 20
398.84588321249407
 30
0.0
 40
23.0
 50
276.56242786863407
 51
306.78678929826168
  0
ARC
  5
DDE
  8
0
 10
296.83538404934558
 20
374.50640910149491
 30
0.0
 40
1.5
 50
96.562427868634515
 51
180.0
  0
ARC
  5
DDF
  8
0
 10
305.53538404934551
 20
377.2125755597101
 30
0.0
 40
1.5
 50
117.99456173225229
 51
180.0
  0
CIRCLE
  5
DE0
  8
0
 10
330.03538404934551
 20
362.84588321249419
 30
0.0
 40
9.0
  0
LINE
  5
DE1
  8
0
 10
319.7682048821593
 20
370.28463525493402
 30
0.0
 11
309.76759868645462
 21
380.28524145063869
 31
0.0
  0
LINE
  5
DE2
  8
CENTER
  6
CENTER
 10
330.03538404934551
 20
373.34588321249419
 30
0.0
 11
330.03538404934551
 21
352.34588321249419
 31
0.0
  0
LINE
  5
DE3
  8
CENTER
  6
CENTER
 10
340.53538404934551
 20
362.84588321249419
 30
0.0
 11
319.53538404934551
 21
362.84588321249419
 31
0.0
  0
POLYLINE
  5
DE4
  8
0
  6
CONTINUOUS
 66
     1
 10
0.0
 20
0.0
 30
0.0
 70
     1
  0
VERTEX
  5
1408
  8
0
  6
CONTINUOUS
 10
332.92213539529371
 20
367.84588321249407
 30
0.0
  0
VERTEX
  5
1409
  8
0
  6
CONTINUOUS
 10
335.80888674124179
 20
362.84588321249419
 30
0.0
  0
VERTEX
  5
140A
  8
0
  6
CONTINUOUS
 10
332.92213539529371
 20
357.84588321249407
 30
0.0
  0
VERTEX
  5
140B
  8
0
  6
CONTINUOUS
 10
327.14863270339748
 20
357.84588321249407
 30
0.0
  0
VERTEX
  5
140C
  8
0
  6
CONTINUOUS
 10
324.2618813574494
 20
362.84588321249419
 30
0.0
  0
VERTEX
  5
140D
  8
0
  6
CONTINUOUS
 10
327.14863270339748
 20
367.84588321249407
 30
0.0
  0
SEQEND
  5
140E
  8
0
  6
CONTINUOUS
  0
ARC
  5
DEC
  8
0
 10
330.03538404934551
 20
362.84588321249419
 30
0.0
 40
11.5
 50
150.61849827564831
 51
206.25121393492719
  0
ARC
  5
DED
  8
0
 10
318.37616023298432
 20
357.09588321249407
 30
0.0
 40
1.5
 50
270.0
 51
26.25121393499963
  0
ARC
  5
DEE
  8
0
 10
318.70754471037952
 20
369.22397508315419
 30
0.0
 40
1.5
 50
330.61849827564822
 51
45.0
  0
ARC
  5
DEF
  8
0
 10
330.03538404934551
 20
362.84588321249419
 30
0.0
 40
11.5
 50
63.748786065044527
 51
119.38150172435149
  0
LINE
  5
DF0
  8
0
 10
319.98513151765133
 20
379.34588321249419
 30
0.0
 11
335.78538404934551
 21
379.34588321249419
 31
0.0
  0
LINE
  5
DF1
  8
0
 10
322.59663200690551
 20
373.11306237968017
 30
0.0
 11
312.59602581120089
 21
383.11366857538491
 31
0.0
  0
ARC
  5
DF2
  8
0
 10
323.65729217868551
 20
374.17372255146012
 30
0.0
 40
1.5
 50
224.99999999999841
 51
299.38150172435058
  0
ARC
  5
DF3
  8
0
 10
316.21684132481522
 20
372.42178524990499
 30
0.0
 40
1.0
 50
310.01145802444182
 51
45.0
  0
ARC
  5
DF4
  8
0
 10
319.98513151765133
 20
377.8458832124943
 30
0.0
 40
1.5
 50
90.0
 51
225.00000000000301
  0
ARC
  5
DF5
  8
0
 10
313.6566859829806
 20
384.17432874716468
 30
0.0
 40
1.5
 50
143.2132107017386
 51
224.99999999999841
  0
ARC
  5
DF6
  8
0
 10
335.78538404934551
 20
374.50510702885532
 30
0.0
 40
1.5
 50
243.74878606504501
 51
0.0
  0
ARC
  5
DF7
  8
0
 10
335.78538404934551
 20
377.8458832124943
 30
0.0
 40
1.5
 50
0.0
 51
90.0
  0
ARC
  5
DF8
  8
0
 10
294.03538404934568
 20
398.84588321249407
 30
0.0
 40
35.5
 50
49.98854197555611
 51
71.407177450573386
  0
ARC
  5
DF9
  8
0
 10
308.7069385146749
 20
418.4671851461294
 30
0.0
 40
1.5
 50
233.21321070173991
 51
314.99999999999841
  0
ARC
  5
DFA
  8
0
 10
279.36382958401629
 20
418.4671851461294
 30
0.0
 40
1.5
 50
225.00000000000151
 51
306.78678929825992
  0
ARC
  5
DFB
  8
0
 10
291.23538404934573
 20
423.18535732349341
 30
0.0
 40
1.5
 50
276.56242786863447
 51
0.0
  0
ARC
  5
DFC
  8
0
 10
294.03538404934568
 20
398.84588321249407
 30
0.0
 40
23.0
 50
96.562427868634174
 51
126.7867892982617
  0
ARC
  5
DFD
  8
0
 10
282.53538404934562
 20
420.4791908652781
 30
0.0
 40
1.5
 50
297.99456173225229
 51
0.0
  0
ARC
  5
DFE
  8
0
 10
283.03538404934562
 20
431.54527158597892
 30
0.0
 40
1.0
 50
0.0
 51
108.5928225494286
  0
ARC
  5
DFF
  8
0
 10
294.03538404934568
 20
398.84588321249407
 30
0.0
 40
23.0
 50
53.213210701738248
 51
83.437572131365826
  0
ARC
  5
E00
  8
0
 10
296.83538404934558
 20
423.18535732349341
 30
0.0
 40
1.5
 50
180.0
 51
263.43757213136541
  0
ARC
  5
E01
  8
0
 10
305.53538404934551
 20
420.4791908652781
 30
0.0
 40
1.5
 50
180.0
 51
242.00543826774759
  0
ARC
  5
E02
  8
0
 10
305.03538404934551
 20
431.54527158597892
 30
0.0
 40
1.0
 50
71.407177450574423
 51
180.0
  0
ARC
  5
E03
  8
0
 10
335.78538404934551
 20
417.76208169958892
 30
0.0
 40
1.5
 50
270.0
 51
0.0
  0
LINE
  5
E04
  8
0
 10
337.28538404934551
 20
423.18665939613288
 30
0.0
 11
337.28538404934551
 21
401.64588321249408
 31
0.0
  0
ARC
  5
E05
  8
0
 10
317.4851315176515
 20
417.76208169958892
 30
0.0
 40
1.5
 50
171.50526946671781
 51
270.0
  0
LINE
  5
E06
  8
0
 10
322.59663200690551
 20
424.57870404530792
 30
0.0
 11
312.59602581120089
 21
414.57809784960318
 31
0.0
  0
LINE
  5
E07
  8
0
 10
317.1400377819229
 20
405.49603510664372
 30
0.0
 11
335.78538404934551
 21
405.49603510664372
 31
0.0
  0
LINE
  5
E08
  8
0
 10
317.4851315176515
 20
416.26208169958898
 30
0.0
 11
335.78538404934551
 21
416.26208169958898
 31
0.0
  0
LINE
  5
E09
  8
0
 10
335.78538404934551
 20
397.54588321249418
 30
0.0
 11
318.3748581603449
 21
397.54588321249418
 31
0.0
  0
LINE
  5
E0A
  8
0
 10
335.78538404934551
 20
400.14588321249408
 30
0.0
 11
318.3748581603449
 21
400.14588321249408
 31
0.0
  0
ARC
  5
E0B
  8
0
 10
317.1400377819229
 20
406.99603510664372
 30
0.0
 40
1.5
 50
199.43026151964591
 51
270.0
  0
ARC
  5
E0C
  8
0
 10
294.03538404934568
 20
398.84588321249407
 30
0.0
 40
23.0
 50
6.5624278686340274
 51
36.78678929826156
  0
ARC
  5
E0D
  8
0
 10
318.3748581603449
 20
396.04588321249418
 30
0.0
 40
1.5
 50
90.0
 51
173.4375721313655
  0
ARC
  5
E0E
  8
0
 10
318.3748581603449
 20
401.64588321249408
 30
0.0
 40
1.5
 50
186.5624278686345
 51
270.0
  0
ARC
  5
E0F
  8
0
 10
313.65668598298078
 20
413.51743767782352
 30
0.0
 40
1.5
 50
135.00000000000151
 51
216.78678929826
  0
ARC
  5
E10
  8
0
 10
335.78538404934551
 20
406.99603510664372
 30
0.0
 40
1.5
 50
270.0
 51
0.0
  0
ARC
  5
E11
  8
0
 10
335.78538404934551
 20
396.04588321249418
 30
0.0
 40
1.5
 50
0.0
 51
90.0
  0
ARC
  5
E12
  8
0
 10
335.78538404934551
 20
401.64588321249408
 30
0.0
 40
1.5
 50
270.0
 51
0.0
  0
LINE
  5
E13
  8
CENTER
  6
CENTER
 10
340.53538404934551
 20
434.84588321249419
 30
0.0
 11
319.53538404934551
 21
434.84588321249419
 31
0.0
  0
POLYLINE
  5
E14
  8
0
  6
CONTINUOUS
 66
     1
 10
0.0
 20
0.0
 30
0.0
 70
     1
  0
VERTEX
  5
140F
  8
0
  6
CONTINUOUS
 10
332.92213539529371
 20
439.84588321249419
 30
0.0
  0
VERTEX
  5
1410
  8
0
  6
CONTINUOUS
 10
335.80888674124179
 20
434.84588321249419
 30
0.0
  0
VERTEX
  5
1411
  8
0
  6
CONTINUOUS
 10
332.92213539529371
 20
429.84588321249419
 30
0.0
  0
VERTEX
  5
1412
  8
0
  6
CONTINUOUS
 10
327.14863270339748
 20
429.84588321249419
 30
0.0
  0
VERTEX
  5
1413
  8
0
  6
CONTINUOUS
 10
324.2618813574494
 20
434.84588321249419
 30
0.0
  0
VERTEX
  5
1414
  8
0
  6
CONTINUOUS
 10
327.14863270339748
 20
439.84588321249407
 30
0.0
  0
SEQEND
  5
1415
  8
0
  6
CONTINUOUS
  0
ARC
  5
E1C
  8
0
 10
330.03538404934551
 20
434.84588321249419
 30
0.0
 40
11.5
 50
240.61849827564839
 51
296.2512139349555
  0
ARC
  5
E1D
  8
0
 10
318.70754471037952
 20
428.46779134183407
 30
0.0
 40
1.5
 50
314.99999999999841
 51
29.3815017243517
  0
LINE
  5
E1E
  8
0
 10
319.7682048821593
 20
427.40713117005407
 30
0.0
 11
309.76759868645462
 21
417.4065249743494
 31
0.0
  0
ARC
  5
E1F
  8
0
 10
323.65729217868551
 20
423.5180438735282
 30
0.0
 40
1.5
 50
60.618498275649117
 51
135.00000000000151
  0
ARC
  5
E20
  8
0
 10
316.21684132481522
 20
425.26998117508322
 30
0.0
 40
1.0
 50
315.0
 51
49.98854197555648
  0
ARC
  5
E21
  8
0
 10
330.03538404934551
 20
434.84588321249419
 30
0.0
 40
11.5
 50
153.74878606506371
 51
209.38150172435141
  0
ARC
  5
E22
  8
0
 10
335.78538404934551
 20
423.18665939613288
 30
0.0
 40
1.5
 50
0.0
 51
116.2512139349549
  0
LINE
  5
E23
  8
0
 10
341.28538404934551
 20
434.84588321249419
 30
0.0
 11
341.28538404934551
 21
362.84588321249419
 31
0.0
  0
LINE
  5
E24
  8
0
  6
CONTINUOUS
 10
349.5353840493454
 20
369.84588321249407
 30
0.0
 11
349.5353840493454
 21
381.84588321249407
 31
0.0
  0
LINE
  5
E25
  8
0
  6
CONTINUOUS
 10
350.53538404934551
 20
369.84588321249407
 30
0.0
 11
352.53538404934551
 21
371.84588321249407
 31
0.0
  0
LINE
  5
E26
  8
0
  6
CONTINUOUS
 10
350.53538404934551
 20
369.84588321249407
 30
0.0
 11
350.53538404934551
 21
381.84588321249407
 31
0.0
  0
ARC
  5
E27
  8
0
  6
CONTINUOUS
 10
339.27316182712201
 20
371.09588321249419
 30
0.0
 40
10.338070658410899
 50
332.64729508745978
 51
27.352704912540158
  0
LINE
  5
E28
  8
0
  6
CONTINUOUS
 10
348.45538404934558
 20
366.34588321249407
 30
0.0
 11
341.53538404934551
 21
366.34588321249407
 31
0.0
  0
LINE
  5
E29
  8
0
  6
CONTINUOUS
 10
349.5353840493454
 20
369.84588321249407
 30
0.0
 11
350.53538404934551
 21
369.84588321249407
 31
0.0
  0
ARC
  5
E2A
  8
0
  6
CONTINUOUS
 10
339.27316182712201
 20
380.59588321249407
 30
0.0
 40
10.338070658410899
 50
332.64729508745978
 51
27.352704912540158
  0
LINE
  5
E2B
  8
0
  6
CONTINUOUS
 10
341.53538404934551
 20
375.84588321249407
 30
0.0
 11
348.45538404934558
 21
375.84588321249407
 31
0.0
  0
LINE
  5
E2C
  8
0
  6
CONTINUOUS
 10
341.53538404934551
 20
375.84588321249407
 30
0.0
 11
348.45538404934558
 21
375.84588321249407
 31
0.0
  0
LINE
  5
E2D
  8
0
  6
CONTINUOUS
 62
     2
 10
349.5353840493454
 20
371.04588321249491
 30
0.0
 11
351.73538404934629
 21
371.04588321249491
 31
0.0
  0
LINE
  5
E2E
  8
0
  6
CONTINUOUS
 62
     2
 10
349.5353840493454
 20
380.6458832124934
 30
0.0
 11
351.73538404934629
 21
380.6458832124934
 31
0.0
  0
LINE
  5
E2F
  8
0
  6
CONTINUOUS
 10
349.5353840493454
 20
381.84588321249407
 30
0.0
 11
350.53538404934551
 21
381.84588321249407
 31
0.0
  0
LINE
  5
E30
  8
0
  6
CONTINUOUS
 10
350.53538404934551
 20
381.84588321249407
 30
0.0
 11
352.53538404934551
 21
379.84588321249407
 31
0.0
  0
LINE
  5
E31
  8
0
  6
CONTINUOUS
 10
352.53538404934551
 20
371.84588321249407
 30
0.0
 11
352.53538404934551
 21
379.84588321249407
 31
0.0
  0
LINE
  5
E32
  8
0
  6
CONTINUOUS
 10
348.45538404934558
 20
385.34588321249419
 30
0.0
 11
341.53538404934551
 21
385.34588321249419
 31
0.0
  0
LINE
  5
E33
  8
0
 10
341.53538404934551
 20
446.34588321249407
 30
0.0
 11
206.53538404934571
 21
446.34588321249407
 31
0.0
  0
LINE
  5
E34
  8
0
 10
330.03538404934551
 20
446.09588321249419
 30
0.0
 11
258.03538404934562
 21
446.09588321249419
 31
0.0
  0
LINE
  5
E35
  8
0
 10
269.6946078657071
 20
442.09588321249419
 30
0.0
 11
291.23538404934573
 21
442.09588321249419
 31
0.0
  0
LINE
  5
E36
  8
0
 10
306.03538404934551
 20
457.34588321249407
 30
0.0
 11
210.03538404934559
 21
457.34588321249419
 31
0.0
  0
LINE
  5
E37
  8
0
 10
305.03538404934551
 20
458.3458832124943
 30
0.0
 11
211.03538404934559
 21
458.3458832124943
 31
0.0
  0
LINE
  5
E38
  8
0
 10
210.03538404934559
 20
457.34588321249419
 30
0.0
 11
210.03538404934559
 21
446.34588321249407
 31
0.0
  0
LINE
  5
E39
  8
0
 10
211.03538404934559
 20
458.3458832124943
 30
0.0
 11
210.03538404934559
 21
457.34588321249419
 31
0.0
  0
LINE
  5
E3A
  8
0
 10
318.37616023298432
 20
442.09588321249419
 30
0.0
 11
296.83538404934558
 21
442.09588321249419
 31
0.0
  0
ARC
  5
E3B
  8
0
 10
291.23538404934573
 20
440.59588321249419
 30
0.0
 40
1.5
 50
0.0
 51
90.0
  0
ARC
  5
E3C
  8
0
 10
282.53538404934562
 20
440.59588321249419
 30
0.0
 40
1.5
 50
0.0
 51
90.0
  0
LINE
  5
E3D
  8
0
 10
306.03538404934551
 20
457.34588321249419
 30
0.0
 11
306.03538404934562
 21
446.34588321249407
 31
0.0
  0
ARC
  5
E3E
  8
0
 10
296.83538404934558
 20
440.59588321249419
 30
0.0
 40
1.5
 50
90.0
 51
180.0
  0
ARC
  5
E3F
  8
0
 10
305.53538404934551
 20
440.59588321249419
 30
0.0
 40
1.5
 50
90.0
 51
180.0
  0
LINE
  5
E40
  8
0
 10
305.03538404934551
 20
458.3458832124943
 30
0.0
 11
306.03538404934551
 21
457.34588321249419
 31
0.0
  0
LINE
  5
E41
  8
DIM
  6
CONTINUOUS
 10
1049.9890588629189
 20
339.34588321249419
 30
0.0
 11
1049.9890588629189
 21
458.34588321249407
 31
0.0
  0
SOLID
  5
E42
  8
DIM
  6
CONTINUOUS
 10
916.56760374990381
 20
442.65364757322368
 30
0.0
 11
915.64269560527146
 21
442.27345693158082
 31
0.0
 12
917.24572160251614
 22
439.68882781850522
 32
0.0
 13
917.24572160251614
 23
439.68882781850522
 33
0.0
  0
LINE
  5
E43
  8
0
 10
1041.9890588629189
 20
446.34588321249407
 30
0.0
 11
1041.9890588629189
 21
351.34588321249407
 31
0.0
  0
LINE
  5
E44
  8
0
 10
906.98905886291971
 20
446.34588321249407
 30
0.0
 11
906.98905886291971
 21
351.3458832124943
 31
0.0
  0
ARC
  5
E45
  8
0
 10
990.48905886291982
 20
434.84588321249419
 30
0.0
 40
11.25
 50
0.0
 51
90.0
  0
ARC
  5
E46
  8
0
 10
990.48905886291982
 20
434.84588321249419
 30
0.0
 40
11.5
 50
0.0
 51
90.0
  0
ARC
  5
E47
  8
0
 10
978.8298350465584
 20
440.59588321249419
 30
0.0
 40
1.5
 50
333.74878606499061
 51
90.0
  0
CIRCLE
  5
E48
  8
0
 10
990.48905886291982
 20
434.84588321249419
 30
0.0
 40
9.0
  0
LINE
  5
E49
  8
CENTER
  6
CENTER
 10
990.48905886291982
 20
461.5682460272493
 30
0.0
 11
990.48905886291982
 21
336.34588321249407
 31
0.0
  0
ARC
  5
E4A
  8
0
 10
930.14828267928101
 20
440.59588321249419
 30
0.0
 40
1.5
 50
90.0
 51
206.251213935019
  0
LINE
  5
E4B
  8
0
 10
944.48905886291971
 20
440.59588321249419
 30
0.0
 11
944.48905886291971
 21
420.4791908652781
 31
0.0
  0
LINE
  5
E4C
  8
0
 10
955.78905886291966
 20
440.59588321249419
 30
0.0
 11
955.78905886291966
 21
423.18535732349341
 31
0.0
  0
LINE
  5
E4D
  8
0
 10
953.18905886291986
 20
440.59588321249419
 30
0.0
 11
953.18905886291986
 21
423.18535732349341
 31
0.0
  0
LINE
  5
E4E
  8
0
 10
964.48905886291982
 20
440.59588321249419
 30
0.0
 11
964.48905886291982
 21
420.4791908652781
 31
0.0
  0
ARC
  5
E4F
  8
0
 10
918.48905886291982
 20
434.84588321249419
 30
0.0
 40
11.25
 50
90.0
 51
180.0
  0
ARC
  5
E50
  8
0
 10
918.48905886291982
 20
434.84588321249419
 30
0.0
 40
11.5
 50
90.0
 51
180.0
  0
LINE
  5
E51
  8
CENTER
  6
CENTER
 10
918.48905886291982
 20
445.34588321249407
 30
0.0
 11
918.48905886291982
 21
424.34588321249407
 31
0.0
  0
CIRCLE
  5
E52
  8
0
 10
918.48905886291982
 20
434.84588321249419
 30
0.0
 40
9.0
  0
LINE
  5
E53
  8
CENTER
  6
CENTER
 10
954.48905886291993
 20
449.34588321249407
 30
0.0
 11
954.48905886291993
 21
348.34588321249419
 31
0.0
  0
LINE
  5
E54
  8
DIM
  6
CONTINUOUS
 10
906.98905886291971
 20
315.34588321249407
 30
0.0
 11
1041.9890588629189
 21
315.3458832124943
 31
0.0
  0
LINE
  5
E55
  8
DIM
  6
CONTINUOUS
 10
906.98905886291971
 20
323.34588321249419
 30
0.0
 11
1001.989058862919
 21
323.34588321249419
 31
0.0
  0
LINE
  5
E56
  8
0
 10
906.98905886291971
 20
351.3458832124943
 30
0.0
 11
1041.9890588629189
 21
351.34588321249407
 31
0.0
  0
ARC
  5
E57
  8
0
 10
918.48905886291982
 20
434.84588321249419
 30
0.0
 40
11.5
 50
330.61849827564839
 51
26.251213934945589
  0
ARC
  5
E58
  8
0
 10
928.53931139461395
 20
419.84588321249402
 30
0.0
 40
1.5
 50
270.0
 51
45.0
  0
LINE
  5
E59
  8
0
 10
925.92781090535982
 20
424.57870404530792
 30
0.0
 11
935.92841710106438
 21
414.57809784960318
 31
0.0
  0
LINE
  5
E5A
  8
0
 10
928.75623803010615
 20
427.40713117005407
 30
0.0
 11
938.75684422581071
 21
417.4065249743494
 31
0.0
  0
LINE
  5
E5B
  8
0
 10
912.73905886291982
 20
397.54588321249418
 30
0.0
 11
930.14958475192043
 21
397.54588321249418
 31
0.0
  0
LINE
  5
E5C
  8
0
 10
912.73905886291982
 20
400.14588321249408
 30
0.0
 11
930.14958475192043
 21
400.14588321249408
 31
0.0
  0
LINE
  5
E5D
  8
CENTER
  6
CENTER
 10
903.98905886291982
 20
398.84588321249407
 30
0.0
 11
1044.834861141861
 21
398.84588321249407
 31
0.0
  0
LINE
  5
E5E
  8
0
 10
925.92781090535982
 20
373.11306237968017
 30
0.0
 11
935.92841710106438
 21
383.11366857538491
 31
0.0
  0
LINE
  5
E5F
  8
0
 10
928.75623803010615
 20
370.28463525493402
 30
0.0
 11
938.75684422581071
 21
380.28524145063869
 31
0.0
  0
ARC
  5
E60
  8
0
 10
930.14828267928101
 20
357.09588321249407
 30
0.0
 40
1.5
 50
153.7487860649945
 51
270.0
  0
ARC
  5
E61
  8
0
 10
918.48905886291982
 20
362.84588321249419
 30
0.0
 40
11.5
 50
333.7487860650632
 51
29.381501724351519
  0
LINE
  5
E62
  8
0
 10
931.38440513034254
 20
392.1957313183446
 30
0.0
 11
912.73905886291982
 21
392.1957313183446
 31
0.0
  0
LINE
  5
E63
  8
0
 10
931.03931139461395
 20
381.4296847253994
 30
0.0
 11
912.73905886291982
 21
381.4296847253994
 31
0.0
  0
LINE
  5
E64
  8
0
 10
918.48905886291982
 20
351.59588321249407
 30
0.0
 11
990.48905886291982
 21
351.59588321249407
 31
0.0
  0
LINE
  5
E65
  8
DIM
  6
CONTINUOUS
 10
906.98905886291971
 20
350.34588321249419
 30
0.0
 11
906.98905886291971
 21
314.3458832124943
 31
0.0
  0
SOLID
  5
E66
  8
DIM
  6
CONTINUOUS
 10
909.98905886291982
 20
315.8458832124943
 30
0.0
 11
909.98905886291982
 21
314.84588321249419
 31
0.0
 12
906.98905886291971
 22
315.3458832124943
 32
0.0
 13
906.98905886291971
 23
315.3458832124943
 33
0.0
  0
SOLID
  5
E67
  8
DIM
  6
CONTINUOUS
 10
909.98905886291982
 20
323.8458832124943
 30
0.0
 11
909.98905886291982
 21
322.8458832124943
 31
0.0
 12
906.98905886291971
 22
323.34588321249419
 32
0.0
 13
906.98905886291971
 23
323.34588321249419
 33
0.0
  0
POLYLINE
  5
E68
  8
DIM
  6
CONTINUOUS
 66
     1
 10
0.0
 20
0.0
 30
0.0
 70
     1
  0
VERTEX
  5
1416
  8
DIM
  6
CONTINUOUS
 10
884.07604354859154
 20
395.784925040519
 30
0.0
  0
VERTEX
  5
1417
  8
DIM
  6
CONTINUOUS
 10
884.07604354859154
 20
393.68493026070058
 30
0.0
  0
VERTEX
  5
1418
  8
DIM
  6
CONTINUOUS
 10
886.10630055795411
 20
393.68493026070058
 30
0.0
  0
VERTEX
  5
1419
  8
DIM
  6
CONTINUOUS
 10
886.10630055795411
 20
395.784925040519
 30
0.0
  0
SEQEND
  5
141A
  8
DIM
  6
CONTINUOUS
  0
LINE
  5
E6E
  8
DIM
  6
CONTINUOUS
 10
887.98905886291959
 20
362.84588321249419
 30
0.0
 11
887.98905886291982
 21
434.84588321249419
 31
0.0
  0
LINE
  5
E6F
  8
0
 10
911.23905886291982
 20
374.50510702885532
 30
0.0
 11
911.23905886291982
 21
396.04588321249418
 31
0.0
  0
LINE
  5
E70
  8
0
 10
907.23905886291993
 20
434.84588321249419
 30
0.0
 11
907.23905886291993
 21
362.84588321249419
 31
0.0
  0
LINE
  5
E71
  8
DIM
  6
CONTINUOUS
 10
906.98905886291971
 20
362.84588321249419
 30
0.0
 11
886.98905886291982
 21
362.84588321249419
 31
0.0
  0
LINE
  5
E72
  8
0
  6
CONTINUOUS
 10
897.98905886291971
 20
381.84588321249407
 30
0.0
 11
895.98905886291982
 21
379.84588321249407
 31
0.0
  0
LINE
  5
E73
  8
0
  6
CONTINUOUS
 10
897.98905886291971
 20
369.84588321249407
 30
0.0
 11
895.98905886291982
 21
371.84588321249407
 31
0.0
  0
LINE
  5
E74
  8
0
  6
CONTINUOUS
 62
     2
 10
898.98905886291971
 20
380.6458832124934
 30
0.0
 11
896.78905886291898
 21
380.6458832124934
 31
0.0
  0
LINE
  5
E75
  8
0
  6
CONTINUOUS
 62
     2
 10
898.98905886291971
 20
371.04588321249491
 30
0.0
 11
896.78905886291898
 21
371.04588321249491
 31
0.0
  0
LINE
  5
E76
  8
CENTER
  6
CENTER
 10
891.98905886291993
 20
375.84588321249407
 30
0.0
 11
927.20248288429616
 21
375.84588321249407
 31
0.0
  0
SOLID
  5
E77
  8
DIM
  6
CONTINUOUS
 10
887.48905886291971
 20
365.84588321249407
 30
0.0
 11
888.48905886291993
 21
365.84588321249407
 31
0.0
 12
887.98905886291982
 22
362.84588321249419
 32
0.0
 13
887.98905886291982
 23
362.84588321249419
 33
0.0
  0
LINE
  5
E78
  8
0
  6
CONTINUOUS
 10
895.98905886291982
 20
371.84588321249407
 30
0.0
 11
895.98905886291982
 21
379.84588321249407
 31
0.0
  0
ARC
  5
E79
  8
0
  6
CONTINUOUS
 10
909.25128108514332
 20
371.09588321249419
 30
0.0
 40
10.338070658410899
 50
152.64729508745981
 51
207.3527049125401
  0
LINE
  5
E7A
  8
0
  6
CONTINUOUS
 10
897.98905886291971
 20
369.84588321249407
 30
0.0
 11
897.98905886291971
 21
381.84588321249407
 31
0.0
  0
LINE
  5
E7B
  8
0
  6
CONTINUOUS
 10
898.98905886291971
 20
369.84588321249407
 30
0.0
 11
898.98905886291971
 21
381.84588321249407
 31
0.0
  0
LINE
  5
E7C
  8
CENTER
  6
CENTER
 10
918.48905886291982
 20
373.34588321249419
 30
0.0
 11
918.48905886291982
 21
352.34588321249419
 31
0.0
  0
CIRCLE
  5
E7D
  8
0
 10
918.48905886291982
 20
362.84588321249419
 30
0.0
 40
9.0
  0
ARC
  5
E7E
  8
0
 10
918.48905886291982
 20
362.84588321249419
 30
0.0
 40
11.25
 50
180.0
 51
270.0
  0
ARC
  5
E7F
  8
0
 10
918.48905886291982
 20
362.84588321249419
 30
0.0
 40
11.5
 50
180.0
 51
270.0
  0
POLYLINE
  5
E80
  8
0
  6
CONTINUOUS
 66
     1
 10
0.0
 20
0.0
 30
0.0
 70
     1
  0
VERTEX
  5
141B
  8
0
  6
CONTINUOUS
 10
915.60230751697156
 20
367.84588321249407
 30
0.0
  0
VERTEX
  5
141C
  8
0
  6
CONTINUOUS
 10
912.71555617102354
 20
362.84588321249419
 30
0.0
  0
VERTEX
  5
141D
  8
0
  6
CONTINUOUS
 10
915.60230751697156
 20
357.84588321249407
 30
0.0
  0
VERTEX
  5
141E
  8
0
  6
CONTINUOUS
 10
921.37581020886773
 20
357.84588321249407
 30
0.0
  0
VERTEX
  5
141F
  8
0
  6
CONTINUOUS
 10
924.26256155481576
 20
362.84588321249419
 30
0.0
  0
VERTEX
  5
1420
  8
0
  6
CONTINUOUS
 10
921.37581020886773
 20
367.84588321249407
 30
0.0
  0
SEQEND
  5
1421
  8
0
  6
CONTINUOUS
  0
LINE
  5
E88
  8
CENTER
  6
CENTER
 10
907.98905886291971
 20
362.84588321249419
 30
0.0
 11
928.98905886291982
 21
362.84588321249419
 31
0.0
  0
LINE
  5
E89
  8
0
  6
CONTINUOUS
 10
900.06905886291975
 20
366.34588321249407
 30
0.0
 11
906.98905886291971
 21
366.34588321249407
 31
0.0
  0
LINE
  5
E8A
  8
0
  6
CONTINUOUS
 10
898.98905886291971
 20
369.84588321249407
 30
0.0
 11
897.98905886291971
 21
369.84588321249407
 31
0.0
  0
ARC
  5
E8B
  8
0
 10
929.81689820188569
 20
369.22397508315419
 30
0.0
 40
1.5
 50
134.9999999999969
 51
209.3815017243528
  0
LINE
  5
E8C
  8
CENTER
  6
CENTER
 10
903.94292534855265
 20
388.84588321249407
 30
0.0
 11
926.4857668542212
 21
388.84588321249407
 31
0.0
  0
ARC
  5
E8D
  8
0
 10
918.48905886291982
 20
362.84588321249419
 30
0.0
 40
11.5
 50
60.618498275648491
 51
116.2512139349564
  0
ARC
  5
E8E
  8
0
  6
CONTINUOUS
 10
909.25128108514332
 20
380.59588321249407
 30
0.0
 40
10.338070658410899
 50
152.64729508745981
 51
207.3527049125401
  0
LINE
  5
E8F
  8
0
  6
CONTINUOUS
 10
906.98905886291971
 20
375.84588321249407
 30
0.0
 11
900.06905886291975
 21
375.84588321249407
 31
0.0
  0
LINE
  5
E90
  8
0
  6
CONTINUOUS
 10
906.98905886291971
 20
375.84588321249407
 30
0.0
 11
900.06905886291975
 21
375.84588321249407
 31
0.0
  0
LINE
  5
E91
  8
0
  6
CONTINUOUS
 10
898.98905886291971
 20
381.84588321249407
 30
0.0
 11
897.98905886291971
 21
381.84588321249407
 31
0.0
  0
ARC
  5
E92
  8
0
 10
912.73905886291982
 20
379.9296847253994
 30
0.0
 40
1.5
 50
90.0
 51
180.0
  0
ARC
  5
E93
  8
0
 10
912.73905886291982
 20
374.50510702885532
 30
0.0
 40
1.5
 50
180.0
 51
296.25121393495112
  0
LINE
  5
E94
  8
0
  6
CONTINUOUS
 10
900.06905886291975
 20
385.34588321249419
 30
0.0
 11
906.98905886291971
 21
385.34588321249419
 31
0.0
  0
ARC
  5
E95
  8
0
 10
912.73905886291982
 20
390.6957313183446
 30
0.0
 40
1.5
 50
90.0
 51
180.0
  0
ARC
  5
E96
  8
0
 10
924.86715073357982
 20
374.17372255146012
 30
0.0
 40
1.5
 50
240.6184982756493
 51
314.99999999999687
  0
LINE
  5
E97
  8
DIM
  6
CONTINUOUS
 10
906.98905886291971
 20
434.84588321249419
 30
0.0
 11
886.98905886291982
 21
434.84588321249419
 31
0.0
  0
TEXT
  5
E98
  8
DIM
  6
CONTINUOUS
 10
886.48905886291971
 20
396.41731178392268
 30
0.0
 40
3.0
  1
72
 50
90.0
  7
ROMANSS
 72
     1
 11
884.98905886291982
 21
398.84588321249407
 31
0.0
 73
     2
  0
SOLID
  5
E99
  8
DIM
  6
CONTINUOUS
 10
887.48905886291971
 20
431.84588321249407
 30
0.0
 11
888.48905886291993
 21
431.84588321249407
 31
0.0
 12
887.98905886291982
 22
434.84588321249419
 32
0.0
 13
887.98905886291982
 23
434.84588321249419
 33
0.0
  0
LINE
  5
E9A
  8
0
 10
911.23905886291982
 20
423.18665939613288
 30
0.0
 11
911.23905886291982
 21
401.64588321249408
 31
0.0
  0
LINE
  5
E9B
  8
CENTER
  6
CENTER
 10
903.76909788638886
 20
405.84588321249419
 30
0.0
 11
927.34213483271628
 21
405.84588321249419
 31
0.0
  0
ARC
  5
E9C
  8
0
 10
912.73905886291982
 20
396.04588321249418
 30
0.0
 40
1.5
 50
90.0
 51
180.0
  0
ARC
  5
E9D
  8
0
 10
912.73905886291982
 20
401.64588321249408
 30
0.0
 40
1.5
 50
180.0
 51
270.0
  0
ARC
  5
E9E
  8
0
 10
918.48905886291982
 20
434.84588321249419
 30
0.0
 40
11.5
 50
243.7487860650437
 51
299.38150172435149
  0
LINE
  5
E9F
  8
0
 10
928.53931139461395
 20
418.34588321249402
 30
0.0
 11
912.73905886291982
 21
418.34588321249402
 31
0.0
  0
POLYLINE
  5
EA0
  8
0
  6
CONTINUOUS
 66
     1
 10
0.0
 20
0.0
 30
0.0
 70
     1
  0
VERTEX
  5
1422
  8
0
  6
CONTINUOUS
 10
915.60230751697156
 20
439.84588321249419
 30
0.0
  0
VERTEX
  5
1423
  8
0
  6
CONTINUOUS
 10
912.71555617102354
 20
434.84588321249419
 30
0.0
  0
VERTEX
  5
1424
  8
0
  6
CONTINUOUS
 10
915.60230751697156
 20
429.84588321249419
 30
0.0
  0
VERTEX
  5
1425
  8
0
  6
CONTINUOUS
 10
921.37581020886773
 20
429.84588321249419
 30
0.0
  0
VERTEX
  5
1426
  8
0
  6
CONTINUOUS
 10
924.26256155481576
 20
434.84588321249419
 30
0.0
  0
VERTEX
  5
1427
  8
0
  6
CONTINUOUS
 10
921.37581020886773
 20
439.84588321249407
 30
0.0
  0
SEQEND
  5
1428
  8
0
  6
CONTINUOUS
  0
LINE
  5
EA8
  8
CENTER
  6
CENTER
 10
907.98905886291971
 20
434.84588321249419
 30
0.0
 11
928.98905886291982
 21
434.84588321249419
 31
0.0
  0
ARC
  5
EA9
  8
0
 10
912.73905886291982
 20
423.18665939613288
 30
0.0
 40
1.5
 50
63.748786065048918
 51
180.0
  0
ARC
  5
EAA
  8
0
 10
912.73905886291982
 20
419.84588321249402
 30
0.0
 40
1.5
 50
180.0
 51
270.0
  0
ARC
  5
EAB
  8
0
 10
929.81689820188569
 20
428.46779134183407
 30
0.0
 40
1.5
 50
150.6184982756472
 51
225.00000000000301
  0
ARC
  5
EAC
  8
0
 10
924.86715073357982
 20
423.5180438735282
 30
0.0
 40
1.5
 50
45.0
 51
119.3815017243527
  0
LINE
  5
EAD
  8
DIM
  6
CONTINUOUS
 10
1041.9890588629189
 20
350.34588321249419
 30
0.0
 11
1041.9890588629189
 21
314.3458832124943
 31
0.0
  0
LINE
  5
EAE
  8
DIM
  6
CONTINUOUS
 10
1001.989058862919
 20
361.84588321249407
 30
0.0
 11
1001.989058862919
 21
332.56298312972092
 31
0.0
  0
LINE
  5
EAF
  8
0
 10
1038.4890588629189
 20
351.34588321249407
 30
0.0
 11
1038.4890588629189
 21
340.34588321249407
 31
0.0
  0
LINE
  5
EB0
  8
0
 10
942.48905886291959
 20
351.34588321249407
 30
0.0
 11
942.48905886291982
 21
340.3458832124943
 31
0.0
  0
LINE
  5
EB1
  8
DIM
  6
CONTINUOUS
 10
954.48905886291993
 20
331.34588321249419
 30
0.0
 11
1041.9890588629189
 21
331.34588321249419
 31
0.0
  0
LINE
  5
EB2
  8
0
 10
942.48905886291982
 20
340.34588321249407
 30
0.0
 11
1038.4890588629189
 21
340.34588321249407
 31
0.0
  0
LINE
  5
EB3
  8
0
 10
943.48905886291982
 20
339.3458832124943
 30
0.0
 11
1037.4890588629189
 21
339.34588321249419
 31
0.0
  0
LINE
  5
EB4
  8
0
 10
942.48905886291982
 20
340.3458832124943
 30
0.0
 11
943.48905886291982
 21
339.3458832124943
 31
0.0
  0
LINE
  5
EB5
  8
DIM
  6
CONTINUOUS
 10
954.48905886291993
 20
347.34588321249407
 30
0.0
 11
954.48905886291993
 21
330.3458832124943
 31
0.0
  0
TEXT
  5
EB6
  8
DIM
  6
CONTINUOUS
 10
952.06048743434826
 20
324.8458832124943
 30
0.0
 40
3.0
  1
95
  7
ROMANSS
 72
     1
 11
954.48905886291993
 21
326.3458832124943
 31
0.0
 73
     2
  0
SOLID
  5
EB7
  8
DIM
  6
CONTINUOUS
 10
957.48905886291982
 20
331.84588321249419
 30
0.0
 11
957.48905886291982
 21
330.8458832124943
 31
0.0
 12
954.48905886291993
 22
331.34588321249419
 32
0.0
 13
954.48905886291993
 23
331.34588321249419
 33
0.0
  0
POLYLINE
  5
EB8
  8
DIM
  6
CONTINUOUS
 66
     1
 10
0.0
 20
0.0
 30
0.0
 70
     1
  0
VERTEX
  5
1429
  8
DIM
  6
CONTINUOUS
 10
951.46212154991417
 20
327.26340029243988
 30
0.0
  0
VERTEX
  5
142A
  8
DIM
  6
CONTINUOUS
 10
951.46212154991417
 20
325.03647197843549
 30
0.0
  0
VERTEX
  5
142B
  8
DIM
  6
CONTINUOUS
 10
949.35573801034639
 20
325.03647197843549
 30
0.0
  0
VERTEX
  5
142C
  8
DIM
  6
CONTINUOUS
 10
949.35573801034639
 20
327.26340029243988
 30
0.0
  0
SEQEND
  5
142D
  8
DIM
  6
CONTINUOUS
  0
TEXT
  5
EBE
  8
DIM
  6
CONTINUOUS
 10
970.91763029149115
 20
316.84588321249419
 30
0.0
 40
3.0
  1
135
  7
ROMANSS
 72
     1
 11
974.48905886291982
 21
318.3458832124943
 31
0.0
 73
     2
  0
TEXT
  5
EBF
  8
DIM
  6
CONTINUOUS
 10
970.13191600577693
 20
332.8458832124943
 30
0.0
 40
3.0
  1
36
  7
ROMANSS
 72
     1
 11
972.48905886291982
 21
334.3458832124943
 31
0.0
 73
     2
  0
SOLID
  5
EC0
  8
DIM
  6
CONTINUOUS
 10
987.48905886291971
 20
331.84588321249419
 30
0.0
 11
987.48905886291971
 21
330.8458832124943
 31
0.0
 12
990.48905886291982
 22
331.34588321249419
 32
0.0
 13
990.48905886291982
 23
331.34588321249419
 33
0.0
  0
SOLID
  5
EC1
  8
DIM
  6
CONTINUOUS
 10
993.48905886291982
 20
331.84588321249419
 30
0.0
 11
993.48905886291982
 21
330.8458832124943
 31
0.0
 12
990.48905886291982
 22
331.34588321249419
 32
0.0
 13
990.48905886291982
 23
331.34588321249419
 33
0.0
  0
LINE
  5
EC2
  8
DIM
  6
CONTINUOUS
 10
990.48905886291982
 20
335.34588321249419
 30
0.0
 11
990.48905886291982
 21
330.3458832124943
 31
0.0
  0
LINE
  5
EC3
  8
DIM
  6
CONTINUOUS
 10
990.48905886291982
 20
335.34588321249419
 30
0.0
 11
990.48905886291982
 21
330.3458832124943
 31
0.0
  0
LINE
  5
EC4
  8
DIM
  6
CONTINUOUS
 10
1001.989058862919
 20
330.12875908978822
 30
0.0
 11
1001.989058862919
 21
322.3458832124943
 31
0.0
  0
SOLID
  5
EC5
  8
DIM
  6
CONTINUOUS
 10
998.98905886291971
 20
323.8458832124943
 30
0.0
 11
998.98905886291971
 21
322.8458832124943
 31
0.0
 12
1001.989058862919
 22
323.34588321249419
 32
0.0
 13
1001.989058862919
 23
323.34588321249419
 33
0.0
  0
TEXT
  5
EC6
  8
DIM
  6
CONTINUOUS
 10
1011.953344577205
 20
332.8458832124943
 30
0.0
 40
3.0
  1
51.5
  7
ROMANSS
 72
     1
 11
1016.239058862919
 21
334.3458832124943
 31
0.0
 73
     2
  0
SOLID
  5
EC7
  8
DIM
  6
CONTINUOUS
 10
1038.9890588629189
 20
315.8458832124943
 30
0.0
 11
1038.9890588629189
 21
314.84588321249419
 31
0.0
 12
1041.9890588629189
 22
315.3458832124943
 32
0.0
 13
1041.9890588629189
 23
315.3458832124943
 33
0.0
  0
LINE
  5
EC8
  8
DIM
  6
CONTINUOUS
 10
1038.4890588629189
 20
339.34588321249419
 30
0.0
 11
1058.9890588629189
 21
339.34588321249419
 31
0.0
  0
SOLID
  5
EC9
  8
DIM
  6
CONTINUOUS
 10
1038.9890588629189
 20
331.84588321249419
 30
0.0
 11
1038.9890588629189
 21
330.8458832124943
 31
0.0
 12
1041.9890588629189
 22
331.34588321249419
 32
0.0
 13
1041.9890588629189
 23
331.34588321249419
 33
0.0
  0
LINE
  5
ECA
  8
0
 10
1038.4890588629189
 20
340.34588321249407
 30
0.0
 11
1037.4890588629189
 21
339.34588321249419
 31
0.0
  0
TEXT
  5
ECB
  8
DIM
  6
CONTINUOUS
 10
1048.4890588629189
 20
343.20302606963702
 30
0.0
 40
3.0
  1
12
 50
90.0
  7
ROMANSS
 72
     1
 11
1046.9890588629189
 21
345.34588321249407
 31
0.0
 73
     2
  0
SOLID
  5
ECC
  8
DIM
  6
CONTINUOUS
 10
1049.4890588629189
 20
342.34588321249407
 30
0.0
 11
1050.4890588629189
 21
342.34588321249407
 31
0.0
 12
1049.9890588629189
 22
339.34588321249419
 32
0.0
 13
1049.9890588629189
 23
339.34588321249419
 33
0.0
  0
SOLID
  5
ECD
  8
DIM
  6
CONTINUOUS
 10
1057.4890588629189
 20
342.34588321249407
 30
0.0
 11
1058.4890588629189
 21
342.34588321249407
 31
0.0
 12
1057.9890588629189
 22
339.34588321249419
 32
0.0
 13
1057.9890588629189
 23
339.34588321249419
 33
0.0
  0
LINE
  5
ECE
  8
CENTER
  6
CENTER
 10
979.98905886291982
 20
434.84588321249419
 30
0.0
 11
1000.98905886292
 21
434.84588321249419
 31
0.0
  0
POLYLINE
  5
ECF
  8
0
  6
CONTINUOUS
 66
     1
 10
0.0
 20
0.0
 30
0.0
 70
     1
  0
VERTEX
  5
142E
  8
0
  6
CONTINUOUS
 10
987.60230751697168
 20
439.84588321249419
 30
0.0
  0
VERTEX
  5
142F
  8
0
  6
CONTINUOUS
 10
984.71555617102365
 20
434.84588321249419
 30
0.0
  0
VERTEX
  5
1430
  8
0
  6
CONTINUOUS
 10
987.60230751697168
 20
429.84588321249419
 30
0.0
  0
VERTEX
  5
1431
  8
0
  6
CONTINUOUS
 10
993.37581020886785
 20
429.84588321249419
 30
0.0
  0
VERTEX
  5
1432
  8
0
  6
CONTINUOUS
 10
996.26256155481587
 20
434.84588321249419
 30
0.0
  0
VERTEX
  5
1433
  8
0
  6
CONTINUOUS
 10
993.37581020886785
 20
439.84588321249407
 30
0.0
  0
SEQEND
  5
1434
  8
0
  6
CONTINUOUS
  0
ARC
  5
ED7
  8
0
 10
996.23905886291971
 20
423.18665939613288
 30
0.0
 40
1.5
 50
0.0
 51
116.2512139349608
  0
LINE
  5
ED8
  8
0
 10
996.23905886291971
 20
408.84588321249407
 30
0.0
 11
976.12236651570379
 21
408.84588321249407
 31
0.0
  0
LINE
  5
ED9
  8
0
 10
996.23905886291971
 20
400.14588321249408
 30
0.0
 11
978.82853297391898
 21
400.14588321249408
 31
0.0
  0
LINE
  5
EDA
  8
0
 10
996.23905886291971
 20
397.54588321249418
 30
0.0
 11
978.82853297391898
 21
397.54588321249418
 31
0.0
  0
ARC
  5
EDB
  8
0
 10
996.23905886291971
 20
374.50510702885532
 30
0.0
 40
1.5
 50
243.74878606503921
 51
0.0
  0
LINE
  5
EDC
  8
0
 10
996.23905886291971
 20
388.84588321249407
 30
0.0
 11
976.12236651570379
 21
388.84588321249407
 31
0.0
  0
LINE
  5
EDD
  8
CENTER
  6
CENTER
 10
979.98905886291982
 20
362.84588321249419
 30
0.0
 11
1000.98905886292
 21
362.84588321249419
 31
0.0
  0
POLYLINE
  5
EDE
  8
0
  6
CONTINUOUS
 66
     1
 10
0.0
 20
0.0
 30
0.0
 70
     1
  0
VERTEX
  5
1435
  8
0
  6
CONTINUOUS
 10
987.60230751697168
 20
367.84588321249407
 30
0.0
  0
VERTEX
  5
1436
  8
0
  6
CONTINUOUS
 10
984.71555617102365
 20
362.84588321249419
 30
0.0
  0
VERTEX
  5
1437
  8
0
  6
CONTINUOUS
 10
987.60230751697168
 20
357.84588321249407
 30
0.0
  0
VERTEX
  5
1438
  8
0
  6
CONTINUOUS
 10
993.37581020886785
 20
357.84588321249407
 30
0.0
  0
VERTEX
  5
1439
  8
0
  6
CONTINUOUS
 10
996.26256155481587
 20
362.84588321249419
 30
0.0
  0
VERTEX
  5
143A
  8
0
  6
CONTINUOUS
 10
993.37581020886785
 20
367.84588321249407
 30
0.0
  0
SEQEND
  5
143B
  8
0
  6
CONTINUOUS
  0
CIRCLE
  5
EE6
  8
0
 10
990.48905886291982
 20
362.84588321249419
 30
0.0
 40
9.0
  0
ARC
  5
EE7
  8
0
 10
990.48905886291982
 20
362.84588321249419
 30
0.0
 40
11.25
 50
270.0
 51
0.0
  0
ARC
  5
EE8
  8
0
 10
990.48905886291982
 20
362.84588321249419
 30
0.0
 40
11.5
 50
270.0
 51
0.0
  0
ARC
  5
EE9
  8
0
 10
954.48905886291993
 20
398.84588321249407
 30
0.0
 40
23.0
 50
323.21321070173809
 51
353.43757213136593
  0
ARC
  5
EEA
  8
0
 10
954.48905886291993
 20
398.84588321249407
 30
0.0
 40
23.0
 50
186.56242786863399
 51
216.7867892982616
  0
CIRCLE
  5
EEB
  8
0
 10
954.48905886291993
 20
398.84588321249407
 30
0.0
 40
22.5
  0
LINE
  5
EEC
  8
0
 10
978.8298350465584
 20
355.59588321249407
 30
0.0
 11
957.28905886291966
 21
355.59588321249407
 31
0.0
  0
ARC
  5
EED
  8
0
 10
954.48905886291993
 20
398.84588321249407
 30
0.0
 40
23.0
 50
276.56242786863402
 51
306.7867892982614
  0
ARC
  5
EEE
  8
0
 10
954.48905886291993
 20
398.84588321249407
 30
0.0
 40
35.5
 50
229.98854197555599
 51
251.4071774505731
  0
LINE
  5
EEF
  8
0
 10
953.18905886291986
 20
357.09588321249407
 30
0.0
 11
953.18905886291986
 21
374.50640910149491
 31
0.0
  0
LINE
  5
EF0
  8
0
 10
955.78905886291966
 20
357.09588321249407
 30
0.0
 11
955.78905886291966
 21
374.50640910149491
 31
0.0
  0
LINE
  5
EF1
  8
0
 10
944.48905886291971
 20
357.09588321249407
 30
0.0
 11
944.48905886291971
 21
377.2125755597101
 31
0.0
  0
LINE
  5
EF2
  8
0
 10
930.14828267928101
 20
355.59588321249407
 30
0.0
 11
951.68905886291975
 21
355.59588321249407
 31
0.0
  0
ARC
  5
EF3
  8
0
 10
942.98905886291993
 20
357.09588321249407
 30
0.0
 40
1.5
 50
270.0
 51
0.0
  0
ARC
  5
EF4
  8
0
 10
943.48905886291982
 20
366.14649483900922
 30
0.0
 40
1.0
 50
251.40717745056821
 51
0.0
  0
ARC
  5
EF5
  8
0
 10
951.68905886291975
 20
357.09588321249407
 30
0.0
 40
1.5
 50
270.0
 51
0.0
  0
ARC
  5
EF6
  8
0
 10
957.28905886291966
 20
357.09588321249407
 30
0.0
 40
1.5
 50
180.0
 51
270.0
  0
ARC
  5
EF7
  8
0
 10
954.48905886291993
 20
398.84588321249407
 30
0.0
 40
23.0
 50
233.21321070173849
 51
263.43757213136541
  0
ARC
  5
EF8
  8
0
 10
931.03931139461395
 20
379.9296847253994
 30
0.0
 40
1.5
 50
351.50526946671789
 51
90.0
  0
ARC
  5
EF9
  8
0
 10
932.30760158745022
 20
372.42178524990499
 30
0.0
 40
1.0
 50
135.0000000000046
 51
229.988541975549
  0
ARC
  5
EFA
  8
0
 10
942.98905886291993
 20
377.2125755597101
 30
0.0
 40
1.5
 50
0.0
 51
62.005438267749533
  0
ARC
  5
EFB
  8
0
 10
939.81750439759048
 20
379.22458127885892
 30
0.0
 40
1.5
 50
53.213210701743471
 51
134.9999999999969
  0
ARC
  5
EFC
  8
0
 10
934.86775692928472
 20
384.17432874716468
 30
0.0
 40
1.5
 50
314.99999999999687
 51
36.786789298259997
  0
ARC
  5
EFD
  8
0
 10
931.38440513034254
 20
390.6957313183446
 30
0.0
 40
1.5
 50
19.43026151964596
 51
90.0
  0
ARC
  5
EFE
  8
0
 10
951.68905886291975
 20
374.50640910149491
 30
0.0
 40
1.5
 50
0.0
 51
83.437572131365485
  0
ARC
  5
EFF
  8
0
 10
957.28905886291966
 20
374.50640910149491
 30
0.0
 40
1.5
 50
96.562427868634515
 51
180.0
  0
LINE
  5
F00
  8
0
 10
980.22187969573349
 20
370.28463525493402
 30
0.0
 11
970.22127350002893
 21
380.28524145063869
 31
0.0
  0
LINE
  5
F01
  8
0
 10
964.48905886291982
 20
357.09588321249407
 30
0.0
 11
964.48905886291982
 21
377.2125755597101
 31
0.0
  0
ARC
  5
F02
  8
0
 10
954.48905886291993
 20
398.84588321249407
 30
0.0
 40
35.5
 50
288.59282254942627
 51
310.01145802444398
  0
ARC
  5
F03
  8
0
 10
978.8298350465584
 20
357.09588321249407
 30
0.0
 40
1.5
 50
270.0
 51
26.25121393499963
  0
ARC
  5
F04
  8
0
 10
990.48905886291982
 20
362.84588321249419
 30
0.0
 40
11.5
 50
150.61849827564839
 51
206.25121393492719
  0
ARC
  5
F05
  8
0
 10
965.98905886291971
 20
357.09588321249407
 30
0.0
 40
1.5
 50
180.0
 51
270.0
  0
ARC
  5
F06
  8
0
 10
965.48905886291982
 20
366.14649483900922
 30
0.0
 40
1.0
 50
180.0
 51
288.59282254941729
  0
ARC
  5
F07
  8
0
 10
979.16121952395383
 20
369.22397508315419
 30
0.0
 40
1.5
 50
330.6184982756472
 51
45.000000000003062
  0
LINE
  5
F08
  8
0
 10
983.05030682047982
 20
373.11306237968017
 30
0.0
 11
973.04970062477526
 21
383.11366857538491
 31
0.0
  0
ARC
  5
F09
  8
0
 10
969.16061332824904
 20
379.22458127885892
 30
0.0
 40
1.5
 50
45.0
 51
126.786789298266
  0
ARC
  5
F0A
  8
0
 10
965.98905886291971
 20
377.2125755597101
 30
0.0
 40
1.5
 50
117.9945617322601
 51
180.0
  0
ARC
  5
F0B
  8
0
 10
976.67051613838942
 20
372.42178524990499
 30
0.0
 40
1.0
 50
310.01145802444182
 51
45.000000000004597
  0
ARC
  5
F0C
  8
0
 10
976.12236651570379
 20
387.34588321249419
 30
0.0
 40
1.5
 50
90.0
 51
152.0054382677495
  0
ARC
  5
F0D
  8
0
 10
974.11036079655526
 20
384.17432874716479
 30
0.0
 40
1.5
 50
143.21321070174
 51
225.00000000000301
  0
ARC
  5
F0E
  8
0
 10
954.48905886291993
 20
398.84588321249407
 30
0.0
 40
35.5
 50
319.98854197555619
 51
341.40717745057339
  0
ARC
  5
F0F
  8
0
 10
990.48905886291982
 20
362.84588321249419
 30
0.0
 40
11.5
 50
63.748786065044783
 51
119.38150172435149
  0
ARC
  5
F10
  8
0
 10
980.91315682550885
 20
376.6644259370243
 30
0.0
 40
1.0
 50
225.0
 51
319.98854197555391
  0
ARC
  5
F11
  8
0
 10
984.11096699225959
 20
374.17372255146012
 30
0.0
 40
1.5
 50
224.9999999999969
 51
299.38150172435058
  0
ARC
  5
F12
  8
0
 10
987.18844723640473
 20
387.84588321249407
 30
0.0
 40
1.0
 50
341.40717745056821
 51
90.0
  0
ARC
  5
F13
  8
0
 10
954.48905886291993
 20
398.84588321249407
 30
0.0
 40
23.0
 50
53.213210701738348
 51
83.437572131365954
  0
ARC
  5
F14
  8
0
 10
939.81750439759048
 20
418.4671851461294
 30
0.0
 40
1.5
 50
225.00000000000301
 51
306.78678929825389
  0
ARC
  5
F15
  8
0
 10
954.48905886291993
 20
398.84588321249407
 30
0.0
 40
23.0
 50
143.21321070173869
 51
173.4375721313659
  0
ARC
  5
F16
  8
0
 10
930.14958475192043
 20
401.64588321249408
 30
0.0
 40
1.5
 50
270.0
 51
353.43757213136541
  0
ARC
  5
F17
  8
0
 10
930.14958475192043
 20
396.04588321249418
 30
0.0
 40
1.5
 50
6.5624278686345097
 51
90.0
  0
ARC
  5
F18
  8
0
 10
934.86775692928438
 20
413.51743767782352
 30
0.0
 40
1.5
 50
323.21321070173991
 51
45.0
  0
ARC
  5
F19
  8
0
 10
954.48905886291993
 20
398.84588321249407
 30
0.0
 40
23.0
 50
96.562427868634586
 51
126.7867892982616
  0
ARC
  5
F1A
  8
0
 10
954.48905886291993
 20
398.84588321249407
 30
0.0
 40
35.5
 50
108.5928225494268
 51
130.0114580244439
  0
ARC
  5
F1B
  8
0
 10
932.30760158745022
 20
425.26998117508322
 30
0.0
 40
1.0
 50
130.011458024446
 51
225.0
  0
ARC
  5
F1C
  8
0
 10
942.98905886291993
 20
420.4791908652781
 30
0.0
 40
1.5
 50
297.99456173225042
 51
0.0
  0
ARC
  5
F1D
  8
0
 10
943.48905886291982
 20
431.54527158597892
 30
0.0
 40
1.0
 50
0.0
 51
108.59282254943381
  0
ARC
  5
F1E
  8
0
 10
951.68905886291975
 20
423.18535732349341
 30
0.0
 40
1.5
 50
276.56242786863447
 51
0.0
  0
ARC
  5
F1F
  8
0
 10
957.28905886291966
 20
423.18535732349341
 30
0.0
 40
1.5
 50
180.0
 51
263.43757213136541
  0
ARC
  5
F20
  8
0
 10
954.48905886291993
 20
398.84588321249407
 30
0.0
 40
35.5
 50
18.592822549426781
 51
40.011458024443961
  0
ARC
  5
F21
  8
0
 10
969.16061332824904
 20
418.4671851461294
 30
0.0
 40
1.5
 50
233.2132107017365
 51
314.99999999999687
  0
LINE
  5
F22
  8
0
 10
983.05030682047982
 20
424.57870404530792
 30
0.0
 11
973.04970062477526
 21
414.57809784960318
 31
0.0
  0
ARC
  5
F23
  8
0
 10
954.48905886291993
 20
398.84588321249407
 30
0.0
 40
23.0
 50
6.5624278686340274
 51
36.786789298262043
  0
ARC
  5
F24
  8
0
 10
978.82853297391898
 20
401.64588321249408
 30
0.0
 40
1.5
 50
186.5624278686345
 51
270.0
  0
ARC
  5
F25
  8
0
 10
978.82853297391898
 20
396.04588321249418
 30
0.0
 40
1.5
 50
90.0
 51
173.4375721313655
  0
ARC
  5
F26
  8
0
 10
974.1103607965548
 20
413.51743767782352
 30
0.0
 40
1.5
 50
135.00000000000611
 51
216.7867892982635
  0
ARC
  5
F27
  8
0
 10
976.12236651570379
 20
410.34588321249419
 30
0.0
 40
1.5
 50
207.99456173225039
 51
270.0
  0
ARC
  5
F28
  8
0
 10
987.18844723640473
 20
409.84588321249419
 30
0.0
 40
1.0
 50
270.0
 51
18.59282254942557
  0
ARC
  5
F29
  8
0
 10
990.48905886291982
 20
434.84588321249419
 30
0.0
 40
11.5
 50
153.74878606506371
 51
209.38150172435141
  0
LINE
  5
F2A
  8
0
 10
980.22187969573349
 20
427.40713117005407
 30
0.0
 11
970.22127350002893
 21
417.4065249743494
 31
0.0
  0
ARC
  5
F2B
  8
0
 10
954.48905886291993
 20
398.84588321249407
 30
0.0
 40
35.5
 50
49.988541975556039
 51
71.40717745057357
  0
ARC
  5
F2C
  8
0
 10
965.98905886291971
 20
420.4791908652781
 30
0.0
 40
1.5
 50
180.0
 51
242.00543826773981
  0
ARC
  5
F2D
  8
0
 10
976.67051613838942
 20
425.26998117508322
 30
0.0
 40
1.0
 50
314.99999999999068
 51
49.988541975563173
  0
ARC
  5
F2E
  8
0
 10
965.48905886291982
 20
431.54527158597892
 30
0.0
 40
1.0
 50
71.407177450580605
 51
180.0
  0
ARC
  5
F2F
  8
0
 10
979.16121952395383
 20
428.46779134183407
 30
0.0
 40
1.5
 50
314.99999999999687
 51
29.38150172435277
  0
ARC
  5
F30
  8
0
 10
990.48905886291982
 20
434.84588321249419
 30
0.0
 40
11.5
 50
240.61849827564839
 51
296.25121393495488
  0
ARC
  5
F31
  8
0
 10
980.91315682550885
 20
421.0273404879639
 30
0.0
 40
1.0
 50
40.011458024446
 51
135.0000000000046
  0
ARC
  5
F32
  8
0
 10
984.11096699225959
 20
423.5180438735282
 30
0.0
 40
1.5
 50
60.618498275647219
 51
135.00000000000611
  0
LINE
  5
F33
  8
0
 10
997.73905886291982
 20
374.50510702885532
 30
0.0
 11
997.73905886291982
 21
396.04588321249418
 31
0.0
  0
LINE
  5
F34
  8
0
 10
1001.739058862919
 20
434.84588321249419
 30
0.0
 11
1001.739058862919
 21
362.84588321249419
 31
0.0
  0
LINE
  5
F35
  8
0
 10
1001.989058862919
 20
434.84588321249419
 30
0.0
 11
1001.989058862919
 21
362.84588321249419
 31
0.0
  0
ARC
  5
F36
  8
0
 10
996.23905886291971
 20
387.34588321249419
 30
0.0
 40
1.5
 50
0.0
 51
90.0
  0
LINE
  5
F37
  8
DIM
  6
CONTINUOUS
 10
1042.9890588629189
 20
351.34588321249407
 30
0.0
 11
1050.9890588629189
 21
351.34588321249407
 31
0.0
  0
SOLID
  5
F38
  8
DIM
  6
CONTINUOUS
 10
1049.4890588629189
 20
348.34588321249419
 30
0.0
 11
1050.4890588629189
 21
348.34588321249419
 31
0.0
 12
1049.9890588629189
 22
351.34588321249407
 32
0.0
 13
1049.9890588629189
 23
351.34588321249407
 33
0.0
  0
LINE
  5
F39
  8
0
 10
997.73905886291982
 20
423.18665939613288
 30
0.0
 11
997.73905886291982
 21
401.64588321249408
 31
0.0
  0
ARC
  5
F3A
  8
0
 10
996.23905886291971
 20
396.04588321249418
 30
0.0
 40
1.5
 50
0.0
 51
90.0
  0
ARC
  5
F3B
  8
0
 10
996.23905886291971
 20
401.64588321249408
 30
0.0
 40
1.5
 50
270.0
 51
0.0
  0
ARC
  5
F3C
  8
0
 10
996.23905886291971
 20
410.34588321249419
 30
0.0
 40
1.5
 50
270.0
 51
0.0
  0
TEXT
  5
F3D
  8
DIM
  6
CONTINUOUS
 10
1048.4890588629189
 20
396.93094355263298
 30
0.0
 40
3.0
  1
95
 50
90.0
  7
ROMANSS
 72
     1
 11
1046.9890588629189
 21
399.35951498120443
 31
0.0
 73
     2
  0
TEXT
  5
F3E
  8
DIM
  6
CONTINUOUS
 10
1056.4890588629189
 20
395.59442238434599
 30
0.0
 40
3.0
  1
119
 50
90.0
  7
ROMANSS
 72
     1
 11
1054.9890588629189
 21
398.80870809863171
 31
0.0
 73
     2
  0
LINE
  5
F3F
  8
0
 10
906.98905886291971
 20
446.34588321249407
 30
0.0
 11
1041.9890588629189
 21
446.34588321249407
 31
0.0
  0
LINE
  5
F40
  8
0
 10
918.48905886291982
 20
446.09588321249419
 30
0.0
 11
990.48905886291982
 21
446.09588321249419
 31
0.0
  0
TEXT
  5
F41
  8
DIM
  6
CONTINUOUS
 10
878.18890630810097
 20
462.9154441461439
 30
0.0
 40
3.0
  1
2x4-M10x15L
  7
ROMANSS
 72
     2
 11
907.90319202238675
 21
464.4154441461439
 31
0.0
 73
     2
  0
LINE
  5
F42
  8
DIM
  6
CONTINUOUS
 10
908.31482803187237
 20
461.4154441461439
 30
0.0
 11
880.77819202238675
 21
461.4154441461439
 31
0.0
  0
LINE
  5
F43
  8
DIM
  6
CONTINUOUS
 10
916.10514967758763
 20
442.46355225240222
 30
0.0
 11
908.31482803187237
 21
461.4154441461439
 31
0.0
  0
LINE
  5
F44
  8
0
 10
942.48905886291982
 20
457.34588321249407
 30
0.0
 11
1038.4890588629189
 21
457.34588321249419
 31
0.0
  0
LINE
  5
F45
  8
0
 10
943.48905886291982
 20
458.3458832124943
 30
0.0
 11
1037.4890588629189
 21
458.3458832124943
 31
0.0
  0
LINE
  5
F46
  8
0
 10
978.8298350465584
 20
442.09588321249419
 30
0.0
 11
957.28905886291966
 21
442.09588321249419
 31
0.0
  0
LINE
  5
F47
  8
0
 10
930.14828267928101
 20
442.09588321249419
 30
0.0
 11
951.68905886291975
 21
442.09588321249419
 31
0.0
  0
LINE
  5
F48
  8
0
 10
942.48905886291982
 20
457.34588321249419
 30
0.0
 11
942.48905886291959
 21
446.34588321249407
 31
0.0
  0
ARC
  5
F49
  8
0
 10
942.98905886291993
 20
440.59588321249419
 30
0.0
 40
1.5
 50
0.0
 51
90.0
  0
LINE
  5
F4A
  8
0
 10
943.48905886291982
 20
458.3458832124943
 30
0.0
 11
942.48905886291982
 21
457.34588321249419
 31
0.0
  0
ARC
  5
F4B
  8
0
 10
951.68905886291975
 20
440.59588321249419
 30
0.0
 40
1.5
 50
0.0
 51
90.0
  0
ARC
  5
F4C
  8
0
 10
957.28905886291966
 20
440.59588321249419
 30
0.0
 40
1.5
 50
90.0
 51
180.0
  0
ARC
  5
F4D
  8
0
 10
965.98905886291971
 20
440.59588321249419
 30
0.0
 40
1.5
 50
90.0
 51
180.0
  0
LINE
  5
F4E
  8
DIM
  6
CONTINUOUS
 10
1042.9890588629189
 20
446.34588321249407
 30
0.0
 11
1050.9890588629189
 21
446.34588321249407
 31
0.0
  0
LINE
  5
F4F
  8
0
 10
1038.4890588629189
 20
457.34588321249419
 30
0.0
 11
1038.4890588629189
 21
446.34588321249407
 31
0.0
  0
LINE
  5
F50
  8
0
 10
1037.4890588629189
 20
458.3458832124943
 30
0.0
 11
1038.4890588629189
 21
457.34588321249419
 31
0.0
  0
TEXT
  5
F51
  8
DIM
  6
CONTINUOUS
 10
1048.4890588629189
 20
450.13542736100538
 30
0.0
 40
3.0
  1
12
 50
90.0
  7
ROMANSS
 72
     1
 11
1046.9890588629189
 21
452.27828450386261
 31
0.0
 73
     2
  0
SOLID
  5
F52
  8
DIM
  6
CONTINUOUS
 10
1049.4890588629189
 20
449.34588321249407
 30
0.0
 11
1050.4890588629189
 21
449.34588321249407
 31
0.0
 12
1049.9890588629189
 22
446.34588321249407
 32
0.0
 13
1049.9890588629189
 23
446.34588321249407
 33
0.0
  0
SOLID
  5
F53
  8
DIM
  6
CONTINUOUS
 10
1049.4890588629189
 20
455.34588321249419
 30
0.0
 11
1050.4890588629189
 21
455.34588321249419
 31
0.0
 12
1049.9890588629189
 22
458.34588321249407
 32
0.0
 13
1049.9890588629189
 23
458.34588321249407
 33
0.0
  0
CIRCLE
  5
F54
  8
0
  6
CONTINUOUS
 10
616.34637392086483
 20
233.2211096786186
 30
0.0
 40
6.5
  0
CIRCLE
  5
F55
  8
0
  6
CONTINUOUS
 10
616.34637392086483
 20
233.2211096786186
 30
0.0
 40
5.9226327944572761
  0
POLYLINE
  5
F56
  8
0
  6
CONTINUOUS
 66
     1
 10
0.0
 20
0.0
 30
0.0
 70
     1
  0
VERTEX
  5
143C
  8
0
  6
CONTINUOUS
 10
614.61432311329668
 20
230.2211096786186
 30
0.0
  0
VERTEX
  5
143D
  8
0
  6
CONTINUOUS
 10
612.88227230572659
 20
233.2211096786186
 30
0.0
  0
VERTEX
  5
143E
  8
0
  6
CONTINUOUS
 10
614.61432311329668
 20
236.2211096786186
 30
0.0
  0
VERTEX
  5
143F
  8
0
  6
CONTINUOUS
 10
618.07842472843288
 20
236.2211096786186
 30
0.0
  0
VERTEX
  5
1440
  8
0
  6
CONTINUOUS
 10
619.81047553600285
 20
233.2211096786186
 30
0.0
  0
VERTEX
  5
1441
  8
0
  6
CONTINUOUS
 10
618.07842472843288
 20
230.2211096786186
 30
0.0
  0
SEQEND
  5
1442
  8
0
  6
CONTINUOUS
  0
CIRCLE
  5
F5E
  8
0
  6
CONTINUOUS
 10
577.34637392086483
 20
194.2211096786186
 30
0.0
 40
6.5
  0
CIRCLE
  5
F5F
  8
0
  6
CONTINUOUS
 10
577.34637392086483
 20
194.2211096786186
 30
0.0
 40
5.9226327944572761
  0
POLYLINE
  5
F60
  8
0
  6
CONTINUOUS
 66
     1
 10
0.0
 20
0.0
 30
0.0
 70
     1
  0
VERTEX
  5
1443
  8
0
  6
CONTINUOUS
 10
575.61432311329656
 20
191.2211096786186
 30
0.0
  0
VERTEX
  5
1444
  8
0
  6
CONTINUOUS
 10
573.8822723057267
 20
194.2211096786186
 30
0.0
  0
VERTEX
  5
1445
  8
0
  6
CONTINUOUS
 10
575.61432311329656
 20
197.2211096786186
 30
0.0
  0
VERTEX
  5
1446
  8
0
  6
CONTINUOUS
 10
579.07842472843299
 20
197.2211096786186
 30
0.0
  0
VERTEX
  5
1447
  8
0
  6
CONTINUOUS
 10
580.81047553600285
 20
194.2211096786186
 30
0.0
  0
VERTEX
  5
1448
  8
0
  6
CONTINUOUS
 10
579.07842472843299
 20
191.2211096786186
 30
0.0
  0
SEQEND
  5
1449
  8
0
  6
CONTINUOUS
  0
CIRCLE
  5
F68
  8
0
  6
CONTINUOUS
 10
616.34637392086483
 20
155.22110967861849
 30
0.0
 40
6.5
  0
CIRCLE
  5
F69
  8
0
  6
CONTINUOUS
 10
616.34637392086483
 20
155.22110967861849
 30
0.0
 40
5.9226327944572761
  0
POLYLINE
  5
F6A
  8
0
  6
CONTINUOUS
 66
     1
 10
0.0
 20
0.0
 30
0.0
 70
     1
  0
VERTEX
  5
144A
  8
0
  6
CONTINUOUS
 10
614.61432311329668
 20
152.2211096786186
 30
0.0
  0
VERTEX
  5
144B
  8
0
  6
CONTINUOUS
 10
612.88227230572659
 20
155.22110967861849
 30
0.0
  0
VERTEX
  5
144C
  8
0
  6
CONTINUOUS
 10
614.61432311329668
 20
158.2211096786186
 30
0.0
  0
VERTEX
  5
144D
  8
0
  6
CONTINUOUS
 10
618.07842472843288
 20
158.2211096786186
 30
0.0
  0
VERTEX
  5
144E
  8
0
  6
CONTINUOUS
 10
619.81047553600285
 20
155.22110967861849
 30
0.0
  0
VERTEX
  5
144F
  8
0
  6
CONTINUOUS
 10
618.07842472843288
 20
152.2211096786186
 30
0.0
  0
SEQEND
  5
1450
  8
0
  6
CONTINUOUS
  0
CIRCLE
  5
F72
  8
0
  6
CONTINUOUS
 10
655.34637392086483
 20
194.2211096786186
 30
0.0
 40
6.5
  0
CIRCLE
  5
F73
  8
0
  6
CONTINUOUS
 10
655.34637392086483
 20
194.2211096786186
 30
0.0
 40
5.9226327944572761
  0
POLYLINE
  5
F74
  8
0
  6
CONTINUOUS
 66
     1
 10
0.0
 20
0.0
 30
0.0
 70
     1
  0
VERTEX
  5
1451
  8
0
  6
CONTINUOUS
 10
653.61432311329668
 20
191.2211096786186
 30
0.0
  0
VERTEX
  5
1452
  8
0
  6
CONTINUOUS
 10
651.8822723057267
 20
194.2211096786186
 30
0.0
  0
VERTEX
  5
1453
  8
0
  6
CONTINUOUS
 10
653.61432311329668
 20
197.2211096786186
 30
0.0
  0
VERTEX
  5
1454
  8
0
  6
CONTINUOUS
 10
657.07842472843288
 20
197.2211096786186
 30
0.0
  0
VERTEX
  5
1455
  8
0
  6
CONTINUOUS
 10
658.81047553600297
 20
194.2211096786186
 30
0.0
  0
VERTEX
  5
1456
  8
0
  6
CONTINUOUS
 10
657.07842472843288
 20
191.2211096786186
 30
0.0
  0
SEQEND
  5
1457
  8
0
  6
CONTINUOUS
  0
CIRCLE
  5
F7C
  8
0
  6
CONTINUOUS
 10
616.34637392086483
 20
551.28515874401853
 30
0.0
 40
6.5
  0
CIRCLE
  5
F7D
  8
0
  6
CONTINUOUS
 10
616.34637392086483
 20
551.28515874401853
 30
0.0
 40
5.9226327944572761
  0
POLYLINE
  5
F7E
  8
0
  6
CONTINUOUS
 66
     1
 10
0.0
 20
0.0
 30
0.0
 70
     1
  0
VERTEX
  5
1458
  8
0
  6
CONTINUOUS
 10
614.61432311329668
 20
554.28515874401853
 30
0.0
  0
VERTEX
  5
1459
  8
0
  6
CONTINUOUS
 10
612.88227230572659
 20
551.28515874401853
 30
0.0
  0
VERTEX
  5
145A
  8
0
  6
CONTINUOUS
 10
614.61432311329668
 20
548.28515874401853
 30
0.0
  0
VERTEX
  5
145B
  8
0
  6
CONTINUOUS
 10
618.07842472843288
 20
548.28515874401853
 30
0.0
  0
VERTEX
  5
145C
  8
0
  6
CONTINUOUS
 10
619.81047553600285
 20
551.28515874401853
 30
0.0
  0
VERTEX
  5
145D
  8
0
  6
CONTINUOUS
 10
618.07842472843288
 20
554.28515874401853
 30
0.0
  0
SEQEND
  5
145E
  8
0
  6
CONTINUOUS
  0
CIRCLE
  5
F86
  8
0
  6
CONTINUOUS
 10
616.34637392086483
 20
629.28515874401853
 30
0.0
 40
6.5
  0
CIRCLE
  5
F87
  8
0
  6
CONTINUOUS
 10
616.34637392086483
 20
629.28515874401853
 30
0.0
 40
5.9226327944572761
  0
POLYLINE
  5
F88
  8
0
  6
CONTINUOUS
 66
     1
 10
0.0
 20
0.0
 30
0.0
 70
     1
  0
VERTEX
  5
145F
  8
0
  6
CONTINUOUS
 10
614.61432311329668
 20
632.28515874401853
 30
0.0
  0
VERTEX
  5
1460
  8
0
  6
CONTINUOUS
 10
612.88227230572659
 20
629.28515874401853
 30
0.0
  0
VERTEX
  5
1461
  8
0
  6
CONTINUOUS
 10
614.61432311329668
 20
626.28515874401853
 30
0.0
  0
VERTEX
  5
1462
  8
0
  6
CONTINUOUS
 10
618.07842472843288
 20
626.28515874401853
 30
0.0
  0
VERTEX
  5
1463
  8
0
  6
CONTINUOUS
 10
619.81047553600285
 20
629.28515874401853
 30
0.0
  0
VERTEX
  5
1464
  8
0
  6
CONTINUOUS
 10
618.07842472843288
 20
632.28515874401853
 30
0.0
  0
SEQEND
  5
1465
  8
0
  6
CONTINUOUS
  0
CIRCLE
  5
F90
  8
0
  6
CONTINUOUS
 10
577.34637392086483
 20
590.28515874401853
 30
0.0
 40
6.5
  0
CIRCLE
  5
F91
  8
0
  6
CONTINUOUS
 10
577.34637392086483
 20
590.28515874401853
 30
0.0
 40
5.9226327944572761
  0
POLYLINE
  5
F92
  8
0
  6
CONTINUOUS
 66
     1
 10
0.0
 20
0.0
 30
0.0
 70
     1
  0
VERTEX
  5
1466
  8
0
  6
CONTINUOUS
 10
575.61432311329656
 20
593.28515874401853
 30
0.0
  0
VERTEX
  5
1467
  8
0
  6
CONTINUOUS
 10
573.8822723057267
 20
590.28515874401853
 30
0.0
  0
VERTEX
  5
1468
  8
0
  6
CONTINUOUS
 10
575.61432311329656
 20
587.28515874401853
 30
0.0
  0
VERTEX
  5
1469
  8
0
  6
CONTINUOUS
 10
579.07842472843299
 20
587.28515874401853
 30
0.0
  0
VERTEX
  5
146A
  8
0
  6
CONTINUOUS
 10
580.81047553600285
 20
590.28515874401853
 30
0.0
  0
VERTEX
  5
146B
  8
0
  6
CONTINUOUS
 10
579.07842472843299
 20
593.28515874401853
 30
0.0
  0
SEQEND
  5
146C
  8
0
  6
CONTINUOUS
  0
CIRCLE
  5
F9A
  8
0
  6
CONTINUOUS
 10
655.34637392086483
 20
590.28515874401853
 30
0.0
 40
6.5
  0
CIRCLE
  5
F9B
  8
0
  6
CONTINUOUS
 10
655.34637392086483
 20
590.28515874401853
 30
0.0
 40
5.9226327944572761
  0
POLYLINE
  5
F9C
  8
0
  6
CONTINUOUS
 66
     1
 10
0.0
 20
0.0
 30
0.0
 70
     1
  0
VERTEX
  5
146D
  8
0
  6
CONTINUOUS
 10
653.61432311329668
 20
593.28515874401853
 30
0.0
  0
VERTEX
  5
146E
  8
0
  6
CONTINUOUS
 10
651.8822723057267
 20
590.28515874401853
 30
0.0
  0
VERTEX
  5
146F
  8
0
  6
CONTINUOUS
 10
653.61432311329668
 20
587.28515874401853
 30
0.0
  0
VERTEX
  5
1470
  8
0
  6
CONTINUOUS
 10
657.07842472843288
 20
587.28515874401853
 30
0.0
  0
VERTEX
  5
1471
  8
0
  6
CONTINUOUS
 10
658.81047553600297
 20
590.28515874401853
 30
0.0
  0
VERTEX
  5
1472
  8
0
  6
CONTINUOUS
 10
657.07842472843288
 20
593.28515874401853
 30
0.0
  0
SEQEND
  5
1473
  8
0
  6
CONTINUOUS
  0
CIRCLE
  5
FA4
  8
0
  6
CONTINUOUS
 10
258.03538404934562
 20
434.84588321249419
 30
0.0
 40
4.25
  0
ARC
  5
FA5
  8
0
  6
CONTINUOUS
 62
     2
 10
258.03538404934562
 20
434.84588321249419
 30
0.0
 40
5.0000000000000053
 50
165.00000000000551
 51
104.9999999999944
  0
CIRCLE
  5
FA6
  8
0
  6
CONTINUOUS
 10
330.03538404934551
 20
434.84588321249419
 30
0.0
 40
4.25
  0
ARC
  5
FA7
  8
0
  6
CONTINUOUS
 62
     2
 10
330.03538404934551
 20
434.84588321249419
 30
0.0
 40
5.0000000000000053
 50
165.00000000000551
 51
104.9999999999944
  0
CIRCLE
  5
FA8
  8
0
  6
CONTINUOUS
 10
330.03538404934551
 20
362.84588321249419
 30
0.0
 40
4.25
  0
ARC
  5
FA9
  8
0
  6
CONTINUOUS
 62
     2
 10
330.03538404934551
 20
362.84588321249419
 30
0.0
 40
5.0000000000000053
 50
165.00000000000551
 51
104.9999999999944
  0
CIRCLE
  5
FAA
  8
0
  6
CONTINUOUS
 10
258.03538404934562
 20
362.84588321249419
 30
0.0
 40
4.25
  0
ARC
  5
FAB
  8
0
  6
CONTINUOUS
 62
     2
 10
258.03538404934562
 20
362.84588321249419
 30
0.0
 40
5.0000000000000053
 50
165.00000000000551
 51
104.9999999999944
  0
CIRCLE
  5
FAC
  8
0
  6
CONTINUOUS
 10
918.48905886291982
 20
434.84588321249419
 30
0.0
 40
4.25
  0
ARC
  5
FAD
  8
0
  6
CONTINUOUS
 62
     2
 10
918.48905886291982
 20
434.84588321249419
 30
0.0
 40
5.0000000000000053
 50
75.000000000005556
 51
14.999999999994451
  0
CIRCLE
  5
FAE
  8
0
  6
CONTINUOUS
 10
990.48905886291982
 20
434.84588321249419
 30
0.0
 40
4.25
  0
ARC
  5
FAF
  8
0
  6
CONTINUOUS
 62
     2
 10
990.48905886291982
 20
434.84588321249419
 30
0.0
 40
5.0000000000000053
 50
75.000000000005556
 51
14.999999999994451
  0
CIRCLE
  5
FB0
  8
0
  6
CONTINUOUS
 10
990.48905886291982
 20
362.84588321249419
 30
0.0
 40
4.25
  0
ARC
  5
FB1
  8
0
  6
CONTINUOUS
 62
     2
 10
990.48905886291982
 20
362.84588321249419
 30
0.0
 40
5.0000000000000053
 50
75.000000000005556
 51
14.999999999994451
  0
CIRCLE
  5
FB2
  8
0
  6
CONTINUOUS
 10
918.48905886291982
 20
362.84588321249419
 30
0.0
 40
4.25
  0
ARC
  5
FB3
  8
0
  6
CONTINUOUS
 62
     2
 10
918.48905886291982
 20
362.84588321249419
 30
0.0
 40
5.0000000000000053
 50
75.000000000005556
 51
14.999999999994451
  0
SOLID
  5
FB4
  8
DIM
  6
CONTINUOUS
 10
641.84637392086472
 20
584.28515874401853
 30
0.0
 11
640.84637392086472
 21
584.28515874401853
 31
0.0
 12
641.34637392086472
 22
587.28515874401853
 32
0.0
 13
641.34637392086472
 23
587.28515874401853
 33
0.0
  0
SOLID
  5
FB5
  8
DIM
  6
CONTINUOUS
 10
641.84637392086483
 20
596.28515874401853
 30
0.0
 11
640.84637392086483
 21
596.28515874401853
 31
0.0
 12
641.34637392086483
 22
593.28515874401853
 32
0.0
 13
641.34637392086483
 23
593.28515874401853
 33
0.0
  0
LINE
  5
FB6
  8
DIM
  6
CONTINUOUS
 10
641.34637392086472
 20
581.75397145653801
 30
0.0
 11
641.34637392086472
 21
602.25564944526297
 31
0.0
  0
LINE
  5
FB7
  8
0
 10
631.84637392086483
 20
593.28515874401853
 30
0.0
 11
631.84637392086483
 21
587.28515874401853
 31
0.0
  0
LINE
  5
FB8
  8
DIM
  6
CONTINUOUS
 10
633.23525115773282
 20
593.28515874401853
 30
0.0
 11
642.34637392086472
 21
593.28515874401853
 31
0.0
  0
LINE
  5
FB9
  8
0
 10
631.84637392086483
 20
593.28515874401853
 30
0.0
 11
627.96532395948714
 21
593.28515874401853
 31
0.0
  0
LINE
  5
FBA
  8
0
 10
631.84637392086483
 20
587.28515874401853
 30
0.0
 11
627.96532395948714
 21
587.28515874401853
 31
0.0
  0
LINE
  5
FBB
  8
DIM
  6
CONTINUOUS
 10
633.21158605802123
 20
587.28515874401864
 30
0.0
 11
642.34637392086472
 21
587.28515874401853
 31
0.0
  0
TEXT
  5
FBC
  8
DIM
  6
CONTINUOUS
 10
639.84637392086449
 20
600.23158731544697
 30
0.0
 40
3.0
  1
6
 50
90.0
  7
ROMANSS
 72
     1
 11
638.34637392086461
 21
601.16015874401853
 31
0.0
 73
     2
  0
ARC
  5
FBD
  8
0
  6
CONTINUOUS
 10
616.34637392086483
 20
590.28515874401853
 30
0.0
 40
12.00000000000005
 50
14.477512185929861
 51
345.52248781407008
  0
CIRCLE
  5
FBE
  8
0
  6
CONTINUOUS
 10
616.34637392086472
 20
194.22110967861849
 30
0.0
 40
17.5
  0
LINE
  5
FBF
  8
0
 10
631.84637392086472
 20
197.22110967861849
 30
0.0
 11
631.84637392086472
 21
191.22110967861849
 31
0.0
  0
LINE
  5
FC0
  8
0
 10
631.84637392086472
 20
197.22110967861849
 30
0.0
 11
627.96532395948702
 21
197.22110967861849
 31
0.0
  0
LINE
  5
FC1
  8
0
 10
631.84637392086472
 20
191.22110967861849
 30
0.0
 11
627.96532395948702
 21
191.22110967861849
 31
0.0
  0
ARC
  5
FC2
  8
0
  6
CONTINUOUS
 10
616.34637392086472
 20
194.22110967861849
 30
0.0
 40
12.00000000000005
 50
14.477512185929861
 51
345.52248781407008
  0
LINE
  5
FC3
  8
HIDDEN
  6
HIDDEN
 10
604.34637392086483
 20
457.34588321249407
 30
0.0
 11
604.34637392086483
 21
340.34588321249407
 31
0.0
  0
LINE
  5
FC4
  8
HIDDEN
  6
HIDDEN
 10
627.96532395948714
 20
457.34588321249407
 30
0.0
 11
627.96532395948714
 21
340.34588321249407
 31
0.0
  0
LINE
  5
FC5
  8
HIDDEN
  6
HIDDEN
 10
631.84637392086483
 20
457.34588321249407
 30
0.0
 11
631.84637392086483
 21
340.34588321249407
 31
0.0
  0
ARC
  5
FC6
  8
DIM
  6
CONTINUOUS
 10
616.34637392086483
 20
590.28515874401876
 30
0.0
 40
109.88774087137119
 50
180.0
 51
0.0
  0
LINE
  5
FC7
  8
DIM
  6
CONTINUOUS
 10
609.40596823492945
 20
580.495839619859
 30
0.0
 11
630.55711730131577
 21
610.32916023872747
 31
0.0
  0
SOLID
  5
FC8
  8
DIM
  6
CONTINUOUS
 10
611.54895795325319
 20
582.65398583065155
 30
0.0
 11
610.73318135957322
 21
583.23235297114616
 31
0.0
 12
609.40596823492945
 22
580.495839619859
 32
0.0
 13
609.40596823492945
 23
580.495839619859
 33
0.0
  0
SOLID
  5
FC9
  8
DIM
  6
CONTINUOUS
 10
621.14378988847636
 20
597.91633165738608
 30
0.0
 11
621.95956648215633
 21
597.33796451689125
 31
0.0
 12
623.28677960680011
 22
600.07447786817863
 32
0.0
 13
623.28677960680011
 23
600.07447786817863
 33
0.0
  0
LINE
  5
FCA
  8
DIM
  6
CONTINUOUS
 10
628.39950387889564
 20
577.59768231192936
 30
0.0
 11
601.42035946260728
 21
605.99671726230929
 31
0.0
  0
SOLID
  5
FCB
  8
DIM
  6
CONTINUOUS
 10
625.97075370231653
 20
579.428303130058
 30
0.0
 11
626.69575235557875
 21
580.11705341337415
 31
0.0
 12
628.39950387889564
 22
577.59768231192936
 32
0.0
 13
628.39950387889564
 23
577.59768231192936
 33
0.0
  0
SOLID
  5
FCC
  8
DIM
  6
CONTINUOUS
 10
606.72199413941451
 20
601.14201435797793
 30
0.0
 11
605.99699548615217
 21
600.45326407466166
 31
0.0
 12
604.29324396283516
 22
602.97263517610656
 32
0.0
 13
604.29324396283516
 23
602.97263517610656
 33
0.0
  0
TEXT
  5
FCD
  8
DIM
  6
CONTINUOUS
 10
632.06068115729454
 20
611.97495704150788
 30
0.0
 40
3.0
  1
%%c24H7
  7
ROMANSS
 11
632.06068115729454
 21
613.47495704150776
 31
0.0
 73
     2
  0
LINE
  5
FCE
  8
DIM
  6
CONTINUOUS
 10
630.55711730131577
 20
610.32916023872747
 30
0.0
 11
645.54803274972028
 21
610.32916023872747
 31
0.0
  0
TEXT
  5
FCF
  8
DIM
  6
CONTINUOUS
 10
584.23278176897418
 20
607.64251406508981
 30
0.0
 40
3.0
  1
%%c35x1dp
  7
ROMANSS
 11
584.23278176897418
 21
609.14251406508981
 31
0.0
 73
     2
  0
LINE
  5
FD0
  8
DIM
  6
CONTINUOUS
 10
583.92686216915865
 20
605.99671726230952
 30
0.0
 11
601.42035946260728
 21
605.99671726230929
 31
0.0
  0
LINE
  5
FD1
  8
DIM
  6
CONTINUOUS
 10
604.34637392086483
 20
588.19264120836158
 30
0.0
 11
604.34637392086483
 21
564.21822675055353
 31
0.0
  0
LINE
  5
FD2
  8
DIM
  6
CONTINUOUS
 10
631.84637392086483
 20
586.0821299341103
 30
0.0
 11
631.84637392086483
 21
564.32130736857039
 31
0.0
  0
LINE
  5
FD3
  8
DIM
  6
CONTINUOUS
 10
631.84637392086483
 20
565.32130736857027
 30
0.0
 11
604.34637392086483
 21
565.32130736857039
 31
0.0
  0
LINE
  5
FD4
  8
HIDDEN
  6
HIDDEN
 10
598.84637392086483
 20
458.3458832124943
 30
0.0
 11
598.84637392086483
 21
339.34588321249419
 31
0.0
  0
LINE
  5
FD5
  8
HIDDEN
  6
HIDDEN
 10
633.84637392086483
 20
458.3458832124943
 30
0.0
 11
633.84637392086483
 21
339.34588321249419
 31
0.0
  0
LINE
  5
FD6
  8
0
 10
569.34637392086483
 20
458.3458832124943
 30
0.0
 11
568.34637392086483
 21
457.34588321249419
 31
0.0
  0
LINE
  5
FD7
  8
HIDDEN
  6
HIDDEN
 10
598.84637392086483
 20
457.34588321249407
 30
0.0
 11
633.84637392086483
 21
457.34588321249407
 31
0.0
  0
LINE
  5
FD8
  8
DIM
  6
CONTINUOUS
 10
567.4807712762007
 20
339.3458832124939
 30
0.0
 11
546.84637392086483
 21
339.3458832124939
 31
0.0
  0
LINE
  5
FD9
  8
DIM
  6
CONTINUOUS
 10
547.84637392086483
 20
333.63339220458801
 30
0.0
 11
547.84637392086483
 21
347.27884936995491
 31
0.0
  0
LINE
  5
FDA
  8
DIM
  6
CONTINUOUS
 10
598.12139808523659
 20
340.34588321249379
 30
0.0
 11
546.84637392086483
 21
340.3458832124939
 31
0.0
  0
SOLID
  5
FDB
  8
DIM
  6
CONTINUOUS
 10
547.34637392086483
 20
343.3458832124939
 30
0.0
 11
548.34637392086483
 21
343.3458832124939
 31
0.0
 12
547.84637392086483
 22
340.3458832124939
 32
0.0
 13
547.84637392086483
 23
340.3458832124939
 33
0.0
  0
SOLID
  5
FDC
  8
DIM
  6
CONTINUOUS
 10
547.34637392086483
 20
336.3458832124939
 30
0.0
 11
548.34637392086483
 21
336.3458832124939
 31
0.0
 12
547.84637392086483
 22
339.3458832124939
 32
0.0
 13
547.84637392086483
 23
339.3458832124939
 33
0.0
  0
LINE
  5
FDD
  8
HIDDEN
  6
HIDDEN
 10
598.84637392086483
 20
340.3458832124939
 30
0.0
 11
633.84637392086483
 21
340.3458832124939
 31
0.0
  0
TEXT
  5
FDE
  8
DIM
  6
CONTINUOUS
 10
546.34637392086483
 20
344.53476517102331
 30
0.0
 40
3.0
  1
1
 50
90.0
  7
ROMANSS
 72
     1
 11
544.84637392086483
 21
344.8919080281662
 31
0.0
 73
     2
  0
LINE
  5
FDF
  8
DIM
  6
CONTINUOUS
 10
1038.4890588629189
 20
458.34588321249407
 30
0.0
 11
1058.9890588629189
 21
458.34588321249407
 31
0.0
  0
SOLID
  5
FE0
  8
DIM
  6
CONTINUOUS
 10
1049.4890588629189
 20
455.34588321249419
 30
0.0
 11
1050.4890588629189
 21
455.34588321249419
 31
0.0
 12
1049.9890588629189
 22
458.34588321249407
 32
0.0
 13
1049.9890588629189
 23
458.34588321249407
 33
0.0
  0
SOLID
  5
FE1
  8
DIM
  6
CONTINUOUS
 10
1057.4890588629189
 20
455.34588321249419
 30
0.0
 11
1058.4890588629189
 21
455.34588321249419
 31
0.0
 12
1057.9890588629189
 22
458.34588321249407
 32
0.0
 13
1057.9890588629189
 23
458.34588321249407
 33
0.0
  0
LINE
  5
FE2
  8
DIM
  6
CONTINUOUS
 10
1057.9890588629189
 20
339.34588321249419
 30
0.0
 11
1057.9890588629189
 21
458.34588321249407
 31
0.0
  0
LINE
  5
FE3
  8
DIM
  6
CONTINUOUS
 10
552.5848498887284
 20
552.28515874401853
 30
0.0
 11
552.5848498887284
 21
628.28515874401853
 31
0.0
  0
LINE
  5
FE4
  8
DIM
  6
CONTINUOUS
 10
564.34637392086483
 20
549.28515874401853
 30
0.0
 11
549.8563161155796
 21
549.28515874401853
 31
0.0
  0
SOLID
  5
FE5
  8
DIM
  6
CONTINUOUS
 10
553.0848498887284
 20
552.28515874401853
 30
0.0
 11
552.0848498887284
 21
552.28515874401853
 31
0.0
 12
552.5848498887284
 22
549.28515874401853
 32
0.0
 13
552.5848498887284
 23
549.28515874401853
 33
0.0
  0
LINE
  5
FE6
  8
DIM
  6
CONTINUOUS
 10
564.34637392086483
 20
631.28515874401853
 30
0.0
 11
549.8563161155796
 21
631.28515874401864
 31
0.0
  0
SOLID
  5
FE7
  8
DIM
  6
CONTINUOUS
 10
553.0848498887284
 20
628.28515874401853
 30
0.0
 11
552.0848498887284
 21
628.28515874401853
 31
0.0
 12
552.5848498887284
 22
631.28515874401853
 32
0.0
 13
552.5848498887284
 23
631.28515874401853
 33
0.0
  0
TEXT
  5
FE8
  8
DIM
  6
CONTINUOUS
 10
551.08484988872806
 20
601.13388212854568
 30
0.0
 40
3.0
  1
82
 50
90.0
  7
ROMANSS
 72
     1
 11
549.58484988872794
 21
603.56245355711724
 31
0.0
 73
     2
  0
TEXT
  5
FED
  8
LOGO
 62
     6
 10
992.9272013828263
 20
-0.6705946895492599
 30
0.0
 40
20.053901214913761
  1
作動角度
 41
0.9
  7
CHINESET
 72
     4
 11
1029.024223569671
 21
8.7304939254310199
 31
0.0
  0
LINE
  5
FEE
  8
LOGO
 62
     6
 10
1080.809458198569
 20
-28.870570852532119
 30
0.0
 11
977.2389889407724
 21
-28.870570852532289
 31
0.0
  0
LINE
  5
FEF
  8
LOGO
 62
     6
 10
1080.809458198569
 20
26.277657488480731
 30
0.0
 11
977.2389889407724
 21
26.277657488480731
 31
0.0
  0
TEXT
  5
FF0
  8
LOGO
  6
CONTINUOUS
 62
     6
 10
981.75431356308877
 20
-20.514778679651549
 30
0.0
 40
12.533688259321099
  1
Rotary angle
 41
0.8
  7
CHINESET
 72
     4
 11
1029.024223569671
 21
-16.336882593211179
 31
0.0
  0
TEXT
  5
FF1
  8
LOGO
  6
CONTINUOUS
 62
     7
 10
1001.521731120621
 20
58.580981333429129
 30
0.0
 40
25.06737651864221
  1
180
  7
CHINESET
 72
     1
 11
1031.363846023766
 21
71.114669592750232
 31
0.0
 73
     2
  0
LINE
  5
FF2
  8
LOGO
 62
     6
 10
1070.782507591113
 20
93.959574088814705
 30
0.0
 11
987.26593954822943
 21
93.959574088814705
 31
0.0
  0
LINE
  5
FF3
  8
LOGO
 62
     6
 10
1070.7825075911121
 20
48.83829635525867
 30
0.0
 11
987.26593954822943
 21
48.838296355258699
 31
0.0
  0
LINE
  5
FF4
  8
LOGO
 62
     1
 10
1107.0
 20
109.0
 30
0.0
 11
177.0
 21
109.0
 31
0.0
  0
LINE
  5
FF5
  8
LOGO
 62
     1
 10
1107.0
 20
-41.404259111853243
 30
0.0
 11
177.0
 21
-41.404259111853243
 31
0.0
  0
LINE
  5
FF6
  8
LOGO
  6
CONTINUOUS
 62
     6
 10
462.97027523141861
 20
69.027556397558754
 30
0.0
 11
490.34718124551648
 21
72.643719143284756
 31
0.0
  0
LINE
  5
FF7
  8
LOGO
  6
CONTINUOUS
 62
     6
 10
462.97027523141861
 20
58.79423129750343
 30
0.0
 11
490.34718124551648
 21
55.178068551777429
 31
0.0
  0
LINE
  5
FF8
  8
LOGO
 62
     1
 10
507.88937004607709
 20
78.919148177629381
 30
0.0
 11
287.29645668202568
 21
78.919148177629381
 31
0.0
  0
LINE
  5
FF9
  8
LOGO
 62
     1
 10
507.88937004607709
 20
48.838296355258699
 30
0.0
 11
287.29645668202568
 21
48.838296355258699
 31
0.0
  0
TEXT
  5
FFA
  8
LOGO
 62
     6
 10
430.18298280501091
 20
86.439361133222036
 30
0.0
 40
15.04042591118532
  1
1 : 1
  7
CHINESET
 72
     1
 11
456.68278083900401
 21
93.959574088814705
 31
0.0
 73
     2
  0
TEXT
  5
FFB
  8
LOGO
 62
     6
 10
430.18298280501091
 20
26.277657488480731
 30
0.0
 40
15.04042591118532
  1
m/m
  7
CHINESET
 72
     1
 11
456.68278083900401
 21
33.797870444073389
 31
0.0
 73
     2
  0
LINE
  5
FFC
  8
LOGO
 62
     1
 10
507.88937004607709
 20
18.757444532888201
 30
0.0
 11
176.9999999999998
 21
18.757444532888201
 31
0.0
  0
TEXT
  5
FFD
  8
LOGO
  6
CONTINUOUS
 62
     5
 10
181.92298534487901
 20
-11.85756938914747
 30
0.0
 40
22.560638866777978
  1
金器工業股份有限公司
 41
0.8
  7
LOGO
  0
TEXT
  5
FFE
  8
LOGO
  6
CONTINUOUS
 62
     5
 10
188.3829915883293
 20
-34.422628372320922
 30
0.0
 40
15.04042591118532
  1
MINDMAN INDUSTRIAL CO.,LTD
 41
0.85
  7
CHINESET
  0
SOLID
  5
FFF
  8
LOGO
 62
     5
 10
192.6046832633323
 20
43.760011774186651
 30
0.0
 11
199.1077687665526
 21
43.760011774184512
 31
0.0
 12
226.2413324179235
 22
105.42720189093509
 32
0.0
 13
232.7444179211432
 23
105.4272018909309
 33
0.0
  0
SOLID
  5
1000
  8
LOGO
 62
     5
 10
201.7987006989238
 20
43.760011774186651
 30
0.0
 11
208.3017862021436
 21
43.760011774186651
 31
0.0
 12
232.7444179211432
 22
100.49382668159301
 32
0.0
 13
226.2413324179235
 23
76.649179836449534
 33
0.0
  0
SOLID
  5
1001
  8
LOGO
 62
     2
 10
199.1077687665526
 20
43.760011774184512
 30
0.0
 11
201.7987006989238
 21
43.760011774186651
 31
0.0
 12
232.7444179211432
 22
105.4272018909309
 32
0.0
 13
235.43534985351241
 23
105.4272018909309
 33
0.0
  0
SOLID
  5
1002
  8
LOGO
 62
     5
 10
199.2933186152907
 20
32.547795389323113
 30
0.0
 11
201.53576189226109
 21
32.547795389323113
 31
0.0
 12
199.2933186152907
 22
21.335579004461639
 32
0.0
 13
201.53576189226109
 23
21.335579004461639
 33
0.0
  0
SOLID
  5
1003
  8
LOGO
 62
     5
 10
182.1786424497588
 20
21.335579004461639
 30
0.0
 11
184.42108572673391
 21
21.335579004461639
 31
0.0
 12
190.73598053252331
 22
32.547795389323113
 32
0.0
 13
192.9784238094943
 23
32.547795389323113
 33
0.0
  0
SOLID
  5
1004
  8
LOGO
 62
     5
 10
190.73598053252331
 20
32.547795389323113
 30
0.0
 11
192.9784238094943
 21
32.547795389323113
 31
0.0
 12
190.73598053252331
 22
21.335579004461639
 32
0.0
 13
192.9784238094943
 23
21.335579004461639
 33
0.0
  0
SOLID
  5
1005
  8
LOGO
 62
     5
 10
190.73598053252331
 20
21.335579004461639
 30
0.0
 11
192.9784238094943
 21
21.335579004461639
 31
0.0
 12
199.2933186152907
 22
32.547795389323113
 32
0.0
 13
201.53576189226109
 23
32.547795389323113
 33
0.0
  0
LINE
  5
1006
  8
LOGO
 62
     1
 10
177.0
 20
-41.404259111853243
 30
0.0
 11
177.0
 21
109.0
 31
0.0
  0
TEXT
  5
1007
  8
LOGO
 62
     6
 10
299.69809358290041
 20
86.44676291762714
 30
0.0
 40
15.04042591118532
  1
比例 Scale:
 41
0.9
  7
CHINESET
 72
     4
 11
347.45816032676697
 21
93.959574088814705
 31
0.0
  0
TEXT
  5
1008
  8
LOGO
 62
     6
 10
304.955528175962
 20
56.57007698176411
 30
0.0
 40
15.04042591118532
  1
投影 View:
 41
0.9
  7
CHINESET
 72
     4
 11
347.45816032676697
 21
63.878722266444008
 31
0.0
  0
TEXT
  5
1009
  8
LOGO
 62
     6
 10
306.4259983878145
 20
26.277657488480731
 30
0.0
 40
15.04042591118532
  1
單位 Unit:
 41
0.9
  7
CHINESET
 72
     4
 11
347.45816032676697
 21
33.797870444073389
 31
0.0
  0
POLYLINE
  5
100A
  8
LOGO
 62
     5
 66
     1
 10
0.0
 20
0.0
 30
0.0
 70
     1
 40
2.2460369360703409
 41
2.2460369360703409
  0
VERTEX
  5
1474
  8
LOGO
 62
     5
 10
253.89109501194091
 20
26.94168719689128
 30
0.0
 42
1.0
  0
VERTEX
  5
1475
  8
LOGO
 62
     5
 10
262.87524275622212
 20
26.94168719689128
 30
0.0
 42
1.0
  0
SEQEND
  5
1476
  8
LOGO
 62
     5
  0
LINE
  5
100B
  8
LOGO
 62
     5
 10
275.57508451132071
 20
21.335579004461639
 30
0.0
 11
275.57508451132071
 21
28.062908835377609
 31
0.0
  0
SOLID
  5
100C
  8
LOGO
 62
     5
 10
261.74660955521779
 20
32.547795389323113
 30
0.0
 11
263.98905283218858
 21
32.547795389323113
 31
0.0
 12
261.74660955521779
 22
21.335579004461639
 32
0.0
 13
263.98905283218858
 23
21.335579004461639
 33
0.0
  0
SOLID
  5
100D
  8
LOGO
 62
     5
 10
266.60531140342988
 20
21.335579004461639
 30
0.0
 11
268.84775468040459
 21
21.335579004461639
 31
0.0
 12
266.60531140342988
 22
32.547795389323113
 32
0.0
 13
268.84775468040459
 23
32.547795389323113
 33
0.0
  0
SOLID
  5
100E
  8
LOGO
 62
     5
 10
273.33264123435032
 20
28.062908835377609
 30
0.0
 11
275.57508451132071
 21
28.062908835377311
 31
0.0
 12
273.33264123435032
 22
21.335579004461639
 32
0.0
 13
275.57508451132071
 23
21.335579004461639
 33
0.0
  0
SOLID
  5
100F
  8
LOGO
 62
     5
 10
229.60477308905629
 20
35.911460304783198
 30
0.0
 11
231.84721636602669
 21
35.911460304783198
 31
0.0
 12
229.60477308905629
 22
21.335579004461639
 32
0.0
 13
231.84721636602669
 23
21.335579004461639
 33
0.0
  0
SOLID
  5
1010
  8
LOGO
 62
     5
 10
234.46347493727461
 20
32.547795389323113
 30
0.0
 11
236.7059182142452
 21
32.547795389323113
 31
0.0
 12
234.46347493727461
 22
21.335579004461639
 32
0.0
 13
236.7059182142452
 23
21.335579004461639
 33
0.0
  0
SOLID
  5
1011
  8
LOGO
 62
     5
 10
241.1908047681907
 20
28.062908835377609
 30
0.0
 11
243.43324804516129
 21
28.062908835377609
 31
0.0
 12
241.1908047681907
 22
21.335579004461639
 32
0.0
 13
243.43324804516129
 23
21.335579004461639
 33
0.0
  0
SOLID
  5
1012
  8
LOGO
 62
     5
 10
247.91813459910699
 20
28.062908835377609
 30
0.0
 11
250.1605778760775
 21
28.062908835377609
 31
0.0
 12
247.91813459910699
 22
21.335579004457379
 32
0.0
 13
250.1605778760775
 23
21.335579004457379
 33
0.0
  0
LINE
  5
1013
  8
LOGO
 62
     1
 10
287.29645668202568
 20
18.75744453288803
 30
0.0
 11
287.29645668202568
 21
109.0
 31
0.0
  0
SOLID
  5
1014
  8
LOGO
 62
     5
 10
209.04896830203131
 20
32.547795389323113
 30
0.0
 11
211.2914115790017
 21
32.547795389323113
 31
0.0
 12
209.04896830203131
 22
21.335579004461639
 32
0.0
 13
211.2914115790017
 23
21.335579004461639
 33
0.0
  0
SOLID
  5
1015
  8
LOGO
 62
     5
 10
215.77629813294681
 20
28.062908835377609
 30
0.0
 11
218.01874140992149
 21
28.062908835377609
 31
0.0
 12
215.77629813294681
 22
21.335579004461639
 32
0.0
 13
218.01874140992149
 23
21.335579004461639
 33
0.0
  0
SOLID
  5
1016
  8
LOGO
 62
     5
 10
204.1902664538124
 20
32.547795389323113
 30
0.0
 11
206.4327097307895
 21
32.547795389323113
 31
0.0
 12
204.1902664538124
 22
21.335579004457379
 32
0.0
 13
206.4327097307895
 23
21.335579004461639
 33
0.0
  0
POLYLINE
  5
1017
  8
LOGO
 62
     5
 66
     1
 10
0.0
 20
0.0
 30
0.0
 70
     1
 40
2.2460369360703409
 41
2.2460369360703409
  0
VERTEX
  5
1477
  8
LOGO
 62
     5
 10
221.7492585457814
 20
26.94168719689128
 30
0.0
 42
1.0
  0
VERTEX
  5
1478
  8
LOGO
 62
     5
 10
230.73340629006279
 20
26.94168719689128
 30
0.0
 42
1.0
  0
SEQEND
  5
1479
  8
LOGO
 62
     5
  0
POLYLINE
  5
1018
  8
LOGO
 62
     5
 66
     1
 10
0.0
 20
0.0
 30
0.0
 40
2.2460369360703409
 41
2.2460369360703409
  0
VERTEX
  5
147A
  8
LOGO
 62
     5
 10
274.45925336148321
 20
28.062908835377641
 30
0.0
 42
1.0
  0
VERTEX
  5
147B
  8
LOGO
 62
     5
 10
267.72114255327187
 20
28.062908835377641
 30
0.0
 42
1.0
  0
SEQEND
  5
147C
  8
LOGO
 62
     5
  0
SOLID
  5
1019
  8
LOGO
 62
     5
 10
269.07199900810099
 20
43.760011774184512
 30
0.0
 11
275.57508451132071
 21
43.760011774184512
 31
0.0
 12
269.07199900810099
 22
105.4272018909309
 32
0.0
 13
275.57508451132071
 23
105.42720189093509
 33
0.0
  0
SOLID
  5
101A
  8
LOGO
 62
     5
 10
235.43534985351241
 20
105.4272018909309
 30
0.0
 11
241.9384353567319
 21
105.42720189093509
 31
0.0
 12
235.43534985351241
 22
48.693386983524512
 32
0.0
 13
241.9384353567319
 23
72.538033828668034
 33
0.0
  0
SOLID
  5
101B
  8
LOGO
 62
     5
 10
235.43534985351241
 20
48.693386983524512
 30
0.0
 11
241.9384353567319
 21
72.538033828668034
 31
0.0
 12
266.38106707573178
 22
105.42720189093509
 32
0.0
 13
259.87798157251149
 23
105.42720189093509
 33
0.0
  0
SOLID
  5
101C
  8
LOGO
 62
     5
 10
266.38106707573178
 20
100.49382668159301
 30
0.0
 11
259.87798157251149
 21
76.649179836449534
 31
0.0
 12
266.38106707573178
 22
43.760011774184512
 32
0.0
 13
259.87798157251149
 23
43.760011774184512
 33
0.0
  0
SOLID
  5
101D
  8
LOGO
 62
     2
 10
266.38106707573178
 20
105.42720189093509
 30
0.0
 11
269.07199900810099
 21
105.4272018909309
 31
0.0
 12
266.38106707573178
 22
43.760011774184512
 32
0.0
 13
269.07199900810099
 23
43.760011774184512
 33
0.0
  0
SOLID
  5
101E
  8
LOGO
 62
     5
 10
226.2413324179235
 20
43.760011774186651
 30
0.0
 11
232.7444179211432
 21
43.760011774186651
 31
0.0
 12
226.2413324179235
 22
76.649179836449534
 32
0.0
 13
232.7444179211432
 23
100.49382668159301
 33
0.0
  0
SOLID
  5
101F
  8
LOGO
 62
     2
 10
232.7444179211432
 20
105.4272018909309
 30
0.0
 11
235.43534985351241
 21
105.4272018909309
 31
0.0
 12
232.7444179211432
 22
43.760011774186651
 32
0.0
 13
235.43534985351241
 23
43.760011774186651
 33
0.0
  0
SOLID
  5
1020
  8
LOGO
 62
     5
 10
235.43534985351241
 20
43.760011774186651
 30
0.0
 11
241.9384353567319
 21
43.760011774186651
 31
0.0
 12
266.38106707573178
 22
100.49382668159301
 32
0.0
 13
259.87798157251149
 23
76.649179836449534
 33
0.0
  0
SOLID
  5
1021
  8
LOGO
 62
     2
 10
232.7444179211432
 20
43.760011774186651
 30
0.0
 11
235.43534985351241
 21
43.760011774186651
 31
0.0
 12
266.38106707573178
 22
105.42720189093509
 32
0.0
 13
269.07199900810099
 23
105.4272018909309
 33
0.0
  0
POLYLINE
  5
1022
  8
LOGO
 62
     5
 66
     1
 10
0.0
 20
0.0
 30
0.0
 40
2.2460369360703409
 41
2.2460369360703409
  0
VERTEX
  5
147D
  8
LOGO
 62
     5
 10
242.3174168953235
 20
28.062908835377641
 30
0.0
 42
1.0
  0
VERTEX
  5
147E
  8
LOGO
 62
     5
 10
235.57930608711229
 20
28.062908835377641
 30
0.0
 42
1.0
  0
SEQEND
  5
147F
  8
LOGO
 62
     5
  0
POLYLINE
  5
1023
  8
LOGO
 62
     5
 66
     1
 10
0.0
 20
0.0
 30
0.0
 40
2.2460369360703409
 41
2.2460369360703409
  0
VERTEX
  5
1480
  8
LOGO
 62
     5
 10
216.90291026008029
 20
28.062908835377641
 30
0.0
 42
1.0
  0
VERTEX
  5
1481
  8
LOGO
 62
     5
 10
210.1647994518691
 20
28.062908835377641
 30
0.0
 42
1.0
  0
SEQEND
  5
1482
  8
LOGO
 62
     5
  0
SOLID
  5
1024
  8
LOGO
 62
     5
 10
204.1902664538124
 20
34.1175056832029
 30
0.0
 11
206.4327097307895
 21
34.1175056832029
 31
0.0
 12
204.1902664538124
 22
35.911460304783198
 32
0.0
 13
206.4327097307895
 23
35.911460304783198
 33
0.0
  0
POLYLINE
  5
1025
  8
LOGO
 62
     5
 66
     1
 10
0.0
 20
0.0
 30
0.0
 70
     1
  0
VERTEX
  5
1483
  8
LOGO
 62
     5
 10
255.01950396862361
 20
26.94168719689236
 30
0.0
 42
1.0000000573306349
  0
VERTEX
  5
1484
  8
LOGO
 62
     5
 10
261.7468337995424
 20
26.94168719689236
 30
0.0
 42
1.0000000573306349
  0
SEQEND
  5
1485
  8
LOGO
 62
     5
  0
CIRCLE
  5
1026
  8
LOGO
 62
     5
 10
258.38316888408292
 20
26.941687196892371
 30
0.0
 40
3.3636649154589442
  0
POLYLINE
  5
1027
  8
LOGO
 62
     5
 66
     1
 10
0.0
 20
0.0
 30
0.0
 40
2.2460369360703409
 41
2.2460369360703409
  0
VERTEX
  5
1486
  8
LOGO
 62
     5
 10
249.04474672623959
 20
28.062908835377641
 30
0.0
 42
1.0
  0
VERTEX
  5
1487
  8
LOGO
 62
     5
 10
242.30663591802841
 20
28.062908835377641
 30
0.0
 42
1.0
  0
SEQEND
  5
1488
  8
LOGO
 62
     5
  0
LINE
  5
1028
  8
LOGO
 62
     1
 10
407.61986397150821
 20
18.75744453288803
 30
0.0
 11
407.61986397150821
 21
109.0
 31
0.0
  0
CIRCLE
  5
1029
  8
LOGO
  6
CONTINUOUS
 62
     6
 10
435.46909377280309
 20
63.910893847531092
 30
0.0
 40
8.7328252957536723
  0
CIRCLE
  5
102A
  8
LOGO
  6
CONTINUOUS
 62
     6
 10
435.46909377280309
 20
63.910893847531092
 30
0.0
 40
5.1166625500276606
  0
LINE
  5
102B
  8
LOGO
 62
     6
 10
462.97027523141901
 20
58.79423129750343
 30
0.0
 11
462.97027523141861
 21
69.027556397558783
 31
0.0
  0
TEXT
  5
102C
  8
LOGO
  6
CONTINUOUS
 62
     6
 10
751.0517648967666
 20
-22.603726722871599
 30
0.0
 40
12.533688259321099
  1
Model
  7
CHINESET
 72
     4
 11
774.925456819283
 21
-16.336882593211051
 31
0.0
  0
TEXT
  5
102D
  8
LOGO
  6
CONTINUOUS
 62
     7
 10
729.56544216650184
 20
58.865246962715567
 30
0.0
 40
25.06737651864221
  1
MRTF
  7
CHINESET
 72
     1
 11
774.925456819283
 21
71.39893522203667
 31
0.0
 73
     2
  0
LINE
  5
102E
  8
LOGO
 62
     6
 10
835.08716046402435
 20
93.959574088814705
 30
0.0
 11
714.76375317454165
 21
93.959574088814705
 31
0.0
  0
LINE
  5
102F
  8
LOGO
 62
     6
 10
835.08716046402435
 20
48.838296355258699
 30
0.0
 11
714.76375317454165
 21
48.838296355258699
 31
0.0
  0
LINE
  5
1030
  8
LOGO
 62
     6
 10
825.0602098565671
 20
26.277657488480731
 30
0.0
 11
724.79070378199856
 21
26.277657488480731
 31
0.0
  0
LINE
  5
1031
  8
LOGO
 62
     6
 10
825.0602098565671
 20
-28.870570852532179
 30
0.0
 11
724.79070378199856
 21
-28.870570852532289
 31
0.0
  0
TEXT
  5
1032
  8
LOGO
 62
     7
 10
520.20069385985153
 20
71.342194127632183
 30
0.0
 40
30.08085182237064
  1
訂購代號:
  7
CHINESET
  0
TEXT
  5
1033
  8
LOGO
 62
     7
 10
516.60285814288022
 20
43.11045343026219
 30
0.0
 40
20.053901214913761
  1
Order example:
 41
0.8
  7
CHINESET
  0
LINE
  5
1034
  8
LOGO
 62
     1
 10
507.88937004607709
 20
-41.404259111853243
 30
0.0
 11
507.88937004607709
 21
109.0
 31
0.0
  0
LINE
  5
1035
  8
LOGO
 62
     6
 10
490.34718124551648
 20
55.178068551777429
 30
0.0
 11
490.34718124551648
 21
72.643719143284756
 31
0.0
  0
LINE
  5
1036
  8
LOGO
 62
     6
 10
724.79070378199856
 20
26.277657488480731
 30
0.0
 11
724.79070378199856
 21
-28.870570852532289
 31
0.0
  0
LINE
  5
1037
  8
LOGO
 62
     6
 10
714.76375317454165
 20
93.959574088814705
 30
0.0
 11
714.76375317454165
 21
48.838296355258699
 31
0.0
  0
TEXT
  5
1038
  8
LOGO
  6
CONTINUOUS
 62
     7
 10
893.56558210007745
 20
58.58098133342942
 30
0.0
 40
25.06737651864221
  1
80
  7
CHINESET
 72
     1
 11
913.85822023421633
 21
71.114669592750516
 31
0.0
 73
     2
  0
LINE
  5
1039
  8
LOGO
 62
     6
 10
951.76528354575271
 20
-28.87057085253187
 30
0.0
 11
871.27191201448818
 21
-28.87057085253198
 31
0.0
  0
LINE
  5
103A
  8
LOGO
 62
     6
 10
951.76528354575271
 20
48.83829635525899
 30
0.0
 11
871.27191201448818
 21
48.83829635525899
 31
0.0
  0
LINE
  5
103B
  8
LOGO
 62
     6
 10
951.76528354575271
 20
26.27765748848098
 30
0.0
 11
871.27191201448818
 21
26.27765748848098
 31
0.0
  0
LINE
  5
103C
  8
LOGO
 62
     6
 10
951.76528354575271
 20
93.959574088815231
 30
0.0
 11
871.27191201448818
 21
93.959574088814946
 31
0.0
  0
LINE
  5
103D
  8
LOGO
 62
     6
 10
871.27191201448818
 20
26.27765748848098
 30
0.0
 11
871.27191201448818
 21
-28.87057085253187
 31
0.0
  0
LINE
  5
103E
  8
LOGO
 62
     6
 10
825.06020985656755
 20
26.277657488480731
 30
0.0
 11
825.06020985656755
 21
-28.870570852532119
 31
0.0
  0
TEXT
  5
103F
  8
LOGO
 62
     6
 10
754.87155560436929
 20
-0.7832662966046656
 30
0.0
 40
20.053901214913761
  1
型式
  7
CHINESET
 72
     4
 11
774.925456819283
 21
8.7304939254311904
 31
0.0
  0
LINE
  5
1040
  8
LOGO
 62
     6
 10
774.925456819283
 20
48.838296355258699
 30
0.0
 11
774.925456819283
 21
26.277657488480731
 31
0.0
  0
LINE
  5
1041
  8
LOGO
 62
     6
 10
871.27191201448818
 20
93.959574088814946
 30
0.0
 11
871.27191201448818
 21
48.83829635525899
 31
0.0
  0
LINE
  5
1042
  8
LOGO
 62
     6
 10
835.08716046402435
 20
93.959574088814705
 30
0.0
 11
835.08716046402435
 21
48.838296355258699
 31
0.0
  0
LINE
  5
1043
  8
LOGO
  6
CONTINUOUS
 62
     7
 10
843.54497406063558
 20
71.239108525457311
 30
0.0
 11
863.46888390550725
 21
71.239108525457311
 31
0.0
  0
LINE
  5
1044
  8
LOGO
 62
     6
 10
977.2389889407724
 20
26.277657488480731
 30
0.0
 11
977.2389889407724
 21
-28.870570852532289
 31
0.0
  0
LINE
  5
1045
  8
LOGO
 62
     6
 10
951.76528354575271
 20
26.27765748848098
 30
0.0
 11
951.76528354575271
 21
-28.870570852531721
 31
0.0
  0
TEXT
  5
1046
  8
LOGO
  6
CONTINUOUS
 62
     6
 10
896.00069803048495
 20
-22.603726722871439
 30
0.0
 40
12.533688259321099
  1
Bore
 41
0.8
  7
CHINESET
 72
     4
 11
911.51859778012044
 21
-16.336882593210881
 31
0.0
  0
TEXT
  5
1047
  8
LOGO
 62
     6
 10
892.34205474335931
 20
-1.2964566820255621
 30
0.0
 40
20.053901214913761
  1
內徑
 41
0.9
  7
CHINESET
 72
     4
 11
911.51859778012044
 21
8.7304939254313183
 31
0.0
  0
LINE
  5
1048
  8
LOGO
  6
CONTINUOUS
 62
     7
 10
959.53900159437705
 20
71.239108525457567
 30
0.0
 11
979.46291143924896
 21
71.239108525457567
 31
0.0
  0
LINE
  5
1049
  8
LOGO
 62
     6
 10
951.76528354575271
 20
93.959574088815231
 30
0.0
 11
951.76528354575271
 21
48.83829635525899
 31
0.0
  0
LINE
  5
104A
  8
LOGO
 62
     6
 10
911.51859662409095
 20
48.83829635525899
 30
0.0
 11
911.51859662409095
 21
26.27765748848098
 31
0.0
  0
LINE
  5
104B
  8
LOGO
 62
     6
 10
987.26593954822965
 20
93.959574088814705
 30
0.0
 11
987.26593954822943
 21
48.838296355258699
 31
0.0
  0
LINE
  5
104C
  8
LOGO
 62
     6
 10
1030.0860321173741
 20
48.838296355258699
 30
0.0
 11
1030.0860321173741
 21
26.277657488480731
 31
0.0
  0
LINE
  5
1052
  8
LOGO
 62
     6
 10
1080.809458198569
 20
26.277657488480731
 30
0.0
 11
1080.809458198569
 21
-29.07851624095661
 31
0.0
  0
LINE
  5
1053
  8
LOGO
 62
     6
 10
1070.782507591113
 20
93.959574088814705
 30
0.0
 11
1070.7825075911121
 21
48.83829635525867
 31
0.0
  0
LINE
  5
105C
  8
LOGO
 62
     1
 10
1107.0
 20
-41.404259111853243
 30
0.0
 11
1107.0
 21
109.0
 31
0.0
  0
ENDSEC
  0
EOF
