  0
SECTION
  2
HEADER
  9
$ACADVER
  1
AC1009
  9
$INSBASE
 10
0.0
 20
0.0
 30
0.0
  9
$EXTMIN
 10
119.9450704547869
 20
-9.2178025827950023
 30
-0.0015258207003583
  9
$EXTMAX
 10
810.03296090526635
 20
567.00824109768519
 30
0.0000000349246037
  9
$LIMMIN
 10
0.0
 20
0.0
  9
$LIMMAX
 10
840.0
 20
594.0
  9
$ORTHOMODE
 70
     1
  9
$REGENMODE
 70
     1
  9
$FILLMODE
 70
     1
  9
$QTEXTMODE
 70
     0
  9
$MIRRTEXT
 70
     1
  9
$DRAGMODE
 70
     2
  9
$LTSCALE
 40
1.0
  9
$OSMODE
 70
    39
  9
$ATTMODE
 70
     1
  9
$TEXTSIZE
 40
3.0
  9
$TRACEWID
 40
0.05
  9
$TEXTSTYLE
  7
ITALICT
  9
$CLAYER
  8
0
  9
$CELTYPE
  6
CONTINUOUS
  9
$CECOLOR
 62
   256
  9
$DIMSCALE
 40
1.0
  9
$DIMASZ
 40
3.0
  9
$DIMEXO
 40
1.0
  9
$DIMDLI
 40
1.6471290567571920E+015
  9
$DIMRND
 40
0.0
  9
$DIMDLE
 40
0.0
  9
$DIMEXE
 40
1.0
  9
$DIMTP
 40
0.15
  9
$DIMTM
 40
-0.1
  9
$DIMTXT
 40
3.0
  9
$DIMCEN
 40
2.0
  9
$DIMTSZ
 40
0.0
  9
$DIMTOL
 70
     0
  9
$DIMLIM
 70
     0
  9
$DIMTIH
 70
     0
  9
$DIMTOH
 70
     0
  9
$DIMSE1
 70
     0
  9
$DIMSE2
 70
     0
  9
$DIMTAD
 70
     1
  9
$DIMZIN
 70
     0
  9
$DIMBLK
  1

  9
$DIMASO
 70
     0
  9
$DIMSHO
 70
     0
  9
$DIMPOST
  1

  9
$DIMAPOST
  1

  9
$DIMALT
 70
     0
  9
$DIMALTD
 70
     2
  9
$DIMALTF
 40
25.399999999999999
  9
$DIMLFAC
 40
1.0
  9
$DIMTOFL
 70
     1
  9
$DIMTVP
 40
1.0
  9
$DIMTIX
 70
     0
  9
$DIMSOXD
 70
     0
  9
$DIMSAH
 70
     0
  9
$DIMBLK1
  1

  9
$DIMBLK2
  1

  9
$DIMSTYLE
  2
STANDARD
  9
$DIMCLRD
 70
     0
  9
$DIMCLRE
 70
     0
  9
$DIMCLRT
 70
     0
  9
$DIMTFAC
 40
1.0
  9
$DIMGAP
 40
0.09
  9
$LUNITS
 70
     2
  9
$LUPREC
 70
     2
  9
$SKETCHINC
 40
0.1
  9
$FILLETRAD
 40
0.75
  9
$AUNITS
 70
     0
  9
$AUPREC
 70
     2
  9
$MENU
  1
ACAD
  9
$ELEVATION
 40
0.0
  9
$PELEVATION
 40
0.0
  9
$THICKNESS
 40
0.0
  9
$LIMCHECK
 70
     0
  9
$BLIPMODE
 70
     0
  9
$CHAMFERA
 40
0.0
  9
$CHAMFERB
 40
0.0
  9
$SKPOLY
 70
     1
  9
$TDCREATE
 40
2450580.7034460641
  9
$TDUPDATE
 40
2451939.3926871871
  9
$TDINDWG
 40
0.097863206
  9
$TDUSRTIMER
 40
0.097863206
  9
$USRTIMER
 70
     1
  9
$ANGBASE
 50
0.0
  9
$ANGDIR
 70
     0
  9
$PDMODE
 70
     0
  9
$PDSIZE
 40
0.0
  9
$PLINEWID
 40
0.0
  9
$COORDS
 70
     2
  9
$SPLFRAME
 70
     0
  9
$SPLINETYPE
 70
     6
  9
$SPLINESEGS
 70
     8
  9
$ATTDIA
 70
     0
  9
$ATTREQ
 70
     1
  9
$HANDLING
 70
 12289
  9
$HANDSEED
  5
1586
  9
$SURFTAB1
 70
     6
  9
$SURFTAB2
 70
     6
  9
$SURFTYPE
 70
     6
  9
$SURFU
 70
     6
  9
$SURFV
 70
     6
  9
$UCSNAME
  2

  9
$UCSORG
 10
0.0
 20
0.0
 30
0.0
  9
$UCSXDIR
 10
1.0
 20
0.0
 30
0.0
  9
$UCSYDIR
 10
0.0
 20
1.0
 30
0.0
  9
$PUCSNAME
  2

  9
$PUCSORG
 10
0.0
 20
0.0
 30
0.0
  9
$PUCSXDIR
 10
1.0
 20
0.0
 30
0.0
  9
$PUCSYDIR
 10
0.0
 20
1.0
 30
0.0
  9
$USERI1
 70
     0
  9
$USERI2
 70
-31485
  9
$USERI3
 70
     0
  9
$USERI4
 70
     0
  9
$USERI5
 70
     0
  9
$USERR1
 40
0.0
  9
$USERR2
 40
0.0
  9
$USERR3
 40
0.0
  9
$USERR4
 40
0.0
  9
$USERR5
 40
0.0
  9
$WORLDVIEW
 70
     1
  9
$SHADEDGE
 70
     3
  9
$SHADEDIF
 70
    70
  9
$TILEMODE
 70
     1
  9
$MAXACTVP
 70
    64
  9
$PLIMCHECK
 70
     0
  9
$PEXTMIN
 10
1.0000000000000000E+020
 20
1.0000000000000000E+020
 30
1.0000000000000000E+020
  9
$PEXTMAX
 10
-1.0000000000000000E+020
 20
-1.0000000000000000E+020
 30
-1.0000000000000000E+020
  9
$PLIMMIN
 10
0.0
 20
0.0
  9
$PLIMMAX
 10
12.0
 20
9.0
  9
$UNITMODE
 70
     0
  9
$VISRETAIN
 70
     1
  9
$PLINEGEN
 70
     0
  9
$PSLTSCALE
 70
     0
  0
ENDSEC
  0
SECTION
  2
TABLES
  0
TABLE
  2
VPORT
 70
     2
  0
VPORT
  2
*ACTIVE
 70
     0
 10
0.0
 20
0.0
 11
1.0
 21
1.0
 12
464.98901568002668
 22
278.89521925744509
 13
0.0
 23
0.0
 14
1.0
 24
1.0
 15
0.0
 25
0.0
 16
0.0
 26
0.0
 36
1.0
 17
0.0
 27
0.0
 37
0.0
 40
582.58147798577966
 41
1.7274401473296499
 42
1.0
 43
0.0
 44
0.0
 50
0.0
 51
0.0
 71
     0
 72
   100
 73
     1
 74
     1
 75
     0
 76
     0
 77
     0
 78
     0
  0
ENDTAB
  0
TABLE
  2
LTYPE
 70
     3
  0
LTYPE
  2
CONTINUOUS
 70
     0
  3
Solid line
 72
    65
 73
     0
 40
0.0
  0
LTYPE
  2
CENTER
 70
     0
  3
_______________ _ _______________ _ ___________
 72
    65
 73
     4
 40
18.0
 49
15.0
 49
-1.0
 49
1.0
 49
-1.0
  0
LTYPE
  2
HIDDEN
 70
     0
  3
___ ___ ___ ___ ___ ___ ___ ___ ___ ___ 
 72
    65
 73
     2
 40
4.0
 49
3.0
 49
-1.0
  0
ENDTAB
  0
TABLE
  2
LAYER
 70
     5
  0
LAYER
  2
0
 70
     0
 62
     7
  6
CONTINUOUS
  0
LAYER
  2
CENTER
 70
     0
 62
     1
  6
CENTER
  0
LAYER
  2
DIM
 70
     0
 62
     5
  6
CONTINUOUS
  0
LAYER
  2
HIDDEN
 70
     0
 62
     6
  6
HIDDEN
  0
LAYER
  2
LOGO
 70
     0
 62
     7
  6
CONTINUOUS
  0
ENDTAB
  0
TABLE
  2
STYLE
 70
     8
  0
STYLE
  2
STANDARD
 70
     0
 40
0.0
 41
1.0
 50
0.0
 71
     0
 42
3.0
  3
txt
  4

  0
STYLE
  2
ITALICT
 70
     0
 40
0.0
 41
1.0
 50
0.0
 71
     0
 42
3.0
  3
ITALICT.SHX
  4

  0
STYLE
  2
ROMANSS
 70
     0
 40
0.0
 41
1.0
 50
0.0
 71
     0
 42
3.0
  3
ROMANSS.SHX
  4
LMP
  0
STYLE
  2
CHINESET
 70
     0
 40
0.0
 41
1.0
 50
0.0
 71
     0
 42
4.0
  3
C:\r13\com\fonts\simplex.shx
  4
C:\r13\com\fonts\chineset.shx
  0
STYLE
  2
LOGO
 70
     0
 40
0.0
 41
1.0
 50
0.0
 71
     0
 42
5.0
  3
txt
  4

  0
ENDTAB
  0
TABLE
  2
VIEW
 70
     0
  0
ENDTAB
  0
TABLE
  2
UCS
 70
     0
  0
ENDTAB
  0
TABLE
  2
APPID
 70
     2
  0
APPID
  2
ACAD
 70
     0
  0
APPID
  2
TCAD
 70
     0
  0
ENDTAB
  0
TABLE
  2
DIMSTYLE
 70
     1
  0
DIMSTYLE
  2
STANDARD
 70
     0
  3

  4

  5

  6

  7

 40
1.0
 41
0.18
 42
0.0625
 43
0.38
 44
0.18
 45
0.0
 46
0.0
 47
0.0
 48
0.0
140
0.18
141
0.09
142
0.0
143
25.399999999999999
144
1.0
145
0.0
146
1.0
147
0.09
 71
     0
 72
     0
 73
     1
 74
     1
 75
     0
 76
     0
 77
     0
 78
     0
170
     0
171
     2
172
     0
173
     0
174
     0
175
     0
176
     0
177
     0
178
     0
  0
ENDTAB
  0
ENDSEC
  0
SECTION
  2
BLOCKS
  0
BLOCK
  8
0
  2
$MODEL_SPACE
 70
     0
 10
0.0
 20
0.0
 30
0.0
  3
$MODEL_SPACE
  1

  0
ENDBLK
  5
3F
  8
0
  0
BLOCK
 67
     1
  8
0
  2
$PAPER_SPACE
 70
     0
 10
0.0
 20
0.0
 30
0.0
  3
$PAPER_SPACE
  1

  0
ENDBLK
  5
3D
 67
     1
  8
0
  0
ENDSEC
  0
SECTION
  2
ENTITIES
  0
LINE
  5
B25
  8
0
 62
     4
 10
810.0
 20
567.0
 30
0.0
 11
810.0
 21
87.0
 31
0.0
  0
LINE
  5
B26
  8
0
 62
     4
 10
120.0
 20
87.0
 30
0.0
 11
120.0
 21
567.0
 31
0.0
  0
LINE
  5
B27
  8
0
 62
     4
 10
810.0
 20
87.0
 30
0.0
 11
120.0
 21
87.0
 31
0.0
  0
LINE
  5
B29
  8
0
 62
     4
 10
120.0
 20
567.0
 30
0.0
 11
810.0
 21
567.0
 31
0.0
  0
LINE
  5
B32
  8
CENTER
  6
CENTER
 10
286.26071555780862
 20
161.56554446481221
 30
0.0
 11
626.87700834977966
 21
161.56554446481221
 31
0.0
  0
LINE
  5
B33
  8
0
 10
418.76071555780868
 20
185.76554446481211
 30
0.0
 11
323.26071555780868
 21
185.76554446481211
 31
0.0
  0
LINE
  5
B34
  8
0
 10
418.76071555780868
 20
137.3655444648121
 30
0.0
 11
323.26071555780868
 21
137.3655444648121
 31
0.0
  0
LINE
  5
B35
  8
0
 10
418.76071555780868
 20
149.76332016216031
 30
0.0
 11
323.26071555780868
 21
149.76332016216031
 31
0.0
  0
LINE
  5
B36
  8
0
 10
418.76071555780868
 20
173.3677687674639
 30
0.0
 11
323.26071555780868
 21
173.3677687674639
 31
0.0
  0
LINE
  5
B37
  8
CENTER
  6
CENTER
 10
286.26071555780862
 20
323.20547819388293
 30
0.0
 11
625.64813400425669
 21
323.20547819388293
 31
0.0
  0
LINE
  5
B38
  8
DIM
  6
CONTINUOUS
 10
280.55837233721883
 20
211.70547819388301
 30
0.0
 11
632.12416282147456
 21
211.70547819388301
 31
0.0
  0
LINE
  5
B39
  8
0
 10
418.76071555780868
 20
485.26309722127172
 30
0.0
 11
323.26071555780868
 21
485.26309722127172
 31
0.0
  0
LINE
  5
B3A
  8
0
 10
418.76071555780868
 20
472.86532152392363
 30
0.0
 11
323.26071555780868
 21
472.86532152392363
 31
0.0
  0
LINE
  5
B3B
  8
0
 10
418.76071555780868
 20
449.26087291862001
 30
0.0
 11
323.26071555780868
 21
449.26087291862001
 31
0.0
  0
LINE
  5
B3C
  8
0
 10
418.76071555780868
 20
436.86309722127169
 30
0.0
 11
323.26071555780868
 21
436.86309722127169
 31
0.0
  0
LINE
  5
B3D
  8
0
 10
418.76071555780851
 20
347.4054781938828
 30
0.0
 11
323.26071555780862
 21
347.4054781938828
 31
0.0
  0
LINE
  5
B3E
  8
0
 10
418.76071555780862
 20
335.00770249653471
 30
0.0
 11
323.26071555780868
 21
335.00770249653471
 31
0.0
  0
LINE
  5
B3F
  8
0
 10
418.76071555780862
 20
311.40325389123109
 30
0.0
 11
323.26071555780868
 21
311.40325389123109
 31
0.0
  0
LINE
  5
B40
  8
0
 10
418.76071555780862
 20
299.00547819388288
 30
0.0
 11
323.26071555780868
 21
299.00547819388288
 31
0.0
  0
LINE
  5
B41
  8
CENTER
  6
CENTER
 10
286.26071555780862
 20
461.06309722127168
 30
0.0
 11
626.87700834977966
 21
461.06309722127168
 31
0.0
  0
ARC
  5
B42
  8
0
  6
CONTINUOUS
 10
181.40063726669081
 20
369.70547819388293
 30
0.0
 40
2.5
 50
180.0
 51
0.0
  0
LINE
  5
B43
  8
0
 10
173.40063726669081
 20
393.70547819388293
 30
0.0
 11
173.40063726669081
 21
364.70547819388293
 31
0.0
  0
LINE
  5
B44
  8
0
 10
189.40063726669081
 20
393.70547819388293
 30
0.0
 11
189.40063726669081
 21
364.70547819388293
 31
0.0
  0
LINE
  5
B45
  8
CENTER
  6
CENTER
 10
181.40063726669081
 20
397.70547819388293
 30
0.0
 11
181.40063726669081
 21
247.9413410481487
 31
0.0
  0
LINE
  5
B46
  8
0
  6
CONTINUOUS
 10
216.40063726669081
 20
363.70547819388293
 30
0.0
 11
146.40063726669081
 21
363.70547819388293
 31
0.0
  0
LINE
  5
B47
  8
0
  6
CONTINUOUS
 10
217.40063726669081
 20
362.70547819388293
 30
0.0
 11
145.40063726669081
 21
362.70547819388293
 31
0.0
  0
LINE
  5
B48
  8
0
  6
CONTINUOUS
 10
236.90063726669081
 20
355.70547819388298
 30
0.0
 11
143.90063726669081
 21
355.70547819388281
 31
0.0
  0
LINE
  5
B49
  8
0
  6
CONTINUOUS
 10
217.40063726669081
 20
283.70547819388293
 30
0.0
 11
145.40063726669081
 21
283.70547819388293
 31
0.0
  0
LINE
  5
B4A
  8
0
  6
CONTINUOUS
 10
216.40063726669081
 20
282.70547819388293
 30
0.0
 11
146.40063726669081
 21
282.70547819388293
 31
0.0
  0
LINE
  5
B4B
  8
CENTER
  6
CENTER
 10
239.90063726669069
 20
323.20547819388293
 30
0.0
 11
140.90063726669081
 21
323.20547819388293
 31
0.0
  0
LINE
  5
B4C
  8
0
  6
CONTINUOUS
 10
236.90063726669081
 20
290.70547819388293
 30
0.0
 11
143.90063726669081
 21
290.70547819388293
 31
0.0
  0
LINE
  5
B4D
  8
0
  6
CONTINUOUS
 10
145.40063726669081
 20
362.70547819388293
 30
0.0
 11
146.40063726669081
 21
363.70547819388293
 31
0.0
  0
LINE
  5
B4E
  8
0
 10
145.40063726669081
 20
355.70547819388298
 30
0.0
 11
145.40063726669081
 21
362.70547819388293
 31
0.0
  0
LINE
  5
B4F
  8
0
 10
145.40063726669081
 20
290.70547819388293
 30
0.0
 11
145.40063726669081
 21
283.70547819388293
 31
0.0
  0
LINE
  5
B50
  8
0
  6
CONTINUOUS
 10
145.40063726669081
 20
283.70547819388293
 30
0.0
 11
146.40063726669081
 21
282.70547819388293
 31
0.0
  0
LINE
  5
B51
  8
CENTER
  6
CENTER
 10
151.40063726669081
 20
306.80312056393672
 30
0.0
 11
151.40063726669081
 21
286.4389926668477
 31
0.0
  0
LINE
  5
B52
  8
0
 10
143.90063726669081
 20
355.70547819388281
 30
0.0
 11
143.90063726669081
 21
290.70547819388293
 31
0.0
  0
LINE
  5
B53
  8
CENTER
  6
CENTER
 10
151.40063726669081
 20
340.86856780039238
 30
0.0
 11
151.40063726669081
 21
360.54413948716223
 31
0.0
  0
LINE
  5
B54
  8
0
 10
191.40063726669081
 20
364.70547819388293
 30
0.0
 11
191.40063726669081
 21
363.70547819388293
 31
0.0
  0
LINE
  5
B55
  8
0
 10
171.40063726669081
 20
364.70547819388293
 30
0.0
 11
171.40063726669081
 21
363.70547819388293
 31
0.0
  0
LINE
  5
B56
  8
0
  6
CONTINUOUS
 10
191.40063726669081
 20
364.70547819388293
 30
0.0
 11
171.40063726669081
 21
364.70547819388293
 31
0.0
  0
LINE
  5
B57
  8
0
  6
CONTINUOUS
 10
217.40063726669081
 20
362.70547819388293
 30
0.0
 11
216.40063726669081
 21
363.70547819388293
 31
0.0
  0
LINE
  5
B58
  8
0
 10
217.40063726669081
 20
355.70547819388298
 30
0.0
 11
217.40063726669081
 21
362.70547819388293
 31
0.0
  0
LINE
  5
B59
  8
CENTER
  6
CENTER
 10
189.90063726669081
 20
310.70547819388293
 30
0.0
 11
189.90063726669081
 21
297.70547819388293
 31
0.0
  0
LINE
  5
B5A
  8
0
 10
207.90063726669081
 20
300.70547819388293
 30
0.0
 11
207.90063726669081
 21
304.31103456619189
 31
0.0
  0
LINE
  5
B5B
  8
0
 10
209.90063726669081
 20
300.70547819388293
 30
0.0
 11
209.90063726669081
 21
304.31103456619189
 31
0.0
  0
LINE
  5
B5C
  8
0
 10
200.90063726669081
 20
300.70547819388293
 30
0.0
 11
200.90063726669081
 21
306.47227766320151
 31
0.0
  0
ARC
  5
B5D
  8
0
 10
189.90063726669081
 20
304.20547819388293
 30
0.0
 40
7.5
 50
335.68426082882991
 51
34.193077125139702
  0
LINE
  5
B5E
  8
0
 10
216.90063726669069
 20
300.70547819388293
 30
0.0
 11
216.90063726669069
 21
306.47227766320151
 31
0.0
  0
ARC
  5
B5F
  8
0
 10
217.90063726669081
 20
300.70547819388293
 30
0.0
 40
1.0
 50
180.0
 51
270.0
  0
LINE
  5
B60
  8
0
 10
206.90063726669081
 20
299.70547819388298
 30
0.0
 11
197.6466039591061
 21
299.70547819388298
 31
0.0
  0
ARC
  5
B61
  8
0
 10
210.90063726669081
 20
300.70547819388293
 30
0.0
 40
1.0
 50
180.0
 51
270.0
  0
ARC
  5
B62
  8
0
 10
206.90063726669081
 20
300.70547819388293
 30
0.0
 40
1.0
 50
270.0
 51
0.0
  0
ARC
  5
B63
  8
0
 10
197.6466039591061
 20
300.70547819388293
 30
0.0
 40
1.0
 50
155.68426082881459
 51
270.0
  0
ARC
  5
B64
  8
0
 10
199.90063726669081
 20
300.70547819388293
 30
0.0
 40
1.0
 50
270.0
 51
0.0
  0
ARC
  5
B65
  8
0
 10
217.90063726669081
 20
306.47227766320151
 30
0.0
 40
1.0
 50
118.2737136313652
 51
180.0
  0
LINE
  5
B66
  8
0
 10
216.90063726669069
 20
345.70547819388293
 30
0.0
 11
216.90063726669069
 21
339.9386787245644
 31
0.0
  0
ARC
  5
B67
  8
0
 10
217.90063726669081
 20
339.9386787245644
 30
0.0
 40
1.0
 50
180.0
 51
241.7262863686347
  0
ARC
  5
B68
  8
0
 10
217.90063726669081
 20
345.70547819388293
 30
0.0
 40
1.0
 50
90.0
 51
180.0
  0
ARC
  5
B69
  8
0
 10
189.90063726669081
 20
342.20547819388293
 30
0.0
 40
7.5
 50
245.6842608288265
 51
304.19307712514018
  0
LINE
  5
B6A
  8
0
 10
186.40063726669081
 20
331.20547819388293
 30
0.0
 11
192.16743673600939
 21
331.20547819388293
 31
0.0
  0
ARC
  5
B6B
  8
0
 10
190.00619363899969
 20
321.20547819388293
 30
0.0
 40
1.0
 50
6.0423284190542867
 51
90.0
  0
ARC
  5
B6C
  8
0
 10
208.90063726669081
 20
323.20547819388293
 30
0.0
 40
17.999999999999972
 50
139.6507090048799
 51
173.9576715809458
  0
ARC
  5
B6D
  8
0
 10
190.00619363899969
 20
325.20547819388293
 30
0.0
 40
1.0
 50
270.0
 51
353.95767158094571
  0
ARC
  5
B6E
  8
0
 10
189.90063726669081
 20
304.20547819388293
 30
0.0
 40
7.5
 50
55.806922874859701
 51
114.315739171172
  0
LINE
  5
B6F
  8
CENTER
  6
CENTER
 10
196.40063726669081
 20
304.20547819388293
 30
0.0
 11
183.40063726669081
 21
304.20547819388293
 31
0.0
  0
LINE
  5
B70
  8
0
 10
186.40063726669081
 20
315.20547819388293
 30
0.0
 11
192.16743673600939
 21
315.20547819388293
 31
0.0
  0
ARC
  5
B71
  8
0
 10
208.90063726669081
 20
323.20547819388293
 30
0.0
 40
17.999999999999972
 50
186.04232841905389
 51
220.34929099511979
  0
ARC
  5
B72
  8
0
 10
208.90063726669081
 20
323.20547819388293
 30
0.0
 40
17.999999999999972
 50
229.6507090048799
 51
263.95767158094588
  0
ARC
  5
B73
  8
0
 10
210.90063726669081
 20
304.31103456619189
 30
0.0
 40
1.0
 50
96.042328419054286
 51
180.0
  0
ARC
  5
B74
  8
0
 10
206.90063726669081
 20
304.31103456619189
 30
0.0
 40
1.0
 50
0.0
 51
83.957671580945714
  0
ARC
  5
B75
  8
0
 10
196.9228926280654
 20
309.10641321169788
 30
0.0
 40
0.5
 50
49.650709004877889
 51
135.0
  0
ARC
  5
B76
  8
0
 10
199.90063726669081
 20
306.47227766320151
 30
0.0
 40
1.0
 50
0.0
 51
61.72628636863471
  0
ARC
  5
B77
  8
0
 10
194.80157228450591
 20
311.2277335552576
 30
0.0
 40
0.5
 50
315.00000000000688
 51
40.349290995122097
  0
ARC
  5
B78
  8
0
 10
194.39650478763451
 20
310.82266605838618
 30
0.0
 40
0.5
 50
235.80692287485761
 51
315.0
  0
LINE
  5
B79
  8
0
 10
195.15512567509921
 20
310.87418016466432
 30
0.0
 11
194.75005817822779
 21
310.46911266779301
 31
0.0
  0
LINE
  5
B7A
  8
0
 10
196.56933923747229
 20
309.4599666022911
 30
0.0
 11
196.1642717406009
 21
309.05489910541979
 31
0.0
  0
ARC
  5
B7B
  8
0
 10
196.5178251311942
 20
308.70134571482657
 30
0.0
 40
0.5
 50
135.0
 51
214.19307712514231
  0
ARC
  5
B7C
  8
0
 10
192.16743673600939
 20
314.20547819388298
 30
0.0
 40
1.0
 50
28.273713631367489
 51
90.0
  0
LINE
  5
B7D
  8
0
 10
195.15512567509921
 20
335.53677622310153
 30
0.0
 11
194.75005817822779
 21
335.94184371997289
 31
0.0
  0
ARC
  5
B7E
  8
0
 10
192.16743673600939
 20
332.20547819388293
 30
0.0
 40
1.0
 50
270.0
 51
331.72628636863169
  0
ARC
  5
B7F
  8
0
 10
194.80157228450591
 20
335.18322283250831
 30
0.0
 40
0.5
 50
319.65070900487791
 51
44.999999999993094
  0
ARC
  5
B80
  8
0
 10
194.39650478763451
 20
335.58829032937962
 30
0.0
 40
0.5
 50
45.0
 51
124.1930771251423
  0
LINE
  5
B81
  8
0
 10
185.40063726669081
 20
321.20547819388293
 30
0.0
 11
185.40063726669081
 21
311.95144488629819
 31
0.0
  0
ARC
  5
B82
  8
0
 10
186.40063726669081
 20
311.95144488629819
 30
0.0
 40
1.0
 50
180.0
 51
294.31573917118533
  0
ARC
  5
B83
  8
0
 10
186.40063726669081
 20
314.20547819388298
 30
0.0
 40
1.0
 50
90.0
 51
180.0
  0
LINE
  5
B84
  8
0
 10
185.40063726669081
 20
325.20547819388293
 30
0.0
 11
185.40063726669081
 21
334.45951150146772
 31
0.0
  0
ARC
  5
B85
  8
0
 10
186.40063726669081
 20
321.20547819388293
 30
0.0
 40
1.0
 50
90.0
 51
180.0
  0
ARC
  5
B86
  8
0
 10
186.40063726669081
 20
325.20547819388293
 30
0.0
 40
1.0
 50
180.0
 51
270.0
  0
LINE
  5
B87
  8
0
 10
186.40063726669081
 20
322.20547819388298
 30
0.0
 11
190.00619363899969
 21
322.20547819388298
 31
0.0
  0
LINE
  5
B88
  8
0
 10
186.40063726669081
 20
324.20547819388293
 30
0.0
 11
190.00619363899969
 21
324.20547819388293
 31
0.0
  0
ARC
  5
B89
  8
0
 10
186.40063726669081
 20
334.45951150146772
 30
0.0
 40
1.0
 50
65.684260828814644
 51
180.0
  0
ARC
  5
B8A
  8
0
 10
186.40063726669081
 20
332.20547819388293
 30
0.0
 40
1.0
 50
180.0
 51
270.0
  0
LINE
  5
B8B
  8
CENTER
  6
CENTER
 10
196.40063726669081
 20
342.20547819388293
 30
0.0
 11
183.40063726669081
 21
342.20547819388293
 31
0.0
  0
LINE
  5
B8C
  8
0
 10
206.90063726669081
 20
346.70547819388293
 30
0.0
 11
197.6466039591061
 21
346.70547819388293
 31
0.0
  0
ARC
  5
B8D
  8
0
 10
208.90063726669081
 20
323.20547819388293
 30
0.0
 40
17.999999999999972
 50
96.042328419054115
 51
130.34929099511999
  0
LINE
  5
B8E
  8
0
 10
209.90063726669081
 20
345.70547819388293
 30
0.0
 11
209.90063726669081
 21
342.09992182157401
 31
0.0
  0
LINE
  5
B8F
  8
0
 10
207.90063726669081
 20
345.70547819388293
 30
0.0
 11
207.90063726669081
 21
342.09992182157401
 31
0.0
  0
ARC
  5
B90
  8
0
 10
210.90063726669081
 20
342.09992182157401
 30
0.0
 40
1.0
 50
180.0
 51
263.95767158094571
  0
ARC
  5
B91
  8
0
 10
206.90063726669081
 20
342.09992182157401
 30
0.0
 40
1.0
 50
276.04232841905417
 51
0.0
  0
ARC
  5
B92
  8
0
 10
210.90063726669081
 20
345.70547819388293
 30
0.0
 40
1.0
 50
90.0
 51
180.0
  0
ARC
  5
B93
  8
0
 10
206.90063726669081
 20
345.70547819388293
 30
0.0
 40
1.0
 50
0.0
 51
90.0
  0
ARC
  5
B94
  8
0
 10
189.90063726669081
 20
342.20547819388293
 30
0.0
 40
7.5
 50
325.80692287486028
 51
24.31573917117197
  0
LINE
  5
B95
  8
0
 10
200.90063726669081
 20
345.70547819388293
 30
0.0
 11
200.90063726669081
 21
339.9386787245644
 31
0.0
  0
ARC
  5
B96
  8
0
 10
196.9228926280654
 20
337.30454317606802
 30
0.0
 40
0.5
 50
225.0
 51
310.34929099512209
  0
ARC
  5
B97
  8
0
 10
199.90063726669081
 20
339.9386787245644
 30
0.0
 40
1.0
 50
298.27371363136518
 51
0.0
  0
LINE
  5
B98
  8
0
 10
196.56933923747229
 20
336.95098978547458
 30
0.0
 11
196.1642717406009
 21
337.35605728234611
 31
0.0
  0
ARC
  5
B99
  8
0
 10
196.5178251311942
 20
337.70961067293928
 30
0.0
 40
0.5
 50
145.80692287485761
 51
225.0
  0
ARC
  5
B9A
  8
0
 10
197.6466039591061
 20
345.70547819388293
 30
0.0
 40
1.0
 50
90.0
 51
204.3157391711853
  0
ARC
  5
B9B
  8
0
 10
199.90063726669081
 20
345.70547819388293
 30
0.0
 40
1.0
 50
0.0
 51
90.0
  0
POLYLINE
  5
B9C
  8
0
 66
     1
 10
0.0
 20
0.0
 30
0.0
 70
     1
  0
VERTEX
  5
1466
  8
0
 10
192.90063726669081
 20
343.93752900145188
 30
0.0
  0
VERTEX
  5
1467
  8
0
 10
192.90063726669081
 20
340.47342738631409
 30
0.0
  0
VERTEX
  5
1468
  8
0
 10
189.90063726669081
 20
338.7413765787453
 30
0.0
  0
VERTEX
  5
1469
  8
0
 10
186.90063726669081
 20
340.47342738631409
 30
0.0
  0
VERTEX
  5
146A
  8
0
 10
186.90063726669081
 20
343.93752900145188
 30
0.0
  0
VERTEX
  5
146B
  8
0
 10
189.90063726669081
 20
345.66957980902072
 30
0.0
  0
SEQEND
  5
146C
  8
0
  0
CIRCLE
  5
BA4
  8
0
 10
189.90063726669081
 20
342.20547819388293
 30
0.0
 40
5.5
  0
CIRCLE
  5
BA5
  8
0
 10
189.90063726669081
 20
342.20547819388293
 30
0.0
 40
5.0
  0
CIRCLE
  5
BA6
  8
0
 10
189.90063726669081
 20
304.20547819388293
 30
0.0
 40
5.5
  0
CIRCLE
  5
BA7
  8
0
 10
189.90063726669081
 20
304.20547819388293
 30
0.0
 40
5.0
  0
POLYLINE
  5
BA8
  8
0
 66
     1
 10
0.0
 20
0.0
 30
0.0
 70
     1
  0
VERTEX
  5
146D
  8
0
 10
192.90063726669081
 20
305.93752900145188
 30
0.0
  0
VERTEX
  5
146E
  8
0
 10
192.90063726669081
 20
302.47342738631409
 30
0.0
  0
VERTEX
  5
146F
  8
0
 10
189.90063726669081
 20
300.7413765787453
 30
0.0
  0
VERTEX
  5
1470
  8
0
 10
186.90063726669081
 20
302.47342738631409
 30
0.0
  0
VERTEX
  5
1471
  8
0
 10
186.90063726669081
 20
305.93752900145188
 30
0.0
  0
VERTEX
  5
1472
  8
0
 10
189.90063726669081
 20
307.66957980902072
 30
0.0
  0
SEQEND
  5
1473
  8
0
  0
ARC
  5
BB0
  8
0
 10
194.39650478763451
 20
310.8226660583864
 30
0.0
 40
0.5
 50
235.80692287485761
 51
315.0
  0
LINE
  5
BB1
  8
0
 10
217.40063726669081
 20
290.70547819388293
 30
0.0
 11
217.40063726669081
 21
283.70547819388293
 31
0.0
  0
LINE
  5
BB2
  8
0
  6
CONTINUOUS
 10
217.40063726669081
 20
283.70547819388293
 30
0.0
 11
216.40063726669081
 21
282.70547819388293
 31
0.0
  0
LINE
  5
BB3
  8
CENTER
  6
CENTER
 10
211.40063726669081
 20
306.80312056393672
 30
0.0
 11
211.40063726669081
 21
286.27871921627673
 31
0.0
  0
LINE
  5
BB4
  8
CENTER
  6
CENTER
 10
247.7033600754111
 20
304.70547819388293
 30
0.0
 11
228.63296701152481
 21
304.70547819388293
 31
0.0
  0
LINE
  5
BB5
  8
0
  6
CONTINUOUS
 62
     2
 10
242.0006372666893
 20
301.5054781938822
 30
0.0
 11
244.5006372666893
 21
301.5054781938822
 31
0.0
  0
LINE
  5
BB6
  8
0
  6
CONTINUOUS
 62
     2
 10
242.0006372666893
 20
307.9054781938836
 30
0.0
 11
244.5006372666893
 21
307.9054781938836
 31
0.0
  0
LINE
  5
BB7
  8
0
  6
CONTINUOUS
 10
242.0006372666893
 20
308.70547819388293
 30
0.0
 11
243.70063726668999
 21
308.70547819388293
 31
0.0
  0
LINE
  5
BB8
  8
0
  6
CONTINUOUS
 10
242.0006372666893
 20
300.70547819388293
 30
0.0
 11
243.70063726668999
 21
300.70547819388293
 31
0.0
  0
LINE
  5
BB9
  8
0
  6
CONTINUOUS
 10
244.90063726669081
 20
301.90547819388371
 30
0.0
 11
244.90063726669081
 21
307.50547819388208
 31
0.0
  0
LINE
  5
BBA
  8
0
  6
CONTINUOUS
 10
243.70063726668999
 20
300.70547819388293
 30
0.0
 11
243.70063726668999
 21
308.70547819388293
 31
0.0
  0
LINE
  5
BBB
  8
0
  6
CONTINUOUS
 10
243.70063726668999
 20
300.70547819388293
 30
0.0
 11
244.90063726669081
 21
301.90547819388371
 31
0.0
  0
LINE
  5
BBC
  8
0
  6
CONTINUOUS
 10
243.70063726668999
 20
308.70547819388293
 30
0.0
 11
244.90063726669081
 21
307.5054781938822
 31
0.0
  0
LINE
  5
BBD
  8
CENTER
  6
CENTER
 10
227.90063726669081
 20
310.70547819388293
 30
0.0
 11
227.90063726669081
 21
297.70547819388293
 31
0.0
  0
ARC
  5
BBE
  8
0
 10
227.90063726669081
 20
304.20547819388293
 30
0.0
 40
7.5
 50
145.80692287486011
 51
204.31573917116859
  0
ARC
  5
BBF
  8
0
 10
220.15467057427571
 20
300.70547819388293
 30
0.0
 40
1.0
 50
270.0
 51
24.315739171181711
  0
LINE
  5
BC0
  8
0
 10
232.40063726669081
 20
321.20547819388293
 30
0.0
 11
232.40063726669081
 21
311.95144488629802
 31
0.0
  0
ARC
  5
BC1
  8
0
 10
208.90063726669081
 20
323.20547819388293
 30
0.0
 40
17.999999999999972
 50
319.6507090048799
 51
353.95767158094588
  0
LINE
  5
BC2
  8
CENTER
  6
CENTER
 10
234.40063726669081
 20
304.20547819388293
 30
0.0
 11
221.40063726669069
 21
304.20547819388293
 31
0.0
  0
ARC
  5
BC3
  8
0
 10
227.90063726669081
 20
304.20547819388293
 30
0.0
 40
7.5
 50
65.684260828826382
 51
124.19307712513979
  0
ARC
  5
BC4
  8
0
 10
231.40063726669081
 20
311.95144488629802
 30
0.0
 40
1.0
 50
245.68426082881311
 51
0.0
  0
LINE
  5
BC5
  8
0
 10
235.40063726669101
 20
305.70547819388298
 30
0.0
 11
234.90063726669101
 21
305.70547819388298
 31
0.0
  0
ARC
  5
BC6
  8
0
 10
231.40063726669081
 20
329.1958794111863
 30
0.0
 40
1.0
 50
270.0
 51
0.0
  0
LINE
  5
BC7
  8
0
 10
226.9315854740295
 20
328.19587941118641
 30
0.0
 11
231.40063726669081
 21
328.19587941118641
 31
0.0
  0
ARC
  5
BC8
  8
0
 10
226.9315854740295
 20
329.1958794111863
 30
0.0
 40
1.0
 50
198.37797603959399
 51
270.0
  0
ARC
  5
BC9
  8
0
 10
221.28344940218761
 20
308.70134571482657
 30
0.0
 40
0.5
 50
325.80692287485948
 51
45.0
  0
ARC
  5
BCA
  8
0
 10
223.4047697457473
 20
310.82266605838618
 30
0.0
 40
0.5
 50
225.0
 51
304.19307712514228
  0
ARC
  5
BCB
  8
0
 10
222.99970224887591
 20
311.2277335552576
 30
0.0
 40
0.5
 50
139.65070900487791
 51
224.99999999999301
  0
LINE
  5
BCC
  8
0
 10
222.6461488582826
 20
310.87418016466432
 30
0.0
 11
223.051216355154
 21
310.4691126677929
 31
0.0
  0
LINE
  5
BCD
  8
0
 10
221.23193529590949
 20
309.4599666022911
 30
0.0
 11
221.63700279278069
 21
309.05489910541979
 31
0.0
  0
ARC
  5
BCE
  8
0
 10
220.87838190531619
 20
309.10641321169788
 30
0.0
 40
0.5
 50
45.000000000002302
 51
130.349290995122
  0
ARC
  5
BCF
  8
0
 10
227.90063726669081
 20
342.20547819388281
 30
0.0
 40
7.5
 50
235.80692287485999
 51
294.31573917117203
  0
ARC
  5
BD0
  8
0
 10
208.90063726669081
 20
323.20547819388293
 30
0.0
 40
17.999999999999972
 50
6.0423284190539261
 51
40.349290995119809
  0
LINE
  5
BD1
  8
0
 10
232.40063726669081
 20
325.20547819388281
 30
0.0
 11
232.40063726669081
 21
334.45951150146772
 31
0.0
  0
ARC
  5
BD2
  8
0
 10
231.40063726669081
 20
321.20547819388293
 30
0.0
 40
1.0
 50
0.0
 51
90.0
  0
ARC
  5
BD3
  8
0
 10
231.40063726669081
 20
325.20547819388281
 30
0.0
 40
1.0
 50
270.0
 51
0.0
  0
LINE
  5
BD4
  8
0
 10
231.40063726669081
 20
322.20547819388298
 30
0.0
 11
227.7950808943819
 21
322.20547819388298
 31
0.0
  0
ARC
  5
BD5
  8
0
 10
227.7950808943819
 20
321.20547819388293
 30
0.0
 40
1.0
 50
90.0
 51
173.95767158094571
  0
LINE
  5
BD6
  8
0
 10
231.40063726669081
 20
324.20547819388281
 30
0.0
 11
227.7950808943819
 21
324.20547819388281
 31
0.0
  0
ARC
  5
BD7
  8
0
 10
227.7950808943819
 20
325.20547819388281
 30
0.0
 40
1.0
 50
186.0423284190542
 51
270.0
  0
ARC
  5
BD8
  8
0
 10
231.40063726669081
 20
334.45951150146772
 30
0.0
 40
1.0
 50
0.0
 51
114.3157391711853
  0
LINE
  5
BD9
  8
0
 10
222.6461488582826
 20
335.53677622310141
 30
0.0
 11
223.051216355154
 21
335.94184371997289
 31
0.0
  0
ARC
  5
BDA
  8
0
 10
222.99970224887591
 20
335.18322283250819
 30
0.0
 40
0.5
 50
135.00000000000691
 51
220.349290995122
  0
ARC
  5
BDB
  8
0
 10
223.4047697457473
 20
335.5882903293795
 30
0.0
 40
0.5
 50
55.806922874857641
 51
135.0
  0
LINE
  5
BDC
  8
CENTER
  6
CENTER
 10
234.40063726669081
 20
342.20547819388293
 30
0.0
 11
221.40063726669069
 21
342.20547819388293
 31
0.0
  0
LINE
  5
BDD
  8
0
 10
235.40063726669101
 20
340.70547819388293
 30
0.0
 11
234.90063726669081
 21
340.70547819388293
 31
0.0
  0
ARC
  5
BDE
  8
0
 10
227.90063726669081
 20
342.20547819388293
 30
0.0
 40
7.5
 50
155.68426082882979
 51
214.19307712513981
  0
ARC
  5
BDF
  8
0
 10
221.28344940218761
 20
337.70961067293928
 30
0.0
 40
0.5
 50
315.0
 51
34.193077125140519
  0
LINE
  5
BE0
  8
0
 10
221.23193529590949
 20
336.95098978547458
 30
0.0
 11
221.63700279278069
 21
337.35605728234611
 31
0.0
  0
ARC
  5
BE1
  8
0
 10
220.87838190531619
 20
337.30454317606802
 30
0.0
 40
0.5
 50
229.65070900487791
 51
314.99999999999773
  0
ARC
  5
BE2
  8
0
 10
220.15467057427571
 20
345.70547819388293
 30
0.0
 40
1.0
 50
335.68426082881462
 51
90.0
  0
CIRCLE
  5
BE3
  8
0
 10
227.90063726669081
 20
342.20547819388293
 30
0.0
 40
5.0
  0
CIRCLE
  5
BE4
  8
0
 10
227.90063726669081
 20
342.20547819388293
 30
0.0
 40
5.5
  0
POLYLINE
  5
BE5
  8
0
 66
     1
 10
0.0
 20
0.0
 30
0.0
 70
     1
  0
VERTEX
  5
1474
  8
0
 10
230.90063726669081
 20
343.93752900145188
 30
0.0
  0
VERTEX
  5
1475
  8
0
 10
230.90063726669081
 20
340.47342738631409
 30
0.0
  0
VERTEX
  5
1476
  8
0
 10
227.90063726669081
 20
338.7413765787453
 30
0.0
  0
VERTEX
  5
1477
  8
0
 10
224.90063726669081
 20
340.47342738631409
 30
0.0
  0
VERTEX
  5
1478
  8
0
 10
224.90063726669081
 20
343.93752900145188
 30
0.0
  0
VERTEX
  5
1479
  8
0
 10
227.90063726669081
 20
345.66957980902072
 30
0.0
  0
SEQEND
  5
147A
  8
0
  0
CIRCLE
  5
BED
  8
0
 10
227.90063726669081
 20
304.20547819388293
 30
0.0
 40
5.5
  0
CIRCLE
  5
BEE
  8
0
 10
227.90063726669081
 20
304.20547819388293
 30
0.0
 40
5.0
  0
POLYLINE
  5
BEF
  8
0
 66
     1
 10
0.0
 20
0.0
 30
0.0
 70
     1
  0
VERTEX
  5
147B
  8
0
 10
230.90063726669081
 20
305.93752900145188
 30
0.0
  0
VERTEX
  5
147C
  8
0
 10
230.90063726669081
 20
302.47342738631409
 30
0.0
  0
VERTEX
  5
147D
  8
0
 10
227.90063726669081
 20
300.7413765787453
 30
0.0
  0
VERTEX
  5
147E
  8
0
 10
224.90063726669081
 20
302.47342738631409
 30
0.0
  0
VERTEX
  5
147F
  8
0
 10
224.90063726669081
 20
305.93752900145188
 30
0.0
  0
VERTEX
  5
1480
  8
0
 10
227.90063726669081
 20
307.66957980902072
 30
0.0
  0
SEQEND
  5
1481
  8
0
  0
LINE
  5
BF7
  8
CENTER
  6
CENTER
 10
239.90709250823841
 20
319.20547819388293
 30
0.0
 11
220.50709250823849
 21
319.20547819388293
 31
0.0
  0
LINE
  5
BF8
  8
CENTER
  6
CENTER
 10
240.00499279721581
 20
330.70547819388298
 30
0.0
 11
226.27705232868351
 21
330.70547819388298
 31
0.0
  0
LINE
  5
BF9
  8
0
  6
CONTINUOUS
 10
237.6206372666901
 20
304.70547819388293
 30
0.0
 11
241.18063726669141
 21
304.70547819388293
 31
0.0
  0
LINE
  5
BFA
  8
0
  6
CONTINUOUS
 10
236.90063726669081
 20
304.70547819388293
 30
0.0
 11
241.18063726669141
 21
304.70547819388293
 31
0.0
  0
ARC
  5
BFB
  8
0
  6
CONTINUOUS
 10
233.4836576710797
 20
308.20547819388293
 30
0.0
 40
8.4553825989878657
 50
335.5475759094079
 51
24.452424090592022
  0
LINE
  5
BFC
  8
0
  6
CONTINUOUS
 10
241.90063726669069
 20
311.70547819388293
 30
0.0
 11
236.90063726669081
 21
311.70547819388293
 31
0.0
  0
ARC
  5
BFD
  8
0
  6
CONTINUOUS
 10
245.31761686230229
 20
308.20547819388293
 30
0.0
 40
8.4553825989882458
 50
155.54757590941711
 51
204.45242409058281
  0
LINE
  5
BFE
  8
0
  6
CONTINUOUS
 10
236.90063726669081
 20
311.70547819388293
 30
0.0
 11
236.90063726669081
 21
304.70547819388293
 31
0.0
  0
LINE
  5
BFF
  8
0
  6
CONTINUOUS
 10
241.90063726669069
 20
311.70547819388293
 30
0.0
 11
241.90063726669069
 21
297.70547819388293
 31
0.0
  0
ARC
  5
C00
  8
0
  6
CONTINUOUS
 10
233.4836576710797
 20
301.20547819388293
 30
0.0
 40
8.4553825989878657
 50
335.5475759094079
 51
24.452424090592022
  0
LINE
  5
C01
  8
0
  6
CONTINUOUS
 10
241.90063726669069
 20
297.70547819388293
 30
0.0
 11
236.90063726669081
 21
297.70547819388293
 31
0.0
  0
ARC
  5
C02
  8
0
  6
CONTINUOUS
 10
245.31761686230229
 20
301.20547819388293
 30
0.0
 40
8.4553825989882458
 50
155.54757590941711
 51
204.4524240905823
  0
LINE
  5
C03
  8
0
  6
CONTINUOUS
 10
236.90063726669081
 20
297.70547819388293
 30
0.0
 11
236.90063726669081
 21
304.70547819388293
 31
0.0
  0
LINE
  5
C04
  8
0
 10
210.90063726669081
 20
299.70547819388298
 30
0.0
 11
220.15467057427571
 21
299.70547819388298
 31
0.0
  0
CIRCLE
  5
C05
  8
0
 10
208.90063726669081
 20
323.20547819388293
 30
0.0
 40
17.499999999999972
  0
ARC
  5
C06
  8
0
 10
208.90063726669081
 20
323.20547819388293
 30
0.0
 40
17.999999999999972
 50
276.04232841905389
 51
310.34929099511982
  0
LINE
  5
C07
  8
0
 10
210.90063726669081
 20
346.70547819388293
 30
0.0
 11
220.15467057427571
 21
346.70547819388293
 31
0.0
  0
ARC
  5
C08
  8
0
 10
208.90063726669081
 20
323.20547819388293
 30
0.0
 40
17.999999999999972
 50
49.650709004880191
 51
83.957671580946055
  0
LINE
  5
C09
  8
CENTER
  6
CENTER
 10
208.90063726669081
 20
351.20547819388293
 30
0.0
 11
208.90063726669081
 21
295.20547819388293
 31
0.0
  0
POLYLINE
  5
C0A
  8
0
 66
     1
 10
0.0
 20
0.0
 30
0.0
 70
     1
  0
VERTEX
  5
1482
  8
0
 10
182.40063726669069
 20
342.20547819388293
 30
0.0
 42
-0.4142135623730951
  0
VERTEX
  5
1483
  8
0
 10
189.90063726669101
 20
349.70547819388298
 30
0.0
  0
VERTEX
  5
1484
  8
0
 10
227.90063726669081
 20
349.70547819388298
 30
0.0
 42
-0.4142135623730951
  0
VERTEX
  5
1485
  8
0
 10
235.40063726669081
 20
342.20547819388293
 30
0.0
  0
VERTEX
  5
1486
  8
0
 10
235.40063726669081
 20
304.20547819388293
 30
0.0
 42
-0.4142135623730951
  0
VERTEX
  5
1487
  8
0
 10
227.90063726669081
 20
296.70547819388293
 30
0.0
  0
VERTEX
  5
1488
  8
0
 10
189.90063726669101
 20
296.70547819388293
 30
0.0
 42
-0.4142135623730951
  0
VERTEX
  5
1489
  8
0
 10
182.40063726669069
 20
304.20547819388293
 30
0.0
  0
SEQEND
  5
148A
  8
0
  0
POLYLINE
  5
C14
  8
0
 66
     1
 10
0.0
 20
0.0
 30
0.0
 70
     1
  0
VERTEX
  5
148B
  8
0
 10
182.90063726669081
 20
342.20547819388293
 30
0.0
 42
-0.4142135623730951
  0
VERTEX
  5
148C
  8
0
 10
189.90063726669101
 20
349.20547819388293
 30
0.0
  0
VERTEX
  5
148D
  8
0
 10
227.90063726669081
 20
349.20547819388293
 30
0.0
 42
-0.4142135623730951
  0
VERTEX
  5
148E
  8
0
 10
234.90063726669081
 20
342.20547819388293
 30
0.0
  0
VERTEX
  5
148F
  8
0
 10
234.90063726669081
 20
304.20547819388293
 30
0.0
 42
-0.4142135623730951
  0
VERTEX
  5
1490
  8
0
 10
227.90063726669081
 20
297.20547819388293
 30
0.0
  0
VERTEX
  5
1491
  8
0
 10
189.90063726669101
 20
297.20547819388293
 30
0.0
 42
-0.4142135623730957
  0
VERTEX
  5
1492
  8
0
 10
182.90063726669081
 20
304.20547819388293
 30
0.0
  0
SEQEND
  5
1493
  8
0
  0
LINE
  5
C1E
  8
CENTER
  6
CENTER
 10
227.90063726669081
 20
348.70547819388293
 30
0.0
 11
227.90063726669081
 21
335.70547819388293
 31
0.0
  0
LINE
  5
C1F
  8
CENTER
  6
CENTER
 10
189.90063726669081
 20
348.70547819388293
 30
0.0
 11
189.90063726669081
 21
335.70547819388293
 31
0.0
  0
LINE
  5
C20
  8
0
 10
236.90063726669081
 20
355.70547819388298
 30
0.0
 11
236.90063726669081
 21
290.70547819388293
 31
0.0
  0
LINE
  5
C21
  8
CENTER
  6
CENTER
 10
211.40063726669081
 20
340.86856780039238
 30
0.0
 11
211.40063726669081
 21
360.53907759294799
 31
0.0
  0
LINE
  5
C22
  8
0
 10
323.26071555780862
 20
188.06554446481221
 30
0.0
 11
293.26071555780862
 21
187.56554446481221
 31
0.0
  0
LINE
  5
C23
  8
0
 10
323.26071555780868
 20
135.06554446481221
 30
0.0
 11
293.26071555780862
 21
135.56554446481221
 31
0.0
  0
LINE
  5
C24
  8
0
 10
293.26071555780862
 20
135.56554446481221
 30
0.0
 11
293.26071555780862
 21
187.56554446481221
 31
0.0
  0
LINE
  5
C25
  8
0
 10
293.26071555780862
 20
144.06554446481221
 30
0.0
 11
290.26071555780868
 21
144.06554446481221
 31
0.0
  0
ARC
  5
C26
  8
0
 10
290.26071555780868
 20
145.06554446481221
 30
0.0
 40
1.0
 50
180.0
 51
270.0
  0
ARC
  5
C27
  8
0
 10
290.26071555780868
 20
178.06554446481221
 30
0.0
 40
1.0
 50
90.0
 51
180.0
  0
LINE
  5
C28
  8
0
 10
293.26071555780862
 20
179.06554446481209
 30
0.0
 11
290.26071555780868
 21
179.06554446481209
 31
0.0
  0
LINE
  5
C29
  8
0
 10
289.26071555780862
 20
145.06554446481221
 30
0.0
 11
289.26071555780862
 21
178.06554446481221
 31
0.0
  0
LINE
  5
C2A
  8
0
 10
323.26071555780868
 20
135.06554446481221
 30
0.0
 11
323.26071555780862
 21
188.06554446481221
 31
0.0
  0
TEXT
  5
C2B
  8
DIM
  6
CONTINUOUS
 10
281.48860648815901
 20
213.20547819388301
 30
0.0
 40
3.0
  1
4
  7
ROMANSS
 72
     1
 11
282.56003505958751
 21
214.70547819388301
 31
0.0
 73
     2
  0
SOLID
  5
C2D
  8
DIM
  6
CONTINUOUS
 10
286.26071555780862
 20
212.20547819388301
 30
0.0
 11
286.26071555780862
 21
211.20547819388301
 31
0.0
 12
289.26071555780862
 22
211.70547819388301
 32
0.0
 13
289.26071555780862
 23
211.70547819388301
 33
0.0
  0
LINE
  5
C2E
  8
DIM
  6
CONTINUOUS
 10
289.26071555780862
 20
304.70073348070821
 30
0.0
 11
289.26071555780862
 21
210.70547819388301
 31
0.0
  0
SOLID
  5
C2F
  8
DIM
  6
CONTINUOUS
 10
296.26071555780862
 20
212.20547819388301
 30
0.0
 11
296.26071555780862
 21
211.20547819388301
 31
0.0
 12
293.26071555780862
 22
211.70547819388301
 32
0.0
 13
293.26071555780862
 23
211.70547819388301
 33
0.0
  0
LINE
  5
C30
  8
DIM
  6
CONTINUOUS
 10
293.26071555780862
 20
296.20547819388293
 30
0.0
 11
293.26071555780862
 21
210.70547819388301
 31
0.0
  0
LINE
  5
C31
  8
0
  6
CONTINUOUS
 10
313.51071555780851
 20
329.4064400882063
 30
0.0
 11
312.20229357290492
 21
328.65102230300857
 31
0.0
  0
LINE
  5
C32
  8
0
  6
CONTINUOUS
 10
314.01071555780851
 20
328.54041468442182
 30
0.0
 11
312.70229357290492
 21
327.78499689922421
 31
0.0
  0
ARC
  5
C33
  8
0
  6
CONTINUOUS
 10
316.76071555780851
 20
330.70547819388298
 30
0.0
 40
3.5
 50
278.21321070173809
 51
321.78678929826299
  0
LINE
  5
C34
  8
0
  6
CONTINUOUS
 10
320.01071555780851
 20
329.4064400882063
 30
0.0
 11
321.31913754271199
 21
328.65102230300857
 31
0.0
  0
LINE
  5
C35
  8
0
  6
CONTINUOUS
 10
319.51071555780851
 20
328.54041468442182
 30
0.0
 11
320.8191375427121
 21
327.78499689922421
 31
0.0
  0
LINE
  5
C36
  8
0
  6
CONTINUOUS
 10
316.26071555780851
 20
325.7305410083498
 30
0.0
 11
316.26071555780851
 21
327.24137657874508
 31
0.0
  0
LINE
  5
C37
  8
0
  6
CONTINUOUS
 10
317.26071555780851
 20
325.7305410083498
 30
0.0
 11
317.26071555780851
 21
327.24137657874508
 31
0.0
  0
ARC
  5
C38
  8
0
  6
CONTINUOUS
 10
316.76071555780851
 20
330.70547819388298
 30
0.0
 40
3.5
 50
218.21321070173829
 51
261.78678929826179
  0
CIRCLE
  5
C39
  8
0
 10
308.26071555780862
 20
319.20547819388293
 30
0.0
 40
3.9999999999999711
  0
LINE
  5
C3A
  8
CENTER
  6
CENTER
 10
319.96071555780861
 20
319.20547819388293
 30
0.0
 11
296.56071555780858
 21
319.20547819388293
 31
0.0
  0
LINE
  5
C3B
  8
0
  6
CONTINUOUS
 10
312.20229357290492
 20
332.75993408475728
 30
0.0
 11
313.51071555780851
 21
332.00451629955961
 31
0.0
  0
LINE
  5
C3C
  8
0
  6
CONTINUOUS
 10
312.70229357290492
 20
333.6259594885417
 30
0.0
 11
314.01071555780851
 21
332.87054170334397
 31
0.0
  0
ARC
  5
C3D
  8
0
  6
CONTINUOUS
 10
316.76071555780851
 20
330.70547819388298
 30
0.0
 40
3.5
 50
38.213210701738312
 51
81.786789298261766
  0
LINE
  5
C3E
  8
0
  6
CONTINUOUS
 10
321.31913754271199
 20
332.75993408475728
 30
0.0
 11
320.01071555780851
 21
332.00451629955961
 31
0.0
  0
LINE
  5
C3F
  8
0
  6
CONTINUOUS
 10
320.8191375427121
 20
333.6259594885417
 30
0.0
 11
319.51071555780851
 21
332.87054170334397
 31
0.0
  0
LINE
  5
C40
  8
0
  6
CONTINUOUS
 10
316.26071555780851
 20
334.1695798090206
 30
0.0
 11
316.26071555780851
 21
335.68041537941588
 31
0.0
  0
LINE
  5
C41
  8
0
  6
CONTINUOUS
 10
317.26071555780851
 20
334.1695798090206
 30
0.0
 11
317.26071555780851
 21
335.68041537941588
 31
0.0
  0
ARC
  5
C42
  8
0
  6
CONTINUOUS
 10
316.76071555780851
 20
330.70547819388298
 30
0.0
 40
3.5
 50
98.213210701738234
 51
141.7867892982616
  0
LINE
  5
C43
  8
CENTER
  6
CENTER
 10
316.76071555780851
 20
337.56944842814909
 30
0.0
 11
316.76071555780851
 21
323.84150795961682
 31
0.0
  0
CIRCLE
  5
C44
  8
0
  6
CONTINUOUS
 10
316.76071555780851
 20
330.70547819388298
 30
0.0
 40
2.5
  0
ARC
  5
C45
  8
0
  6
CONTINUOUS
 10
316.76071555780851
 20
330.70547819388298
 30
0.0
 40
3.5
 50
338.21321070173769
 51
21.786789298262239
  0
POLYLINE
  5
C46
  8
0
  6
CONTINUOUS
 66
     1
 10
0.0
 20
0.0
 30
0.0
 70
     1
  0
VERTEX
  5
1494
  8
0
  6
CONTINUOUS
 10
317.62674096159287
 20
329.20547819388293
 30
0.0
  0
VERTEX
  5
1495
  8
0
  6
CONTINUOUS
 10
318.49276636537741
 20
330.70547819388298
 30
0.0
  0
VERTEX
  5
1496
  8
0
  6
CONTINUOUS
 10
317.62674096159287
 20
332.20547819388293
 30
0.0
  0
VERTEX
  5
1497
  8
0
  6
CONTINUOUS
 10
315.89469015402409
 20
332.20547819388293
 30
0.0
  0
VERTEX
  5
1498
  8
0
  6
CONTINUOUS
 10
315.02866475023973
 20
330.70547819388298
 30
0.0
  0
VERTEX
  5
1499
  8
0
  6
CONTINUOUS
 10
315.89469015402409
 20
329.20547819388293
 30
0.0
  0
SEQEND
  5
149A
  8
0
  6
CONTINUOUS
  0
ARC
  5
C4E
  8
0
  6
CONTINUOUS
 10
316.76071555780851
 20
330.70547819388298
 30
0.0
 40
3.5
 50
158.2132107017386
 51
201.78678929826131
  0
CIRCLE
  5
C4F
  8
0
 10
308.26071555780862
 20
319.20547819388293
 30
0.0
 40
8.6999999999999993
  0
CIRCLE
  5
C50
  8
0
 10
308.26071555780862
 20
319.20547819388293
 30
0.0
 40
6.7000000000000028
  0
ARC
  5
C51
  8
0
 62
     2
 10
308.26071555780862
 20
319.20547819388293
 30
0.0
 40
6.5999999999999996
 50
333.86110377669672
 51
284.99745208060762
  0
CIRCLE
  5
C52
  8
0
 10
308.26071555780862
 20
319.20547819388293
 30
0.0
 40
5.7000000000000011
  0
LINE
  5
C53
  8
CENTER
  6
CENTER
 10
308.26071555780862
 20
330.90547819388291
 30
0.0
 11
308.26071555780862
 21
307.50547819388288
 31
0.0
  0
LINE
  5
C54
  8
CENTER
  6
CENTER
 10
323.62468579207467
 20
330.70547819388298
 30
0.0
 11
309.8967453235424
 21
330.70547819388298
 31
0.0
  0
CIRCLE
  5
C55
  8
0
 10
316.76071555780851
 20
330.70547819388298
 30
0.0
 40
5.0
  0
CIRCLE
  5
C56
  8
0
 10
316.76071555780851
 20
330.70547819388298
 30
0.0
 40
5.2999999999999989
  0
LINE
  5
C57
  8
0
 10
323.26071555780862
 20
296.70547819388293
 30
0.0
 11
293.26071555780862
 21
297.20547819388293
 31
0.0
  0
ARC
  5
C58
  8
0
 10
290.26071555780862
 20
306.70547819388293
 30
0.0
 40
1.0
 50
180.0
 51
270.0
  0
LINE
  5
C59
  8
0
 10
293.26071555780862
 20
305.70547819388298
 30
0.0
 11
290.26071555780862
 21
305.70547819388298
 31
0.0
  0
ARC
  5
C5A
  8
0
 10
290.26071555780862
 20
339.70547819388293
 30
0.0
 40
1.0
 50
90.0
 51
180.0
  0
LINE
  5
C5B
  8
0
 10
293.26071555780862
 20
340.70547819388293
 30
0.0
 11
290.26071555780862
 21
340.70547819388293
 31
0.0
  0
LINE
  5
C5C
  8
0
 10
289.26071555780862
 20
306.70547819388293
 30
0.0
 11
289.26071555780862
 21
339.70547819388293
 31
0.0
  0
LINE
  5
C5D
  8
0
 10
323.26071555780851
 20
349.70547819388298
 30
0.0
 11
293.26071555780862
 21
349.20547819388293
 31
0.0
  0
LINE
  5
C5E
  8
0
 10
293.26071555780862
 20
297.20547819388293
 30
0.0
 11
293.26071555780862
 21
349.20547819388293
 31
0.0
  0
LINE
  5
C5F
  8
0
 10
323.26071555780862
 20
296.70547819388293
 30
0.0
 11
323.26071555780851
 21
349.70547819388298
 31
0.0
  0
ARC
  5
C60
  8
0
  6
CONTINUOUS
 10
181.40063726669081
 20
389.70547819388293
 30
0.0
 40
2.5
 50
0.0
 51
180.0
  0
LINE
  5
C61
  8
0
 10
178.90063726669081
 20
389.70547819388293
 30
0.0
 11
178.90063726669081
 21
369.70547819388293
 31
0.0
  0
LINE
  5
C62
  8
0
 10
183.90063726669081
 20
389.70547819388293
 30
0.0
 11
183.90063726669081
 21
369.70547819388293
 31
0.0
  0
LINE
  5
C63
  8
0
  6
CONTINUOUS
 10
188.40063726669081
 20
394.70547819388293
 30
0.0
 11
174.40063726669081
 21
394.70547819388293
 31
0.0
  0
LINE
  5
C64
  8
0
  6
CONTINUOUS
 10
189.40063726669081
 20
393.70547819388293
 30
0.0
 11
173.40063726669081
 21
393.70547819388293
 31
0.0
  0
LINE
  5
C65
  8
0
  6
CONTINUOUS
 10
188.40063726669081
 20
394.70547819388293
 30
0.0
 11
189.40063726669081
 21
393.70547819388293
 31
0.0
  0
LINE
  5
C66
  8
0
  6
CONTINUOUS
 10
174.40063726669081
 20
394.70547819388293
 30
0.0
 11
173.40063726669081
 21
393.70547819388293
 31
0.0
  0
LINE
  5
C67
  8
0
 10
293.26071555780862
 20
478.56309722127168
 30
0.0
 11
290.26071555780868
 21
478.56309722127168
 31
0.0
  0
ARC
  5
C68
  8
0
 10
290.26071555780868
 20
477.56309722127168
 30
0.0
 40
1.0
 50
90.0
 51
180.0
  0
ARC
  5
C69
  8
0
 10
290.26071555780868
 20
444.56309722127168
 30
0.0
 40
1.0
 50
180.0
 51
270.0
  0
LINE
  5
C6A
  8
0
 10
293.26071555780862
 20
443.56309722127168
 30
0.0
 11
290.26071555780868
 21
443.56309722127168
 31
0.0
  0
LINE
  5
C6B
  8
0
 10
293.26071555780862
 20
487.06309722127168
 30
0.0
 11
293.26071555780862
 21
435.06309722127168
 31
0.0
  0
LINE
  5
C6C
  8
0
 10
289.26071555780862
 20
477.56309722127168
 30
0.0
 11
289.26071555780862
 21
444.56309722127168
 31
0.0
  0
LINE
  5
C6D
  8
0
 10
323.26071555780868
 20
487.56309722127168
 30
0.0
 11
323.26071555780862
 21
434.56309722127168
 31
0.0
  0
LINE
  5
C6E
  8
0
 10
323.26071555780862
 20
434.56309722127168
 30
0.0
 11
293.26071555780862
 21
435.06309722127168
 31
0.0
  0
LINE
  5
C6F
  8
0
 10
323.26071555780868
 20
487.56309722127168
 30
0.0
 11
293.26071555780862
 21
487.06309722127168
 31
0.0
  0
SOLID
  5
C70
  8
DIM
  6
CONTINUOUS
 10
403.76071555780851
 20
367.70547819388293
 30
0.0
 11
404.76071555780862
 21
367.70547819388293
 31
0.0
 12
404.26071555780862
 22
364.70547819388293
 32
0.0
 13
404.26071555780862
 23
364.70547819388293
 33
0.0
  0
LINE
  5
C71
  8
DIM
  6
CONTINUOUS
 10
404.26071555780862
 20
391.70547819388298
 30
0.0
 11
404.26071555780862
 21
356.72163550639522
 31
0.0
  0
SOLID
  5
C72
  8
DIM
  6
CONTINUOUS
 10
411.76071555780851
 20
370.20547819388298
 30
0.0
 11
412.76071555780862
 21
370.20547819388298
 31
0.0
 12
412.26071555780851
 22
367.20547819388293
 32
0.0
 13
412.26071555780851
 23
367.20547819388293
 33
0.0
  0
LINE
  5
C73
  8
DIM
  6
CONTINUOUS
 10
682.21304223966922
 20
347.67920121354689
 30
0.0
 11
670.08120420804653
 21
370.08150832254938
 31
0.0
  0
TEXT
  5
C74
  8
DIM
  6
CONTINUOUS
 10
617.64405835412697
 20
367.0968487078456
 30
0.0
 40
3.0
  1
2-G1/4
  7
ROMANSS
 11
617.64405835412697
 21
368.5968487078456
 31
0.0
 73
     2
  0
LINE
  5
C75
  8
DIM
  6
CONTINUOUS
 10
784.62079384892616
 20
251.7054781938829
 30
0.0
 11
784.62079384892627
 21
394.70547819388298
 31
0.0
  0
LINE
  5
C76
  8
DIM
  6
CONTINUOUS
 10
776.6207938489265
 20
275.1066725767559
 30
0.0
 11
776.6207938489265
 21
372.92533553190748
 31
0.0
  0
LINE
  5
C77
  8
0
 10
723.1207938489265
 20
393.70547819388293
 30
0.0
 11
723.1207938489265
 21
364.70547819388293
 31
0.0
  0
LINE
  5
C78
  8
0
 10
739.1207938489265
 20
393.70547819388293
 30
0.0
 11
739.1207938489265
 21
364.70547819388293
 31
0.0
  0
LINE
  5
C79
  8
CENTER
  6
CENTER
 10
731.1207938489265
 20
397.70547819388293
 30
0.0
 11
731.12079384892672
 21
249.1022831034351
 31
0.0
  0
LINE
  5
C7A
  8
0
 10
446.26071555780862
 20
392.20547819388293
 30
0.0
 11
446.26071555780862
 21
367.20547819388293
 31
0.0
  0
LINE
  5
C7B
  8
0
 10
448.26071555780862
 20
393.70547819388293
 30
0.0
 11
448.26071555780862
 21
364.70547819388293
 31
0.0
  0
LINE
  5
C7C
  8
0
 10
464.26071555780868
 20
393.70547819388293
 30
0.0
 11
464.26071555780862
 21
364.70547819388293
 31
0.0
  0
LINE
  5
C7D
  8
CENTER
  6
CENTER
 10
456.26071555780862
 20
397.70547819388293
 30
0.0
 11
456.26071555780868
 21
249.5091298549309
 31
0.0
  0
LINE
  5
C7E
  8
0
 10
493.76071555780851
 20
185.76554446481211
 30
0.0
 11
589.26071555780868
 21
185.76554446481211
 31
0.0
  0
LINE
  5
C7F
  8
0
 10
493.76071555780862
 20
173.3677687674639
 30
0.0
 11
589.26071555780868
 21
173.3677687674639
 31
0.0
  0
LINE
  5
C80
  8
0
 10
493.76071555780862
 20
137.3655444648121
 30
0.0
 11
589.26071555780868
 21
137.3655444648121
 31
0.0
  0
LINE
  5
C81
  8
0
 10
493.76071555780862
 20
149.76332016216031
 30
0.0
 11
589.26071555780868
 21
149.76332016216031
 31
0.0
  0
LINE
  5
C82
  8
0
 10
493.76071555780862
 20
335.00770249653482
 30
0.0
 11
589.26071555780868
 21
335.00770249653482
 31
0.0
  0
LINE
  5
C83
  8
0
 10
493.76071555780862
 20
347.40547819388303
 30
0.0
 11
589.26071555780868
 21
347.4054781938828
 31
0.0
  0
LINE
  5
C84
  8
0
 10
493.76071555780862
 20
311.40325389123109
 30
0.0
 11
589.26071555780868
 21
311.40325389123109
 31
0.0
  0
LINE
  5
C85
  8
0
 10
493.76071555780868
 20
299.00547819388299
 30
0.0
 11
589.26071555780868
 21
299.00547819388299
 31
0.0
  0
CIRCLE
  5
C86
  8
0
  6
CONTINUOUS
 10
456.26071555780862
 20
134.06554446481221
 30
0.0
 40
35.0
  0
LINE
  5
C87
  8
0
 10
493.76071555780862
 20
96.565544464812206
 30
0.0
 11
493.76071555780862
 21
189.56554446481221
 31
0.0
  0
LINE
  5
C88
  8
0
 10
418.76071555780868
 20
96.565544464812206
 30
0.0
 11
418.76071555780862
 21
189.56554446481221
 31
0.0
  0
LINE
  5
C89
  8
CENTER
  6
CENTER
 10
456.26071555780862
 20
93.565544464812206
 30
0.0
 11
456.26071555780862
 21
192.56554446481209
 31
0.0
  0
CIRCLE
  5
C8A
  8
0
  6
CONTINUOUS
 10
456.26071555780862
 20
134.06554446481221
 30
0.0
 40
36.0
  0
CIRCLE
  5
C8B
  8
CENTER
  6
CENTER
 10
456.26071555780862
 20
134.06554446481221
 30
0.0
 40
30.0
  0
LINE
  5
C8C
  8
0
 10
418.76071555780868
 20
96.565544464812206
 30
0.0
 11
493.76071555780862
 21
96.565544464812206
 31
0.0
  0
CIRCLE
  5
C8D
  8
0
  6
CONTINUOUS
 10
435.0475121222122
 20
112.85234102921579
 30
0.0
 40
2.0499999999999989
  0
LINE
  5
C8E
  8
CENTER
  6
CENTER
 10
430.80487143509282
 20
108.6097003420965
 30
0.0
 11
439.64370619992468
 21
117.4485351069282
 31
0.0
  0
ARC
  5
C8F
  8
0
  6
CONTINUOUS
 62
     2
 10
435.04751212221203
 20
112.85234102921591
 30
0.0
 40
2.5
 50
201.03635853977079
 51
155.01845143419209
  0
CIRCLE
  5
C90
  8
0
  6
CONTINUOUS
 10
426.26071555780862
 20
104.06554446481211
 30
0.0
 40
2.5
  0
ARC
  5
C91
  8
0
  6
CONTINUOUS
 62
     2
 10
426.26071555780862
 20
104.06554446481211
 30
0.0
 40
3.0
 50
338.35967540570613
 51
287.47149231941358
  0
LINE
  5
C92
  8
CENTER
  6
CENTER
 10
426.26071555780862
 20
98.065544464812206
 30
0.0
 11
426.26071555780862
 21
110.06554446481221
 31
0.0
  0
LINE
  5
C93
  8
CENTER
  6
CENTER
 10
420.26071555780851
 20
104.06554446481211
 30
0.0
 11
432.26071555780862
 21
104.06554446481211
 31
0.0
  0
LINE
  5
C94
  8
CENTER
  6
CENTER
 10
480.26071555780862
 20
104.06554446481211
 30
0.0
 11
492.26071555780862
 21
104.06554446481211
 31
0.0
  0
CIRCLE
  5
C95
  8
0
  6
CONTINUOUS
 10
486.26071555780862
 20
104.06554446481211
 30
0.0
 40
2.5
  0
ARC
  5
C96
  8
0
  6
CONTINUOUS
 62
     2
 10
486.26071555780862
 20
104.06554446481211
 30
0.0
 40
3.0
 50
248.3596754057061
 51
197.47149231941381
  0
LINE
  5
C97
  8
CENTER
  6
CENTER
 10
486.26071555780862
 20
98.065544464812206
 30
0.0
 11
486.26071555780862
 21
110.06554446481221
 31
0.0
  0
POLYLINE
  5
C98
  8
0
  6
CONTINUOUS
 66
     1
 10
0.0
 20
0.0
 30
0.0
  0
VERTEX
  5
149B
  8
0
  6
CONTINUOUS
 10
474.76071555780862
 20
194.56554446481209
 30
0.0
 42
-0.0851703918331037
  0
VERTEX
  5
149C
  8
0
  6
CONTINUOUS
 10
478.76071555780851
 20
193.87754446481199
 30
0.0
 42
-0.3457679526359281
  0
VERTEX
  5
149D
  8
0
  6
CONTINUOUS
 10
481.6607155578082
 20
194.2191241414869
 30
0.0
  0
SEQEND
  5
149E
  8
0
  6
CONTINUOUS
  0
LINE
  5
C9D
  8
0
  6
CONTINUOUS
 10
478.76071555780851
 20
196.36554446481139
 30
0.0
 11
477.5607155578079
 21
197.56554446481209
 31
0.0
  0
LINE
  5
C9E
  8
0
  6
CONTINUOUS
 10
470.76071555780862
 20
196.36554446481139
 30
0.0
 11
478.76071555780851
 21
196.36554446481139
 31
0.0
  0
LINE
  5
C9F
  8
0
  6
CONTINUOUS
 10
468.46071555780929
 20
194.56554446481221
 30
0.0
 11
481.0607155578079
 21
194.56554446481221
 31
0.0
  0
POLYLINE
  5
CA0
  8
0
  6
CONTINUOUS
 66
     1
 10
0.0
 20
0.0
 30
0.0
  0
VERTEX
  5
149F
  8
0
  6
CONTINUOUS
 10
474.76071555780862
 20
189.56554446481209
 30
0.0
 42
0.0851703918331037
  0
VERTEX
  5
14A0
  8
0
  6
CONTINUOUS
 10
478.76071555780862
 20
190.25354446481219
 30
0.0
 42
0.3457679526359281
  0
VERTEX
  5
14A1
  8
0
  6
CONTINUOUS
 10
481.66071555780832
 20
189.9119647881374
 30
0.0
  0
SEQEND
  5
14A2
  8
0
  6
CONTINUOUS
  0
POLYLINE
  5
CA5
  8
0
  6
CONTINUOUS
 66
     1
 10
0.0
 20
0.0
 30
0.0
 70
     1
  0
VERTEX
  5
14A3
  8
0
  6
CONTINUOUS
 10
470.71926367348118
 20
311.70547819388293
 30
0.0
  0
VERTEX
  5
14A4
  8
0
  6
CONTINUOUS
 10
466.67781178915379
 20
304.70547819388293
 30
0.0
  0
VERTEX
  5
14A5
  8
0
  6
CONTINUOUS
 10
470.71926367348118
 20
297.70547819388293
 30
0.0
  0
VERTEX
  5
14A6
  8
0
  6
CONTINUOUS
 10
478.80216744213601
 20
297.70547819388293
 30
0.0
  0
VERTEX
  5
14A7
  8
0
  6
CONTINUOUS
 10
482.8436193264634
 20
304.70547819388293
 30
0.0
  0
VERTEX
  5
14A8
  8
0
  6
CONTINUOUS
 10
478.80216744213601
 20
311.70547819388293
 30
0.0
  0
SEQEND
  5
14A9
  8
0
  6
CONTINUOUS
  0
CIRCLE
  5
CAD
  8
0
  6
CONTINUOUS
 10
474.76071555780862
 20
304.70547819388293
 30
0.0
 40
7.0
  0
CIRCLE
  5
CAE
  8
0
  6
CONTINUOUS
 10
474.76071555780862
 20
304.70547819388293
 30
0.0
 40
4.0
  0
LINE
  5
CAF
  8
CENTER
  6
CENTER
 10
464.76071555780862
 20
304.70547819388293
 30
0.0
 11
484.76071555780862
 21
304.70547819388293
 31
0.0
  0
CIRCLE
  5
CB0
  8
0
  6
CONTINUOUS
 10
477.47391899340499
 20
155.2787479004086
 30
0.0
 40
2.0499999999999989
  0
LINE
  5
CB1
  8
CENTER
  6
CENTER
 10
473.19592296722652
 20
151.00075187422991
 30
0.0
 11
481.75191501958358
 21
159.55674392658719
 31
0.0
  0
ARC
  5
CB2
  8
0
  6
CONTINUOUS
 62
     2
 10
477.47391899340499
 20
155.2787479004086
 30
0.0
 40
2.5
 50
201.03635853977079
 51
155.01845143419189
  0
LINE
  5
CB3
  8
CENTER
  6
CENTER
 10
418.76071555780862
 20
134.06554446481221
 30
0.0
 11
493.76071555780862
 21
134.06554446481221
 31
0.0
  0
LINE
  5
CB4
  8
0
 10
418.76071555780862
 20
189.56554446481221
 30
0.0
 11
493.76071555780862
 21
189.56554446481221
 31
0.0
  0
LINE
  5
CB5
  8
DIM
  6
CONTINUOUS
 10
421.76071555780862
 20
219.70547819388301
 30
0.0
 11
490.76071555780862
 21
219.70547819388301
 31
0.0
  0
LINE
  5
CB6
  8
DIM
  6
CONTINUOUS
 10
423.26071555780868
 20
227.7054781938829
 30
0.0
 11
489.26071555780868
 21
227.7054781938829
 31
0.0
  0
LINE
  5
CB7
  8
0
  6
CONTINUOUS
 10
421.26071555780862
 20
363.70547819388293
 30
0.0
 11
491.26071555780851
 21
363.70547819388293
 31
0.0
  0
LINE
  5
CB8
  8
0
  6
CONTINUOUS
 10
420.26071555780851
 20
362.70547819388293
 30
0.0
 11
492.26071555780862
 21
362.70547819388293
 31
0.0
  0
LINE
  5
CB9
  8
0
  6
CONTINUOUS
 10
420.26071555780851
 20
283.70547819388293
 30
0.0
 11
492.26071555780862
 21
283.70547819388293
 31
0.0
  0
LINE
  5
CBA
  8
0
  6
CONTINUOUS
 10
421.26071555780862
 20
282.70547819388293
 30
0.0
 11
491.26071555780851
 21
282.70547819388293
 31
0.0
  0
LINE
  5
CBB
  8
0
  6
CONTINUOUS
 10
418.76071555780862
 20
290.70547819388293
 30
0.0
 11
493.76071555780862
 21
290.70547819388293
 31
0.0
  0
LINE
  5
CBC
  8
0
  6
CONTINUOUS
 10
418.76071555780862
 20
355.70547819388298
 30
0.0
 11
493.76071555780862
 21
355.70547819388281
 31
0.0
  0
LINE
  5
CBD
  8
DIM
  6
CONTINUOUS
 10
420.31914772036919
 20
363.70547819388293
 30
0.0
 11
403.26071555780862
 21
363.70547819388293
 31
0.0
  0
POLYLINE
  5
CBE
  8
0
  6
CONTINUOUS
 66
     1
 10
0.0
 20
0.0
 30
0.0
 70
     1
 40
1.0
 41
1.0
  0
VERTEX
  5
14AA
  8
0
  6
CONTINUOUS
 10
456.76071555780862
 20
323.20547819388293
 30
0.0
 42
1.0
  0
VERTEX
  5
14AB
  8
0
  6
CONTINUOUS
 10
455.76071555780862
 20
323.20547819388293
 30
0.0
 42
1.0
  0
SEQEND
  5
14AC
  8
0
  6
CONTINUOUS
  0
CIRCLE
  5
CC2
  8
0
  6
CONTINUOUS
 10
456.26071555780862
 20
323.20547819388293
 30
0.0
 40
4.0
  0
LINE
  5
CC3
  8
CENTER
  6
CENTER
 10
474.76071555780862
 20
173.30909213186411
 30
0.0
 11
474.76071555780862
 21
200.56554446481209
 31
0.0
  0
LINE
  5
CC4
  8
0
  6
CONTINUOUS
 62
     2
 10
477.96071555780929
 20
194.56554446481221
 30
0.0
 11
477.96071555780929
 21
197.16554446481069
 31
0.0
  0
LINE
  5
CC5
  8
0
  6
CONTINUOUS
 10
467.26071555780862
 20
193.87270381816171
 30
0.0
 11
468.46071555780929
 21
194.56554446481221
 31
0.0
  0
POLYLINE
  5
CC6
  8
0
  6
CONTINUOUS
 66
     1
 10
0.0
 20
0.0
 30
0.0
  0
VERTEX
  5
14AD
  8
0
  6
CONTINUOUS
 10
474.76071555780862
 20
194.56554446481209
 30
0.0
 42
0.0851703918331037
  0
VERTEX
  5
14AE
  8
0
  6
CONTINUOUS
 10
470.76071555780862
 20
193.87754446481199
 30
0.0
 42
0.3457679526359281
  0
VERTEX
  5
14AF
  8
0
  6
CONTINUOUS
 10
467.86071555780899
 20
194.2191241414869
 30
0.0
  0
SEQEND
  5
14B0
  8
0
  6
CONTINUOUS
  0
LINE
  5
CCB
  8
0
  6
CONTINUOUS
 10
470.76071555780862
 20
196.36554446481139
 30
0.0
 11
471.96071555780929
 21
197.56554446481209
 31
0.0
  0
LINE
  5
CCC
  8
0
  6
CONTINUOUS
 10
471.96071555780929
 20
197.56554446481209
 30
0.0
 11
477.56071555780778
 21
197.56554446481221
 31
0.0
  0
LINE
  5
CCD
  8
0
  6
CONTINUOUS
 10
470.76071555780862
 20
194.56554446481221
 30
0.0
 11
470.76071555780862
 21
196.36554446481139
 31
0.0
  0
LINE
  5
CCE
  8
0
  6
CONTINUOUS
 62
     2
 10
471.56071555780778
 20
194.56554446481221
 30
0.0
 11
471.56071555780778
 21
197.16554446481069
 31
0.0
  0
LINE
  5
CCF
  8
0
  6
CONTINUOUS
 10
467.26071555780862
 20
190.25838511146259
 30
0.0
 11
468.46071555780941
 21
189.56554446481221
 31
0.0
  0
POLYLINE
  5
CD0
  8
0
  6
CONTINUOUS
 66
     1
 10
0.0
 20
0.0
 30
0.0
  0
VERTEX
  5
14B1
  8
0
  6
CONTINUOUS
 10
474.76071555780862
 20
189.56554446481209
 30
0.0
 42
-0.0851703918331037
  0
VERTEX
  5
14B2
  8
0
  6
CONTINUOUS
 10
470.76071555780862
 20
190.25354446481219
 30
0.0
 42
-0.3457679526359281
  0
VERTEX
  5
14B3
  8
0
  6
CONTINUOUS
 10
467.86071555780899
 20
189.9119647881374
 30
0.0
  0
SEQEND
  5
14B4
  8
0
  6
CONTINUOUS
  0
LINE
  5
CD5
  8
0
  6
CONTINUOUS
 10
470.76071555780862
 20
190.25354446481219
 30
0.0
 11
470.76071555780862
 21
193.8775444648121
 31
0.0
  0
LINE
  5
CD6
  8
0
  6
CONTINUOUS
 10
467.26071555780862
 20
190.25838511146259
 30
0.0
 11
467.26071555780862
 21
193.87270381816171
 31
0.0
  0
ARC
  5
CD7
  8
0
  6
CONTINUOUS
 62
     2
 10
474.76071555780862
 20
304.70547819388293
 30
0.0
 40
3.399999999999999
 50
74.242562599195679
 51
23.283227219290101
  0
POLYLINE
  5
CD8
  8
0
  6
CONTINUOUS
 66
     1
 10
0.0
 20
0.0
 30
0.0
 70
     1
  0
VERTEX
  5
14B5
  8
0
  6
CONTINUOUS
 10
473.60601501942858
 20
306.70547819388293
 30
0.0
  0
VERTEX
  5
14B6
  8
0
  6
CONTINUOUS
 10
472.45131448105042
 20
304.70547819388293
 30
0.0
  0
VERTEX
  5
14B7
  8
0
  6
CONTINUOUS
 10
473.60601501942858
 20
302.70547819388293
 30
0.0
  0
VERTEX
  5
14B8
  8
0
  6
CONTINUOUS
 10
475.91541609618861
 20
302.70547819388293
 30
0.0
  0
VERTEX
  5
14B9
  8
0
  6
CONTINUOUS
 10
477.07011663456672
 20
304.70547819388293
 30
0.0
  0
VERTEX
  5
14BA
  8
0
  6
CONTINUOUS
 10
475.91541609618861
 20
306.70547819388293
 30
0.0
  0
SEQEND
  5
14BB
  8
0
  6
CONTINUOUS
  0
LINE
  5
CE0
  8
CENTER
  6
CENTER
 10
474.76071555780862
 20
314.70547819388293
 30
0.0
 11
474.76071555780862
 21
294.70547819388293
 31
0.0
  0
POLYLINE
  5
CE1
  8
0
  6
CONTINUOUS
 66
     1
 10
0.0
 20
0.0
 30
0.0
  0
VERTEX
  5
14BC
  8
0
  6
CONTINUOUS
 10
437.76071555780862
 20
194.56554446481209
 30
0.0
 42
0.0851703918331037
  0
VERTEX
  5
14BD
  8
0
  6
CONTINUOUS
 10
433.76071555780862
 20
193.87754446481199
 30
0.0
 42
0.3457679526359281
  0
VERTEX
  5
14BE
  8
0
  6
CONTINUOUS
 10
430.86071555780899
 20
194.2191241414869
 30
0.0
  0
SEQEND
  5
14BF
  8
0
  6
CONTINUOUS
  0
LINE
  5
CE6
  8
0
  6
CONTINUOUS
 10
433.76071555780862
 20
196.36554446481139
 30
0.0
 11
434.96071555780929
 21
197.56554446481209
 31
0.0
  0
LINE
  5
CE7
  8
0
  6
CONTINUOUS
 10
441.76071555780862
 20
196.36554446481139
 30
0.0
 11
433.76071555780862
 21
196.36554446481139
 31
0.0
  0
LINE
  5
CE8
  8
0
  6
CONTINUOUS
 10
444.0607155578079
 20
194.56554446481221
 30
0.0
 11
431.46071555780929
 21
194.56554446481221
 31
0.0
  0
POLYLINE
  5
CE9
  8
0
  6
CONTINUOUS
 66
     1
 10
0.0
 20
0.0
 30
0.0
  0
VERTEX
  5
14C0
  8
0
  6
CONTINUOUS
 10
437.76071555780851
 20
189.56554446481209
 30
0.0
 42
-0.0851703918331037
  0
VERTEX
  5
14C1
  8
0
  6
CONTINUOUS
 10
433.76071555780851
 20
190.25354446481219
 30
0.0
 42
-0.3457679526359281
  0
VERTEX
  5
14C2
  8
0
  6
CONTINUOUS
 10
430.86071555780887
 20
189.9119647881374
 30
0.0
  0
SEQEND
  5
14C3
  8
0
  6
CONTINUOUS
  0
LINE
  5
CEE
  8
CENTER
  6
CENTER
 10
426.26071555780862
 20
158.06554446481221
 30
0.0
 11
426.26071555780862
 21
170.06554446481221
 31
0.0
  0
CIRCLE
  5
CEF
  8
0
  6
CONTINUOUS
 10
426.26071555780862
 20
164.06554446481221
 30
0.0
 40
2.5
  0
ARC
  5
CF0
  8
0
  6
CONTINUOUS
 62
     2
 10
426.26071555780862
 20
164.06554446481221
 30
0.0
 40
3.0
 50
338.35967540570613
 51
287.47149231941358
  0
LINE
  5
CF1
  8
CENTER
  6
CENTER
 10
420.26071555780851
 20
164.06554446481201
 30
0.0
 11
432.26071555780862
 21
164.06554446481221
 31
0.0
  0
LINE
  5
CF2
  8
0
  6
CONTINUOUS
 10
430.26071555780862
 20
193.87270381816171
 30
0.0
 11
431.46071555780941
 21
194.56554446481221
 31
0.0
  0
LINE
  5
CF3
  8
0
  6
CONTINUOUS
 62
     2
 10
434.56071555780778
 20
194.56554446481221
 30
0.0
 11
434.56071555780778
 21
197.16554446481069
 31
0.0
  0
LINE
  5
CF4
  8
0
  6
CONTINUOUS
 10
433.76071555780851
 20
194.56554446481221
 30
0.0
 11
433.76071555780862
 21
196.36554446481139
 31
0.0
  0
LINE
  5
CF5
  8
0
  6
CONTINUOUS
 10
430.26071555780851
 20
190.25838511146259
 30
0.0
 11
431.46071555780929
 21
189.56554446481221
 31
0.0
  0
LINE
  5
CF6
  8
0
  6
CONTINUOUS
 10
430.26071555780862
 20
190.25838511146259
 30
0.0
 11
430.26071555780862
 21
193.87270381816171
 31
0.0
  0
LINE
  5
CF7
  8
0
  6
CONTINUOUS
 10
433.76071555780862
 20
190.25354446481231
 30
0.0
 11
433.76071555780862
 21
193.8775444648121
 31
0.0
  0
LINE
  5
CF8
  8
0
  6
CONTINUOUS
 10
445.26071555780851
 20
193.87270381816171
 30
0.0
 11
444.0607155578079
 21
194.56554446481221
 31
0.0
  0
POLYLINE
  5
CF9
  8
0
  6
CONTINUOUS
 66
     1
 10
0.0
 20
0.0
 30
0.0
  0
VERTEX
  5
14C4
  8
0
  6
CONTINUOUS
 10
437.76071555780862
 20
194.56554446481209
 30
0.0
 42
-0.0851703918331037
  0
VERTEX
  5
14C5
  8
0
  6
CONTINUOUS
 10
441.76071555780862
 20
193.87754446481199
 30
0.0
 42
-0.3457679526359281
  0
VERTEX
  5
14C6
  8
0
  6
CONTINUOUS
 10
444.66071555780832
 20
194.2191241414869
 30
0.0
  0
SEQEND
  5
14C7
  8
0
  6
CONTINUOUS
  0
LINE
  5
CFE
  8
CENTER
  6
CENTER
 10
437.76071555780862
 20
173.30909213186411
 30
0.0
 11
437.76071555780862
 21
200.56554446481209
 31
0.0
  0
LINE
  5
CFF
  8
0
  6
CONTINUOUS
 10
441.76071555780862
 20
196.36554446481139
 30
0.0
 11
440.5607155578079
 21
197.56554446481209
 31
0.0
  0
LINE
  5
D00
  8
0
  6
CONTINUOUS
 10
440.5607155578079
 20
197.56554446481209
 30
0.0
 11
434.96071555780941
 21
197.56554446481221
 31
0.0
  0
LINE
  5
D01
  8
0
  6
CONTINUOUS
 10
441.76071555780862
 20
194.56554446481221
 30
0.0
 11
441.76071555780862
 21
196.36554446481139
 31
0.0
  0
LINE
  5
D02
  8
0
  6
CONTINUOUS
 62
     2
 10
440.96071555780929
 20
194.56554446481221
 30
0.0
 11
440.96071555780929
 21
197.16554446481069
 31
0.0
  0
LINE
  5
D03
  8
0
  6
CONTINUOUS
 10
445.26071555780851
 20
190.25838511146259
 30
0.0
 11
444.06071555780778
 21
189.56554446481221
 31
0.0
  0
POLYLINE
  5
D04
  8
0
  6
CONTINUOUS
 66
     1
 10
0.0
 20
0.0
 30
0.0
  0
VERTEX
  5
14C8
  8
0
  6
CONTINUOUS
 10
437.76071555780851
 20
189.56554446481209
 30
0.0
 42
0.0851703918331037
  0
VERTEX
  5
14C9
  8
0
  6
CONTINUOUS
 10
441.76071555780851
 20
190.25354446481219
 30
0.0
 42
0.3457679526359281
  0
VERTEX
  5
14CA
  8
0
  6
CONTINUOUS
 10
444.6607155578082
 20
189.9119647881374
 30
0.0
  0
SEQEND
  5
14CB
  8
0
  6
CONTINUOUS
  0
LINE
  5
D09
  8
0
  6
CONTINUOUS
 10
441.76071555780862
 20
190.25354446481219
 30
0.0
 11
441.76071555780862
 21
193.8775444648121
 31
0.0
  0
LINE
  5
D0A
  8
0
  6
CONTINUOUS
 10
445.26071555780851
 20
190.25838511146259
 30
0.0
 11
445.26071555780851
 21
193.87270381816171
 31
0.0
  0
POLYLINE
  5
D0B
  8
0
  6
CONTINUOUS
 66
     1
 10
0.0
 20
0.0
 30
0.0
 70
     1
  0
VERTEX
  5
14CC
  8
0
  6
CONTINUOUS
 10
433.71926367348118
 20
311.70547819388293
 30
0.0
  0
VERTEX
  5
14CD
  8
0
  6
CONTINUOUS
 10
429.67781178915379
 20
304.70547819388293
 30
0.0
  0
VERTEX
  5
14CE
  8
0
  6
CONTINUOUS
 10
433.71926367348118
 20
297.70547819388293
 30
0.0
  0
VERTEX
  5
14CF
  8
0
  6
CONTINUOUS
 10
441.80216744213601
 20
297.70547819388293
 30
0.0
  0
VERTEX
  5
14D0
  8
0
  6
CONTINUOUS
 10
445.8436193264634
 20
304.70547819388293
 30
0.0
  0
VERTEX
  5
14D1
  8
0
  6
CONTINUOUS
 10
441.80216744213601
 20
311.70547819388293
 30
0.0
  0
SEQEND
  5
14D2
  8
0
  6
CONTINUOUS
  0
CIRCLE
  5
D13
  8
0
  6
CONTINUOUS
 10
437.76071555780862
 20
304.70547819388293
 30
0.0
 40
7.0
  0
POLYLINE
  5
D14
  8
0
  6
CONTINUOUS
 66
     1
 10
0.0
 20
0.0
 30
0.0
 70
     1
  0
VERTEX
  5
14D3
  8
0
  6
CONTINUOUS
 10
436.60601501942858
 20
306.70547819388293
 30
0.0
  0
VERTEX
  5
14D4
  8
0
  6
CONTINUOUS
 10
435.45131448105042
 20
304.70547819388293
 30
0.0
  0
VERTEX
  5
14D5
  8
0
  6
CONTINUOUS
 10
436.60601501942858
 20
302.70547819388293
 30
0.0
  0
VERTEX
  5
14D6
  8
0
  6
CONTINUOUS
 10
438.91541609618861
 20
302.70547819388293
 30
0.0
  0
VERTEX
  5
14D7
  8
0
  6
CONTINUOUS
 10
440.07011663456672
 20
304.70547819388293
 30
0.0
  0
VERTEX
  5
14D8
  8
0
  6
CONTINUOUS
 10
438.91541609618861
 20
306.70547819388293
 30
0.0
  0
SEQEND
  5
14D9
  8
0
  6
CONTINUOUS
  0
ARC
  5
D1C
  8
0
  6
CONTINUOUS
 62
     2
 10
437.76071555780862
 20
304.70547819388293
 30
0.0
 40
3.399999999999999
 50
74.242562599195679
 51
23.283227219290101
  0
CIRCLE
  5
D1D
  8
0
  6
CONTINUOUS
 10
437.76071555780862
 20
304.70547819388293
 30
0.0
 40
4.0
  0
LINE
  5
D1E
  8
CENTER
  6
CENTER
 10
437.76071555780862
 20
314.70547819388293
 30
0.0
 11
437.76071555780862
 21
294.70547819388293
 31
0.0
  0
TEXT
  5
D1F
  8
DIM
  6
CONTINUOUS
 10
402.76071555780862
 20
358.40731605445939
 30
0.0
 40
3.0
  1
1
 50
90.0
  7
ROMANSS
 72
     1
 11
401.26071555780862
 21
358.76445891160222
 31
0.0
 73
     2
  0
SOLID
  5
D20
  8
DIM
  6
CONTINUOUS
 10
403.76071555780851
 20
360.70547819388293
 30
0.0
 11
404.76071555780862
 21
360.70547819388293
 31
0.0
 12
404.26071555780862
 22
363.70547819388293
 32
0.0
 13
404.26071555780862
 23
363.70547819388293
 33
0.0
  0
LINE
  5
D21
  8
DIM
  6
CONTINUOUS
 10
442.76071555780862
 20
364.70547819388293
 30
0.0
 11
403.26071555780862
 21
364.70547819388293
 31
0.0
  0
LINE
  5
D22
  8
DIM
  6
CONTINUOUS
 10
445.26071555780851
 20
367.20547819388293
 30
0.0
 11
411.26071555780862
 21
367.20547819388293
 31
0.0
  0
TEXT
  5
D23
  8
DIM
  6
CONTINUOUS
 10
452.4750012720944
 20
213.20547819388301
 30
0.0
 40
3.0
  1
326
  7
ROMANSS
 72
     1
 11
456.26071555780868
 21
214.70547819388301
 31
0.0
 73
     2
  0
TEXT
  5
D24
  8
DIM
  6
CONTINUOUS
 10
453.83214412923718
 20
221.2054781938829
 30
0.0
 40
3.0
  1
75
  7
ROMANSS
 72
     1
 11
456.26071555780868
 21
222.7054781938829
 31
0.0
 73
     2
  0
SOLID
  5
D25
  8
DIM
  6
CONTINUOUS
 10
421.76071555780862
 20
220.2054781938829
 30
0.0
 11
421.76071555780862
 21
219.20547819388301
 31
0.0
 12
418.76071555780868
 22
219.70547819388301
 32
0.0
 13
418.76071555780868
 23
219.70547819388301
 33
0.0
  0
LINE
  5
D26
  8
DIM
  6
CONTINUOUS
 10
418.76071555780851
 20
289.79554911272999
 30
0.0
 11
418.76071555780868
 21
218.41796255384509
 31
0.0
  0
TEXT
  5
D27
  8
DIM
  6
CONTINUOUS
 10
452.4750012720944
 20
229.2054781938829
 30
0.0
 40
3.0
  1
%%c72
  7
ROMANSS
 72
     1
 11
456.26071555780868
 21
230.7054781938829
 31
0.0
 73
     2
  0
SOLID
  5
D28
  8
DIM
  6
CONTINUOUS
 10
423.26071555780868
 20
228.2054781938829
 30
0.0
 11
423.26071555780868
 21
227.2054781938829
 31
0.0
 12
420.26071555780862
 22
227.7054781938829
 32
0.0
 13
420.26071555780862
 23
227.7054781938829
 33
0.0
  0
LINE
  5
D29
  8
DIM
  6
CONTINUOUS
 10
420.26071555780851
 20
282.63315087451758
 30
0.0
 11
420.26071555780851
 21
226.31840431503281
 31
0.0
  0
LINE
  5
D2A
  8
CENTER
  6
CENTER
 10
426.26071555780862
 20
304.4844309380797
 30
0.0
 11
426.26071555780862
 21
287.75292399203647
 31
0.0
  0
LINE
  5
D2B
  8
CENTER
  6
CENTER
 10
426.26071555780862
 20
342.45569879167812
 30
0.0
 11
426.26071555780862
 21
358.65803239572932
 31
0.0
  0
LINE
  5
D2C
  8
0
 10
468.76071555780862
 20
364.70547819388293
 30
0.0
 11
468.76071555780862
 21
363.70547819388293
 31
0.0
  0
LINE
  5
D2D
  8
0
 10
443.76071555780862
 20
364.70547819388293
 30
0.0
 11
443.76071555780862
 21
363.70547819388293
 31
0.0
  0
LINE
  5
D2E
  8
0
  6
CONTINUOUS
 10
446.26071555780862
 20
367.20547819388293
 30
0.0
 11
448.26071555780862
 21
367.20547819388293
 31
0.0
  0
LINE
  5
D2F
  8
0
  6
CONTINUOUS
 10
443.76071555780862
 20
364.70547819388293
 30
0.0
 11
468.76071555780862
 21
364.70547819388293
 31
0.0
  0
LINE
  5
D30
  8
0
  6
CONTINUOUS
 10
420.26071555780851
 20
362.70547819388293
 30
0.0
 11
421.26071555780862
 21
363.70547819388293
 31
0.0
  0
LINE
  5
D31
  8
0
 10
420.26071555780851
 20
355.70547819388298
 30
0.0
 11
420.26071555780851
 21
362.70547819388293
 31
0.0
  0
LINE
  5
D32
  8
0
  6
CONTINUOUS
 10
420.26071555780851
 20
283.70547819388293
 30
0.0
 11
421.26071555780862
 21
282.70547819388293
 31
0.0
  0
LINE
  5
D33
  8
0
 10
420.26071555780851
 20
290.70547819388293
 30
0.0
 11
420.26071555780851
 21
283.70547819388293
 31
0.0
  0
LINE
  5
D34
  8
0
 10
418.76071555780862
 20
355.70547819388298
 30
0.0
 11
418.76071555780862
 21
290.70547819388293
 31
0.0
  0
LINE
  5
D35
  8
CENTER
  6
CENTER
 10
427.76071555780862
 20
304.70547819388293
 30
0.0
 11
447.76071555780862
 21
304.70547819388293
 31
0.0
  0
LINE
  5
D36
  8
0
  6
CONTINUOUS
 10
482.26071555780862
 20
193.87270381816171
 30
0.0
 11
481.0607155578079
 21
194.56554446481221
 31
0.0
  0
LINE
  5
D37
  8
0
  6
CONTINUOUS
 10
478.76071555780862
 20
194.56554446481221
 30
0.0
 11
478.76071555780851
 21
196.36554446481139
 31
0.0
  0
LINE
  5
D38
  8
0
  6
CONTINUOUS
 10
482.26071555780862
 20
190.25838511146259
 30
0.0
 11
481.0607155578079
 21
189.56554446481221
 31
0.0
  0
LINE
  5
D39
  8
0
  6
CONTINUOUS
 10
482.26071555780862
 20
190.25838511146259
 30
0.0
 11
482.26071555780862
 21
193.87270381816171
 31
0.0
  0
LINE
  5
D3A
  8
0
  6
CONTINUOUS
 10
478.76071555780851
 20
190.25354446481231
 30
0.0
 11
478.76071555780851
 21
193.8775444648121
 31
0.0
  0
LINE
  5
D3B
  8
CENTER
  6
CENTER
 10
480.26071555780862
 20
164.06554446481221
 30
0.0
 11
492.26071555780862
 21
164.06554446481221
 31
0.0
  0
LINE
  5
D3C
  8
CENTER
  6
CENTER
 10
486.26071555780862
 20
158.06554446481221
 30
0.0
 11
486.26071555780862
 21
170.06554446481221
 31
0.0
  0
CIRCLE
  5
D3D
  8
0
  6
CONTINUOUS
 10
486.26071555780862
 20
164.06554446481221
 30
0.0
 40
2.5
  0
ARC
  5
D3E
  8
0
  6
CONTINUOUS
 62
     2
 10
486.26071555780862
 20
164.06554446481221
 30
0.0
 40
3.0
 50
338.35967540570613
 51
287.47149231941358
  0
SOLID
  5
D3F
  8
DIM
  6
CONTINUOUS
 10
490.76071555780862
 20
220.2054781938829
 30
0.0
 11
490.76071555780862
 21
219.20547819388301
 31
0.0
 12
493.76071555780868
 22
219.70547819388301
 32
0.0
 13
493.76071555780868
 23
219.70547819388301
 33
0.0
  0
LINE
  5
D40
  8
DIM
  6
CONTINUOUS
 10
493.76071555780868
 20
289.38591928499608
 30
0.0
 11
493.76071555780862
 21
218.5664028753223
 31
0.0
  0
SOLID
  5
D41
  8
DIM
  6
CONTINUOUS
 10
489.26071555780868
 20
228.2054781938829
 30
0.0
 11
489.26071555780868
 21
227.2054781938829
 31
0.0
 12
492.26071555780862
 22
227.7054781938829
 32
0.0
 13
492.26071555780862
 23
227.7054781938829
 33
0.0
  0
LINE
  5
D42
  8
DIM
  6
CONTINUOUS
 10
492.26071555780862
 20
282.50365947577922
 30
0.0
 11
492.26071555780862
 21
226.2805755343168
 31
0.0
  0
LINE
  5
D43
  8
CENTER
  6
CENTER
 10
486.26071555780862
 20
342.13290538066758
 30
0.0
 11
486.26071555780862
 21
358.65803239572932
 31
0.0
  0
LINE
  5
D44
  8
CENTER
  6
CENTER
 10
486.26071555780862
 20
304.51085326456098
 30
0.0
 11
486.26071555780862
 21
287.75292399203647
 31
0.0
  0
LINE
  5
D45
  8
0
  6
CONTINUOUS
 10
492.26071555780862
 20
362.70547819388293
 30
0.0
 11
491.26071555780851
 21
363.70547819388293
 31
0.0
  0
LINE
  5
D46
  8
0
 10
492.26071555780862
 20
355.70547819388298
 30
0.0
 11
492.26071555780862
 21
362.70547819388293
 31
0.0
  0
LINE
  5
D47
  8
0
  6
CONTINUOUS
 10
492.26071555780862
 20
283.70547819388293
 30
0.0
 11
491.26071555780851
 21
282.70547819388293
 31
0.0
  0
LINE
  5
D48
  8
0
 10
492.26071555780862
 20
290.70547819388293
 30
0.0
 11
492.26071555780862
 21
283.70547819388293
 31
0.0
  0
LINE
  5
D49
  8
0
 10
493.76071555780862
 20
355.70547819388281
 30
0.0
 11
493.76071555780862
 21
290.70547819388293
 31
0.0
  0
LINE
  5
D4A
  8
DIM
  6
CONTINUOUS
 10
678.6207938489265
 20
235.7054781938829
 30
0.0
 11
765.6207938489265
 21
235.7054781938829
 31
0.0
  0
LINE
  5
D4B
  8
CENTER
  6
CENTER
 10
672.51643831840136
 20
315.70547819388293
 30
0.0
 11
686.24437878693379
 21
315.70547819388293
 31
0.0
  0
LINE
  5
D4C
  8
CENTER
  6
CENTER
 10
672.61433860737884
 20
327.20547819388281
 30
0.0
 11
692.0143386073787
 21
327.20547819388281
 31
0.0
  0
LINE
  5
D4D
  8
0
  6
CONTINUOUS
 10
675.62079384892638
 20
290.70547819388293
 30
0.0
 11
768.6207938489265
 21
290.70547819388293
 31
0.0
  0
LINE
  5
D4E
  8
0
  6
CONTINUOUS
 10
675.62079384892638
 20
355.70547819388298
 30
0.0
 11
768.6207938489265
 21
355.70547819388281
 31
0.0
  0
POLYLINE
  5
D4F
  8
0
 66
     1
 10
0.0
 20
0.0
 30
0.0
 70
     1
  0
VERTEX
  5
14DA
  8
0
 10
681.6207938489265
 20
305.93752900145188
 30
0.0
  0
VERTEX
  5
14DB
  8
0
 10
681.6207938489265
 20
302.47342738631409
 30
0.0
  0
VERTEX
  5
14DC
  8
0
 10
684.62079384892638
 20
300.7413765787453
 30
0.0
  0
VERTEX
  5
14DD
  8
0
 10
687.62079384892638
 20
302.47342738631409
 30
0.0
  0
VERTEX
  5
14DE
  8
0
 10
687.62079384892638
 20
305.93752900145188
 30
0.0
  0
VERTEX
  5
14DF
  8
0
 10
684.62079384892638
 20
307.66957980902072
 30
0.0
  0
SEQEND
  5
14E0
  8
0
  0
CIRCLE
  5
D57
  8
0
 10
684.62079384892638
 20
304.20547819388293
 30
0.0
 40
5.0
  0
CIRCLE
  5
D58
  8
0
 10
684.62079384892638
 20
304.20547819388293
 30
0.0
 40
5.5
  0
POLYLINE
  5
D59
  8
0
 66
     1
 10
0.0
 20
0.0
 30
0.0
 70
     1
  0
VERTEX
  5
14E1
  8
0
 10
681.6207938489265
 20
343.93752900145188
 30
0.0
  0
VERTEX
  5
14E2
  8
0
 10
681.6207938489265
 20
340.47342738631409
 30
0.0
  0
VERTEX
  5
14E3
  8
0
 10
684.62079384892638
 20
338.7413765787453
 30
0.0
  0
VERTEX
  5
14E4
  8
0
 10
687.62079384892638
 20
340.47342738631409
 30
0.0
  0
VERTEX
  5
14E5
  8
0
 10
687.62079384892638
 20
343.93752900145188
 30
0.0
  0
VERTEX
  5
14E6
  8
0
 10
684.62079384892638
 20
345.66957980902072
 30
0.0
  0
SEQEND
  5
14E7
  8
0
  0
CIRCLE
  5
D61
  8
0
 10
684.62079384892638
 20
342.20547819388293
 30
0.0
 40
5.5
  0
CIRCLE
  5
D62
  8
0
 10
684.62079384892638
 20
342.20547819388293
 30
0.0
 40
5.0
  0
LINE
  5
D63
  8
CENTER
  6
CENTER
 10
678.1207938489265
 20
342.20547819388293
 30
0.0
 11
691.1207938489265
 21
342.20547819388293
 31
0.0
  0
LINE
  5
D64
  8
0
 10
681.1207938489265
 20
324.20547819388281
 30
0.0
 11
684.72635022123541
 21
324.20547819388281
 31
0.0
  0
LINE
  5
D65
  8
0
 10
681.1207938489265
 20
322.20547819388298
 30
0.0
 11
684.72635022123541
 21
322.20547819388298
 31
0.0
  0
ARC
  5
D66
  8
0
 10
684.62079384892638
 20
342.20547819388281
 30
0.0
 40
7.5
 50
245.68426082882789
 51
304.1930771251387
  0
LINE
  5
D67
  8
0
 10
685.58984564158777
 20
318.2150769765795
 30
0.0
 11
681.1207938489265
 21
318.2150769765795
 31
0.0
  0
ARC
  5
D68
  8
0
 10
684.62079384892638
 20
304.20547819388293
 30
0.0
 40
7.5
 50
55.806922874861257
 51
114.3157391711738
  0
LINE
  5
D69
  8
CENTER
  6
CENTER
 10
678.1207938489265
 20
304.20547819388293
 30
0.0
 11
691.1207938489265
 21
304.20547819388293
 31
0.0
  0
LINE
  5
D6A
  8
CENTER
  6
CENTER
 10
672.6207938489265
 20
323.20547819388293
 30
0.0
 11
771.62079384892638
 21
323.20547819388293
 31
0.0
  0
POLYLINE
  5
D6B
  8
0
 66
     1
 10
0.0
 20
0.0
 30
0.0
 70
     1
  0
VERTEX
  5
14E8
  8
0
 10
729.62079384892638
 20
342.20547819388293
 30
0.0
 42
0.4142135623730951
  0
VERTEX
  5
14E9
  8
0
 10
722.62079384892616
 20
349.20547819388293
 30
0.0
  0
VERTEX
  5
14EA
  8
0
 10
684.62079384892638
 20
349.20547819388293
 30
0.0
 42
0.4142135623730951
  0
VERTEX
  5
14EB
  8
0
 10
677.6207938489265
 20
342.20547819388293
 30
0.0
  0
VERTEX
  5
14EC
  8
0
 10
677.6207938489265
 20
304.20547819388293
 30
0.0
 42
0.4142135623730951
  0
VERTEX
  5
14ED
  8
0
 10
684.62079384892638
 20
297.20547819388293
 30
0.0
  0
VERTEX
  5
14EE
  8
0
 10
722.62079384892616
 20
297.20547819388293
 30
0.0
 42
0.4142135623730957
  0
VERTEX
  5
14EF
  8
0
 10
729.62079384892638
 20
304.20547819388293
 30
0.0
  0
SEQEND
  5
14F0
  8
0
  0
POLYLINE
  5
D75
  8
0
 66
     1
 10
0.0
 20
0.0
 30
0.0
 70
     1
  0
VERTEX
  5
14F1
  8
0
 10
730.12079384892638
 20
342.20547819388293
 30
0.0
 42
0.4142135623730951
  0
VERTEX
  5
14F2
  8
0
 10
722.62079384892616
 20
349.70547819388298
 30
0.0
  0
VERTEX
  5
14F3
  8
0
 10
684.62079384892638
 20
349.70547819388298
 30
0.0
 42
0.4142135623730951
  0
VERTEX
  5
14F4
  8
0
 10
677.1207938489265
 20
342.20547819388293
 30
0.0
  0
VERTEX
  5
14F5
  8
0
 10
677.1207938489265
 20
304.20547819388293
 30
0.0
 42
0.4142135623730951
  0
VERTEX
  5
14F6
  8
0
 10
684.62079384892638
 20
296.70547819388293
 30
0.0
  0
VERTEX
  5
14F7
  8
0
 10
722.62079384892616
 20
296.70547819388293
 30
0.0
 42
0.4142135623730951
  0
VERTEX
  5
14F8
  8
0
 10
730.12079384892638
 20
304.20547819388293
 30
0.0
  0
SEQEND
  5
14F9
  8
0
  0
LINE
  5
D7F
  8
0
 10
619.26071555780868
 20
135.56554446481221
 30
0.0
 11
619.26071555780868
 21
187.56554446481221
 31
0.0
  0
LINE
  5
D80
  8
0
 10
619.26071555780868
 20
144.06554446481221
 30
0.0
 11
622.26071555780868
 21
144.06554446481221
 31
0.0
  0
ARC
  5
D81
  8
0
 10
622.26071555780868
 20
145.06554446481221
 30
0.0
 40
1.0
 50
270.0
 51
0.0
  0
ARC
  5
D82
  8
0
 10
622.26071555780868
 20
178.06554446481221
 30
0.0
 40
1.0
 50
0.0
 51
90.0
  0
LINE
  5
D83
  8
0
 10
623.26071555780868
 20
145.06554446481221
 30
0.0
 11
623.26071555780868
 21
178.06554446481221
 31
0.0
  0
LINE
  5
D84
  8
0
 10
589.26071555780868
 20
135.06554446481221
 30
0.0
 11
589.26071555780868
 21
188.06554446481221
 31
0.0
  0
LINE
  5
D85
  8
0
 10
589.26071555780868
 20
188.06554446481221
 30
0.0
 11
619.26071555780868
 21
187.56554446481221
 31
0.0
  0
LINE
  5
D86
  8
0
 10
589.26071555780868
 20
135.06554446481221
 30
0.0
 11
619.26071555780868
 21
135.56554446481221
 31
0.0
  0
ARC
  5
D87
  8
0
  6
CONTINUOUS
 10
667.20381425331493
 20
301.20547819388293
 30
0.0
 40
8.4553825989882458
 50
335.54757590941512
 51
24.452424090584881
  0
ARC
  5
D88
  8
0
  6
CONTINUOUS
 10
667.20381425331493
 20
308.20547819388293
 30
0.0
 40
8.4553825989882458
 50
335.54757590941512
 51
24.452424090584881
  0
LINE
  5
D89
  8
0
  6
CONTINUOUS
 10
667.62079384892638
 20
301.90547819388371
 30
0.0
 11
667.62079384892638
 21
307.50547819388208
 31
0.0
  0
LINE
  5
D8A
  8
0
  6
CONTINUOUS
 10
668.82079384892722
 20
300.70547819388293
 30
0.0
 11
667.62079384892638
 21
301.90547819388371
 31
0.0
  0
LINE
  5
D8B
  8
0
  6
CONTINUOUS
 10
670.52079384892795
 20
300.70547819388293
 30
0.0
 11
668.82079384892722
 21
300.70547819388293
 31
0.0
  0
LINE
  5
D8C
  8
0
  6
CONTINUOUS
 10
668.82079384892722
 20
308.70547819388293
 30
0.0
 11
667.62079384892638
 21
307.5054781938822
 31
0.0
  0
LINE
  5
D8D
  8
0
  6
CONTINUOUS
 10
670.52079384892795
 20
308.70547819388293
 30
0.0
 11
668.82079384892722
 21
308.70547819388293
 31
0.0
  0
LINE
  5
D8E
  8
0
  6
CONTINUOUS
 10
675.62079384892638
 20
311.70547819388293
 30
0.0
 11
675.62079384892638
 21
304.70547819388293
 31
0.0
  0
LINE
  5
D8F
  8
0
  6
CONTINUOUS
 10
670.62079384892638
 20
311.70547819388293
 30
0.0
 11
675.62079384892638
 21
311.70547819388293
 31
0.0
  0
ARC
  5
D90
  8
0
  6
CONTINUOUS
 10
679.03777344453749
 20
308.20547819388293
 30
0.0
 40
8.4553825989878657
 50
155.54757590940659
 51
204.4524240905933
  0
LINE
  5
D91
  8
0
  6
CONTINUOUS
 10
674.90079384892715
 20
304.70547819388293
 30
0.0
 11
671.34079384892584
 21
304.70547819388293
 31
0.0
  0
LINE
  5
D92
  8
0
  6
CONTINUOUS
 10
675.62079384892638
 20
297.70547819388293
 30
0.0
 11
675.62079384892638
 21
304.70547819388293
 31
0.0
  0
LINE
  5
D93
  8
0
  6
CONTINUOUS
 10
670.62079384892638
 20
297.70547819388293
 30
0.0
 11
675.62079384892638
 21
297.70547819388293
 31
0.0
  0
ARC
  5
D94
  8
0
  6
CONTINUOUS
 10
679.03777344453749
 20
301.20547819388293
 30
0.0
 40
8.4553825989878657
 50
155.54757590940659
 51
204.45242409059369
  0
LINE
  5
D95
  8
0
  6
CONTINUOUS
 10
675.62079384892638
 20
304.70547819388293
 30
0.0
 11
671.34079384892584
 21
304.70547819388293
 31
0.0
  0
LINE
  5
D96
  8
0
  6
CONTINUOUS
 62
     2
 10
670.52079384892795
 20
307.9054781938836
 30
0.0
 11
668.02079384892795
 21
307.9054781938836
 31
0.0
  0
LINE
  5
D97
  8
0
  6
CONTINUOUS
 10
670.62079384892638
 20
311.70547819388293
 30
0.0
 11
670.62079384892638
 21
297.70547819388293
 31
0.0
  0
LINE
  5
D98
  8
0
  6
CONTINUOUS
 62
     2
 10
670.52079384892795
 20
301.5054781938822
 30
0.0
 11
668.02079384892795
 21
301.5054781938822
 31
0.0
  0
LINE
  5
D99
  8
0
  6
CONTINUOUS
 10
668.82079384892722
 20
300.70547819388293
 30
0.0
 11
668.82079384892722
 21
308.70547819388293
 31
0.0
  0
LINE
  5
D9A
  8
CENTER
  6
CENTER
 10
664.81807104020606
 20
304.70547819388293
 30
0.0
 11
683.88846410409235
 21
304.70547819388293
 31
0.0
  0
SOLID
  5
D9B
  8
DIM
  6
CONTINUOUS
 10
682.65271078262515
 20
347.91730113445192
 30
0.0
 11
681.77337369671318
 21
347.44110129264197
 31
0.0
 12
683.64164176509894
 22
345.04118995581081
 32
0.0
 13
683.64164176509894
 23
345.04118995581081
 33
0.0
  0
LINE
  5
D9C
  8
DIM
  6
CONTINUOUS
 10
616.64405835412708
 20
365.5968487078456
 30
0.0
 11
636.83444554685593
 21
365.5968487078456
 31
0.0
  0
LINE
  5
D9D
  8
DIM
  6
CONTINUOUS
 10
610.48257925584028
 20
334.64691864434309
 30
0.0
 11
636.83444554685593
 21
365.5968487078456
 31
0.0
  0
SOLID
  5
D9E
  8
DIM
  6
CONTINUOUS
 10
610.86327912209504
 20
334.32277729888739
 30
0.0
 11
610.10187938958586
 21
334.9710599897989
 31
0.0
 12
608.53773118310608
 22
332.36271944681653
 32
0.0
 13
608.53773118310608
 23
332.36271944681653
 33
0.0
  0
POLYLINE
  5
D9F
  8
DIM
  6
CONTINUOUS
 66
     1
 10
0.0
 20
0.0
 30
0.0
 70
     1
  0
VERTEX
  5
14FA
  8
DIM
  6
CONTINUOUS
 10
655.6979134734504
 20
321.68082196581059
 30
0.0
  0
VERTEX
  5
14FB
  8
DIM
  6
CONTINUOUS
 10
655.6979134734504
 20
319.79532310578168
 30
0.0
  0
VERTEX
  5
14FC
  8
DIM
  6
CONTINUOUS
 10
657.63866801086601
 20
319.79532310578168
 30
0.0
  0
VERTEX
  5
14FD
  8
DIM
  6
CONTINUOUS
 10
657.63866801086601
 20
321.68082196581059
 30
0.0
  0
SEQEND
  5
14FE
  8
DIM
  6
CONTINUOUS
  0
POLYLINE
  5
DA5
  8
DIM
  6
CONTINUOUS
 66
     1
 10
0.0
 20
0.0
 30
0.0
 70
     1
  0
VERTEX
  5
14FF
  8
DIM
  6
CONTINUOUS
 10
647.6979134734504
 20
321.68082196581059
 30
0.0
  0
VERTEX
  5
1500
  8
DIM
  6
CONTINUOUS
 10
647.6979134734504
 20
319.79532310578168
 30
0.0
  0
VERTEX
  5
1501
  8
DIM
  6
CONTINUOUS
 10
649.63866801086601
 20
319.79532310578168
 30
0.0
  0
VERTEX
  5
1502
  8
DIM
  6
CONTINUOUS
 10
649.63866801086601
 20
321.68082196581059
 30
0.0
  0
SEQEND
  5
1503
  8
DIM
  6
CONTINUOUS
  0
TEXT
  5
DAB
  8
DIM
  6
CONTINUOUS
 10
629.76071555780857
 20
319.4197639081687
 30
0.0
 40
3.0
  1
%%c35
 50
90.0
  7
ROMANSS
 72
     1
 11
628.26071555780857
 21
323.20547819388293
 31
0.0
 73
     2
  0
SOLID
  5
DAC
  8
DIM
  6
CONTINUOUS
 10
630.76071555780868
 20
337.70547819388293
 30
0.0
 11
631.76071555780868
 21
337.70547819388293
 31
0.0
 12
631.26071555780868
 22
340.70547819388293
 32
0.0
 13
631.26071555780868
 23
340.70547819388293
 33
0.0
  0
SOLID
  5
DAD
  8
DIM
  6
CONTINUOUS
 10
630.76071555780868
 20
308.70547819388293
 30
0.0
 11
631.76071555780868
 21
308.70547819388293
 31
0.0
 12
631.26071555780868
 22
305.70547819388298
 32
0.0
 13
631.26071555780868
 23
305.70547819388298
 33
0.0
  0
LINE
  5
DAE
  8
DIM
  6
CONTINUOUS
 10
631.26071555780868
 20
308.70547819388293
 30
0.0
 11
631.26071555780868
 21
337.70547819388293
 31
0.0
  0
LINE
  5
DAF
  8
DIM
  6
CONTINUOUS
 10
623.26071555780868
 20
340.70547819388293
 30
0.0
 11
632.26071555780857
 21
340.70547819388293
 31
0.0
  0
LINE
  5
DB0
  8
DIM
  6
CONTINUOUS
 10
623.26071555780868
 20
305.70547819388298
 30
0.0
 11
632.26071555780857
 21
305.70547819388298
 31
0.0
  0
TEXT
  5
DB1
  8
DIM
  6
CONTINUOUS
 10
650.12079384892627
 20
322.123692645971
 30
0.0
 40
3.0
  1
53
 50
90.0
  7
ROMANSS
 72
     1
 11
648.62079384892616
 21
324.55226407454239
 31
0.0
 73
     2
  0
SOLID
  5
DB2
  8
DIM
  6
CONTINUOUS
 10
651.12079384892616
 20
346.70547819388293
 30
0.0
 11
652.12079384892616
 21
346.70547819388293
 31
0.0
 12
651.62079384892616
 22
349.70547819388298
 32
0.0
 13
651.62079384892616
 23
349.70547819388298
 33
0.0
  0
SOLID
  5
DB3
  8
DIM
  6
CONTINUOUS
 10
651.12079384892616
 20
299.70547819388298
 30
0.0
 11
652.12079384892616
 21
299.70547819388298
 31
0.0
 12
651.62079384892616
 22
296.70547819388293
 32
0.0
 13
651.62079384892616
 23
296.70547819388293
 33
0.0
  0
LINE
  5
DB4
  8
DIM
  6
CONTINUOUS
 10
651.62079384892616
 20
299.70547819388298
 30
0.0
 11
651.62079384892616
 21
346.70547819388293
 31
0.0
  0
LINE
  5
DB5
  8
DIM
  6
CONTINUOUS
 10
683.62079384892638
 20
349.70547819388298
 30
0.0
 11
650.62079384892627
 21
349.70547819388298
 31
0.0
  0
LINE
  5
DB6
  8
DIM
  6
CONTINUOUS
 10
683.62079384892638
 20
296.70547819388293
 30
0.0
 11
650.62079384892627
 21
296.70547819388293
 31
0.0
  0
TEXT
  5
DB7
  8
DIM
  6
CONTINUOUS
 10
658.12079384892627
 20
322.123692645971
 30
0.0
 40
3.0
  1
38
 50
90.0
  7
ROMANSS
 72
     1
 11
656.62079384892616
 21
324.55226407454239
 31
0.0
 73
     2
  0
SOLID
  5
DB8
  8
DIM
  6
CONTINUOUS
 10
659.12079384892627
 20
339.20547819388298
 30
0.0
 11
660.12079384892616
 21
339.20547819388298
 31
0.0
 12
659.62079384892616
 22
342.20547819388293
 32
0.0
 13
659.62079384892616
 23
342.20547819388293
 33
0.0
  0
SOLID
  5
DB9
  8
DIM
  6
CONTINUOUS
 10
659.12079384892627
 20
307.20547819388293
 30
0.0
 11
660.12079384892616
 21
307.20547819388293
 31
0.0
 12
659.62079384892616
 22
304.20547819388293
 32
0.0
 13
659.62079384892616
 23
304.20547819388293
 33
0.0
  0
LINE
  5
DBA
  8
DIM
  6
CONTINUOUS
 10
659.62079384892616
 20
307.20547819388293
 30
0.0
 11
659.62079384892616
 21
339.20547819388298
 31
0.0
  0
LINE
  5
DBB
  8
DIM
  6
CONTINUOUS
 10
677.1207938489265
 20
342.20547819388293
 30
0.0
 11
658.62079384892627
 21
342.20547819388293
 31
0.0
  0
LINE
  5
DBC
  8
DIM
  6
CONTINUOUS
 10
677.1207938489265
 20
304.20547819388293
 30
0.0
 11
658.62079384892627
 21
304.20547819388293
 31
0.0
  0
SOLID
  5
DBD
  8
DIM
  6
CONTINUOUS
 10
678.6207938489265
 20
236.20547819388281
 30
0.0
 11
678.6207938489265
 21
235.2054781938829
 31
0.0
 12
675.62079384892638
 22
235.7054781938829
 32
0.0
 13
675.62079384892638
 23
235.7054781938829
 33
0.0
  0
LINE
  5
DBE
  8
DIM
  6
CONTINUOUS
 10
675.62079384892638
 20
289.20845400789977
 30
0.0
 11
675.62079384892638
 21
234.7054781938829
 31
0.0
  0
TEXT
  5
DBF
  8
DIM
  6
CONTINUOUS
 10
629.60860784904548
 20
213.20547819388301
 30
0.0
 40
3.0
  1
4
  7
ROMANSS
 72
     1
 11
630.68003642047415
 21
214.70547819388301
 31
0.0
 73
     2
  0
SOLID
  5
DC0
  8
DIM
  6
CONTINUOUS
 10
626.26071555780868
 20
212.20547819388301
 30
0.0
 11
626.26071555780868
 21
211.20547819388301
 31
0.0
 12
623.26071555780868
 22
211.70547819388301
 32
0.0
 13
623.26071555780868
 23
211.70547819388301
 33
0.0
  0
LINE
  5
DC1
  8
DIM
  6
CONTINUOUS
 10
623.26071555780868
 20
304.70073348070821
 30
0.0
 11
623.26071555780868
 21
210.70547819388301
 31
0.0
  0
SOLID
  5
DC2
  8
DIM
  6
CONTINUOUS
 10
616.26071555780857
 20
212.20547819388301
 30
0.0
 11
616.26071555780857
 21
211.20547819388301
 31
0.0
 12
619.26071555780868
 22
211.70547819388301
 32
0.0
 13
619.26071555780868
 23
211.70547819388301
 33
0.0
  0
LINE
  5
DC3
  8
DIM
  6
CONTINUOUS
 10
619.26071555780868
 20
296.20547819388293
 30
0.0
 11
619.26071555780868
 21
210.70547819388301
 31
0.0
  0
ARC
  5
DC4
  8
0
  6
CONTINUOUS
 10
595.76071555780857
 20
315.70547819388293
 30
0.0
 40
3.5
 50
38.213210701738312
 51
81.786789298261766
  0
ARC
  5
DC5
  8
0
  6
CONTINUOUS
 10
595.76071555780857
 20
315.70547819388293
 30
0.0
 40
3.5
 50
338.21321070173849
 51
21.786789298261379
  0
LINE
  5
DC6
  8
0
  6
CONTINUOUS
 10
595.26071555780857
 20
320.68041537941599
 30
0.0
 11
595.26071555780857
 21
319.16957980902072
 31
0.0
  0
LINE
  5
DC7
  8
0
  6
CONTINUOUS
 10
596.26071555780857
 20
320.68041537941599
 30
0.0
 11
596.26071555780857
 21
319.16957980902072
 31
0.0
  0
LINE
  5
DC8
  8
0
  6
CONTINUOUS
 10
598.51071555780857
 20
317.87054170334409
 30
0.0
 11
599.81913754271216
 21
318.6259594885417
 31
0.0
  0
LINE
  5
DC9
  8
0
  6
CONTINUOUS
 10
599.01071555780868
 20
317.00451629955961
 30
0.0
 11
600.31913754271216
 21
317.75993408475728
 31
0.0
  0
ARC
  5
DCA
  8
0
  6
CONTINUOUS
 10
595.76071555780857
 20
315.70547819388293
 30
0.0
 40
3.5
 50
278.21321070173809
 51
321.78678929826162
  0
LINE
  5
DCB
  8
0
  6
CONTINUOUS
 10
595.26071555780857
 20
312.24137657874519
 30
0.0
 11
595.26071555780857
 21
310.7305410083498
 31
0.0
  0
LINE
  5
DCC
  8
0
  6
CONTINUOUS
 10
596.26071555780857
 20
312.24137657874519
 30
0.0
 11
596.26071555780857
 21
310.7305410083498
 31
0.0
  0
LINE
  5
DCD
  8
0
  6
CONTINUOUS
 10
599.81913754271216
 20
312.78499689922421
 30
0.0
 11
598.51071555780857
 21
313.54041468442182
 31
0.0
  0
LINE
  5
DCE
  8
0
  6
CONTINUOUS
 10
600.31913754271216
 20
313.65102230300857
 30
0.0
 11
599.01071555780868
 21
314.40644008820618
 31
0.0
  0
POLYLINE
  5
DCF
  8
0
  6
CONTINUOUS
 66
     1
 10
0.0
 20
0.0
 30
0.0
 70
     1
  0
VERTEX
  5
1504
  8
0
  6
CONTINUOUS
 10
594.89469015402426
 20
317.20547819388293
 30
0.0
  0
VERTEX
  5
1505
  8
0
  6
CONTINUOUS
 10
594.02866475023984
 20
315.70547819388293
 30
0.0
  0
VERTEX
  5
1506
  8
0
  6
CONTINUOUS
 10
594.89469015402426
 20
314.20547819388298
 30
0.0
  0
VERTEX
  5
1507
  8
0
  6
CONTINUOUS
 10
596.62674096159321
 20
314.20547819388298
 30
0.0
  0
VERTEX
  5
1508
  8
0
  6
CONTINUOUS
 10
597.49276636537752
 20
315.70547819388293
 30
0.0
  0
VERTEX
  5
1509
  8
0
  6
CONTINUOUS
 10
596.62674096159321
 20
317.20547819388293
 30
0.0
  0
SEQEND
  5
150A
  8
0
  6
CONTINUOUS
  0
LINE
  5
DD7
  8
0
  6
CONTINUOUS
 10
593.01071555780857
 20
317.87054170334409
 30
0.0
 11
591.70229357290498
 21
318.6259594885417
 31
0.0
  0
ARC
  5
DD8
  8
0
  6
CONTINUOUS
 10
595.76071555780857
 20
315.70547819388293
 30
0.0
 40
3.5
 50
158.21321070173769
 51
201.78678929826219
  0
LINE
  5
DD9
  8
0
  6
CONTINUOUS
 10
592.51071555780857
 20
317.00451629955961
 30
0.0
 11
591.20229357290532
 21
317.75993408475728
 31
0.0
  0
LINE
  5
DDA
  8
0
  6
CONTINUOUS
 10
591.70229357290498
 20
312.78499689922421
 30
0.0
 11
593.01071555780857
 21
313.54041468442182
 31
0.0
  0
LINE
  5
DDB
  8
0
  6
CONTINUOUS
 10
591.20229357290532
 20
313.65102230300857
 30
0.0
 11
592.51071555780857
 21
314.40644008820618
 31
0.0
  0
CIRCLE
  5
DDC
  8
0
 10
595.76071555780857
 20
315.70547819388293
 30
0.0
 40
5.2999999999999989
  0
CIRCLE
  5
DDD
  8
0
 10
595.76071555780857
 20
315.70547819388293
 30
0.0
 40
5.0
  0
ARC
  5
DDE
  8
0
  6
CONTINUOUS
 10
595.76071555780857
 20
315.70547819388293
 30
0.0
 40
3.5
 50
98.213210701738234
 51
141.7867892982643
  0
ARC
  5
DDF
  8
0
  6
CONTINUOUS
 10
595.76071555780857
 20
315.70547819388293
 30
0.0
 40
3.5
 50
218.21321070173829
 51
261.78678929826179
  0
CIRCLE
  5
DE0
  8
0
  6
CONTINUOUS
 10
595.76071555780857
 20
315.70547819388293
 30
0.0
 40
2.5
  0
LINE
  5
DE1
  8
CENTER
  6
CENTER
 10
595.76071555780857
 20
308.84150795961682
 30
0.0
 11
595.76071555780857
 21
322.56944842814909
 31
0.0
  0
LINE
  5
DE2
  8
CENTER
  6
CENTER
 10
588.89674532354252
 20
315.70547819388293
 30
0.0
 11
602.62468579207484
 21
315.70547819388293
 31
0.0
  0
LINE
  5
DE3
  8
0
 10
675.62079384892638
 20
355.70547819388298
 30
0.0
 11
675.62079384892638
 21
290.70547819388293
 31
0.0
  0
LINE
  5
DE4
  8
0
 10
677.12079384892616
 20
340.70547819388293
 30
0.0
 11
677.6207938489265
 21
340.70547819388293
 31
0.0
  0
ARC
  5
DE5
  8
0
 10
681.1207938489265
 20
334.45951150146772
 30
0.0
 40
1.0
 50
65.68426082881895
 51
180.0
  0
ARC
  5
DE6
  8
0
 10
681.1207938489265
 20
325.20547819388281
 30
0.0
 40
1.0
 50
180.0
 51
270.0
  0
ARC
  5
DE7
  8
0
 10
681.1207938489265
 20
321.20547819388293
 30
0.0
 40
1.0
 50
90.0
 51
180.0
  0
LINE
  5
DE8
  8
0
 10
680.12079384892638
 20
325.20547819388281
 30
0.0
 11
680.12079384892638
 21
334.45951150146772
 31
0.0
  0
ARC
  5
DE9
  8
0
 10
681.1207938489265
 20
317.2150769765795
 30
0.0
 40
1.0
 50
90.0
 51
180.0
  0
LINE
  5
DEA
  8
0
 10
677.12079384892616
 20
305.70547819388298
 30
0.0
 11
677.62079384892616
 21
305.70547819388298
 31
0.0
  0
ARC
  5
DEB
  8
0
 10
681.1207938489265
 20
311.95144488629802
 30
0.0
 40
1.0
 50
180.0
 51
294.31573917118101
  0
LINE
  5
DEC
  8
0
 10
680.12079384892638
 20
321.20547819388293
 30
0.0
 11
680.12079384892638
 21
311.95144488629802
 31
0.0
  0
ARC
  5
DED
  8
0
 10
622.26071555780868
 20
339.70547819388293
 30
0.0
 40
1.0
 50
0.0
 51
90.0
  0
LINE
  5
DEE
  8
0
 10
619.26071555780868
 20
340.70547819388293
 30
0.0
 11
622.26071555780868
 21
340.70547819388293
 31
0.0
  0
ARC
  5
DEF
  8
0
 10
622.26071555780868
 20
306.70547819388293
 30
0.0
 40
1.0
 50
270.0
 51
0.0
  0
LINE
  5
DF0
  8
0
 10
619.26071555780868
 20
305.70547819388298
 30
0.0
 11
622.26071555780868
 21
305.70547819388298
 31
0.0
  0
LINE
  5
DF1
  8
0
 10
623.26071555780868
 20
339.70547819388293
 30
0.0
 11
623.26071555780868
 21
306.70547819388293
 31
0.0
  0
LINE
  5
DF2
  8
0
 10
619.26071555780868
 20
349.20547819388293
 30
0.0
 11
619.26071555780868
 21
297.20547819388293
 31
0.0
  0
CIRCLE
  5
DF3
  8
0
 10
604.26071555780857
 20
327.20547819388281
 30
0.0
 40
3.9999999999999711
  0
CIRCLE
  5
DF4
  8
0
 10
604.26071555780857
 20
327.20547819388281
 30
0.0
 40
5.7000000000000011
  0
LINE
  5
DF5
  8
0
 10
589.26071555780868
 20
349.70547819388298
 30
0.0
 11
589.26071555780868
 21
296.70547819388293
 31
0.0
  0
LINE
  5
DF6
  8
CENTER
  6
CENTER
 10
604.26071555780857
 20
315.50547819388288
 30
0.0
 11
604.26071555780857
 21
338.9054781938828
 31
0.0
  0
LINE
  5
DF7
  8
0
 10
589.26071555780868
 20
349.70547819388298
 30
0.0
 11
619.26071555780868
 21
349.20547819388293
 31
0.0
  0
LINE
  5
DF8
  8
0
 10
589.26071555780868
 20
296.70547819388293
 30
0.0
 11
619.26071555780868
 21
297.20547819388293
 31
0.0
  0
CIRCLE
  5
DF9
  8
0
 10
604.26071555780857
 20
327.20547819388281
 30
0.0
 40
8.6999999999999993
  0
CIRCLE
  5
DFA
  8
0
 10
604.26071555780857
 20
327.20547819388281
 30
0.0
 40
6.7000000000000028
  0
ARC
  5
DFB
  8
0
 62
     2
 10
604.26071555780857
 20
327.20547819388281
 30
0.0
 40
6.5999999999999996
 50
153.86110377669701
 51
104.9974520806085
  0
LINE
  5
DFC
  8
CENTER
  6
CENTER
 10
592.56071555780863
 20
327.20547819388281
 30
0.0
 11
615.96071555780873
 21
327.20547819388281
 31
0.0
  0
TEXT
  5
DFD
  8
DIM
  6
CONTINUOUS
 10
783.12079384892627
 20
319.57512956308977
 30
0.0
 40
3.0
  1
143
 50
90.0
  7
ROMANSS
 72
     1
 11
781.62079384892616
 21
323.14655813451839
 31
0.0
 73
     2
  0
TEXT
  5
DFE
  8
DIM
  6
CONTINUOUS
 10
775.12079384892638
 20
320.32762315988617
 30
0.0
 40
3.0
  1
65
 50
90.0
  7
ROMANSS
 72
     1
 11
773.6207938489265
 21
322.75619458845767
 31
0.0
 73
     2
  0
SOLID
  5
DFF
  8
DIM
  6
CONTINUOUS
 10
776.12079384892638
 20
352.70547819388281
 30
0.0
 11
777.1207938489265
 21
352.70547819388281
 31
0.0
 12
776.6207938489265
 22
355.70547819388281
 32
0.0
 13
776.6207938489265
 23
355.70547819388281
 33
0.0
  0
SOLID
  5
E00
  8
DIM
  6
CONTINUOUS
 10
776.12079384892638
 20
366.70547819388281
 30
0.0
 11
777.1207938489265
 21
366.70547819388281
 31
0.0
 12
776.6207938489265
 22
363.70547819388281
 32
0.0
 13
776.6207938489265
 23
363.70547819388281
 33
0.0
  0
LINE
  5
E01
  8
DIM
  6
CONTINUOUS
 10
767.12079384892638
 20
363.70547819388281
 30
0.0
 11
777.6207938489265
 21
363.70547819388281
 31
0.0
  0
LINE
  5
E02
  8
DIM
  6
CONTINUOUS
 10
769.6207938489265
 20
355.70547819388281
 30
0.0
 11
777.6207938489265
 21
355.70547819388281
 31
0.0
  0
TEXT
  5
E03
  8
DIM
  6
CONTINUOUS
 10
775.12079384892638
 20
276.00830208715053
 30
0.0
 40
3.0
  1
8
 50
90.0
  7
ROMANSS
 72
     1
 11
773.6207938489265
 21
277.00830208715053
 31
0.0
 73
     2
  0
SOLID
  5
E04
  8
DIM
  6
CONTINUOUS
 10
776.12079384892638
 20
293.70547819388293
 30
0.0
 11
777.1207938489265
 21
293.70547819388293
 31
0.0
 12
776.6207938489265
 22
290.70547819388293
 32
0.0
 13
776.6207938489265
 23
290.70547819388293
 33
0.0
  0
SOLID
  5
E05
  8
DIM
  6
CONTINUOUS
 10
776.12079384892638
 20
279.70547819388293
 30
0.0
 11
777.1207938489265
 21
279.70547819388293
 31
0.0
 12
776.6207938489265
 22
282.70547819388293
 32
0.0
 13
776.6207938489265
 23
282.70547819388293
 33
0.0
  0
LINE
  5
E06
  8
DIM
  6
CONTINUOUS
 10
769.6207938489265
 20
290.70547819388293
 30
0.0
 11
777.6207938489265
 21
290.70547819388293
 31
0.0
  0
LINE
  5
E07
  8
DIM
  6
CONTINUOUS
 10
767.12079384892638
 20
282.70547819388293
 30
0.0
 11
777.6207938489265
 21
282.70547819388293
 31
0.0
  0
TEXT
  5
E08
  8
DIM
  6
CONTINUOUS
 10
719.69222242035505
 20
237.2054781938829
 30
0.0
 40
3.0
  1
93
  7
ROMANSS
 72
     1
 11
722.12079384892638
 21
238.70547819388281
 31
0.0
 73
     2
  0
SOLID
  5
E09
  8
DIM
  6
CONTINUOUS
 10
765.6207938489265
 20
236.20547819388281
 30
0.0
 11
765.6207938489265
 21
235.2054781938829
 31
0.0
 12
768.6207938489265
 22
235.7054781938829
 32
0.0
 13
768.6207938489265
 23
235.7054781938829
 33
0.0
  0
LINE
  5
E0A
  8
DIM
  6
CONTINUOUS
 10
768.6207938489265
 20
289.21224787433619
 30
0.0
 11
768.6207938489265
 21
234.7054781938829
 31
0.0
  0
TEXT
  5
E0B
  8
DIM
  6
CONTINUOUS
 10
745.29936527749794
 20
245.2054781938829
 30
0.0
 40
3.0
  1
37.5
  7
ROMANSS
 72
     1
 11
749.8707938489265
 21
246.70547819388281
 31
0.0
 73
     2
  0
SOLID
  5
E0C
  8
DIM
  6
CONTINUOUS
 10
765.6207938489265
 20
244.20547819388281
 30
0.0
 11
765.6207938489265
 21
243.2054781938829
 31
0.0
 12
768.6207938489265
 22
243.7054781938829
 32
0.0
 13
768.6207938489265
 23
243.7054781938829
 33
0.0
  0
SOLID
  5
E0D
  8
DIM
  6
CONTINUOUS
 10
734.12079384892638
 20
244.20547819388281
 30
0.0
 11
734.12079384892638
 21
243.2054781938829
 31
0.0
 12
731.1207938489265
 22
243.7054781938829
 32
0.0
 13
731.1207938489265
 23
243.7054781938829
 33
0.0
  0
LINE
  5
E0E
  8
DIM
  6
CONTINUOUS
 10
703.6207938489265
 20
243.7054781938829
 30
0.0
 11
768.6207938489265
 21
243.7054781938829
 31
0.0
  0
TEXT
  5
E0F
  8
DIM
  6
CONTINUOUS
 10
712.79936527749794
 20
245.2054781938829
 30
0.0
 40
3.0
  1
27.5
  7
ROMANSS
 72
     1
 11
717.3707938489265
 21
246.70547819388281
 31
0.0
 73
     2
  0
SOLID
  5
E10
  8
DIM
  6
CONTINUOUS
 10
728.1207938489265
 20
244.20547819388281
 30
0.0
 11
728.1207938489265
 21
243.2054781938829
 31
0.0
 12
731.1207938489265
 22
243.7054781938829
 32
0.0
 13
731.1207938489265
 23
243.7054781938829
 33
0.0
  0
SOLID
  5
E11
  8
DIM
  6
CONTINUOUS
 10
706.6207938489265
 20
244.20547819388281
 30
0.0
 11
706.6207938489265
 21
243.2054781938829
 31
0.0
 12
703.6207938489265
 22
243.7054781938829
 32
0.0
 13
703.6207938489265
 23
243.7054781938829
 33
0.0
  0
LINE
  5
E12
  8
DIM
  6
CONTINUOUS
 10
731.1207938489265
 20
247.48274898669709
 30
0.0
 11
731.1207938489265
 21
242.70547819388281
 31
0.0
  0
LINE
  5
E13
  8
DIM
  6
CONTINUOUS
 10
703.62079384892638
 20
293.55827354875993
 30
0.0
 11
703.6207938489265
 21
242.70547819388281
 31
0.0
  0
LINE
  5
E14
  8
CENTER
  6
CENTER
 10
761.1207938489265
 20
346.65803239572949
 30
0.0
 11
761.1207938489265
 21
358.65803239572932
 31
0.0
  0
LINE
  5
E15
  8
CENTER
  6
CENTER
 10
701.12079384892638
 20
346.65803239572949
 30
0.0
 11
701.12079384892638
 21
358.65803239572932
 31
0.0
  0
LINE
  5
E16
  8
CENTER
  6
CENTER
 10
761.1207938489265
 20
299.75292399203641
 30
0.0
 11
761.1207938489265
 21
287.75292399203647
 31
0.0
  0
LINE
  5
E17
  8
CENTER
  6
CENTER
 10
701.12079384892638
 20
299.75292399203641
 30
0.0
 11
701.12079384892638
 21
287.75292399203647
 31
0.0
  0
LINE
  5
E18
  8
0
  6
CONTINUOUS
 10
767.12079384892638
 20
283.70547819388293
 30
0.0
 11
766.1207938489265
 21
282.70547819388293
 31
0.0
  0
LINE
  5
E19
  8
0
 10
767.12079384892638
 20
290.70547819388293
 30
0.0
 11
767.12079384892638
 21
283.70547819388293
 31
0.0
  0
LINE
  5
E1A
  8
0
  6
CONTINUOUS
 10
695.1207938489265
 20
283.70547819388293
 30
0.0
 11
696.12079384892638
 21
282.70547819388293
 31
0.0
  0
LINE
  5
E1B
  8
0
 10
695.1207938489265
 20
290.70547819388293
 30
0.0
 11
695.1207938489265
 21
283.70547819388293
 31
0.0
  0
LINE
  5
E1C
  8
0
  6
CONTINUOUS
 10
696.12079384892638
 20
282.70547819388293
 30
0.0
 11
766.1207938489265
 21
282.70547819388293
 31
0.0
  0
LINE
  5
E1D
  8
0
  6
CONTINUOUS
 10
695.1207938489265
 20
283.70547819388293
 30
0.0
 11
767.12079384892638
 21
283.70547819388293
 31
0.0
  0
LINE
  5
E1E
  8
0
 10
695.1207938489265
 20
355.70547819388298
 30
0.0
 11
695.1207938489265
 21
362.70547819388293
 31
0.0
  0
LINE
  5
E1F
  8
0
 10
767.12079384892638
 20
355.70547819388298
 30
0.0
 11
767.12079384892638
 21
362.70547819388293
 31
0.0
  0
LINE
  5
E20
  8
0
  6
CONTINUOUS
 10
767.12079384892638
 20
362.70547819388293
 30
0.0
 11
766.1207938489265
 21
363.70547819388293
 31
0.0
  0
LINE
  5
E21
  8
0
  6
CONTINUOUS
 10
695.1207938489265
 20
362.70547819388293
 30
0.0
 11
696.12079384892638
 21
363.70547819388293
 31
0.0
  0
LINE
  5
E22
  8
0
  6
CONTINUOUS
 10
695.1207938489265
 20
362.70547819388293
 30
0.0
 11
767.12079384892638
 21
362.70547819388293
 31
0.0
  0
LINE
  5
E23
  8
0
  6
CONTINUOUS
 10
696.12079384892638
 20
363.70547819388293
 30
0.0
 11
766.1207938489265
 21
363.70547819388293
 31
0.0
  0
LINE
  5
E24
  8
0
  6
CONTINUOUS
 10
721.12079384892638
 20
364.70547819388293
 30
0.0
 11
741.1207938489265
 21
364.70547819388293
 31
0.0
  0
LINE
  5
E25
  8
0
 10
741.1207938489265
 20
364.70547819388293
 30
0.0
 11
741.1207938489265
 21
363.70547819388293
 31
0.0
  0
LINE
  5
E26
  8
0
 10
721.12079384892638
 20
364.70547819388293
 30
0.0
 11
721.12079384892638
 21
363.70547819388293
 31
0.0
  0
LINE
  5
E27
  8
0
 10
768.6207938489265
 20
355.70547819388281
 30
0.0
 11
768.6207938489265
 21
290.70547819388293
 31
0.0
  0
ARC
  5
E28
  8
0
 10
718.12492632798285
 20
310.8226660583864
 30
0.0
 40
0.5
 50
224.99999999999079
 51
304.1930771251279
  0
POLYLINE
  5
E29
  8
0
 66
     1
 10
0.0
 20
0.0
 30
0.0
 70
     1
  0
VERTEX
  5
150B
  8
0
 10
719.6207938489265
 20
305.93752900145188
 30
0.0
  0
VERTEX
  5
150C
  8
0
 10
719.6207938489265
 20
302.47342738631409
 30
0.0
  0
VERTEX
  5
150D
  8
0
 10
722.6207938489265
 20
300.7413765787453
 30
0.0
  0
VERTEX
  5
150E
  8
0
 10
725.62079384892638
 20
302.47342738631409
 30
0.0
  0
VERTEX
  5
150F
  8
0
 10
725.62079384892638
 20
305.93752900145188
 30
0.0
  0
VERTEX
  5
1510
  8
0
 10
722.6207938489265
 20
307.66957980902072
 30
0.0
  0
SEQEND
  5
1511
  8
0
  0
CIRCLE
  5
E31
  8
0
 10
722.6207938489265
 20
304.20547819388293
 30
0.0
 40
5.0
  0
CIRCLE
  5
E32
  8
0
 10
722.6207938489265
 20
304.20547819388293
 30
0.0
 40
5.5
  0
CIRCLE
  5
E33
  8
0
 10
722.6207938489265
 20
342.20547819388293
 30
0.0
 40
5.0
  0
CIRCLE
  5
E34
  8
0
 10
722.6207938489265
 20
342.20547819388293
 30
0.0
 40
5.5
  0
POLYLINE
  5
E35
  8
0
 66
     1
 10
0.0
 20
0.0
 30
0.0
 70
     1
  0
VERTEX
  5
1512
  8
0
 10
719.6207938489265
 20
343.93752900145188
 30
0.0
  0
VERTEX
  5
1513
  8
0
 10
719.6207938489265
 20
340.47342738631409
 30
0.0
  0
VERTEX
  5
1514
  8
0
 10
722.6207938489265
 20
338.7413765787453
 30
0.0
  0
VERTEX
  5
1515
  8
0
 10
725.62079384892638
 20
340.47342738631409
 30
0.0
  0
VERTEX
  5
1516
  8
0
 10
725.62079384892638
 20
343.93752900145188
 30
0.0
  0
VERTEX
  5
1517
  8
0
 10
722.6207938489265
 20
345.66957980902072
 30
0.0
  0
SEQEND
  5
1518
  8
0
  0
ARC
  5
E3D
  8
0
 10
712.62079384892638
 20
345.70547819388293
 30
0.0
 40
1.0
 50
90.0
 51
180.0
  0
ARC
  5
E3E
  8
0
 10
714.87482715651117
 20
345.70547819388293
 30
0.0
 40
1.0
 50
335.6842608288103
 51
90.0
  0
ARC
  5
E3F
  8
0
 10
716.00360598442296
 20
337.70961067293928
 30
0.0
 40
0.5
 50
314.99999999999068
 51
34.193077125151397
  0
LINE
  5
E40
  8
0
 10
715.95209187814487
 20
336.95098978547458
 30
0.0
 11
716.35715937501629
 21
337.35605728234611
 31
0.0
  0
ARC
  5
E41
  8
0
 10
712.62079384892638
 20
339.9386787245644
 30
0.0
 40
1.0
 50
180.0
 51
241.72628636862439
  0
ARC
  5
E42
  8
0
 10
715.59853848755188
 20
337.30454317606802
 30
0.0
 40
0.5
 50
229.65070900488701
 51
314.99999999999068
  0
LINE
  5
E43
  8
0
 10
711.6207938489265
 20
345.70547819388293
 30
0.0
 11
711.6207938489265
 21
339.9386787245644
 31
0.0
  0
ARC
  5
E44
  8
0
 10
722.6207938489265
 20
342.20547819388293
 30
0.0
 40
7.5
 50
155.6842608288261
 51
214.1930771251393
  0
ARC
  5
E45
  8
0
 10
705.6207938489265
 20
345.70547819388293
 30
0.0
 40
1.0
 50
90.0
 51
180.0
  0
ARC
  5
E46
  8
0
 10
701.6207938489265
 20
345.70547819388293
 30
0.0
 40
1.0
 50
0.0
 51
90.0
  0
ARC
  5
E47
  8
0
 10
705.6207938489265
 20
342.09992182157401
 30
0.0
 40
1.0
 50
180.0
 51
263.95767158094242
  0
ARC
  5
E48
  8
0
 10
701.6207938489265
 20
342.09992182157401
 30
0.0
 40
1.0
 50
276.04232841905753
 51
0.0
  0
LINE
  5
E49
  8
0
 10
704.62079384892638
 20
345.70547819388293
 30
0.0
 11
704.62079384892638
 21
342.09992182157401
 31
0.0
  0
LINE
  5
E4A
  8
0
 10
702.6207938489265
 20
345.70547819388293
 30
0.0
 11
702.6207938489265
 21
342.09992182157401
 31
0.0
  0
ARC
  5
E4B
  8
0
 10
703.6207938489265
 20
323.20547819388293
 30
0.0
 40
17.999999999999972
 50
49.650709004879928
 51
83.957671580946055
  0
LINE
  5
E4C
  8
0
 10
705.6207938489265
 20
346.70547819388293
 30
0.0
 11
714.87482715651117
 21
346.70547819388293
 31
0.0
  0
LINE
  5
E4D
  8
CENTER
  6
CENTER
 10
716.1207938489265
 20
342.20547819388293
 30
0.0
 11
729.12079384892638
 21
342.20547819388293
 31
0.0
  0
ARC
  5
E4E
  8
0
 10
726.12079384892638
 20
332.20547819388293
 30
0.0
 40
1.0
 50
270.0
 51
0.0
  0
ARC
  5
E4F
  8
0
 10
726.12079384892638
 20
334.45951150146772
 30
0.0
 40
1.0
 50
0.0
 51
114.3157391711956
  0
LINE
  5
E50
  8
0
 10
726.12079384892638
 20
324.20547819388293
 30
0.0
 11
722.51523747661747
 21
324.20547819388293
 31
0.0
  0
LINE
  5
E51
  8
0
 10
726.12079384892638
 20
322.20547819388298
 30
0.0
 11
722.51523747661747
 21
322.20547819388298
 31
0.0
  0
ARC
  5
E52
  8
0
 10
726.12079384892638
 20
325.20547819388293
 30
0.0
 40
1.0
 50
270.0
 51
0.0
  0
ARC
  5
E53
  8
0
 10
726.12079384892638
 20
321.20547819388293
 30
0.0
 40
1.0
 50
0.0
 51
90.0
  0
LINE
  5
E54
  8
0
 10
727.1207938489265
 20
325.20547819388293
 30
0.0
 11
727.1207938489265
 21
334.45951150146772
 31
0.0
  0
ARC
  5
E55
  8
0
 10
726.12079384892638
 20
314.20547819388298
 30
0.0
 40
1.0
 50
0.0
 51
90.0
  0
ARC
  5
E56
  8
0
 10
726.12079384892638
 20
311.95144488629819
 30
0.0
 40
1.0
 50
245.6842608288043
 51
0.0
  0
LINE
  5
E57
  8
0
 10
727.1207938489265
 20
321.20547819388293
 30
0.0
 11
727.1207938489265
 21
311.95144488629819
 31
0.0
  0
ARC
  5
E58
  8
0
 10
718.12492632798285
 20
335.58829032937962
 30
0.0
 40
0.5
 50
55.806922874872079
 51
135.00000000000921
  0
ARC
  5
E59
  8
0
 10
717.71985883111142
 20
335.18322283250831
 30
0.0
 40
0.5
 50
135.00000000000921
 51
220.34929099511791
  0
ARC
  5
E5A
  8
0
 10
720.35399437960791
 20
332.20547819388293
 30
0.0
 40
1.0
 50
208.2737136313682
 51
270.0
  0
LINE
  5
E5B
  8
0
 10
717.36630544051809
 20
335.53677622310153
 30
0.0
 11
717.77137293738951
 21
335.94184371997289
 31
0.0
  0
ARC
  5
E5C
  8
0
 10
720.35399437960791
 20
314.20547819388298
 30
0.0
 40
1.0
 50
90.0
 51
151.72628636863169
  0
ARC
  5
E5D
  8
0
 10
716.00360598442296
 20
308.70134571482657
 30
0.0
 40
0.5
 50
325.80692287484851
 51
45.000000000009209
  0
LINE
  5
E5E
  8
0
 10
715.95209187814487
 20
309.4599666022911
 30
0.0
 11
716.35715937501629
 21
309.05489910541979
 31
0.0
  0
LINE
  5
E5F
  8
0
 10
717.36630544051809
 20
310.87418016466432
 30
0.0
 11
717.77137293738951
 21
310.46911266779301
 31
0.0
  0
ARC
  5
E60
  8
0
 10
718.12492632798285
 20
310.82266605838618
 30
0.0
 40
0.5
 50
224.99999999999079
 51
304.1930771251279
  0
ARC
  5
E61
  8
0
 10
717.71985883111142
 20
311.2277335552576
 30
0.0
 40
0.5
 50
139.65070900488209
 51
224.99999999999079
  0
ARC
  5
E62
  8
0
 10
712.62079384892638
 20
306.47227766320151
 30
0.0
 40
1.0
 50
118.2737136313755
 51
180.0
  0
ARC
  5
E63
  8
0
 10
715.59853848755188
 20
309.10641321169788
 30
0.0
 40
0.5
 50
45.000000000009209
 51
130.34929099511291
  0
ARC
  5
E64
  8
0
 10
705.6207938489265
 20
304.31103456619189
 30
0.0
 40
1.0
 50
96.042328419057512
 51
180.0
  0
ARC
  5
E65
  8
0
 10
701.6207938489265
 20
304.31103456619189
 30
0.0
 40
1.0
 50
0.0
 51
83.957671580942474
  0
ARC
  5
E66
  8
0
 10
703.6207938489265
 20
323.20547819388293
 30
0.0
 40
17.999999999999972
 50
276.04232841905389
 51
310.34929099511999
  0
ARC
  5
E67
  8
0
 10
703.6207938489265
 20
323.20547819388293
 30
0.0
 40
17.999999999999972
 50
319.65070900488001
 51
353.957671580946
  0
LINE
  5
E68
  8
0
 10
726.12079384892638
 20
315.20547819388293
 30
0.0
 11
720.35399437960791
 21
315.20547819388293
 31
0.0
  0
LINE
  5
E69
  8
CENTER
  6
CENTER
 10
716.1207938489265
 20
304.20547819388293
 30
0.0
 11
729.12079384892638
 21
304.20547819388293
 31
0.0
  0
ARC
  5
E6A
  8
0
 10
722.6207938489265
 20
304.20547819388293
 30
0.0
 40
7.5
 50
65.684260828827945
 51
124.1930771251406
  0
ARC
  5
E6B
  8
0
 10
722.51523747661747
 20
325.20547819388293
 30
0.0
 40
1.0
 50
186.04232841905389
 51
270.0
  0
ARC
  5
E6C
  8
0
 10
703.6207938489265
 20
323.20547819388293
 30
0.0
 40
17.999999999999972
 50
6.0423284190541056
 51
40.349290995120072
  0
ARC
  5
E6D
  8
0
 10
722.51523747661747
 20
321.20547819388293
 30
0.0
 40
1.0
 50
90.0
 51
173.957671580946
  0
LINE
  5
E6E
  8
0
 10
726.12079384892638
 20
331.20547819388293
 30
0.0
 11
720.35399437960791
 21
331.20547819388293
 31
0.0
  0
ARC
  5
E6F
  8
0
 10
722.6207938489265
 20
342.20547819388293
 30
0.0
 40
7.5
 50
235.80692287485931
 51
294.31573917117379
  0
LINE
  5
E70
  8
CENTER
  6
CENTER
 10
722.6207938489265
 20
348.70547819388293
 30
0.0
 11
722.6207938489265
 21
335.70547819388293
 31
0.0
  0
ARC
  5
E71
  8
0
 10
694.6207938489265
 20
345.70547819388293
 30
0.0
 40
1.0
 50
0.0
 51
90.0
  0
ARC
  5
E72
  8
0
 10
692.36676054134159
 20
345.70547819388293
 30
0.0
 40
1.0
 50
90.0
 51
204.31573917118391
  0
ARC
  5
E73
  8
0
 10
694.6207938489265
 20
339.9386787245644
 30
0.0
 40
1.0
 50
298.27371363136092
 51
0.0
  0
ARC
  5
E74
  8
0
 10
691.643049210301
 20
337.30454317606802
 30
0.0
 40
0.5
 50
224.99999999999079
 51
310.34929099511288
  0
LINE
  5
E75
  8
0
 10
691.28949581970767
 20
336.95098978547458
 30
0.0
 11
690.88442832283658
 21
337.35605728234611
 31
0.0
  0
ARC
  5
E76
  8
0
 10
691.23798171342958
 20
337.70961067293928
 30
0.0
 40
0.5
 50
145.8069228748613
 51
224.99999999999079
  0
LINE
  5
E77
  8
0
 10
695.62079384892638
 20
345.70547819388293
 30
0.0
 11
695.62079384892638
 21
339.9386787245644
 31
0.0
  0
ARC
  5
E78
  8
0
 10
684.62079384892638
 20
342.20547819388293
 30
0.0
 40
7.5
 50
325.80692287485988
 51
24.315739171172272
  0
ARC
  5
E79
  8
0
 10
689.11666136986992
 20
335.5882903293795
 30
0.0
 40
0.5
 50
45.000000000004597
 51
124.1930771251568
  0
ARC
  5
E7A
  8
0
 10
689.52172886674134
 20
335.18322283250819
 30
0.0
 40
0.5
 50
319.6507090048687
 51
44.999999999990777
  0
LINE
  5
E7B
  8
0
 10
689.87528225733467
 20
335.53677622310141
 30
0.0
 11
689.47021476046325
 21
335.94184371997289
 31
0.0
  0
ARC
  5
E7C
  8
0
 10
684.72635022123541
 20
325.20547819388281
 30
0.0
 40
1.0
 50
270.0
 51
353.957671580946
  0
ARC
  5
E7D
  8
0
 10
684.72635022123541
 20
321.20547819388293
 30
0.0
 40
1.0
 50
6.042328419053943
 51
90.0
  0
ARC
  5
E7E
  8
0
 10
703.6207938489265
 20
323.20547819388293
 30
0.0
 40
17.999999999999972
 50
139.6507090048799
 51
173.957671580946
  0
ARC
  5
E7F
  8
0
 10
694.6207938489265
 20
306.47227766320151
 30
0.0
 40
1.0
 50
0.0
 51
61.726286368639009
  0
ARC
  5
E80
  8
0
 10
691.643049210301
 20
309.10641321169788
 30
0.0
 40
0.5
 50
49.650709004887069
 51
135.00000000000921
  0
LINE
  5
E81
  8
0
 10
691.28949581970767
 20
309.4599666022911
 30
0.0
 11
690.88442832283658
 21
309.05489910541979
 31
0.0
  0
LINE
  5
E82
  8
0
 10
689.87528225733467
 20
310.87418016466432
 30
0.0
 11
689.47021476046325
 21
310.4691126677929
 31
0.0
  0
ARC
  5
E83
  8
0
 10
689.52172886674134
 20
311.2277335552576
 30
0.0
 40
0.5
 50
315.00000000000921
 51
40.349290995131291
  0
ARC
  5
E84
  8
0
 10
689.11666136986992
 20
310.82266605838618
 30
0.0
 40
0.5
 50
235.8069228748432
 51
314.9999999999954
  0
ARC
  5
E85
  8
0
 10
691.23798171342958
 20
308.70134571482657
 30
0.0
 40
0.5
 50
135.00000000000921
 51
214.1930771251387
  0
ARC
  5
E86
  8
0
 10
685.58984564158777
 20
317.2150769765795
 30
0.0
 40
1.0
 50
18.377976039593509
 51
90.0
  0
ARC
  5
E87
  8
0
 10
703.6207938489265
 20
323.20547819388293
 30
0.0
 40
17.999999999999972
 50
186.04232841905409
 51
220.34929099511999
  0
LINE
  5
E88
  8
CENTER
  6
CENTER
 10
684.62079384892638
 20
348.70547819388293
 30
0.0
 11
684.62079384892638
 21
335.70547819388293
 31
0.0
  0
ARC
  5
E89
  8
0
 10
703.6207938489265
 20
323.20547819388293
 30
0.0
 40
17.999999999999972
 50
96.042328419053931
 51
130.34929099511999
  0
LINE
  5
E8A
  8
0
 10
701.6207938489265
 20
346.70547819388293
 30
0.0
 11
692.36676054134159
 21
346.70547819388293
 31
0.0
  0
ARC
  5
E8B
  8
0
 10
703.6207938489265
 20
323.20547819388293
 30
0.0
 40
17.999999999999972
 50
229.6507090048799
 51
263.957671580946
  0
CIRCLE
  5
E8C
  8
0
 10
703.6207938489265
 20
323.20547819388293
 30
0.0
 40
17.499999999999972
  0
ARC
  5
E8D
  8
0
 10
712.62079384892638
 20
300.70547819388293
 30
0.0
 40
1.0
 50
180.0
 51
270.0
  0
ARC
  5
E8E
  8
0
 10
714.87482715651117
 20
300.70547819388293
 30
0.0
 40
1.0
 50
270.0
 51
24.315739171186699
  0
ARC
  5
E8F
  8
0
 10
705.6207938489265
 20
300.70547819388293
 30
0.0
 40
1.0
 50
180.0
 51
270.0
  0
ARC
  5
E90
  8
0
 10
701.6207938489265
 20
300.70547819388293
 30
0.0
 40
1.0
 50
270.0
 51
0.0
  0
LINE
  5
E91
  8
0
 10
705.6207938489265
 20
299.70547819388298
 30
0.0
 11
714.87482715651117
 21
299.70547819388298
 31
0.0
  0
ARC
  5
E92
  8
0
 10
694.6207938489265
 20
300.70547819388293
 30
0.0
 40
1.0
 50
270.0
 51
0.0
  0
ARC
  5
E93
  8
0
 10
692.36676054134159
 20
300.70547819388293
 30
0.0
 40
1.0
 50
155.68426082881601
 51
270.0
  0
LINE
  5
E94
  8
0
 10
701.6207938489265
 20
299.70547819388298
 30
0.0
 11
692.36676054134159
 21
299.70547819388298
 31
0.0
  0
ARC
  5
E95
  8
0
 10
684.62079384892638
 20
304.20547819388293
 30
0.0
 40
7.5
 50
335.68426082882962
 51
34.19307712514005
  0
LINE
  5
E96
  8
0
 10
695.62079384892638
 20
300.70547819388293
 30
0.0
 11
695.62079384892638
 21
306.47227766320151
 31
0.0
  0
LINE
  5
E97
  8
CENTER
  6
CENTER
 10
684.62079384892638
 20
310.70547819388293
 30
0.0
 11
684.62079384892638
 21
297.70547819388293
 31
0.0
  0
LINE
  5
E98
  8
CENTER
  6
CENTER
 10
703.6207938489265
 20
351.20547819388293
 30
0.0
 11
703.6207938489265
 21
295.20547819388293
 31
0.0
  0
ARC
  5
E99
  8
0
 10
722.6207938489265
 20
304.20547819388293
 30
0.0
 40
7.5
 50
145.80692287486059
 51
204.3157391711718
  0
LINE
  5
E9A
  8
0
 10
711.6207938489265
 20
300.70547819388293
 30
0.0
 11
711.6207938489265
 21
306.47227766320151
 31
0.0
  0
LINE
  5
E9B
  8
0
 10
702.6207938489265
 20
300.70547819388293
 30
0.0
 11
702.6207938489265
 21
304.31103456619189
 31
0.0
  0
LINE
  5
E9C
  8
0
 10
704.62079384892638
 20
300.70547819388293
 30
0.0
 11
704.62079384892638
 21
304.31103456619189
 31
0.0
  0
LINE
  5
E9D
  8
CENTER
  6
CENTER
 10
722.6207938489265
 20
310.70547819388293
 30
0.0
 11
722.6207938489265
 21
297.70547819388293
 31
0.0
  0
LINE
  5
E9E
  8
DIM
  6
CONTINUOUS
 10
493.26071555780862
 20
518.56309722127173
 30
0.0
 11
547.48333869072144
 21
518.56309722127173
 31
0.0
  0
LINE
  5
E9F
  8
DIM
  6
CONTINUOUS
 10
493.26071555780862
 20
458.56309722127168
 30
0.0
 11
547.48333869072144
 21
458.56309722127168
 31
0.0
  0
LINE
  5
EA0
  8
0
 10
493.76071555780851
 20
436.86309722127169
 30
0.0
 11
589.26071555780868
 21
436.86309722127169
 31
0.0
  0
LINE
  5
EA1
  8
0
 10
493.76071555780862
 20
449.26087291862001
 30
0.0
 11
589.26071555780868
 21
449.26087291862001
 31
0.0
  0
LINE
  5
EA2
  8
0
 10
493.76071555780862
 20
485.26309722127172
 30
0.0
 11
589.26071555780868
 21
485.26309722127172
 31
0.0
  0
LINE
  5
EA3
  8
0
 10
493.76071555780862
 20
472.86532152392363
 30
0.0
 11
589.26071555780868
 21
472.86532152392363
 31
0.0
  0
CIRCLE
  5
EA4
  8
0
  6
CONTINUOUS
 10
456.26071555780862
 20
488.56309722127168
 30
0.0
 40
35.0
  0
POLYLINE
  5
EA5
  8
0
  6
CONTINUOUS
 66
     1
 10
0.0
 20
0.0
 30
0.0
  0
VERTEX
  5
1519
  8
0
  6
CONTINUOUS
 10
474.76071555780862
 20
428.06309722127168
 30
0.0
 42
0.0851703918331037
  0
VERTEX
  5
151A
  8
0
  6
CONTINUOUS
 10
478.76071555780851
 20
428.75109722127178
 30
0.0
 42
0.3457679526359281
  0
VERTEX
  5
151B
  8
0
  6
CONTINUOUS
 10
481.6607155578082
 20
428.40951754459689
 30
0.0
  0
SEQEND
  5
151C
  8
0
  6
CONTINUOUS
  0
LINE
  5
EAA
  8
0
  6
CONTINUOUS
 10
478.76071555780851
 20
426.2630972212724
 30
0.0
 11
477.5607155578079
 21
425.06309722127168
 31
0.0
  0
LINE
  5
EAB
  8
0
  6
CONTINUOUS
 10
470.76071555780862
 20
426.2630972212724
 30
0.0
 11
478.76071555780851
 21
426.2630972212724
 31
0.0
  0
LINE
  5
EAC
  8
0
  6
CONTINUOUS
 10
468.46071555780929
 20
428.06309722127168
 30
0.0
 11
481.0607155578079
 21
428.06309722127168
 31
0.0
  0
POLYLINE
  5
EAD
  8
0
  6
CONTINUOUS
 66
     1
 10
0.0
 20
0.0
 30
0.0
  0
VERTEX
  5
151D
  8
0
  6
CONTINUOUS
 10
474.76071555780862
 20
433.06309722127168
 30
0.0
 42
-0.0851703918331037
  0
VERTEX
  5
151E
  8
0
  6
CONTINUOUS
 10
478.76071555780862
 20
432.37509722127157
 30
0.0
 42
-0.3457679526359281
  0
VERTEX
  5
151F
  8
0
  6
CONTINUOUS
 10
481.66071555780832
 20
432.71667689794651
 30
0.0
  0
SEQEND
  5
1520
  8
0
  6
CONTINUOUS
  0
LINE
  5
EB2
  8
DIM
  6
CONTINUOUS
 10
461.54648921482482
 20
490.0578394200291
 30
0.0
 11
522.81437052373053
 21
504.38488887863349
 31
0.0
  0
LINE
  5
EB3
  8
CENTER
  6
CENTER
 10
473.19592296722652
 20
471.62788981185389
 30
0.0
 11
481.75191501958358
 21
463.07189775949661
 31
0.0
  0
CIRCLE
  5
EB4
  8
0
  6
CONTINUOUS
 10
477.47391899340499
 20
467.34989378567519
 30
0.0
 40
2.0499999999999989
  0
ARC
  5
EB5
  8
0
  6
CONTINUOUS
 62
     2
 10
477.47391899340499
 20
467.34989378567519
 30
0.0
 40
2.5
 50
204.98154856581149
 51
158.9636414602291
  0
CIRCLE
  5
EB6
  8
CENTER
  6
CENTER
 10
456.26071555780862
 20
488.56309722127168
 30
0.0
 40
30.0
  0
ARC
  5
EB7
  8
DIM
  6
CONTINUOUS
 10
456.26071555780868
 20
488.56309722127168
 30
0.0
 40
63.623948991042731
 50
0.0
 51
177.29813586581719
  0
LINE
  5
EB8
  8
DIM
  6
CONTINUOUS
 10
429.26071555780862
 20
534.06309722127162
 30
0.0
 11
483.26071555780862
 21
534.06309722127162
 31
0.0
  0
LINE
  5
EB9
  8
0
 10
418.76071555780862
 20
433.06309722127168
 30
0.0
 11
493.76071555780862
 21
433.06309722127168
 31
0.0
  0
LINE
  5
EBA
  8
0
 10
418.76071555780868
 20
526.06309722127162
 30
0.0
 11
493.76071555780862
 21
526.06309722127162
 31
0.0
  0
LINE
  5
EBB
  8
CENTER
  6
CENTER
 10
418.76071555780862
 20
488.56309722127168
 30
0.0
 11
493.76071555780862
 21
488.56309722127168
 31
0.0
  0
CIRCLE
  5
EBC
  8
0
  6
CONTINUOUS
 10
456.26071555780862
 20
488.56309722127168
 30
0.0
 40
36.0
  0
LINE
  5
EBD
  8
0
  6
CONTINUOUS
 62
     2
 10
477.96071555780929
 20
428.06309722127168
 30
0.0
 11
477.96071555780929
 21
425.46309722127319
 31
0.0
  0
LINE
  5
EBE
  8
0
  6
CONTINUOUS
 10
467.26071555780862
 20
428.75593786792223
 30
0.0
 11
468.46071555780929
 21
428.06309722127168
 31
0.0
  0
POLYLINE
  5
EBF
  8
0
  6
CONTINUOUS
 66
     1
 10
0.0
 20
0.0
 30
0.0
  0
VERTEX
  5
1521
  8
0
  6
CONTINUOUS
 10
474.76071555780862
 20
428.06309722127168
 30
0.0
 42
-0.0851703918331037
  0
VERTEX
  5
1522
  8
0
  6
CONTINUOUS
 10
470.76071555780862
 20
428.75109722127178
 30
0.0
 42
-0.3457679526359281
  0
VERTEX
  5
1523
  8
0
  6
CONTINUOUS
 10
467.86071555780899
 20
428.40951754459689
 30
0.0
  0
SEQEND
  5
1524
  8
0
  6
CONTINUOUS
  0
LINE
  5
EC4
  8
CENTER
  6
CENTER
 10
474.76071555780862
 20
449.31954955421969
 30
0.0
 11
474.76071555780862
 21
422.06309722127168
 31
0.0
  0
LINE
  5
EC5
  8
0
  6
CONTINUOUS
 10
470.76071555780862
 20
426.2630972212724
 30
0.0
 11
471.96071555780929
 21
425.06309722127168
 31
0.0
  0
LINE
  5
EC6
  8
0
  6
CONTINUOUS
 10
471.96071555780929
 20
425.06309722127168
 30
0.0
 11
477.56071555780778
 21
425.06309722127168
 31
0.0
  0
LINE
  5
EC7
  8
0
  6
CONTINUOUS
 10
470.76071555780862
 20
428.06309722127168
 30
0.0
 11
470.76071555780862
 21
426.2630972212724
 31
0.0
  0
LINE
  5
EC8
  8
0
  6
CONTINUOUS
 62
     2
 10
471.56071555780778
 20
428.06309722127168
 30
0.0
 11
471.56071555780778
 21
425.46309722127319
 31
0.0
  0
LINE
  5
EC9
  8
0
  6
CONTINUOUS
 10
467.26071555780862
 20
432.37025657462129
 30
0.0
 11
468.46071555780941
 21
433.06309722127168
 31
0.0
  0
POLYLINE
  5
ECA
  8
0
  6
CONTINUOUS
 66
     1
 10
0.0
 20
0.0
 30
0.0
  0
VERTEX
  5
1525
  8
0
  6
CONTINUOUS
 10
474.76071555780862
 20
433.06309722127168
 30
0.0
 42
0.0851703918331037
  0
VERTEX
  5
1526
  8
0
  6
CONTINUOUS
 10
470.76071555780862
 20
432.37509722127157
 30
0.0
 42
0.3457679526359281
  0
VERTEX
  5
1527
  8
0
  6
CONTINUOUS
 10
467.86071555780899
 20
432.71667689794651
 30
0.0
  0
SEQEND
  5
1528
  8
0
  6
CONTINUOUS
  0
LINE
  5
ECF
  8
0
  6
CONTINUOUS
 10
470.76071555780862
 20
432.37509722127169
 30
0.0
 11
470.76071555780862
 21
428.75109722127178
 31
0.0
  0
LINE
  5
ED0
  8
0
  6
CONTINUOUS
 10
467.26071555780862
 20
432.37025657462129
 30
0.0
 11
467.26071555780862
 21
428.75593786792223
 31
0.0
  0
SOLID
  5
ED1
  8
DIM
  6
CONTINUOUS
 10
461.66033921793229
 20
489.57097375396461
 30
0.0
 11
461.43263921171751
 21
490.5447050860937
 31
0.0
 12
458.62529521843783
 22
489.37473940138472
 32
0.0
 13
458.62529521843783
 23
489.37473940138472
 33
0.0
  0
LINE
  5
ED2
  8
0
  6
CONTINUOUS
 10
430.26071555780851
 20
432.37025657462129
 30
0.0
 11
431.46071555780929
 21
433.06309722127168
 31
0.0
  0
LINE
  5
ED3
  8
0
  6
CONTINUOUS
 10
445.26071555780851
 20
432.37025657462129
 30
0.0
 11
444.06071555780778
 21
433.06309722127168
 31
0.0
  0
POLYLINE
  5
ED4
  8
0
  6
CONTINUOUS
 66
     1
 10
0.0
 20
0.0
 30
0.0
  0
VERTEX
  5
1529
  8
0
  6
CONTINUOUS
 10
437.76071555780851
 20
433.06309722127168
 30
0.0
 42
-0.0851703918331037
  0
VERTEX
  5
152A
  8
0
  6
CONTINUOUS
 10
441.76071555780851
 20
432.37509722127157
 30
0.0
 42
-0.3457679526359281
  0
VERTEX
  5
152B
  8
0
  6
CONTINUOUS
 10
444.6607155578082
 20
432.71667689794651
 30
0.0
  0
SEQEND
  5
152C
  8
0
  6
CONTINUOUS
  0
POLYLINE
  5
ED9
  8
0
  6
CONTINUOUS
 66
     1
 10
0.0
 20
0.0
 30
0.0
  0
VERTEX
  5
152D
  8
0
  6
CONTINUOUS
 10
437.76071555780851
 20
433.06309722127168
 30
0.0
 42
0.0851703918331037
  0
VERTEX
  5
152E
  8
0
  6
CONTINUOUS
 10
433.76071555780851
 20
432.37509722127157
 30
0.0
 42
0.3457679526359281
  0
VERTEX
  5
152F
  8
0
  6
CONTINUOUS
 10
430.86071555780887
 20
432.71667689794651
 30
0.0
  0
SEQEND
  5
1530
  8
0
  6
CONTINUOUS
  0
LINE
  5
EDE
  8
0
  6
CONTINUOUS
 10
433.76071555780862
 20
426.2630972212724
 30
0.0
 11
434.96071555780929
 21
425.06309722127168
 31
0.0
  0
LINE
  5
EDF
  8
0
  6
CONTINUOUS
 10
433.76071555780851
 20
428.06309722127168
 30
0.0
 11
433.76071555780862
 21
426.2630972212724
 31
0.0
  0
LINE
  5
EE0
  8
0
  6
CONTINUOUS
 10
440.5607155578079
 20
425.06309722127168
 30
0.0
 11
434.96071555780941
 21
425.06309722127168
 31
0.0
  0
LINE
  5
EE1
  8
0
  6
CONTINUOUS
 10
441.76071555780862
 20
426.2630972212724
 30
0.0
 11
440.5607155578079
 21
425.06309722127168
 31
0.0
  0
LINE
  5
EE2
  8
0
  6
CONTINUOUS
 10
441.76071555780862
 20
428.06309722127168
 30
0.0
 11
441.76071555780862
 21
426.2630972212724
 31
0.0
  0
LINE
  5
EE3
  8
0
  6
CONTINUOUS
 10
444.0607155578079
 20
428.06309722127168
 30
0.0
 11
431.46071555780929
 21
428.06309722127168
 31
0.0
  0
LINE
  5
EE4
  8
0
  6
CONTINUOUS
 10
445.26071555780851
 20
428.75593786792223
 30
0.0
 11
444.0607155578079
 21
428.06309722127168
 31
0.0
  0
LINE
  5
EE5
  8
0
  6
CONTINUOUS
 10
445.26071555780851
 20
432.37025657462129
 30
0.0
 11
445.26071555780851
 21
428.75593786792223
 31
0.0
  0
LINE
  5
EE6
  8
0
  6
CONTINUOUS
 10
430.26071555780862
 20
428.75593786792223
 30
0.0
 11
431.46071555780941
 21
428.06309722127168
 31
0.0
  0
LINE
  5
EE7
  8
0
  6
CONTINUOUS
 10
430.26071555780862
 20
432.37025657462129
 30
0.0
 11
430.26071555780862
 21
428.75593786792223
 31
0.0
  0
LINE
  5
EE8
  8
0
  6
CONTINUOUS
 62
     2
 10
434.56071555780778
 20
428.06309722127168
 30
0.0
 11
434.56071555780778
 21
425.46309722127319
 31
0.0
  0
POLYLINE
  5
EE9
  8
0
  6
CONTINUOUS
 66
     1
 10
0.0
 20
0.0
 30
0.0
  0
VERTEX
  5
1531
  8
0
  6
CONTINUOUS
 10
437.76071555780862
 20
428.06309722127168
 30
0.0
 42
-0.0851703918331037
  0
VERTEX
  5
1532
  8
0
  6
CONTINUOUS
 10
433.76071555780862
 20
428.75109722127178
 30
0.0
 42
-0.3457679526359281
  0
VERTEX
  5
1533
  8
0
  6
CONTINUOUS
 10
430.86071555780899
 20
428.40951754459689
 30
0.0
  0
SEQEND
  5
1534
  8
0
  6
CONTINUOUS
  0
LINE
  5
EEE
  8
0
  6
CONTINUOUS
 10
433.76071555780862
 20
432.37509722127157
 30
0.0
 11
433.76071555780862
 21
428.75109722127178
 31
0.0
  0
LINE
  5
EEF
  8
0
  6
CONTINUOUS
 62
     2
 10
440.96071555780929
 20
428.06309722127168
 30
0.0
 11
440.96071555780929
 21
425.46309722127319
 31
0.0
  0
LINE
  5
EF0
  8
0
  6
CONTINUOUS
 10
441.76071555780862
 20
426.2630972212724
 30
0.0
 11
433.76071555780862
 21
426.2630972212724
 31
0.0
  0
POLYLINE
  5
EF1
  8
0
  6
CONTINUOUS
 66
     1
 10
0.0
 20
0.0
 30
0.0
  0
VERTEX
  5
1535
  8
0
  6
CONTINUOUS
 10
437.76071555780862
 20
428.06309722127168
 30
0.0
 42
0.0851703918331037
  0
VERTEX
  5
1536
  8
0
  6
CONTINUOUS
 10
441.76071555780862
 20
428.75109722127178
 30
0.0
 42
0.3457679526359281
  0
VERTEX
  5
1537
  8
0
  6
CONTINUOUS
 10
444.66071555780832
 20
428.40951754459689
 30
0.0
  0
SEQEND
  5
1538
  8
0
  6
CONTINUOUS
  0
LINE
  5
EF6
  8
0
  6
CONTINUOUS
 10
441.76071555780862
 20
432.37509722127169
 30
0.0
 11
441.76071555780862
 21
428.75109722127178
 31
0.0
  0
CIRCLE
  5
EF7
  8
0
  6
CONTINUOUS
 10
435.0475121222122
 20
509.7763006568681
 30
0.0
 40
2.0499999999999989
  0
ARC
  5
EF8
  8
0
  6
CONTINUOUS
 62
     2
 10
435.04751212221203
 20
509.77630065686799
 30
0.0
 40
2.5
 50
204.98154856581149
 51
158.9636414602291
  0
LINE
  5
EF9
  8
CENTER
  6
CENTER
 10
430.80487143509282
 20
514.01894134398742
 30
0.0
 11
439.64370619992468
 21
505.18010657915568
 31
0.0
  0
LINE
  5
EFA
  8
CENTER
  6
CENTER
 10
437.76071555780862
 20
449.31954955421969
 30
0.0
 11
437.76071555780862
 21
422.06309722127168
 31
0.0
  0
TEXT
  5
EFB
  8
DIM
  6
CONTINUOUS
 10
453.11785841495151
 20
412.20547819388293
 30
0.0
 40
3.0
  1
18
  7
ROMANSS
 72
     1
 11
455.26071555780862
 21
413.70547819388298
 31
0.0
 73
     2
  0
SOLID
  5
EFC
  8
DIM
  6
CONTINUOUS
 10
449.26071555780851
 20
411.20547819388293
 30
0.0
 11
449.26071555780851
 21
410.20547819388293
 31
0.0
 12
446.26071555780862
 22
410.70547819388293
 32
0.0
 13
446.26071555780862
 23
410.70547819388293
 33
0.0
  0
SOLID
  5
EFD
  8
DIM
  6
CONTINUOUS
 10
461.26071555780862
 20
411.20547819388293
 30
0.0
 11
461.26071555780862
 21
410.20547819388293
 31
0.0
 12
464.26071555780868
 22
410.70547819388293
 32
0.0
 13
464.26071555780868
 23
410.70547819388293
 33
0.0
  0
LINE
  5
EFE
  8
DIM
  6
CONTINUOUS
 10
461.26071555780862
 20
410.70547819388293
 30
0.0
 11
449.26071555780851
 21
410.70547819388293
 31
0.0
  0
LINE
  5
EFF
  8
DIM
  6
CONTINUOUS
 10
446.26071555780862
 20
393.20547819388298
 30
0.0
 11
446.26071555780862
 21
411.70547819388293
 31
0.0
  0
LINE
  5
F00
  8
DIM
  6
CONTINUOUS
 10
464.26071555780868
 20
394.70547819388293
 30
0.0
 11
464.26071555780868
 21
411.70547819388293
 31
0.0
  0
TEXT
  5
F01
  8
DIM
  6
CONTINUOUS
 10
449.83924104380208
 20
404.20547819388293
 30
0.0
 40
3.0
  1
%%c16h6
  7
ROMANSS
 72
     1
 11
456.05352675808791
 21
405.70547819388298
 31
0.0
 73
     2
  0
LINE
  5
F02
  8
DIM
  6
CONTINUOUS
 10
464.26071555780868
 20
402.70547819388293
 30
0.0
 11
448.26071555780862
 21
402.70547819388293
 31
0.0
  0
SOLID
  5
F03
  8
DIM
  6
CONTINUOUS
 10
451.26071555780851
 20
403.20547819388293
 30
0.0
 11
451.26071555780851
 21
402.20547819388293
 31
0.0
 12
448.26071555780862
 22
402.70547819388293
 32
0.0
 13
448.26071555780862
 23
402.70547819388293
 33
0.0
  0
SOLID
  5
F04
  8
DIM
  6
CONTINUOUS
 10
461.26071555780868
 20
403.20547819388293
 30
0.0
 11
461.26071555780868
 21
402.20547819388293
 31
0.0
 12
464.26071555780868
 22
402.70547819388293
 32
0.0
 13
464.26071555780868
 23
402.70547819388293
 33
0.0
  0
LINE
  5
F05
  8
DIM
  6
CONTINUOUS
 10
448.26071555780862
 20
394.70547819388293
 30
0.0
 11
448.26071555780862
 21
403.70547819388293
 31
0.0
  0
LINE
  5
F06
  8
DIM
  6
CONTINUOUS
 10
464.26071555780868
 20
394.70547819388293
 30
0.0
 11
464.26071555780868
 21
403.70547819388293
 31
0.0
  0
TEXT
  5
F07
  8
DIM
  6
CONTINUOUS
 10
436.76071555780851
 20
497.93809722127168
 30
0.0
 40
3.0
  1
5
 50
90.0
  7
ROMANSS
 72
     1
 11
435.26071555780862
 21
498.93809722127168
 31
0.0
 73
     2
  0
LINE
  5
F08
  8
DIM
  6
CONTINUOUS
 10
438.26071555780862
 20
486.06309722127179
 30
0.0
 11
438.26071555780862
 21
491.06309722127168
 31
0.0
  0
SOLID
  5
F09
  8
DIM
  6
CONTINUOUS
 10
437.76071555780862
 20
494.06309722127168
 30
0.0
 11
438.76071555780862
 21
494.06309722127168
 31
0.0
 12
438.26071555780862
 22
491.06309722127168
 32
0.0
 13
438.26071555780862
 23
491.06309722127168
 33
0.0
  0
SOLID
  5
F0A
  8
DIM
  6
CONTINUOUS
 10
437.76071555780862
 20
483.06309722127179
 30
0.0
 11
438.76071555780862
 21
483.06309722127179
 31
0.0
 12
438.26071555780862
 22
486.06309722127179
 32
0.0
 13
438.26071555780862
 23
486.06309722127179
 33
0.0
  0
LINE
  5
F0B
  8
DIM
  6
CONTINUOUS
 10
438.26071555780862
 20
497.06309722127168
 30
0.0
 11
438.26071555780862
 21
499.81309722127168
 31
0.0
  0
LINE
  5
F0C
  8
DIM
  6
CONTINUOUS
 10
438.26071555780862
 20
494.06309722127168
 30
0.0
 11
438.26071555780862
 21
497.06309722127168
 31
0.0
  0
LINE
  5
F0D
  8
DIM
  6
CONTINUOUS
 10
438.26071555780862
 20
483.06309722127179
 30
0.0
 11
438.26071555780862
 21
480.06309722127179
 31
0.0
  0
LINE
  5
F0E
  8
DIM
  6
CONTINUOUS
 10
445.26071555780851
 20
491.06309722127168
 30
0.0
 11
437.26071555780862
 21
491.06309722127168
 31
0.0
  0
LINE
  5
F0F
  8
DIM
  6
CONTINUOUS
 10
445.26071555780851
 20
486.06309722127179
 30
0.0
 11
437.26071555780862
 21
486.06309722127179
 31
0.0
  0
CIRCLE
  5
F10
  8
0
  6
CONTINUOUS
 10
456.26071555780862
 20
488.56309722127168
 30
0.0
 40
12.49999999999997
  0
TEXT
  5
F11
  8
DIM
  6
CONTINUOUS
 10
402.76071555780862
 20
377.27690676531148
 30
0.0
 40
3.0
  1
30
 50
90.0
  7
ROMANSS
 72
     1
 11
401.26071555780862
 21
379.70547819388293
 31
0.0
 73
     2
  0
SOLID
  5
F12
  8
DIM
  6
CONTINUOUS
 10
403.76071555780851
 20
391.70547819388298
 30
0.0
 11
404.76071555780862
 21
391.70547819388298
 31
0.0
 12
404.26071555780862
 22
394.70547819388293
 32
0.0
 13
404.26071555780862
 23
394.70547819388293
 33
0.0
  0
LINE
  5
F13
  8
DIM
  6
CONTINUOUS
 10
448.26071555780862
 20
394.70547819388293
 30
0.0
 11
403.26071555780862
 21
394.70547819388293
 31
0.0
  0
TEXT
  5
F14
  8
DIM
  6
CONTINUOUS
 10
410.76071555780862
 20
377.27690676531148
 30
0.0
 40
3.0
  1
25
 50
90.0
  7
ROMANSS
 72
     1
 11
409.26071555780862
 21
379.70547819388293
 31
0.0
 73
     2
  0
SOLID
  5
F15
  8
DIM
  6
CONTINUOUS
 10
411.76071555780851
 20
389.20547819388298
 30
0.0
 11
412.76071555780862
 21
389.20547819388298
 31
0.0
 12
412.26071555780851
 22
392.20547819388293
 32
0.0
 13
412.26071555780851
 23
392.20547819388293
 33
0.0
  0
LINE
  5
F16
  8
DIM
  6
CONTINUOUS
 10
412.26071555780851
 20
370.20547819388298
 30
0.0
 11
412.26071555780851
 21
389.20547819388298
 31
0.0
  0
LINE
  5
F17
  8
DIM
  6
CONTINUOUS
 10
445.26071555780851
 20
392.20547819388293
 30
0.0
 11
411.26071555780862
 21
392.20547819388293
 31
0.0
  0
TEXT
  5
F18
  8
DIM
  6
CONTINUOUS
 10
448.38772499224501
 20
553.57913351433456
 30
0.0
 40
3.0
  1
180%%p5%%d
  7
ROMANSS
 72
     1
 11
455.95915356367362
 21
555.07913351433467
 31
0.0
 73
     2
  0
SOLID
  5
F19
  8
DIM
  6
CONTINUOUS
 10
393.20735567404188
 20
491.55047534776628
 30
0.0
 11
392.207633627218
 21
491.5740513757209
 31
0.0
 12
392.63676656676591
 22
488.56309722127168
 32
0.0
 13
392.63676656676591
 23
488.56309722127168
 33
0.0
  0
LINE
  5
F1A
  8
DIM
  6
CONTINUOUS
 10
417.76071555780862
 20
488.56309722127168
 30
0.0
 11
391.63676656676591
 21
488.56309722127168
 31
0.0
  0
TEXT
  5
F1B
  8
DIM
  6
CONTINUOUS
 10
453.83214412923718
 20
535.56309722127162
 30
0.0
 40
3.0
  1
60
  7
ROMANSS
 72
     1
 11
456.26071555780862
 21
537.06309722127151
 31
0.0
 73
     2
  0
SOLID
  5
F1C
  8
DIM
  6
CONTINUOUS
 10
429.26071555780862
 20
534.56309722127162
 30
0.0
 11
429.26071555780862
 21
533.56309722127162
 31
0.0
 12
426.26071555780862
 22
534.06309722127162
 32
0.0
 13
426.26071555780862
 23
534.06309722127162
 33
0.0
  0
LINE
  5
F1D
  8
DIM
  6
CONTINUOUS
 10
426.26071555780862
 20
525.56309722127162
 30
0.0
 11
426.26071555780862
 21
535.06309722127162
 31
0.0
  0
LINE
  5
F1E
  8
0
  6
CONTINUOUS
 10
446.26071555780862
 20
392.20547819388293
 30
0.0
 11
448.26071555780868
 21
392.20547819388293
 31
0.0
  0
LINE
  5
F1F
  8
CENTER
  6
CENTER
 10
426.26071555780862
 20
464.56309722127168
 30
0.0
 11
426.26071555780862
 21
452.56309722127168
 31
0.0
  0
CIRCLE
  5
F20
  8
0
  6
CONTINUOUS
 10
426.26071555780862
 20
458.56309722127168
 30
0.0
 40
2.5
  0
ARC
  5
F21
  8
0
  6
CONTINUOUS
 62
     2
 10
426.26071555780862
 20
458.56309722127168
 30
0.0
 40
3.0
 50
72.528507680586145
 51
21.640324594293851
  0
CIRCLE
  5
F22
  8
0
  6
CONTINUOUS
 10
426.26071555780862
 20
518.56309722127173
 30
0.0
 40
2.5
  0
ARC
  5
F23
  8
0
  6
CONTINUOUS
 62
     2
 10
426.26071555780862
 20
518.56309722127173
 30
0.0
 40
3.0
 50
72.528507680586472
 51
21.64032459429486
  0
LINE
  5
F24
  8
CENTER
  6
CENTER
 10
426.26071555780862
 20
524.56309722127151
 30
0.0
 11
426.26071555780862
 21
512.56309722127173
 31
0.0
  0
LINE
  5
F25
  8
CENTER
  6
CENTER
 10
420.26071555780851
 20
458.56309722127179
 30
0.0
 11
432.26071555780862
 21
458.56309722127168
 31
0.0
  0
LINE
  5
F26
  8
CENTER
  6
CENTER
 10
420.26071555780851
 20
518.56309722127173
 30
0.0
 11
432.26071555780862
 21
518.56309722127173
 31
0.0
  0
LINE
  5
F27
  8
0
 10
418.76071555780868
 20
526.06309722127162
 30
0.0
 11
418.76071555780862
 21
433.06309722127168
 31
0.0
  0
CIRCLE
  5
F28
  8
0
  6
CONTINUOUS
 10
456.26071555780862
 20
488.56309722127168
 30
0.0
 40
2.0499999999999989
  0
ARC
  5
F29
  8
0
  6
CONTINUOUS
 62
     2
 10
456.26071555780851
 20
488.56309722127168
 30
0.0
 40
2.5
 50
159.98154856581121
 51
113.96364146022989
  0
LINE
  5
F2A
  8
0
 10
446.26071555780862
 20
486.06309722127179
 30
0.0
 11
448.6613734810233
 21
486.06309722127179
 31
0.0
  0
LINE
  5
F2B
  8
0
 10
446.26071555780862
 20
491.06309722127168
 30
0.0
 11
448.6613734810233
 21
491.06309722127168
 31
0.0
  0
LINE
  5
F2C
  8
0
 10
446.26071555780862
 20
491.06309722127168
 30
0.0
 11
446.26071555780862
 21
486.06309722127168
 31
0.0
  0
CIRCLE
  5
F2D
  8
0
  6
CONTINUOUS
 10
456.26071555780862
 20
488.56309722127168
 30
0.0
 40
6.9999999999999707
  0
CIRCLE
  5
F2E
  8
0
  6
CONTINUOUS
 10
456.26071555780862
 20
488.56309722127168
 30
0.0
 40
7.9999999999999707
  0
LINE
  5
F2F
  8
CENTER
  6
CENTER
 10
456.26071555780862
 20
529.06309722127162
 30
0.0
 11
456.26071555780862
 21
430.06309722127168
 31
0.0
  0
LINE
  5
F30
  8
0
  6
CONTINUOUS
 10
463.26071555780862
 20
394.70547819388293
 30
0.0
 11
464.26071555780868
 21
393.70547819388293
 31
0.0
  0
LINE
  5
F31
  8
0
  6
CONTINUOUS
 10
449.26071555780851
 20
394.70547819388293
 30
0.0
 11
448.26071555780862
 21
393.70547819388293
 31
0.0
  0
LINE
  5
F32
  8
0
  6
CONTINUOUS
 10
448.26071555780862
 20
393.70547819388293
 30
0.0
 11
464.26071555780862
 21
393.70547819388293
 31
0.0
  0
LINE
  5
F33
  8
0
  6
CONTINUOUS
 10
449.26071555780851
 20
394.70547819388293
 30
0.0
 11
463.26071555780862
 21
394.70547819388293
 31
0.0
  0
SOLID
  5
F34
  8
DIM
  6
CONTINUOUS
 10
519.31407544157526
 20
491.55047534776628
 30
0.0
 11
520.31379748839925
 21
491.5740513757209
 31
0.0
 12
519.88466454885133
 22
488.56309722127168
 32
0.0
 13
519.88466454885133
 23
488.56309722127168
 33
0.0
  0
LINE
  5
F35
  8
DIM
  6
CONTINUOUS
 10
494.76071555780862
 20
488.56309722127168
 30
0.0
 11
520.88466454885133
 21
488.56309722127168
 31
0.0
  0
LINE
  5
F36
  8
0
  6
CONTINUOUS
 10
482.26071555780862
 20
428.75593786792223
 30
0.0
 11
481.0607155578079
 21
428.06309722127168
 31
0.0
  0
LINE
  5
F37
  8
0
  6
CONTINUOUS
 10
478.76071555780862
 20
428.06309722127168
 30
0.0
 11
478.76071555780851
 21
426.2630972212724
 31
0.0
  0
LINE
  5
F38
  8
0
  6
CONTINUOUS
 10
482.26071555780862
 20
432.37025657462129
 30
0.0
 11
481.0607155578079
 21
433.06309722127168
 31
0.0
  0
LINE
  5
F39
  8
0
  6
CONTINUOUS
 10
482.26071555780862
 20
432.37025657462129
 30
0.0
 11
482.26071555780862
 21
428.75593786792223
 31
0.0
  0
LINE
  5
F3A
  8
0
  6
CONTINUOUS
 10
478.76071555780851
 20
432.37509722127157
 30
0.0
 11
478.76071555780851
 21
428.75109722127178
 31
0.0
  0
TEXT
  5
F3B
  8
DIM
  6
CONTINUOUS
 10
524.11441852835378
 20
505.8848888786336
 30
0.0
 40
3.0
  1
M5x15L
  7
ROMANSS
 11
524.11441852835378
 21
507.38488887863349
 31
0.0
 73
     2
  0
LINE
  5
F3C
  8
DIM
  6
CONTINUOUS
 10
522.81437052373053
 20
504.38488887863349
 30
0.0
 11
538.23941852835367
 21
504.38488887863349
 31
0.0
  0
TEXT
  5
F3D
  8
DIM
  6
CONTINUOUS
 10
503.45650119307868
 20
541.07613119332416
 30
0.0
 40
3.0
  1
2x4-M6x15L
  7
ROMANSS
 11
503.45650119307868
 21
542.57613119332416
 31
0.0
 73
     2
  0
LINE
  5
F3E
  8
DIM
  6
CONTINUOUS
 10
503.33194819235518
 20
539.57613119332427
 30
0.0
 11
528.08150119307879
 21
539.57613119332427
 31
0.0
  0
LINE
  5
F3F
  8
DIM
  6
CONTINUOUS
 10
489.9672029671126
 20
523.27969865292471
 30
0.0
 11
503.33194819235518
 21
539.57613119332427
 31
0.0
  0
SOLID
  5
F40
  8
DIM
  6
CONTINUOUS
 10
490.35381742967149
 20
522.96263516190095
 30
0.0
 11
489.5805885045537
 21
523.59676214394869
 31
0.0
 12
488.0648220209693
 22
520.96001187757111
 32
0.0
 13
488.0648220209693
 23
520.96001187757111
 33
0.0
  0
SOLID
  5
F41
  8
DIM
  6
CONTINUOUS
 10
483.26071555780862
 20
534.56309722127162
 30
0.0
 11
483.26071555780862
 21
533.56309722127162
 31
0.0
 12
486.26071555780862
 22
534.06309722127162
 32
0.0
 13
486.26071555780862
 23
534.06309722127162
 33
0.0
  0
LINE
  5
F42
  8
DIM
  6
CONTINUOUS
 10
486.26071555780862
 20
525.56309722127162
 30
0.0
 11
486.26071555780862
 21
535.06309722127162
 31
0.0
  0
LINE
  5
F43
  8
CENTER
  6
CENTER
 10
480.26071555780862
 20
518.56309722127173
 30
0.0
 11
492.26071555780862
 21
518.56309722127173
 31
0.0
  0
LINE
  5
F44
  8
CENTER
  6
CENTER
 10
480.26071555780862
 20
458.56309722127168
 30
0.0
 11
492.26071555780862
 21
458.56309722127168
 31
0.0
  0
LINE
  5
F45
  8
CENTER
  6
CENTER
 10
486.26071555780862
 20
464.56309722127168
 30
0.0
 11
486.26071555780862
 21
452.56309722127168
 31
0.0
  0
CIRCLE
  5
F46
  8
0
  6
CONTINUOUS
 10
486.26071555780862
 20
518.56309722127173
 30
0.0
 40
2.5
  0
ARC
  5
F47
  8
0
  6
CONTINUOUS
 62
     2
 10
486.26071555780862
 20
518.56309722127173
 30
0.0
 40
3.0
 50
162.5285076805875
 51
111.6403245942938
  0
CIRCLE
  5
F48
  8
0
  6
CONTINUOUS
 10
486.26071555780862
 20
458.56309722127168
 30
0.0
 40
2.5
  0
ARC
  5
F49
  8
0
  6
CONTINUOUS
 62
     2
 10
486.26071555780862
 20
458.56309722127168
 30
0.0
 40
3.0
 50
72.528507680586145
 51
21.640324594293851
  0
LINE
  5
F4A
  8
CENTER
  6
CENTER
 10
486.26071555780862
 20
524.56309722127151
 30
0.0
 11
486.26071555780862
 21
512.56309722127173
 31
0.0
  0
LINE
  5
F4B
  8
0
 10
493.76071555780862
 20
526.06309722127162
 30
0.0
 11
493.76071555780862
 21
433.06309722127168
 31
0.0
  0
TEXT
  5
F4C
  8
DIM
  6
CONTINUOUS
 10
641.89232633651352
 20
371.58150832254938
 30
0.0
 40
3.0
  1
2x4-M6x15L
  7
ROMANSS
 72
     2
 11
669.32089776508485
 21
373.08150832254938
 31
0.0
 73
     2
  0
LINE
  5
F4D
  8
DIM
  6
CONTINUOUS
 10
670.08120420804653
 20
370.08150832254938
 30
0.0
 11
644.69589776508485
 21
370.08150832254938
 31
0.0
  0
TEXT
  5
F4E
  8
DIM
  6
CONTINUOUS
 10
544.58660761182978
 20
489.34864307368059
 30
0.0
 40
3.0
  1
60
 50
90.0
  7
ROMANSS
 72
     1
 11
543.08660761182989
 21
491.77721450225198
 31
0.0
 73
     2
  0
SOLID
  5
F4F
  8
DIM
  6
CONTINUOUS
 10
545.58660761182978
 20
515.56309722127173
 30
0.0
 11
546.58660761182989
 21
515.56309722127173
 31
0.0
 12
546.08660761182989
 22
518.56309722127173
 32
0.0
 13
546.08660761182989
 23
518.56309722127173
 33
0.0
  0
SOLID
  5
F50
  8
DIM
  6
CONTINUOUS
 10
545.58660761182978
 20
461.56309722127168
 30
0.0
 11
546.58660761182989
 21
461.56309722127168
 31
0.0
 12
546.08660761182989
 22
458.56309722127168
 32
0.0
 13
546.08660761182989
 23
458.56309722127168
 33
0.0
  0
LINE
  5
F51
  8
DIM
  6
CONTINUOUS
 10
546.08660761182989
 20
461.56309722127168
 30
0.0
 11
546.08660761182989
 21
515.56309722127173
 31
0.0
  0
LINE
  5
F52
  8
CENTER
  6
CENTER
 10
595.76071555780857
 20
430.0202878190463
 30
0.0
 11
595.76071555780857
 21
448.40833016127738
 31
0.0
  0
LINE
  5
F53
  8
HIDDEN
  6
HIDDEN
 10
613.26071555780857
 20
477.06309722127168
 30
0.0
 11
613.26071555780857
 21
483.06309722127168
 31
0.0
  0
LINE
  5
F54
  8
HIDDEN
  6
HIDDEN
 10
601.26071555780868
 20
482.46309722127171
 30
0.0
 11
599.87507491175336
 21
480.06309722127168
 31
0.0
  0
LINE
  5
F55
  8
HIDDEN
  6
HIDDEN
 10
601.26071555780868
 20
477.6630972212717
 30
0.0
 11
601.26071555780868
 21
482.46309722127171
 31
0.0
  0
LINE
  5
F56
  8
HIDDEN
  6
HIDDEN
 10
601.26071555780868
 20
477.6630972212717
 30
0.0
 11
599.87507491175336
 21
480.06309722127168
 31
0.0
  0
LINE
  5
F57
  8
HIDDEN
  6
HIDDEN
 10
604.26071555780857
 20
477.06309722127168
 30
0.0
 11
604.26071555780857
 21
483.06309722127168
 31
0.0
  0
LINE
  5
F58
  8
HIDDEN
  6
HIDDEN
 10
613.26071555780857
 20
477.6630972212717
 30
0.0
 11
601.26071555780868
 21
477.6630972212717
 31
0.0
  0
LINE
  5
F59
  8
HIDDEN
  6
HIDDEN
 10
613.26071555780857
 20
482.46309722127171
 30
0.0
 11
601.26071555780868
 21
482.46309722127171
 31
0.0
  0
LINE
  5
F5A
  8
HIDDEN
  6
HIDDEN
 10
619.26071555780868
 20
477.06309722127168
 30
0.0
 11
604.26071555780857
 21
477.06309722127168
 31
0.0
  0
LINE
  5
F5B
  8
HIDDEN
  6
HIDDEN
 10
619.26071555780868
 20
483.06309722127168
 30
0.0
 11
604.26071555780857
 21
483.06309722127168
 31
0.0
  0
LINE
  5
F5C
  8
HIDDEN
  6
HIDDEN
 10
613.26071555780857
 20
439.06309722127168
 30
0.0
 11
613.26071555780857
 21
445.06309722127168
 31
0.0
  0
LINE
  5
F5D
  8
HIDDEN
  6
HIDDEN
 10
604.26071555780857
 20
439.06309722127168
 30
0.0
 11
604.26071555780857
 21
445.06309722127168
 31
0.0
  0
LINE
  5
F5E
  8
HIDDEN
  6
HIDDEN
 10
601.26071555780868
 20
444.46309722127171
 30
0.0
 11
599.87507491175336
 21
442.06309722127168
 31
0.0
  0
LINE
  5
F5F
  8
HIDDEN
  6
HIDDEN
 10
601.26071555780868
 20
439.66309722127158
 30
0.0
 11
599.87507491175336
 21
442.06309722127168
 31
0.0
  0
LINE
  5
F60
  8
HIDDEN
  6
HIDDEN
 10
601.26071555780868
 20
439.66309722127158
 30
0.0
 11
601.26071555780868
 21
444.46309722127171
 31
0.0
  0
LINE
  5
F61
  8
HIDDEN
  6
HIDDEN
 10
613.26071555780857
 20
444.46309722127171
 30
0.0
 11
601.26071555780868
 21
444.46309722127171
 31
0.0
  0
LINE
  5
F62
  8
HIDDEN
  6
HIDDEN
 10
613.26071555780857
 20
439.66309722127158
 30
0.0
 11
601.26071555780868
 21
439.66309722127158
 31
0.0
  0
LINE
  5
F63
  8
HIDDEN
  6
HIDDEN
 10
619.26071555780868
 20
445.06309722127168
 30
0.0
 11
604.26071555780857
 21
445.06309722127168
 31
0.0
  0
LINE
  5
F64
  8
HIDDEN
  6
HIDDEN
 10
619.26071555780868
 20
439.06309722127168
 30
0.0
 11
604.26071555780857
 21
439.06309722127168
 31
0.0
  0
LINE
  5
F65
  8
0
 10
619.26071555780868
 20
478.56309722127168
 30
0.0
 11
622.26071555780868
 21
478.56309722127168
 31
0.0
  0
ARC
  5
F66
  8
0
 10
622.26071555780868
 20
477.56309722127168
 30
0.0
 40
1.0
 50
0.0
 51
90.0
  0
LINE
  5
F67
  8
CENTER
  6
CENTER
 10
604.26071555780857
 20
430.46122559292172
 30
0.0
 11
604.26071555780857
 21
448.43376574861247
 31
0.0
  0
LINE
  5
F68
  8
0
 10
589.26071555780868
 20
487.56309722127168
 30
0.0
 11
619.26071555780868
 21
487.06309722127168
 31
0.0
  0
LINE
  5
F69
  8
CENTER
  6
CENTER
 10
622.34826566586003
 20
480.06309722127168
 30
0.0
 11
588.26071555780857
 21
480.06309722127168
 31
0.0
  0
LINE
  5
F6A
  8
0
 10
619.26071555780868
 20
443.56309722127168
 30
0.0
 11
622.26071555780868
 21
443.56309722127168
 31
0.0
  0
ARC
  5
F6B
  8
0
 10
622.26071555780868
 20
444.56309722127168
 30
0.0
 40
1.0
 50
270.0
 51
0.0
  0
LINE
  5
F6C
  8
0
 10
589.26071555780868
 20
434.56309722127168
 30
0.0
 11
619.26071555780868
 21
435.06309722127168
 31
0.0
  0
LINE
  5
F6D
  8
CENTER
  6
CENTER
 10
621.68384569611703
 20
442.06309722127168
 30
0.0
 11
588.26071555780857
 21
442.06309722127168
 31
0.0
  0
LINE
  5
F6E
  8
0
 10
623.26071555780868
 20
477.56309722127168
 30
0.0
 11
623.26071555780868
 21
444.56309722127168
 31
0.0
  0
LINE
  5
F6F
  8
0
 10
619.26071555780868
 20
487.06309722127168
 30
0.0
 11
619.26071555780868
 21
435.06309722127168
 31
0.0
  0
LINE
  5
F70
  8
0
 10
589.26071555780868
 20
487.56309722127168
 30
0.0
 11
589.26071555780868
 21
434.56309722127168
 31
0.0
  0
SOLID
  5
F71
  8
DIM
  6
CONTINUOUS
 10
784.12079384892627
 20
391.70547819388298
 30
0.0
 11
785.12079384892616
 21
391.70547819388298
 31
0.0
 12
784.62079384892616
 22
394.70547819388293
 32
0.0
 13
784.62079384892616
 23
394.70547819388293
 33
0.0
  0
LINE
  5
F72
  8
DIM
  6
CONTINUOUS
 10
739.1207938489265
 20
394.70547819388293
 30
0.0
 11
785.62079384892616
 21
394.70547819388293
 31
0.0
  0
TEXT
  5
F73
  8
DIM
  6
CONTINUOUS
 10
775.12079384892638
 20
369.73569066922067
 30
0.0
 40
3.0
  1
8
 50
90.0
  7
ROMANSS
 72
     1
 11
773.6207938489265
 21
370.73569066922067
 31
0.0
 73
     2
  0
LINE
  5
F74
  8
0
  6
CONTINUOUS
 10
738.12079384892638
 20
394.70547819388293
 30
0.0
 11
739.1207938489265
 21
393.70547819388293
 31
0.0
  0
LINE
  5
F75
  8
0
  6
CONTINUOUS
 10
724.1207938489265
 20
394.70547819388293
 30
0.0
 11
723.1207938489265
 21
393.70547819388293
 31
0.0
  0
LINE
  5
F76
  8
0
  6
CONTINUOUS
 10
723.1207938489265
 20
393.70547819388293
 30
0.0
 11
739.1207938489265
 21
393.70547819388293
 31
0.0
  0
LINE
  5
F77
  8
0
  6
CONTINUOUS
 10
724.1207938489265
 20
394.70547819388293
 30
0.0
 11
738.12079384892638
 21
394.70547819388293
 31
0.0
  0
CIRCLE
  5
F78
  8
0
  6
CONTINUOUS
 10
189.90063726669081
 20
342.20547819388293
 30
0.0
 40
2.5
  0
ARC
  5
F79
  8
0
  6
CONTINUOUS
 62
     2
 10
189.90063726669081
 20
342.20547819388293
 30
0.0
 40
3.0000000000000031
 50
165.00000000000551
 51
104.9999999999944
  0
CIRCLE
  5
F7A
  8
0
  6
CONTINUOUS
 10
227.90063726669081
 20
342.20547819388293
 30
0.0
 40
2.5
  0
ARC
  5
F7B
  8
0
  6
CONTINUOUS
 62
     2
 10
227.90063726669081
 20
342.20547819388293
 30
0.0
 40
3.0000000000000031
 50
165.00000000000551
 51
104.9999999999944
  0
CIRCLE
  5
F7C
  8
0
  6
CONTINUOUS
 10
189.90063726669081
 20
304.20547819388293
 30
0.0
 40
2.5
  0
ARC
  5
F7D
  8
0
  6
CONTINUOUS
 62
     2
 10
189.90063726669081
 20
304.20547819388293
 30
0.0
 40
3.0000000000000031
 50
165.00000000000551
 51
104.9999999999944
  0
CIRCLE
  5
F7E
  8
0
  6
CONTINUOUS
 10
227.90063726669081
 20
304.20547819388293
 30
0.0
 40
2.5
  0
ARC
  5
F7F
  8
0
  6
CONTINUOUS
 62
     2
 10
227.90063726669081
 20
304.20547819388293
 30
0.0
 40
3.0000000000000031
 50
165.00000000000551
 51
104.9999999999944
  0
CIRCLE
  5
F80
  8
0
  6
CONTINUOUS
 10
684.62079384892638
 20
342.20547819388293
 30
0.0
 40
2.5
  0
ARC
  5
F81
  8
0
  6
CONTINUOUS
 62
     2
 10
684.62079384892638
 20
342.20547819388293
 30
0.0
 40
3.0000000000000031
 50
75.000000000005556
 51
14.999999999994451
  0
CIRCLE
  5
F82
  8
0
  6
CONTINUOUS
 10
722.6207938489265
 20
342.20547819388293
 30
0.0
 40
2.5
  0
ARC
  5
F83
  8
0
  6
CONTINUOUS
 62
     2
 10
722.6207938489265
 20
342.20547819388293
 30
0.0
 40
3.0000000000000031
 50
75.000000000005556
 51
14.999999999994451
  0
CIRCLE
  5
F84
  8
0
  6
CONTINUOUS
 10
722.6207938489265
 20
304.20547819388293
 30
0.0
 40
2.5
  0
ARC
  5
F85
  8
0
  6
CONTINUOUS
 62
     2
 10
722.6207938489265
 20
304.20547819388293
 30
0.0
 40
3.0000000000000031
 50
75.000000000005556
 51
14.999999999994451
  0
CIRCLE
  5
F86
  8
0
  6
CONTINUOUS
 10
684.62079384892638
 20
304.20547819388293
 30
0.0
 40
2.5
  0
ARC
  5
F87
  8
0
  6
CONTINUOUS
 62
     2
 10
684.62079384892638
 20
304.20547819388293
 30
0.0
 40
3.0000000000000031
 50
75.000000000005556
 51
14.999999999994451
  0
LINE
  5
F88
  8
CENTER
  6
CENTER
 10
316.76071555780851
 20
430.0202878190463
 30
0.0
 11
316.76071555780851
 21
448.40833016127738
 31
0.0
  0
LINE
  5
F89
  8
HIDDEN
  6
HIDDEN
 10
299.26071555780851
 20
477.06309722127168
 30
0.0
 11
299.26071555780851
 21
483.06309722127168
 31
0.0
  0
LINE
  5
F8A
  8
HIDDEN
  6
HIDDEN
 10
311.26071555780851
 20
482.46309722127171
 30
0.0
 11
312.64635620386372
 21
480.06309722127168
 31
0.0
  0
LINE
  5
F8B
  8
HIDDEN
  6
HIDDEN
 10
311.26071555780851
 20
477.6630972212717
 30
0.0
 11
311.26071555780851
 21
482.46309722127171
 31
0.0
  0
LINE
  5
F8C
  8
HIDDEN
  6
HIDDEN
 10
311.26071555780851
 20
477.6630972212717
 30
0.0
 11
312.64635620386372
 21
480.06309722127168
 31
0.0
  0
LINE
  5
F8D
  8
HIDDEN
  6
HIDDEN
 10
308.26071555780851
 20
477.06309722127168
 30
0.0
 11
308.26071555780851
 21
483.06309722127168
 31
0.0
  0
LINE
  5
F8E
  8
HIDDEN
  6
HIDDEN
 10
299.26071555780851
 20
477.6630972212717
 30
0.0
 11
311.26071555780851
 21
477.6630972212717
 31
0.0
  0
LINE
  5
F8F
  8
HIDDEN
  6
HIDDEN
 10
299.26071555780851
 20
482.46309722127171
 30
0.0
 11
311.26071555780851
 21
482.46309722127171
 31
0.0
  0
LINE
  5
F90
  8
HIDDEN
  6
HIDDEN
 10
293.26071555780862
 20
477.06309722127168
 30
0.0
 11
308.26071555780851
 21
477.06309722127168
 31
0.0
  0
LINE
  5
F91
  8
HIDDEN
  6
HIDDEN
 10
293.26071555780862
 20
483.06309722127168
 30
0.0
 11
308.26071555780851
 21
483.06309722127168
 31
0.0
  0
LINE
  5
F92
  8
HIDDEN
  6
HIDDEN
 10
299.26071555780851
 20
439.06309722127168
 30
0.0
 11
299.26071555780851
 21
445.06309722127168
 31
0.0
  0
LINE
  5
F93
  8
HIDDEN
  6
HIDDEN
 10
308.26071555780851
 20
439.06309722127168
 30
0.0
 11
308.26071555780851
 21
445.06309722127168
 31
0.0
  0
LINE
  5
F94
  8
HIDDEN
  6
HIDDEN
 10
311.26071555780851
 20
444.46309722127171
 30
0.0
 11
312.64635620386372
 21
442.06309722127168
 31
0.0
  0
LINE
  5
F95
  8
HIDDEN
  6
HIDDEN
 10
311.26071555780851
 20
439.66309722127158
 30
0.0
 11
312.64635620386372
 21
442.06309722127168
 31
0.0
  0
LINE
  5
F96
  8
HIDDEN
  6
HIDDEN
 10
311.26071555780851
 20
439.66309722127158
 30
0.0
 11
311.26071555780851
 21
444.46309722127171
 31
0.0
  0
LINE
  5
F97
  8
HIDDEN
  6
HIDDEN
 10
299.26071555780851
 20
444.46309722127171
 30
0.0
 11
311.26071555780851
 21
444.46309722127171
 31
0.0
  0
LINE
  5
F98
  8
HIDDEN
  6
HIDDEN
 10
299.26071555780851
 20
439.66309722127158
 30
0.0
 11
311.26071555780851
 21
439.66309722127158
 31
0.0
  0
LINE
  5
F99
  8
HIDDEN
  6
HIDDEN
 10
293.26071555780862
 20
445.06309722127168
 30
0.0
 11
308.26071555780851
 21
445.06309722127168
 31
0.0
  0
LINE
  5
F9A
  8
HIDDEN
  6
HIDDEN
 10
293.26071555780862
 20
439.06309722127168
 30
0.0
 11
308.26071555780851
 21
439.06309722127168
 31
0.0
  0
LINE
  5
F9B
  8
CENTER
  6
CENTER
 10
308.26071555780851
 20
430.46122559292172
 30
0.0
 11
308.26071555780851
 21
448.43376574861247
 31
0.0
  0
LINE
  5
F9C
  8
CENTER
  6
CENTER
 10
290.17316544975722
 20
480.06309722127168
 30
0.0
 11
324.26071555780851
 21
480.06309722127168
 31
0.0
  0
LINE
  5
F9D
  8
CENTER
  6
CENTER
 10
290.83758541950021
 20
442.06309722127168
 30
0.0
 11
324.26071555780851
 21
442.06309722127168
 31
0.0
  0
LINE
  5
F9E
  8
0
 10
619.26071555780868
 20
179.06554446481209
 30
0.0
 11
622.26071555780868
 21
179.06554446481209
 31
0.0
  0
LINE
  5
F9F
  8
HIDDEN
  6
HIDDEN
 10
299.26071555780851
 20
339.20547819388298
 30
0.0
 11
299.26071555780851
 21
345.20547819388298
 31
0.0
  0
LINE
  5
FA0
  8
HIDDEN
  6
HIDDEN
 10
311.26071555780851
 20
344.6054781938829
 30
0.0
 11
312.64635620386372
 21
342.20547819388293
 31
0.0
  0
LINE
  5
FA1
  8
HIDDEN
  6
HIDDEN
 10
311.26071555780851
 20
339.805478193883
 30
0.0
 11
311.26071555780851
 21
344.6054781938829
 31
0.0
  0
LINE
  5
FA2
  8
HIDDEN
  6
HIDDEN
 10
311.26071555780851
 20
339.805478193883
 30
0.0
 11
312.64635620386372
 21
342.20547819388293
 31
0.0
  0
LINE
  5
FA3
  8
HIDDEN
  6
HIDDEN
 10
308.2607155578084
 20
339.20547819388298
 30
0.0
 11
308.2607155578084
 21
345.20547819388298
 31
0.0
  0
LINE
  5
FA4
  8
HIDDEN
  6
HIDDEN
 10
299.26071555780851
 20
339.805478193883
 30
0.0
 11
311.26071555780851
 21
339.805478193883
 31
0.0
  0
LINE
  5
FA5
  8
HIDDEN
  6
HIDDEN
 10
299.26071555780851
 20
344.6054781938829
 30
0.0
 11
311.26071555780851
 21
344.6054781938829
 31
0.0
  0
LINE
  5
FA6
  8
HIDDEN
  6
HIDDEN
 10
293.2607155578084
 20
339.20547819388298
 30
0.0
 11
308.2607155578084
 21
339.20547819388298
 31
0.0
  0
LINE
  5
FA7
  8
HIDDEN
  6
HIDDEN
 10
293.2607155578084
 20
345.20547819388298
 30
0.0
 11
308.2607155578084
 21
345.20547819388298
 31
0.0
  0
LINE
  5
FA8
  8
HIDDEN
  6
HIDDEN
 10
299.26071555780851
 20
301.20547819388293
 30
0.0
 11
299.26071555780851
 21
307.20547819388293
 31
0.0
  0
LINE
  5
FA9
  8
HIDDEN
  6
HIDDEN
 10
308.2607155578084
 20
301.20547819388293
 30
0.0
 11
308.2607155578084
 21
307.20547819388293
 31
0.0
  0
LINE
  5
FAA
  8
HIDDEN
  6
HIDDEN
 10
311.26071555780851
 20
306.6054781938829
 30
0.0
 11
312.64635620386372
 21
304.20547819388293
 31
0.0
  0
LINE
  5
FAB
  8
HIDDEN
  6
HIDDEN
 10
311.26071555780851
 20
301.80547819388289
 30
0.0
 11
312.64635620386372
 21
304.20547819388293
 31
0.0
  0
LINE
  5
FAC
  8
HIDDEN
  6
HIDDEN
 10
311.26071555780851
 20
301.80547819388289
 30
0.0
 11
311.26071555780851
 21
306.6054781938829
 31
0.0
  0
LINE
  5
FAD
  8
HIDDEN
  6
HIDDEN
 10
299.26071555780851
 20
306.6054781938829
 30
0.0
 11
311.26071555780851
 21
306.6054781938829
 31
0.0
  0
LINE
  5
FAE
  8
HIDDEN
  6
HIDDEN
 10
299.26071555780851
 20
301.80547819388289
 30
0.0
 11
311.26071555780851
 21
301.80547819388289
 31
0.0
  0
LINE
  5
FAF
  8
HIDDEN
  6
HIDDEN
 10
293.2607155578084
 20
307.20547819388293
 30
0.0
 11
308.2607155578084
 21
307.20547819388293
 31
0.0
  0
LINE
  5
FB0
  8
HIDDEN
  6
HIDDEN
 10
293.2607155578084
 20
301.20547819388293
 30
0.0
 11
308.2607155578084
 21
301.20547819388293
 31
0.0
  0
LINE
  5
FB1
  8
CENTER
  6
CENTER
 10
290.17316544975711
 20
342.20547819388293
 30
0.0
 11
324.26071555780851
 21
342.20547819388293
 31
0.0
  0
LINE
  5
FB2
  8
CENTER
  6
CENTER
 10
290.8375854195001
 20
304.20547819388293
 30
0.0
 11
324.26071555780851
 21
304.20547819388293
 31
0.0
  0
LINE
  5
FB3
  8
HIDDEN
  6
HIDDEN
 10
299.26071555780851
 20
177.56554446481221
 30
0.0
 11
299.26071555780851
 21
183.56554446481221
 31
0.0
  0
LINE
  5
FB4
  8
HIDDEN
  6
HIDDEN
 10
311.26071555780851
 20
182.9655444648121
 30
0.0
 11
312.64635620386372
 21
180.56554446481221
 31
0.0
  0
LINE
  5
FB5
  8
HIDDEN
  6
HIDDEN
 10
311.26071555780851
 20
178.1655444648122
 30
0.0
 11
311.26071555780851
 21
182.9655444648121
 31
0.0
  0
LINE
  5
FB6
  8
HIDDEN
  6
HIDDEN
 10
311.26071555780851
 20
178.1655444648122
 30
0.0
 11
312.64635620386372
 21
180.56554446481221
 31
0.0
  0
LINE
  5
FB7
  8
HIDDEN
  6
HIDDEN
 10
308.26071555780851
 20
177.56554446481221
 30
0.0
 11
308.26071555780851
 21
183.56554446481221
 31
0.0
  0
LINE
  5
FB8
  8
HIDDEN
  6
HIDDEN
 10
299.26071555780851
 20
178.1655444648122
 30
0.0
 11
311.26071555780851
 21
178.1655444648122
 31
0.0
  0
LINE
  5
FB9
  8
HIDDEN
  6
HIDDEN
 10
299.26071555780851
 20
182.9655444648121
 30
0.0
 11
311.26071555780851
 21
182.9655444648121
 31
0.0
  0
LINE
  5
FBA
  8
HIDDEN
  6
HIDDEN
 10
293.26071555780862
 20
177.56554446481221
 30
0.0
 11
308.26071555780851
 21
177.56554446481221
 31
0.0
  0
LINE
  5
FBB
  8
HIDDEN
  6
HIDDEN
 10
293.26071555780862
 20
183.56554446481221
 30
0.0
 11
308.26071555780851
 21
183.56554446481221
 31
0.0
  0
LINE
  5
FBC
  8
HIDDEN
  6
HIDDEN
 10
299.26071555780851
 20
139.56554446481221
 30
0.0
 11
299.26071555780851
 21
145.56554446481221
 31
0.0
  0
LINE
  5
FBD
  8
HIDDEN
  6
HIDDEN
 10
308.26071555780851
 20
139.56554446481221
 30
0.0
 11
308.26071555780851
 21
145.56554446481221
 31
0.0
  0
LINE
  5
FBE
  8
HIDDEN
  6
HIDDEN
 10
311.26071555780851
 20
144.9655444648121
 30
0.0
 11
312.64635620386372
 21
142.56554446481209
 31
0.0
  0
LINE
  5
FBF
  8
HIDDEN
  6
HIDDEN
 10
311.26071555780851
 20
140.16554446481209
 30
0.0
 11
312.64635620386372
 21
142.56554446481209
 31
0.0
  0
LINE
  5
FC0
  8
HIDDEN
  6
HIDDEN
 10
311.26071555780851
 20
140.16554446481209
 30
0.0
 11
311.26071555780851
 21
144.9655444648121
 31
0.0
  0
LINE
  5
FC1
  8
HIDDEN
  6
HIDDEN
 10
299.26071555780851
 20
144.9655444648121
 30
0.0
 11
311.26071555780851
 21
144.9655444648121
 31
0.0
  0
LINE
  5
FC2
  8
HIDDEN
  6
HIDDEN
 10
299.26071555780851
 20
140.16554446481209
 30
0.0
 11
311.26071555780851
 21
140.16554446481209
 31
0.0
  0
LINE
  5
FC3
  8
HIDDEN
  6
HIDDEN
 10
293.26071555780862
 20
145.56554446481221
 30
0.0
 11
308.26071555780851
 21
145.56554446481221
 31
0.0
  0
LINE
  5
FC4
  8
HIDDEN
  6
HIDDEN
 10
293.26071555780862
 20
139.56554446481221
 30
0.0
 11
308.26071555780851
 21
139.56554446481221
 31
0.0
  0
LINE
  5
FC5
  8
CENTER
  6
CENTER
 10
290.17316544975722
 20
180.56554446481221
 30
0.0
 11
324.26071555780851
 21
180.56554446481221
 31
0.0
  0
LINE
  5
FC6
  8
CENTER
  6
CENTER
 10
290.83758541950021
 20
142.56554446481209
 30
0.0
 11
324.26071555780851
 21
142.56554446481209
 31
0.0
  0
LINE
  5
FC7
  8
CENTER
  6
CENTER
 10
316.76071555780851
 20
192.60835386703761
 30
0.0
 11
316.76071555780851
 21
174.22031152480639
 31
0.0
  0
LINE
  5
FC8
  8
CENTER
  6
CENTER
 10
308.26071555780851
 20
192.1674160931621
 30
0.0
 11
308.26071555780851
 21
174.19487593747129
 31
0.0
  0
LINE
  5
FC9
  8
HIDDEN
  6
HIDDEN
 10
613.26071555780857
 20
339.20547819388298
 30
0.0
 11
613.26071555780857
 21
345.20547819388298
 31
0.0
  0
LINE
  5
FCA
  8
HIDDEN
  6
HIDDEN
 10
601.26071555780868
 20
344.6054781938829
 30
0.0
 11
599.87507491175336
 21
342.20547819388293
 31
0.0
  0
LINE
  5
FCB
  8
HIDDEN
  6
HIDDEN
 10
601.26071555780868
 20
339.805478193883
 30
0.0
 11
601.26071555780868
 21
344.6054781938829
 31
0.0
  0
LINE
  5
FCC
  8
HIDDEN
  6
HIDDEN
 10
601.26071555780868
 20
339.805478193883
 30
0.0
 11
599.87507491175336
 21
342.20547819388293
 31
0.0
  0
LINE
  5
FCD
  8
HIDDEN
  6
HIDDEN
 10
604.26071555780857
 20
339.20547819388298
 30
0.0
 11
604.26071555780857
 21
345.20547819388298
 31
0.0
  0
LINE
  5
FCE
  8
HIDDEN
  6
HIDDEN
 10
613.26071555780857
 20
339.805478193883
 30
0.0
 11
601.26071555780868
 21
339.805478193883
 31
0.0
  0
LINE
  5
FCF
  8
HIDDEN
  6
HIDDEN
 10
613.26071555780857
 20
344.6054781938829
 30
0.0
 11
601.26071555780868
 21
344.6054781938829
 31
0.0
  0
LINE
  5
FD0
  8
HIDDEN
  6
HIDDEN
 10
619.26071555780868
 20
339.20547819388298
 30
0.0
 11
604.26071555780857
 21
339.20547819388298
 31
0.0
  0
LINE
  5
FD1
  8
HIDDEN
  6
HIDDEN
 10
619.26071555780868
 20
345.20547819388298
 30
0.0
 11
604.26071555780857
 21
345.20547819388298
 31
0.0
  0
LINE
  5
FD2
  8
HIDDEN
  6
HIDDEN
 10
613.26071555780857
 20
301.20547819388293
 30
0.0
 11
613.26071555780857
 21
307.20547819388293
 31
0.0
  0
LINE
  5
FD3
  8
HIDDEN
  6
HIDDEN
 10
604.26071555780857
 20
301.20547819388293
 30
0.0
 11
604.26071555780857
 21
307.20547819388293
 31
0.0
  0
LINE
  5
FD4
  8
HIDDEN
  6
HIDDEN
 10
601.26071555780868
 20
306.6054781938829
 30
0.0
 11
599.87507491175336
 21
304.20547819388293
 31
0.0
  0
LINE
  5
FD5
  8
HIDDEN
  6
HIDDEN
 10
601.26071555780868
 20
301.80547819388289
 30
0.0
 11
599.87507491175336
 21
304.20547819388293
 31
0.0
  0
LINE
  5
FD6
  8
HIDDEN
  6
HIDDEN
 10
601.26071555780868
 20
301.80547819388289
 30
0.0
 11
601.26071555780868
 21
306.6054781938829
 31
0.0
  0
LINE
  5
FD7
  8
HIDDEN
  6
HIDDEN
 10
613.26071555780857
 20
306.6054781938829
 30
0.0
 11
601.26071555780868
 21
306.6054781938829
 31
0.0
  0
LINE
  5
FD8
  8
HIDDEN
  6
HIDDEN
 10
613.26071555780857
 20
301.80547819388289
 30
0.0
 11
601.26071555780868
 21
301.80547819388289
 31
0.0
  0
LINE
  5
FD9
  8
HIDDEN
  6
HIDDEN
 10
619.26071555780868
 20
307.20547819388293
 30
0.0
 11
604.26071555780857
 21
307.20547819388293
 31
0.0
  0
LINE
  5
FDA
  8
HIDDEN
  6
HIDDEN
 10
619.26071555780868
 20
301.20547819388293
 30
0.0
 11
604.26071555780857
 21
301.20547819388293
 31
0.0
  0
LINE
  5
FDB
  8
CENTER
  6
CENTER
 10
622.34826566586003
 20
342.20547819388293
 30
0.0
 11
588.26071555780857
 21
342.20547819388293
 31
0.0
  0
LINE
  5
FDC
  8
CENTER
  6
CENTER
 10
621.68384569611703
 20
304.20547819388293
 30
0.0
 11
588.26071555780857
 21
304.20547819388293
 31
0.0
  0
LINE
  5
FDD
  8
HIDDEN
  6
HIDDEN
 10
613.26071555780857
 20
177.56554446481221
 30
0.0
 11
613.26071555780857
 21
183.56554446481221
 31
0.0
  0
LINE
  5
FDE
  8
HIDDEN
  6
HIDDEN
 10
601.26071555780868
 20
182.9655444648121
 30
0.0
 11
599.87507491175336
 21
180.56554446481221
 31
0.0
  0
LINE
  5
FDF
  8
HIDDEN
  6
HIDDEN
 10
601.26071555780868
 20
178.1655444648122
 30
0.0
 11
601.26071555780868
 21
182.9655444648121
 31
0.0
  0
LINE
  5
FE0
  8
HIDDEN
  6
HIDDEN
 10
601.26071555780868
 20
178.1655444648122
 30
0.0
 11
599.87507491175336
 21
180.56554446481221
 31
0.0
  0
LINE
  5
FE1
  8
HIDDEN
  6
HIDDEN
 10
604.26071555780857
 20
177.56554446481221
 30
0.0
 11
604.26071555780857
 21
183.56554446481221
 31
0.0
  0
LINE
  5
FE2
  8
HIDDEN
  6
HIDDEN
 10
613.26071555780857
 20
178.1655444648122
 30
0.0
 11
601.26071555780868
 21
178.1655444648122
 31
0.0
  0
LINE
  5
FE3
  8
HIDDEN
  6
HIDDEN
 10
613.26071555780857
 20
182.9655444648121
 30
0.0
 11
601.26071555780868
 21
182.9655444648121
 31
0.0
  0
LINE
  5
FE4
  8
HIDDEN
  6
HIDDEN
 10
619.26071555780868
 20
177.56554446481221
 30
0.0
 11
604.26071555780857
 21
177.56554446481221
 31
0.0
  0
LINE
  5
FE5
  8
HIDDEN
  6
HIDDEN
 10
619.26071555780868
 20
183.56554446481221
 30
0.0
 11
604.26071555780857
 21
183.56554446481221
 31
0.0
  0
LINE
  5
FE6
  8
HIDDEN
  6
HIDDEN
 10
613.26071555780857
 20
139.56554446481221
 30
0.0
 11
613.26071555780857
 21
145.56554446481221
 31
0.0
  0
LINE
  5
FE7
  8
HIDDEN
  6
HIDDEN
 10
604.26071555780857
 20
139.56554446481221
 30
0.0
 11
604.26071555780857
 21
145.56554446481221
 31
0.0
  0
LINE
  5
FE8
  8
HIDDEN
  6
HIDDEN
 10
601.26071555780868
 20
144.9655444648121
 30
0.0
 11
599.87507491175336
 21
142.56554446481209
 31
0.0
  0
LINE
  5
FE9
  8
HIDDEN
  6
HIDDEN
 10
601.26071555780868
 20
140.16554446481209
 30
0.0
 11
599.87507491175336
 21
142.56554446481209
 31
0.0
  0
LINE
  5
FEA
  8
HIDDEN
  6
HIDDEN
 10
601.26071555780868
 20
140.16554446481209
 30
0.0
 11
601.26071555780868
 21
144.9655444648121
 31
0.0
  0
LINE
  5
FEB
  8
HIDDEN
  6
HIDDEN
 10
613.26071555780857
 20
144.9655444648121
 30
0.0
 11
601.26071555780868
 21
144.9655444648121
 31
0.0
  0
LINE
  5
FEC
  8
HIDDEN
  6
HIDDEN
 10
613.26071555780857
 20
140.16554446481209
 30
0.0
 11
601.26071555780868
 21
140.16554446481209
 31
0.0
  0
LINE
  5
FED
  8
HIDDEN
  6
HIDDEN
 10
619.26071555780868
 20
145.56554446481221
 30
0.0
 11
604.26071555780857
 21
145.56554446481221
 31
0.0
  0
LINE
  5
FEE
  8
HIDDEN
  6
HIDDEN
 10
619.26071555780868
 20
139.56554446481221
 30
0.0
 11
604.26071555780857
 21
139.56554446481221
 31
0.0
  0
LINE
  5
FEF
  8
CENTER
  6
CENTER
 10
622.34826566586003
 20
180.56554446481221
 30
0.0
 11
588.26071555780857
 21
180.56554446481221
 31
0.0
  0
LINE
  5
FF0
  8
CENTER
  6
CENTER
 10
621.68384569611703
 20
142.56554446481209
 30
0.0
 11
588.26071555780857
 21
142.56554446481209
 31
0.0
  0
LINE
  5
FF1
  8
CENTER
  6
CENTER
 10
595.76071555780857
 20
192.60835386703761
 30
0.0
 11
595.76071555780857
 21
174.22031152480639
 31
0.0
  0
LINE
  5
FF2
  8
CENTER
  6
CENTER
 10
604.26071555780857
 20
192.1674160931621
 30
0.0
 11
604.26071555780857
 21
174.19487593747129
 31
0.0
  0
CIRCLE
  5
FF3
  8
0
  6
CONTINUOUS
 10
456.26071555780862
 20
518.56309722127173
 30
0.0
 40
4.25
  0
CIRCLE
  5
FF4
  8
0
  6
CONTINUOUS
 10
456.26071555780862
 20
518.56309722127173
 30
0.0
 40
3.9035796766743651
  0
POLYLINE
  5
FF5
  8
0
  6
CONTINUOUS
 66
     1
 10
0.0
 20
0.0
 30
0.0
 70
     1
  0
VERTEX
  5
1539
  8
0
  6
CONTINUOUS
 10
455.10601501942858
 20
520.56309722127173
 30
0.0
  0
VERTEX
  5
153A
  8
0
  6
CONTINUOUS
 10
453.95131448105047
 20
518.56309722127173
 30
0.0
  0
VERTEX
  5
153B
  8
0
  6
CONTINUOUS
 10
455.10601501942858
 20
516.56309722127173
 30
0.0
  0
VERTEX
  5
153C
  8
0
  6
CONTINUOUS
 10
457.41541609618861
 20
516.56309722127173
 30
0.0
  0
VERTEX
  5
153D
  8
0
  6
CONTINUOUS
 10
458.57011663456677
 20
518.56309722127173
 30
0.0
  0
VERTEX
  5
153E
  8
0
  6
CONTINUOUS
 10
457.41541609618861
 20
520.56309722127173
 30
0.0
  0
SEQEND
  5
153F
  8
0
  6
CONTINUOUS
  0
CIRCLE
  5
FFD
  8
0
  6
CONTINUOUS
 10
456.26071555780862
 20
458.56309722127168
 30
0.0
 40
4.25
  0
CIRCLE
  5
FFE
  8
0
  6
CONTINUOUS
 10
456.26071555780862
 20
458.56309722127168
 30
0.0
 40
3.9035796766743651
  0
POLYLINE
  5
FFF
  8
0
  6
CONTINUOUS
 66
     1
 10
0.0
 20
0.0
 30
0.0
 70
     1
  0
VERTEX
  5
1540
  8
0
  6
CONTINUOUS
 10
455.10601501942858
 20
460.56309722127168
 30
0.0
  0
VERTEX
  5
1541
  8
0
  6
CONTINUOUS
 10
453.95131448105047
 20
458.56309722127168
 30
0.0
  0
VERTEX
  5
1542
  8
0
  6
CONTINUOUS
 10
455.10601501942858
 20
456.56309722127168
 30
0.0
  0
VERTEX
  5
1543
  8
0
  6
CONTINUOUS
 10
457.41541609618861
 20
456.56309722127168
 30
0.0
  0
VERTEX
  5
1544
  8
0
  6
CONTINUOUS
 10
458.57011663456677
 20
458.56309722127168
 30
0.0
  0
VERTEX
  5
1545
  8
0
  6
CONTINUOUS
 10
457.41541609618861
 20
460.56309722127168
 30
0.0
  0
SEQEND
  5
1546
  8
0
  6
CONTINUOUS
  0
CIRCLE
  5
1007
  8
0
  6
CONTINUOUS
 10
426.26071555780862
 20
488.56309722127168
 30
0.0
 40
4.25
  0
CIRCLE
  5
1008
  8
0
  6
CONTINUOUS
 10
426.26071555780862
 20
488.56309722127168
 30
0.0
 40
3.9035796766743651
  0
POLYLINE
  5
1009
  8
0
  6
CONTINUOUS
 66
     1
 10
0.0
 20
0.0
 30
0.0
 70
     1
  0
VERTEX
  5
1547
  8
0
  6
CONTINUOUS
 10
425.10601501942858
 20
490.56309722127168
 30
0.0
  0
VERTEX
  5
1548
  8
0
  6
CONTINUOUS
 10
423.95131448105042
 20
488.56309722127168
 30
0.0
  0
VERTEX
  5
1549
  8
0
  6
CONTINUOUS
 10
425.10601501942858
 20
486.56309722127168
 30
0.0
  0
VERTEX
  5
154A
  8
0
  6
CONTINUOUS
 10
427.41541609618849
 20
486.56309722127168
 30
0.0
  0
VERTEX
  5
154B
  8
0
  6
CONTINUOUS
 10
428.57011663456672
 20
488.56309722127168
 30
0.0
  0
VERTEX
  5
154C
  8
0
  6
CONTINUOUS
 10
427.41541609618849
 20
490.56309722127168
 30
0.0
  0
SEQEND
  5
154D
  8
0
  6
CONTINUOUS
  0
CIRCLE
  5
1011
  8
0
  6
CONTINUOUS
 10
486.26071555780862
 20
488.56309722127168
 30
0.0
 40
4.25
  0
CIRCLE
  5
1012
  8
0
  6
CONTINUOUS
 10
486.26071555780862
 20
488.56309722127168
 30
0.0
 40
3.9035796766743651
  0
POLYLINE
  5
1013
  8
0
  6
CONTINUOUS
 66
     1
 10
0.0
 20
0.0
 30
0.0
 70
     1
  0
VERTEX
  5
154E
  8
0
  6
CONTINUOUS
 10
485.10601501942858
 20
490.56309722127168
 30
0.0
  0
VERTEX
  5
154F
  8
0
  6
CONTINUOUS
 10
483.95131448105047
 20
488.56309722127168
 30
0.0
  0
VERTEX
  5
1550
  8
0
  6
CONTINUOUS
 10
485.10601501942858
 20
486.56309722127168
 30
0.0
  0
VERTEX
  5
1551
  8
0
  6
CONTINUOUS
 10
487.41541609618861
 20
486.56309722127168
 30
0.0
  0
VERTEX
  5
1552
  8
0
  6
CONTINUOUS
 10
488.57011663456672
 20
488.56309722127168
 30
0.0
  0
VERTEX
  5
1553
  8
0
  6
CONTINUOUS
 10
487.41541609618861
 20
490.56309722127168
 30
0.0
  0
SEQEND
  5
1554
  8
0
  6
CONTINUOUS
  0
CIRCLE
  5
101B
  8
0
  6
CONTINUOUS
 10
456.26071555780862
 20
104.06554446481211
 30
0.0
 40
4.25
  0
CIRCLE
  5
101C
  8
0
  6
CONTINUOUS
 10
456.26071555780862
 20
104.06554446481211
 30
0.0
 40
3.9035796766743651
  0
POLYLINE
  5
101D
  8
0
  6
CONTINUOUS
 66
     1
 10
0.0
 20
0.0
 30
0.0
 70
     1
  0
VERTEX
  5
1555
  8
0
  6
CONTINUOUS
 10
455.10601501942858
 20
102.06554446481211
 30
0.0
  0
VERTEX
  5
1556
  8
0
  6
CONTINUOUS
 10
453.95131448105047
 20
104.06554446481211
 30
0.0
  0
VERTEX
  5
1557
  8
0
  6
CONTINUOUS
 10
455.10601501942858
 20
106.06554446481211
 30
0.0
  0
VERTEX
  5
1558
  8
0
  6
CONTINUOUS
 10
457.41541609618861
 20
106.06554446481211
 30
0.0
  0
VERTEX
  5
1559
  8
0
  6
CONTINUOUS
 10
458.57011663456677
 20
104.06554446481211
 30
0.0
  0
VERTEX
  5
155A
  8
0
  6
CONTINUOUS
 10
457.41541609618861
 20
102.06554446481211
 30
0.0
  0
SEQEND
  5
155B
  8
0
  6
CONTINUOUS
  0
CIRCLE
  5
1025
  8
0
  6
CONTINUOUS
 10
426.26071555780862
 20
134.06554446481221
 30
0.0
 40
4.25
  0
CIRCLE
  5
1026
  8
0
  6
CONTINUOUS
 10
426.26071555780862
 20
134.06554446481221
 30
0.0
 40
3.9035796766743651
  0
POLYLINE
  5
1027
  8
0
  6
CONTINUOUS
 66
     1
 10
0.0
 20
0.0
 30
0.0
 70
     1
  0
VERTEX
  5
155C
  8
0
  6
CONTINUOUS
 10
425.10601501942858
 20
132.06554446481209
 30
0.0
  0
VERTEX
  5
155D
  8
0
  6
CONTINUOUS
 10
423.95131448105042
 20
134.06554446481209
 30
0.0
  0
VERTEX
  5
155E
  8
0
  6
CONTINUOUS
 10
425.10601501942858
 20
136.06554446481209
 30
0.0
  0
VERTEX
  5
155F
  8
0
  6
CONTINUOUS
 10
427.41541609618849
 20
136.06554446481209
 30
0.0
  0
VERTEX
  5
1560
  8
0
  6
CONTINUOUS
 10
428.57011663456672
 20
134.06554446481209
 30
0.0
  0
VERTEX
  5
1561
  8
0
  6
CONTINUOUS
 10
427.41541609618849
 20
132.06554446481209
 30
0.0
  0
SEQEND
  5
1562
  8
0
  6
CONTINUOUS
  0
CIRCLE
  5
102F
  8
0
  6
CONTINUOUS
 10
456.26071555780862
 20
164.06554446481221
 30
0.0
 40
4.25
  0
CIRCLE
  5
1030
  8
0
  6
CONTINUOUS
 10
456.26071555780862
 20
164.06554446481221
 30
0.0
 40
3.9035796766743651
  0
POLYLINE
  5
1031
  8
0
  6
CONTINUOUS
 66
     1
 10
0.0
 20
0.0
 30
0.0
 70
     1
  0
VERTEX
  5
1563
  8
0
  6
CONTINUOUS
 10
455.10601501942858
 20
162.06554446481209
 30
0.0
  0
VERTEX
  5
1564
  8
0
  6
CONTINUOUS
 10
453.95131448105047
 20
164.06554446481209
 30
0.0
  0
VERTEX
  5
1565
  8
0
  6
CONTINUOUS
 10
455.10601501942858
 20
166.06554446481209
 30
0.0
  0
VERTEX
  5
1566
  8
0
  6
CONTINUOUS
 10
457.41541609618861
 20
166.06554446481209
 30
0.0
  0
VERTEX
  5
1567
  8
0
  6
CONTINUOUS
 10
458.57011663456677
 20
164.06554446481209
 30
0.0
  0
VERTEX
  5
1568
  8
0
  6
CONTINUOUS
 10
457.41541609618861
 20
162.06554446481209
 30
0.0
  0
SEQEND
  5
1569
  8
0
  6
CONTINUOUS
  0
CIRCLE
  5
1039
  8
0
  6
CONTINUOUS
 10
486.26071555780862
 20
134.06554446481221
 30
0.0
 40
4.25
  0
CIRCLE
  5
103A
  8
0
  6
CONTINUOUS
 10
486.26071555780862
 20
134.06554446481221
 30
0.0
 40
3.9035796766743651
  0
POLYLINE
  5
103B
  8
0
  6
CONTINUOUS
 66
     1
 10
0.0
 20
0.0
 30
0.0
 70
     1
  0
VERTEX
  5
156A
  8
0
  6
CONTINUOUS
 10
485.10601501942858
 20
132.06554446481209
 30
0.0
  0
VERTEX
  5
156B
  8
0
  6
CONTINUOUS
 10
483.95131448105047
 20
134.06554446481209
 30
0.0
  0
VERTEX
  5
156C
  8
0
  6
CONTINUOUS
 10
485.10601501942858
 20
136.06554446481209
 30
0.0
  0
VERTEX
  5
156D
  8
0
  6
CONTINUOUS
 10
487.41541609618861
 20
136.06554446481209
 30
0.0
  0
VERTEX
  5
156E
  8
0
  6
CONTINUOUS
 10
488.57011663456672
 20
134.06554446481209
 30
0.0
  0
VERTEX
  5
156F
  8
0
  6
CONTINUOUS
 10
487.41541609618861
 20
132.06554446481209
 30
0.0
  0
SEQEND
  5
1570
  8
0
  6
CONTINUOUS
  0
TEXT
  5
1043
  8
DIM
  6
CONTINUOUS
 10
436.76071555780862
 20
143.44054446481201
 30
0.0
 40
3.0
  1
5
 50
90.0
  7
ROMANSS
 72
     1
 11
435.26071555780868
 21
144.44054446481201
 31
0.0
 73
     2
  0
LINE
  5
1044
  8
DIM
  6
CONTINUOUS
 10
438.26071555780862
 20
131.56554446481221
 30
0.0
 11
438.26071555780862
 21
136.56554446481209
 31
0.0
  0
SOLID
  5
1045
  8
DIM
  6
CONTINUOUS
 10
437.76071555780862
 20
139.56554446481201
 30
0.0
 11
438.76071555780868
 21
139.56554446481201
 31
0.0
 12
438.26071555780862
 22
136.56554446481209
 32
0.0
 13
438.26071555780862
 23
136.56554446481209
 33
0.0
  0
SOLID
  5
1046
  8
DIM
  6
CONTINUOUS
 10
437.76071555780862
 20
128.56554446481221
 30
0.0
 11
438.76071555780868
 21
128.56554446481221
 31
0.0
 12
438.26071555780862
 22
131.56554446481221
 32
0.0
 13
438.26071555780862
 23
131.56554446481221
 33
0.0
  0
LINE
  5
1047
  8
DIM
  6
CONTINUOUS
 10
438.26071555780862
 20
142.56554446481201
 30
0.0
 11
438.26071555780862
 21
145.31554446481201
 31
0.0
  0
LINE
  5
1048
  8
DIM
  6
CONTINUOUS
 10
438.26071555780862
 20
139.56554446481201
 30
0.0
 11
438.26071555780862
 21
142.56554446481201
 31
0.0
  0
LINE
  5
1049
  8
DIM
  6
CONTINUOUS
 10
438.26071555780862
 20
128.56554446481221
 30
0.0
 11
438.26071555780862
 21
125.56554446481221
 31
0.0
  0
LINE
  5
104A
  8
DIM
  6
CONTINUOUS
 10
445.26071555780862
 20
136.56554446481209
 30
0.0
 11
437.26071555780862
 21
136.56554446481209
 31
0.0
  0
LINE
  5
104B
  8
DIM
  6
CONTINUOUS
 10
445.26071555780862
 20
131.56554446481221
 30
0.0
 11
437.26071555780862
 21
131.56554446481221
 31
0.0
  0
CIRCLE
  5
104C
  8
0
  6
CONTINUOUS
 10
456.26071555780868
 20
134.06554446481201
 30
0.0
 40
12.49999999999997
  0
CIRCLE
  5
104D
  8
0
  6
CONTINUOUS
 10
456.26071555780868
 20
134.06554446481201
 30
0.0
 40
2.0499999999999989
  0
ARC
  5
104E
  8
0
  6
CONTINUOUS
 62
     2
 10
456.26071555780862
 20
134.06554446481201
 30
0.0
 40
2.5
 50
159.98154856581121
 51
113.96364146022989
  0
LINE
  5
104F
  8
0
 10
446.26071555780868
 20
131.56554446481221
 30
0.0
 11
448.6613734810233
 21
131.56554446481221
 31
0.0
  0
LINE
  5
1050
  8
0
 10
446.26071555780862
 20
136.56554446481209
 30
0.0
 11
448.6613734810233
 21
136.56554446481209
 31
0.0
  0
LINE
  5
1051
  8
0
 10
446.26071555780862
 20
136.56554446481209
 30
0.0
 11
446.26071555780862
 21
131.56554446481209
 31
0.0
  0
CIRCLE
  5
1052
  8
0
  6
CONTINUOUS
 10
456.26071555780868
 20
134.06554446481201
 30
0.0
 40
6.9999999999999707
  0
CIRCLE
  5
1053
  8
0
  6
CONTINUOUS
 10
456.26071555780868
 20
134.06554446481201
 30
0.0
 40
7.9999999999999707
  0
LINE
  5
1054
  8
DIM
  6
CONTINUOUS
 10
461.54648921482487
 20
132.5708022660549
 30
0.0
 11
522.81437052373064
 21
118.24375280745031
 31
0.0
  0
SOLID
  5
1055
  8
DIM
  6
CONTINUOUS
 10
461.66033921793229
 20
133.0576679321193
 30
0.0
 11
461.43263921171763
 21
132.08393659999021
 31
0.0
 12
458.62529521843788
 22
133.25390228469911
 32
0.0
 13
458.62529521843788
 23
133.25390228469911
 33
0.0
  0
TEXT
  5
1056
  8
DIM
  6
CONTINUOUS
 10
524.11441852835378
 20
119.74375280745031
 30
0.0
 40
3.0
  1
M5x15L
  7
ROMANSS
 11
524.11441852835378
 21
121.24375280745031
 31
0.0
 73
     2
  0
LINE
  5
1057
  8
DIM
  6
CONTINUOUS
 10
522.81437052373064
 20
118.24375280745031
 30
0.0
 11
538.23941852835389
 21
118.24375280745031
 31
0.0
  0
ARC
  5
1058
  8
0
  6
CONTINUOUS
 10
181.40063726669081
 20
276.70547819388298
 30
0.0
 40
2.5
 50
0.0
 51
180.0
  0
LINE
  5
1059
  8
0
 10
173.40063726669081
 20
252.7054781938829
 30
0.0
 11
173.40063726669081
 21
281.70547819388293
 31
0.0
  0
LINE
  5
105A
  8
0
 10
189.40063726669081
 20
252.7054781938829
 30
0.0
 11
189.40063726669081
 21
281.70547819388293
 31
0.0
  0
LINE
  5
105B
  8
0
 10
191.40063726669081
 20
281.70547819388293
 30
0.0
 11
191.40063726669081
 21
282.70547819388298
 31
0.0
  0
LINE
  5
105C
  8
0
 10
171.40063726669081
 20
281.70547819388293
 30
0.0
 11
171.40063726669081
 21
282.70547819388298
 31
0.0
  0
LINE
  5
105D
  8
0
  6
CONTINUOUS
 10
191.40063726669081
 20
281.70547819388293
 30
0.0
 11
171.40063726669081
 21
281.70547819388293
 31
0.0
  0
ARC
  5
105E
  8
0
  6
CONTINUOUS
 10
181.40063726669081
 20
256.70547819388293
 30
0.0
 40
2.5
 50
180.0
 51
0.0
  0
LINE
  5
105F
  8
0
 10
178.90063726669081
 20
256.70547819388293
 30
0.0
 11
178.90063726669081
 21
276.70547819388298
 31
0.0
  0
LINE
  5
1060
  8
0
 10
183.90063726669081
 20
256.70547819388293
 30
0.0
 11
183.90063726669081
 21
276.70547819388298
 31
0.0
  0
LINE
  5
1061
  8
0
  6
CONTINUOUS
 10
188.40063726669081
 20
251.70547819388301
 30
0.0
 11
174.40063726669081
 21
251.70547819388301
 31
0.0
  0
LINE
  5
1062
  8
0
  6
CONTINUOUS
 10
189.40063726669081
 20
252.7054781938829
 30
0.0
 11
173.40063726669081
 21
252.7054781938829
 31
0.0
  0
LINE
  5
1063
  8
0
  6
CONTINUOUS
 10
188.40063726669081
 20
251.70547819388301
 30
0.0
 11
189.40063726669081
 21
252.7054781938829
 31
0.0
  0
LINE
  5
1064
  8
0
  6
CONTINUOUS
 10
174.40063726669081
 20
251.70547819388301
 30
0.0
 11
173.40063726669081
 21
252.7054781938829
 31
0.0
  0
LINE
  5
1065
  8
0
 10
723.1207938489265
 20
252.7054781938829
 30
0.0
 11
723.1207938489265
 21
281.70547819388293
 31
0.0
  0
LINE
  5
1066
  8
0
 10
739.1207938489265
 20
252.7054781938829
 30
0.0
 11
739.1207938489265
 21
281.70547819388293
 31
0.0
  0
LINE
  5
1067
  8
0
  6
CONTINUOUS
 10
721.12079384892638
 20
281.70547819388293
 30
0.0
 11
741.1207938489265
 21
281.70547819388293
 31
0.0
  0
LINE
  5
1068
  8
0
 10
741.1207938489265
 20
281.70547819388293
 30
0.0
 11
741.1207938489265
 21
282.70547819388298
 31
0.0
  0
LINE
  5
1069
  8
0
 10
721.12079384892638
 20
281.70547819388293
 30
0.0
 11
721.12079384892638
 21
282.70547819388298
 31
0.0
  0
SOLID
  5
106A
  8
DIM
  6
CONTINUOUS
 10
784.12079384892627
 20
254.7054781938829
 30
0.0
 11
785.12079384892616
 21
254.7054781938829
 31
0.0
 12
784.62079384892616
 22
251.70547819388301
 32
0.0
 13
784.62079384892616
 23
251.70547819388301
 33
0.0
  0
LINE
  5
106B
  8
DIM
  6
CONTINUOUS
 10
739.1207938489265
 20
251.70547819388301
 30
0.0
 11
785.62079384892616
 21
251.70547819388301
 31
0.0
  0
LINE
  5
106C
  8
0
  6
CONTINUOUS
 10
738.12079384892638
 20
251.70547819388301
 30
0.0
 11
739.1207938489265
 21
252.7054781938829
 31
0.0
  0
LINE
  5
106D
  8
0
  6
CONTINUOUS
 10
724.1207938489265
 20
251.70547819388301
 30
0.0
 11
723.1207938489265
 21
252.7054781938829
 31
0.0
  0
LINE
  5
106E
  8
0
  6
CONTINUOUS
 10
723.1207938489265
 20
252.7054781938829
 30
0.0
 11
739.1207938489265
 21
252.7054781938829
 31
0.0
  0
LINE
  5
106F
  8
0
  6
CONTINUOUS
 10
724.1207938489265
 20
251.70547819388301
 30
0.0
 11
738.12079384892638
 21
251.70547819388301
 31
0.0
  0
LINE
  5
1070
  8
0
 10
446.26071555780862
 20
254.2054781938829
 30
0.0
 11
446.26071555780862
 21
279.20547819388281
 31
0.0
  0
LINE
  5
1071
  8
0
 10
448.26071555780862
 20
252.70547819388281
 30
0.0
 11
448.26071555780862
 21
281.70547819388281
 31
0.0
  0
LINE
  5
1072
  8
0
 10
464.26071555780868
 20
252.70547819388281
 30
0.0
 11
464.26071555780862
 21
281.70547819388281
 31
0.0
  0
LINE
  5
1073
  8
0
 10
468.76071555780862
 20
281.70547819388281
 30
0.0
 11
468.76071555780862
 21
282.70547819388281
 31
0.0
  0
LINE
  5
1074
  8
0
 10
443.76071555780862
 20
281.70547819388281
 30
0.0
 11
443.76071555780862
 21
282.70547819388281
 31
0.0
  0
LINE
  5
1075
  8
0
  6
CONTINUOUS
 10
446.26071555780862
 20
279.20547819388281
 30
0.0
 11
448.26071555780862
 21
279.20547819388281
 31
0.0
  0
LINE
  5
1076
  8
0
  6
CONTINUOUS
 10
443.76071555780862
 20
281.70547819388281
 30
0.0
 11
468.76071555780862
 21
281.70547819388281
 31
0.0
  0
LINE
  5
1077
  8
0
  6
CONTINUOUS
 10
446.26071555780862
 20
254.20547819388281
 30
0.0
 11
448.26071555780868
 21
254.20547819388281
 31
0.0
  0
LINE
  5
1078
  8
0
  6
CONTINUOUS
 10
463.26071555780862
 20
251.70547819388281
 30
0.0
 11
464.26071555780868
 21
252.70547819388281
 31
0.0
  0
LINE
  5
1079
  8
0
  6
CONTINUOUS
 10
449.26071555780851
 20
251.70547819388281
 30
0.0
 11
448.26071555780862
 21
252.70547819388281
 31
0.0
  0
LINE
  5
107A
  8
0
  6
CONTINUOUS
 10
448.26071555780862
 20
252.70547819388281
 30
0.0
 11
464.26071555780862
 21
252.70547819388281
 31
0.0
  0
LINE
  5
107B
  8
0
  6
CONTINUOUS
 10
449.26071555780851
 20
251.70547819388281
 30
0.0
 11
463.26071555780862
 21
251.70547819388281
 31
0.0
  0
SOLID
  5
107C
  8
DIM
  6
CONTINUOUS
 10
403.76071555780851
 20
278.70547819388281
 30
0.0
 11
404.76071555780862
 21
278.70547819388281
 31
0.0
 12
404.26071555780862
 22
281.70547819388281
 32
0.0
 13
404.26071555780862
 23
281.70547819388281
 33
0.0
  0
LINE
  5
107D
  8
DIM
  6
CONTINUOUS
 10
404.26071555780862
 20
254.70547819388281
 30
0.0
 11
404.26071555780862
 21
289.68932088137052
 31
0.0
  0
SOLID
  5
107E
  8
DIM
  6
CONTINUOUS
 10
411.76071555780851
 20
276.20547819388281
 30
0.0
 11
412.76071555780862
 21
276.20547819388281
 31
0.0
 12
412.26071555780851
 22
279.20547819388281
 32
0.0
 13
412.26071555780851
 23
279.20547819388281
 33
0.0
  0
LINE
  5
107F
  8
DIM
  6
CONTINUOUS
 10
420.31914772036919
 20
282.70547819388281
 30
0.0
 11
403.26071555780862
 21
282.70547819388281
 31
0.0
  0
SOLID
  5
1080
  8
DIM
  6
CONTINUOUS
 10
403.76071555780851
 20
285.70547819388281
 30
0.0
 11
404.76071555780862
 21
285.70547819388281
 31
0.0
 12
404.26071555780862
 22
282.70547819388281
 32
0.0
 13
404.26071555780862
 23
282.70547819388281
 33
0.0
  0
LINE
  5
1081
  8
DIM
  6
CONTINUOUS
 10
442.76071555780862
 20
281.70547819388281
 30
0.0
 11
403.26071555780862
 21
281.70547819388281
 31
0.0
  0
LINE
  5
1082
  8
DIM
  6
CONTINUOUS
 10
445.26071555780851
 20
279.20547819388281
 30
0.0
 11
411.26071555780862
 21
279.20547819388281
 31
0.0
  0
SOLID
  5
1083
  8
DIM
  6
CONTINUOUS
 10
449.26071555780851
 20
235.20547819388281
 30
0.0
 11
449.26071555780851
 21
236.20547819388281
 31
0.0
 12
446.26071555780862
 22
235.70547819388281
 32
0.0
 13
446.26071555780862
 23
235.70547819388281
 33
0.0
  0
SOLID
  5
1084
  8
DIM
  6
CONTINUOUS
 10
461.26071555780862
 20
235.20547819388281
 30
0.0
 11
461.26071555780862
 21
236.20547819388281
 31
0.0
 12
464.26071555780868
 22
235.70547819388281
 32
0.0
 13
464.26071555780868
 23
235.70547819388281
 33
0.0
  0
LINE
  5
1085
  8
DIM
  6
CONTINUOUS
 10
461.26071555780862
 20
235.70547819388281
 30
0.0
 11
449.26071555780851
 21
235.70547819388281
 31
0.0
  0
LINE
  5
1086
  8
DIM
  6
CONTINUOUS
 10
446.26071555780862
 20
253.20547819388281
 30
0.0
 11
446.26071555780862
 21
234.70547819388281
 31
0.0
  0
LINE
  5
1087
  8
DIM
  6
CONTINUOUS
 10
464.26071555780868
 20
251.70547819388281
 30
0.0
 11
464.26071555780868
 21
234.70547819388281
 31
0.0
  0
LINE
  5
1088
  8
DIM
  6
CONTINUOUS
 10
464.26071555780868
 20
243.70547819388281
 30
0.0
 11
448.26071555780862
 21
243.70547819388281
 31
0.0
  0
SOLID
  5
1089
  8
DIM
  6
CONTINUOUS
 10
451.26071555780851
 20
243.20547819388281
 30
0.0
 11
451.26071555780851
 21
244.20547819388281
 31
0.0
 12
448.26071555780862
 22
243.70547819388281
 32
0.0
 13
448.26071555780862
 23
243.70547819388281
 33
0.0
  0
SOLID
  5
108A
  8
DIM
  6
CONTINUOUS
 10
461.26071555780868
 20
243.20547819388281
 30
0.0
 11
461.26071555780868
 21
244.20547819388281
 31
0.0
 12
464.26071555780868
 22
243.70547819388281
 32
0.0
 13
464.26071555780868
 23
243.70547819388281
 33
0.0
  0
LINE
  5
108B
  8
DIM
  6
CONTINUOUS
 10
448.26071555780862
 20
251.70547819388281
 30
0.0
 11
448.26071555780862
 21
242.70547819388281
 31
0.0
  0
SOLID
  5
108C
  8
DIM
  6
CONTINUOUS
 10
403.76071555780851
 20
254.70547819388281
 30
0.0
 11
404.76071555780862
 21
254.70547819388281
 31
0.0
 12
404.26071555780862
 22
251.70547819388281
 32
0.0
 13
404.26071555780862
 23
251.70547819388281
 33
0.0
  0
LINE
  5
108D
  8
DIM
  6
CONTINUOUS
 10
448.26071555780862
 20
251.70547819388281
 30
0.0
 11
403.26071555780862
 21
251.70547819388281
 31
0.0
  0
SOLID
  5
108E
  8
DIM
  6
CONTINUOUS
 10
411.76071555780851
 20
257.20547819388281
 30
0.0
 11
412.76071555780862
 21
257.20547819388281
 31
0.0
 12
412.26071555780851
 22
254.20547819388281
 32
0.0
 13
412.26071555780851
 23
254.20547819388281
 33
0.0
  0
LINE
  5
108F
  8
DIM
  6
CONTINUOUS
 10
412.26071555780851
 20
276.20547819388281
 30
0.0
 11
412.26071555780851
 21
257.20547819388281
 31
0.0
  0
LINE
  5
1090
  8
DIM
  6
CONTINUOUS
 10
445.26071555780851
 20
254.20547819388281
 30
0.0
 11
411.26071555780862
 21
254.20547819388281
 31
0.0
  0
TEXT
  5
1091
  8
DIM
  6
CONTINUOUS
 10
449.83924104380208
 20
245.20547819388281
 30
0.0
 40
3.0
  1
%%c16h6
  7
ROMANSS
 72
     1
 11
456.05352675808791
 21
246.70547819388281
 31
0.0
 73
     2
  0
TEXT
  5
1092
  8
DIM
  6
CONTINUOUS
 10
453.11785841495151
 20
237.20547819388281
 30
0.0
 40
3.0
  1
18
  7
ROMANSS
 72
     1
 11
455.26071555780862
 21
238.70547819388281
 31
0.0
 73
     2
  0
TEXT
  5
1093
  8
DIM
  6
CONTINUOUS
 10
402.76071555780862
 20
265.21075318635059
 30
0.0
 40
3.0
  1
30
 50
90.0
  7
ROMANSS
 72
     1
 11
401.26071555780862
 21
267.63932461492209
 31
0.0
 73
     2
  0
TEXT
  5
1094
  8
DIM
  6
CONTINUOUS
 10
410.76071555780862
 20
263.8283320569812
 30
0.0
 40
3.0
  1
25
 50
90.0
  7
ROMANSS
 72
     1
 11
409.26071555780862
 21
266.25690348555258
 31
0.0
 73
     2
  0
TEXT
  5
1095
  8
DIM
  6
CONTINUOUS
 10
402.76071555780862
 20
287.03804997833862
 30
0.0
 40
3.0
  1
1
 50
90.0
  7
ROMANSS
 72
     1
 11
401.26071555780862
 21
287.3951928354814
 31
0.0
 73
     2
  0
TEXT
  5
10A6
  8
LOGO
 62
     6
 10
641.95691154533881
 20
16.84260753351246
 30
0.0
 40
12.82868413362352
  1
作動角度
 41
0.9
  7
CHINESET
 72
     4
 11
665.0485429858611
 21
22.856579331882308
 31
0.0
  0
LINE
  5
10A7
  8
LOGO
 62
     6
 10
698.17608314476388
 20
-1.197203418661686
 30
0.0
 11
631.92100282695833
 21
-1.1972034186617859
 31
0.0
  0
LINE
  5
10A8
  8
LOGO
 62
     6
 10
698.17608314476388
 20
34.081677948802977
 30
0.0
 11
631.92100282695833
 21
34.081677948802977
 31
0.0
  0
TEXT
  5
10A9
  8
LOGO
  6
CONTINUOUS
 62
     6
 10
634.80950181374851
 20
4.1480816370146831
 30
0.0
 40
8.0179275835146981
  1
Rotary angle
 41
0.8
  7
CHINESET
 72
     4
 11
665.0485429858611
 21
6.8207241648529191
 31
0.0
  0
TEXT
  5
10AA
  8
LOGO
  6
CONTINUOUS
 62
     7
 10
647.45491944423122
 20
54.746442057883293
 30
0.0
 40
16.035855167029389
  1
180
  7
CHINESET
 72
     1
 11
666.54522321450418
 21
62.764369641397991
 31
0.0
 73
     2
  0
LINE
  5
10AB
  8
LOGO
 62
     6
 10
691.76174107795202
 20
77.378486899782374
 30
0.0
 11
638.33534489377007
 21
77.378486899782374
 31
0.0
  0
LINE
  5
10AC
  8
LOGO
 62
     6
 10
691.76174107795191
 20
48.513947599129423
 30
0.0
 11
638.33534489377007
 21
48.513947599129438
 31
0.0
  0
LINE
  5
10AD
  8
LOGO
 62
     1
 10
810.0
 20
87.0
 30
0.0
 11
120.0
 21
87.0
 31
0.0
  0
LINE
  5
10AE
  8
LOGO
 62
     1
 10
810.0
 20
-9.2151310021763901
 30
0.0
 11
120.0
 21
-9.2151310021763901
 31
0.0
  0
LINE
  5
10AF
  8
LOGO
  6
CONTINUOUS
 62
     6
 10
302.93808736930231
 20
61.429222148384653
 30
0.0
 11
320.4513719939203
 21
63.742518157153057
 31
0.0
  0
LINE
  5
10B0
  8
LOGO
  6
CONTINUOUS
 62
     6
 10
302.93808736930231
 20
54.882860224169143
 30
0.0
 11
320.4513719939203
 21
52.569564215400732
 31
0.0
  0
LINE
  5
10B1
  8
LOGO
 62
     1
 10
331.67328820478792
 20
67.756973799564733
 30
0.0
 11
190.5577627349293
 21
67.756973799564733
 31
0.0
  0
LINE
  5
10B2
  8
LOGO
 62
     1
 10
331.67328820478792
 20
48.513947599129438
 30
0.0
 11
190.5577627349293
 21
48.513947599129438
 31
0.0
  0
TEXT
  5
10B3
  8
LOGO
 62
     6
 10
281.9637236468796
 20
72.567730349673553
 30
0.0
 40
9.6215131002176388
  1
1 : 1
  7
CHINESET
 72
     1
 11
298.91591339488212
 21
77.378486899782374
 31
0.0
 73
     2
  0
TEXT
  5
10B4
  8
LOGO
 62
     6
 10
281.9637236468796
 20
34.081677948802991
 30
0.0
 40
9.6215131002176388
  1
m/m
  7
CHINESET
 72
     1
 11
298.91591339488212
 21
38.892434498911811
 31
0.0
 73
     2
  0
LINE
  5
10B5
  8
LOGO
 62
     1
 10
331.67328820478792
 20
29.270921398694281
 30
0.0
 11
119.9999999999999
 21
29.270921398694281
 31
0.0
  0
TEXT
  5
10B6
  8
LOGO
  6
CONTINUOUS
 62
     5
 10
123.14928368835
 20
9.6861862819081068
 30
0.0
 40
14.43226965032645
  1
金器工業股份有限公司
 41
0.8
  7
LOGO
  0
TEXT
  5
10B7
  8
LOGO
  6
CONTINUOUS
 62
     5
 10
127.2818152446952
 20
-4.7489109617361711
 30
0.0
 40
9.6215131002176388
  1
MINDMAN INDUSTRIAL CO.,LTD
 41
0.85
  7
CHINESET
  0
SOLID
  5
10B8
  8
LOGO
 62
     5
 10
129.982474255017
 20
45.265317413259439
 30
0.0
 11
134.1425640510472
 21
45.265317413258067
 31
0.0
 12
151.50018009655449
 22
84.71444478941018
 32
0.0
 13
155.6602698925843
 23
84.714444789407437
 33
0.0
  0
SOLID
  5
10B9
  8
LOGO
 62
     5
 10
135.8639805183727
 20
45.265317413259439
 30
0.0
 11
140.02407031440251
 21
45.265317413259439
 31
0.0
 12
155.6602698925843
 22
81.55851459931668
 32
0.0
 13
151.50018009655449
 23
66.304852013871255
 33
0.0
  0
SOLID
  5
10BA
  8
LOGO
 62
     2
 10
134.1425640510472
 20
45.265317413258067
 30
0.0
 11
135.8639805183727
 21
45.265317413259439
 31
0.0
 12
155.6602698925843
 22
84.714444789407437
 32
0.0
 13
157.3816863599084
 23
84.714444789407437
 33
0.0
  0
SOLID
  5
10BB
  8
LOGO
 62
     5
 10
134.26126217242481
 20
38.092748799413741
 30
0.0
 11
135.6957758951925
 21
38.092748799413741
 31
0.0
 12
134.26126217242481
 22
30.920180185569379
 32
0.0
 13
135.6957758951925
 23
30.920180185569379
 33
0.0
  0
SOLID
  5
10BC
  8
LOGO
 62
     5
 10
123.3128301329979
 20
30.920180185569379
 30
0.0
 11
124.74734385576851
 21
30.920180185569379
 31
0.0
 12
128.7870461527105
 22
38.092748799413741
 32
0.0
 13
130.2215598754785
 23
38.092748799413741
 33
0.0
  0
SOLID
  5
10BD
  8
LOGO
 62
     5
 10
128.7870461527105
 20
38.092748799413741
 30
0.0
 11
130.2215598754785
 21
38.092748799413741
 31
0.0
 12
128.7870461527105
 22
30.920180185569379
 32
0.0
 13
130.2215598754785
 23
30.920180185569379
 33
0.0
  0
SOLID
  5
10BE
  8
LOGO
 62
     5
 10
128.7870461527105
 20
30.920180185569379
 30
0.0
 11
130.2215598754785
 21
30.920180185569379
 31
0.0
 12
134.26126217242481
 22
38.092748799413741
 32
0.0
 13
135.6957758951925
 23
38.092748799413741
 33
0.0
  0
LINE
  5
10BF
  8
LOGO
 62
     1
 10
120.0
 20
-9.2151310021763901
 30
0.0
 11
120.0
 21
87.0
 31
0.0
  0
TEXT
  5
10C0
  8
LOGO
 62
     6
 10
198.49121572426051
 20
72.572465346277994
 30
0.0
 40
9.6215131002176388
  1
比例 Scale:
 41
0.9
  7
CHINESET
 72
     4
 11
229.0438151357998
 21
77.378486899782374
 31
0.0
  0
TEXT
  5
10C1
  8
LOGO
 62
     6
 10
201.8544499909884
 20
53.4600461355151
 30
0.0
 40
9.6215131002176388
  1
投影 View:
 41
0.9
  7
CHINESET
 72
     4
 11
229.0438151357998
 21
58.135460699347078
 31
0.0
  0
TEXT
  5
10C2
  8
LOGO
 62
     6
 10
202.79512470926861
 20
34.081677948802991
 30
0.0
 40
9.6215131002176388
  1
單位 Unit:
 41
0.9
  7
CHINESET
 72
     4
 11
229.0438151357998
 21
38.892434498911811
 31
0.0
  0
POLYLINE
  5
10C3
  8
LOGO
 62
     5
 66
     1
 10
0.0
 20
0.0
 30
0.0
 70
     1
 40
1.436812622965834
 41
1.436812622965834
  0
VERTEX
  5
1571
  8
LOGO
 62
     5
 10
169.1880138445604
 20
34.506464492490842
 30
0.0
 42
1.0
  0
VERTEX
  5
1572
  8
LOGO
 62
     5
 10
174.93526433642359
 20
34.506464492490842
 30
0.0
 42
1.0
  0
SEQEND
  5
1573
  8
LOGO
 62
     5
  0
LINE
  5
10C4
  8
LOGO
 62
     5
 10
183.05948199747399
 20
30.920180185569379
 30
0.0
 11
183.05948199747399
 21
35.223721353875412
 31
0.0
  0
SOLID
  5
10C5
  8
LOGO
 62
     5
 10
174.21326622327661
 20
38.092748799413741
 30
0.0
 11
175.64777994604449
 21
38.092748799413741
 31
0.0
 12
174.21326622327661
 22
30.920180185569379
 32
0.0
 13
175.64777994604449
 23
30.920180185569379
 33
0.0
  0
SOLID
  5
10C6
  8
LOGO
 62
     5
 10
177.32142710639749
 20
30.920180185569379
 30
0.0
 11
178.75594082916791
 21
30.920180185569379
 31
0.0
 12
177.32142710639749
 22
38.092748799413741
 32
0.0
 13
178.75594082916791
 23
38.092748799413741
 33
0.0
  0
SOLID
  5
10C7
  8
LOGO
 62
     5
 10
181.62496827470639
 20
35.223721353875412
 30
0.0
 11
183.05948199747399
 21
35.22372135387522
 31
0.0
 12
181.62496827470639
 22
30.920180185569379
 32
0.0
 13
183.05948199747399
 23
30.920180185569379
 33
0.0
  0
SOLID
  5
10C8
  8
LOGO
 62
     5
 10
153.65180722933681
 20
40.244519383568111
 30
0.0
 11
155.0863209521045
 21
40.244519383568111
 31
0.0
 12
153.65180722933681
 22
30.920180185569379
 32
0.0
 13
155.0863209521045
 23
30.920180185569379
 33
0.0
  0
SOLID
  5
10C9
  8
LOGO
 62
     5
 10
156.75996811246171
 20
38.092748799413741
 30
0.0
 11
158.19448183522951
 21
38.092748799413741
 31
0.0
 12
156.75996811246171
 22
30.920180185569379
 32
0.0
 13
158.19448183522951
 23
30.920180185569379
 33
0.0
  0
SOLID
  5
10CA
  8
LOGO
 62
     5
 10
161.06350928076779
 20
35.223721353875412
 30
0.0
 11
162.49802300353559
 21
35.223721353875412
 31
0.0
 12
161.06350928076779
 22
30.920180185569379
 32
0.0
 13
162.49802300353559
 23
30.920180185569379
 33
0.0
  0
SOLID
  5
10CB
  8
LOGO
 62
     5
 10
165.3670504490741
 20
35.223721353875412
 30
0.0
 11
166.80156417184179
 21
35.223721353875412
 31
0.0
 12
165.3670504490741
 22
30.92018018556664
 32
0.0
 13
166.80156417184179
 23
30.92018018556664
 33
0.0
  0
LINE
  5
10CC
  8
LOGO
 62
     1
 10
190.5577627349293
 20
29.270921398694171
 30
0.0
 11
190.5577627349293
 21
87.0
 31
0.0
  0
SOLID
  5
10CD
  8
LOGO
 62
     5
 10
140.50205028682939
 20
38.092748799413741
 30
0.0
 11
141.93656400959711
 21
38.092748799413741
 31
0.0
 12
140.50205028682939
 22
30.920180185569379
 32
0.0
 13
141.93656400959711
 23
30.920180185569379
 33
0.0
  0
SOLID
  5
10CE
  8
LOGO
 62
     5
 10
144.80559145513519
 20
35.223721353875412
 30
0.0
 11
146.2401051779056
 21
35.223721353875412
 31
0.0
 12
144.80559145513519
 22
30.920180185569379
 32
0.0
 13
146.2401051779056
 23
30.920180185569379
 33
0.0
  0
SOLID
  5
10CF
  8
LOGO
 62
     5
 10
137.39388940370421
 20
38.092748799413741
 30
0.0
 11
138.8284031264761
 21
38.092748799413741
 31
0.0
 12
137.39388940370421
 22
30.92018018556664
 32
0.0
 13
138.8284031264761
 23
30.920180185569379
 33
0.0
  0
POLYLINE
  5
10D0
  8
LOGO
 62
     5
 66
     1
 10
0.0
 20
0.0
 30
0.0
 70
     1
 40
1.436812622965834
 41
1.436812622965834
  0
VERTEX
  5
1574
  8
LOGO
 62
     5
 10
148.6265548506218
 20
34.506464492490842
 30
0.0
 42
1.0
  0
VERTEX
  5
1575
  8
LOGO
 62
     5
 10
154.3738053424853
 20
34.506464492490842
 30
0.0
 42
1.0
  0
SEQEND
  5
1576
  8
LOGO
 62
     5
  0
POLYLINE
  5
10D1
  8
LOGO
 62
     5
 66
     1
 10
0.0
 20
0.0
 30
0.0
 40
1.436812622965834
 41
1.436812622965834
  0
VERTEX
  5
1577
  8
LOGO
 62
     5
 10
182.34567348638609
 20
35.223721353875433
 30
0.0
 42
1.0
  0
VERTEX
  5
1578
  8
LOGO
 62
     5
 10
178.03523561748841
 20
35.223721353875433
 30
0.0
 42
1.0
  0
SEQEND
  5
1579
  8
LOGO
 62
     5
  0
SOLID
  5
10D2
  8
LOGO
 62
     5
 10
178.89939220144419
 20
45.265317413258067
 30
0.0
 11
183.05948199747399
 21
45.265317413258067
 31
0.0
 12
178.89939220144419
 22
84.714444789407437
 32
0.0
 13
183.05948199747399
 23
84.71444478941018
 33
0.0
  0
SOLID
  5
10D3
  8
LOGO
 62
     5
 10
157.3816863599084
 20
84.714444789407437
 30
0.0
 11
161.54177615593809
 21
84.71444478941018
 31
0.0
 12
157.3816863599084
 22
48.421247603350203
 32
0.0
 13
161.54177615593809
 23
63.674910188795643
 33
0.0
  0
SOLID
  5
10D4
  8
LOGO
 62
     5
 10
157.3816863599084
 20
48.421247603350203
 30
0.0
 11
161.54177615593809
 21
63.674910188795643
 31
0.0
 12
177.17797573412
 22
84.71444478941018
 32
0.0
 13
173.0178859380899
 23
84.71444478941018
 33
0.0
  0
SOLID
  5
10D5
  8
LOGO
 62
     5
 10
177.17797573412
 20
81.55851459931668
 30
0.0
 11
173.0178859380899
 21
66.304852013871255
 31
0.0
 12
177.17797573412
 22
45.265317413258067
 32
0.0
 13
173.0178859380899
 23
45.265317413258067
 33
0.0
  0
SOLID
  5
10D6
  8
LOGO
 62
     2
 10
177.17797573412
 20
84.71444478941018
 30
0.0
 11
178.89939220144419
 21
84.714444789407437
 31
0.0
 12
177.17797573412
 22
45.265317413258067
 32
0.0
 13
178.89939220144419
 23
45.265317413258067
 33
0.0
  0
SOLID
  5
10D7
  8
LOGO
 62
     5
 10
151.50018009655449
 20
45.265317413259439
 30
0.0
 11
155.6602698925843
 21
45.265317413259439
 31
0.0
 12
151.50018009655449
 22
66.304852013871255
 32
0.0
 13
155.6602698925843
 23
81.55851459931668
 33
0.0
  0
SOLID
  5
10D8
  8
LOGO
 62
     2
 10
155.6602698925843
 20
84.714444789407437
 30
0.0
 11
157.3816863599084
 21
84.714444789407437
 31
0.0
 12
155.6602698925843
 22
45.265317413259439
 32
0.0
 13
157.3816863599084
 23
45.265317413259439
 33
0.0
  0
SOLID
  5
10D9
  8
LOGO
 62
     5
 10
157.3816863599084
 20
45.265317413259439
 30
0.0
 11
161.54177615593809
 21
45.265317413259439
 31
0.0
 12
177.17797573412
 22
81.55851459931668
 32
0.0
 13
173.0178859380899
 23
66.304852013871255
 33
0.0
  0
SOLID
  5
10DA
  8
LOGO
 62
     2
 10
155.6602698925843
 20
45.265317413259439
 30
0.0
 11
157.3816863599084
 21
45.265317413259439
 31
0.0
 12
177.17797573412
 22
84.71444478941018
 32
0.0
 13
178.89939220144419
 23
84.714444789407437
 33
0.0
  0
POLYLINE
  5
10DB
  8
LOGO
 62
     5
 66
     1
 10
0.0
 20
0.0
 30
0.0
 40
1.436812622965834
 41
1.436812622965834
  0
VERTEX
  5
157A
  8
LOGO
 62
     5
 10
161.78421449244749
 20
35.223721353875433
 30
0.0
 42
1.0
  0
VERTEX
  5
157B
  8
LOGO
 62
     5
 10
157.47377662354981
 20
35.223721353875433
 30
0.0
 42
1.0
  0
SEQEND
  5
157C
  8
LOGO
 62
     5
  0
POLYLINE
  5
10DC
  8
LOGO
 62
     5
 66
     1
 10
0.0
 20
0.0
 30
0.0
 40
1.436812622965834
 41
1.436812622965834
  0
VERTEX
  5
157D
  8
LOGO
 62
     5
 10
145.5262966668152
 20
35.223721353875433
 30
0.0
 42
1.0
  0
VERTEX
  5
157E
  8
LOGO
 62
     5
 10
141.2158587979176
 20
35.223721353875433
 30
0.0
 42
1.0
  0
SEQEND
  5
157F
  8
LOGO
 62
     5
  0
SOLID
  5
10DD
  8
LOGO
 62
     5
 10
137.39388940370421
 20
39.096908405351449
 30
0.0
 11
138.8284031264761
 21
39.096908405351449
 31
0.0
 12
137.39388940370421
 22
40.244519383568111
 32
0.0
 13
138.8284031264761
 23
40.244519383568111
 33
0.0
  0
POLYLINE
  5
10DE
  8
LOGO
 62
     5
 66
     1
 10
0.0
 20
0.0
 30
0.0
 70
     1
  0
VERTEX
  5
1580
  8
LOGO
 62
     5
 10
169.909868506339
 20
34.506464492491538
 30
0.0
 42
1.0000000573306349
  0
VERTEX
  5
1581
  8
LOGO
 62
     5
 10
174.2134096746469
 20
34.506464492491538
 30
0.0
 42
1.0000000573306349
  0
SEQEND
  5
1582
  8
LOGO
 62
     5
  0
CIRCLE
  5
10DF
  8
LOGO
 62
     5
 10
172.06163909049289
 20
34.506464492491538
 30
0.0
 40
2.151770584153633
  0
POLYLINE
  5
10E0
  8
LOGO
 62
     5
 66
     1
 10
0.0
 20
0.0
 30
0.0
 40
1.436812622965834
 41
1.436812622965834
  0
VERTEX
  5
1583
  8
LOGO
 62
     5
 10
166.0877556607536
 20
35.223721353875433
 30
0.0
 42
1.0
  0
VERTEX
  5
1584
  8
LOGO
 62
     5
 10
161.77731779185601
 20
35.223721353875433
 30
0.0
 42
1.0
  0
SEQEND
  5
1585
  8
LOGO
 62
     5
  0
LINE
  5
10E1
  8
LOGO
 62
     1
 10
267.52986753667039
 20
29.270921398694171
 30
0.0
 11
267.52986753667039
 21
87.0
 31
0.0
  0
CIRCLE
  5
10E2
  8
LOGO
  6
CONTINUOUS
 62
     6
 10
285.34530248155841
 20
58.156041186276887
 30
0.0
 40
5.586476970876161
  0
CIRCLE
  5
10E3
  8
LOGO
  6
CONTINUOUS
 62
     6
 10
285.34530248155841
 20
58.156041186276887
 30
0.0
 40
3.2731809621077641
  0
LINE
  5
10E4
  8
LOGO
 62
     6
 10
302.93808736930248
 20
54.882860224169143
 30
0.0
 11
302.93808736930231
 21
61.429222148384682
 31
0.0
  0
TEXT
  5
10E5
  8
LOGO
  6
CONTINUOUS
 62
     6
 10
487.22674003864108
 20
2.8117603730956549
 30
0.0
 40
8.0179275835146981
  1
Model
  7
CHINESET
 72
     4
 11
502.49898305485959
 21
6.8207241648530044
 31
0.0
  0
TEXT
  5
10E6
  8
LOGO
  6
CONTINUOUS
 62
     7
 10
473.09991524863909
 20
54.9282896659412
 30
0.0
 40
16.035855167029389
  1
MRTH
  7
CHINESET
 72
     1
 11
502.49898305485959
 21
62.946217249455898
 31
0.0
 73
     2
  0
LINE
  5
10E7
  8
LOGO
 62
     6
 10
540.98503545573021
 20
77.378486899782374
 30
0.0
 11
464.01293065398909
 21
77.378486899782374
 31
0.0
  0
LINE
  5
10E8
  8
LOGO
 62
     6
 10
540.98503545573021
 20
48.513947599129438
 30
0.0
 11
464.01293065398909
 21
48.513947599129438
 31
0.0
  0
LINE
  5
10E9
  8
LOGO
 62
     6
 10
534.57069338891824
 20
34.081677948802977
 30
0.0
 11
470.42727272080077
 21
34.081677948802977
 31
0.0
  0
LINE
  5
10EA
  8
LOGO
 62
     6
 10
534.57069338891824
 20
-1.1972034186617151
 30
0.0
 11
470.42727272080077
 21
-1.1972034186617859
 31
0.0
  0
TEXT
  5
10EB
  8
LOGO
 62
     7
 10
339.54896699571628
 20
62.909919395501682
 30
0.0
 40
19.243026200435271
  1
訂購代號:
  7
CHINESET
  0
TEXT
  5
10EC
  8
LOGO
 62
     7
 10
337.24739497324288
 20
44.849788348302781
 30
0.0
 40
12.82868413362352
  1
Order example:
 41
0.8
  7
CHINESET
  0
LINE
  5
10ED
  8
LOGO
 62
     1
 10
331.67328820478792
 20
-9.2151310021763901
 30
0.0
 11
331.67328820478792
 21
87.0
 31
0.0
  0
LINE
  5
10EE
  8
LOGO
 62
     6
 10
320.4513719939203
 20
52.569564215400732
 30
0.0
 11
320.4513719939203
 21
63.742518157153057
 31
0.0
  0
LINE
  5
10EF
  8
LOGO
 62
     6
 10
470.42727272080077
 20
34.081677948802977
 30
0.0
 11
470.42727272080077
 21
-1.1972034186617859
 31
0.0
  0
LINE
  5
10F0
  8
LOGO
 62
     6
 10
464.01293065398909
 20
77.378486899782374
 30
0.0
 11
464.01293065398909
 21
48.513947599129438
 31
0.0
  0
TEXT
  5
10F1
  8
LOGO
  6
CONTINUOUS
 62
     7
 10
578.39427527206408
 20
54.746442057883471
 30
0.0
 40
16.035855167029389
  1
40
  7
CHINESET
 72
     1
 11
591.37568183584995
 21
62.764369641398183
 31
0.0
 73
     2
  0
LINE
  5
10F2
  8
LOGO
 62
     6
 10
615.62521495389058
 20
-1.1972034186615159
 30
0.0
 11
564.13278826052226
 21
-1.197203418661587
 31
0.0
  0
LINE
  5
10F3
  8
LOGO
 62
     6
 10
615.62521495389058
 20
48.513947599129629
 30
0.0
 11
564.13278826052226
 21
48.513947599129629
 31
0.0
  0
LINE
  5
10F4
  8
LOGO
 62
     6
 10
615.62521495389058
 20
34.081677948803161
 30
0.0
 11
564.13278826052226
 21
34.081677948803161
 31
0.0
  0
LINE
  5
10F5
  8
LOGO
 62
     6
 10
615.62521495389058
 20
77.378486899782715
 30
0.0
 11
564.13278826052226
 21
77.37848689978253
 31
0.0
  0
LINE
  5
10F6
  8
LOGO
 62
     6
 10
564.13278826052226
 20
34.081677948803161
 30
0.0
 11
564.13278826052226
 21
-1.1972034186615159
 31
0.0
  0
LINE
  5
10F7
  8
LOGO
 62
     6
 10
534.57069338891836
 20
34.081677948802977
 30
0.0
 11
534.57069338891836
 21
-1.197203418661686
 31
0.0
  0
TEXT
  5
10F8
  8
LOGO
 62
     6
 10
489.67029892123611
 20
16.770530362978331
 30
0.0
 40
12.82868413362352
  1
型式
  7
CHINESET
 72
     4
 11
502.49898305485959
 21
22.856579331882401
 31
0.0
  0
LINE
  5
10F9
  8
LOGO
 62
     6
 10
502.49898305485959
 20
48.513947599129438
 30
0.0
 11
502.49898305485959
 21
34.081677948802977
 31
0.0
  0
LINE
  5
10FA
  8
LOGO
 62
     6
 10
564.13278826052226
 20
77.37848689978253
 30
0.0
 11
564.13278826052226
 21
48.513947599129629
 31
0.0
  0
LINE
  5
10FB
  8
LOGO
 62
     6
 10
540.98503545573021
 20
77.378486899782374
 30
0.0
 11
540.98503545573021
 21
48.513947599129438
 31
0.0
  0
LINE
  5
10FC
  8
LOGO
  6
CONTINUOUS
 62
     7
 10
546.39558465157961
 20
62.843974489577711
 30
0.0
 11
559.14111198650846
 21
62.843974489577711
 31
0.0
  0
LINE
  5
10FD
  8
LOGO
 62
     6
 10
631.92100282695833
 20
34.081677948802977
 30
0.0
 11
631.92100282695833
 21
-1.1972034186617859
 31
0.0
  0
LINE
  5
10FE
  8
LOGO
 62
     6
 10
615.62521495389058
 20
34.081677948803161
 30
0.0
 11
615.62521495389058
 21
-1.197203418661416
 31
0.0
  0
TEXT
  5
10FF
  8
LOGO
  6
CONTINUOUS
 62
     6
 10
579.95204364666461
 20
2.811760373095753
 30
0.0
 40
8.0179275835146981
  1
Bore
 41
0.8
  7
CHINESET
 72
     4
 11
589.87900160720665
 21
6.820724164853103
 31
0.0
  0
TEXT
  5
1100
  8
LOGO
 62
     6
 10
577.61157240442913
 20
16.442237265070741
 30
0.0
 40
12.82868413362352
  1
內徑
 41
0.9
  7
CHINESET
 72
     4
 11
589.87900160720665
 21
22.8565793318825
 31
0.0
  0
LINE
  5
1101
  8
LOGO
  6
CONTINUOUS
 62
     7
 10
620.59814128482742
 20
62.843974489577867
 30
0.0
 11
633.34366861975661
 21
62.843974489577867
 31
0.0
  0
LINE
  5
1102
  8
LOGO
 62
     6
 10
615.62521495389058
 20
77.378486899782715
 30
0.0
 11
615.62521495389058
 21
48.513947599129629
 31
0.0
  0
LINE
  5
1103
  8
LOGO
 62
     6
 10
589.87900086768263
 20
48.513947599129629
 30
0.0
 11
589.87900086768263
 21
34.081677948803161
 31
0.0
  0
LINE
  5
1104
  8
LOGO
 62
     6
 10
638.3353448937703
 20
77.378486899782374
 30
0.0
 11
638.33534489377007
 21
48.513947599129438
 31
0.0
  0
LINE
  5
1105
  8
LOGO
 62
     6
 10
665.7277926900897
 20
48.513947599129438
 30
0.0
 11
665.7277926900897
 21
34.081677948802977
 31
0.0
  0
TEXT
  5
1106
  8
LOGO
 62
     6
 10
732.15765220411902
 20
16.994653535588579
 30
0.0
 40
12.82868413362352
  1
雙心轉軸
 41
0.9
  7
CHINESET
 72
     4
 11
755.36955255839405
 21
22.8565793318826
 31
0.0
  0
LINE
  5
1107
  8
LOGO
 62
     6
 10
802.27442892195495
 20
-1.197203418661416
 30
0.0
 11
708.46467619483303
 21
-1.1972034186615159
 31
0.0
  0
LINE
  5
1108
  8
LOGO
 62
     6
 10
802.27442892195495
 20
34.081677948803161
 30
0.0
 11
708.46467619483303
 21
34.081677948803161
 31
0.0
  0
TEXT
  5
1109
  8
LOGO
  6
CONTINUOUS
 62
     6
 10
723.75600951482181
 20
4.148081637014954
 30
0.0
 40
8.0179275835146981
  1
End rod type
 41
0.8
  7
CHINESET
 72
     4
 11
755.36955255839405
 21
6.8207241648531891
 31
0.0
  0
LINE
  5
110A
  8
LOGO
 62
     6
 10
708.46467619483303
 20
34.081677948803161
 30
0.0
 11
708.46467619483303
 21
-1.1972034186615159
 31
0.0
  0
LINE
  5
110B
  8
LOGO
 62
     6
 10
698.17608314476388
 20
34.081677948802977
 30
0.0
 11
698.17608314476388
 21
-1.33022819406834
 31
0.0
  0
LINE
  5
110C
  8
LOGO
 62
     6
 10
691.76174107795202
 20
77.378486899782374
 30
0.0
 11
691.76174107795191
 21
48.513947599129423
 31
0.0
  0
LINE
  5
110D
  8
LOGO
  6
CONTINUOUS
 62
     7
 10
697.44367025692702
 20
62.843974489577711
 30
0.0
 11
710.18919759185621
 21
62.843974489577711
 31
0.0
  0
TEXT
  5
110E
  8
LOGO
  6
CONTINUOUS
 62
     7
 10
724.58432522106818
 20
54.746442057883293
 30
0.0
 40
16.035855167029389
  1
D
  7
CHINESET
 72
     1
 11
729.9296102767446
 21
62.764369641397991
 31
0.0
 73
     2
  0
LINE
  5
110F
  8
LOGO
 62
     6
 10
744.13820307683625
 20
77.37848689978253
 30
0.0
 11
744.13820307683625
 21
48.513947599129438
 31
0.0
  0
LINE
  5
1110
  8
LOGO
 62
     6
 10
714.93344288910657
 20
77.37848689978253
 30
0.0
 11
714.93344288910657
 21
48.513947599129438
 31
0.0
  0
LINE
  5
1111
  8
LOGO
 62
     6
 10
744.13820307683625
 20
48.513947599129438
 30
0.0
 11
714.93344288910657
 21
48.513947599129438
 31
0.0
  0
LINE
  5
1112
  8
LOGO
 62
     6
 10
729.53582298297113
 20
48.513947599129438
 30
0.0
 11
729.53582298297113
 21
34.081677948803161
 31
0.0
  0
LINE
  5
1113
  8
LOGO
 62
     6
 10
744.13820307683625
 20
77.37848689978253
 30
0.0
 11
714.93344288910657
 21
77.37848689978253
 31
0.0
  0
LINE
  5
1114
  8
LOGO
 62
     6
 10
802.27442892195495
 20
34.081677948803161
 30
0.0
 11
802.27442892195495
 21
-1.197203418661416
 31
0.0
  0
LINE
  5
1115
  8
LOGO
 62
     1
 10
810.0
 20
-9.2151310021763901
 30
0.0
 11
810.0
 21
87.0
 31
0.0
  0
ENDSEC
  0
EOF
