  0
SECTION
  2
HEADER
  9
$ACADVER
  1
AC1009
  9
$INSBASE
 10
0.0
 20
0.0
 30
0.0
  9
$EXTMIN
 10
129.9426290601757
 20
-22.99465806758348
 30
-0.0015258207003583
  9
$EXTMAX
 10
810.03296090526635
 20
567.00824109768519
 30
0.0000000349246037
  9
$LIMMIN
 10
0.0
 20
0.0
  9
$LIMMAX
 10
840.0
 20
594.0
  9
$ORTHOMODE
 70
     1
  9
$REGENMODE
 70
     1
  9
$FILLMODE
 70
     1
  9
$QTEXTMODE
 70
     0
  9
$MIRRTEXT
 70
     1
  9
$DRAGMODE
 70
     2
  9
$LTSCALE
 40
1.0
  9
$OSMODE
 70
    39
  9
$ATTMODE
 70
     1
  9
$TEXTSIZE
 40
3.0
  9
$TRACEWID
 40
0.05
  9
$TEXTSTYLE
  7
ITALICT
  9
$CLAYER
  8
0
  9
$CELTYPE
  6
CONTINUOUS
  9
$CECOLOR
 62
   256
  9
$DIMSCALE
 40
1.0
  9
$DIMASZ
 40
3.0
  9
$DIMEXO
 40
1.0
  9
$DIMDLI
 40
1.6471290567571920E+015
  9
$DIMRND
 40
0.0
  9
$DIMDLE
 40
0.0
  9
$DIMEXE
 40
1.0
  9
$DIMTP
 40
0.15
  9
$DIMTM
 40
-0.1
  9
$DIMTXT
 40
3.0
  9
$DIMCEN
 40
2.0
  9
$DIMTSZ
 40
0.0
  9
$DIMTOL
 70
     0
  9
$DIMLIM
 70
     0
  9
$DIMTIH
 70
     0
  9
$DIMTOH
 70
     0
  9
$DIMSE1
 70
     0
  9
$DIMSE2
 70
     0
  9
$DIMTAD
 70
     1
  9
$DIMZIN
 70
     0
  9
$DIMBLK
  1

  9
$DIMASO
 70
     0
  9
$DIMSHO
 70
     0
  9
$DIMPOST
  1

  9
$DIMAPOST
  1

  9
$DIMALT
 70
     0
  9
$DIMALTD
 70
     2
  9
$DIMALTF
 40
25.399999999999999
  9
$DIMLFAC
 40
1.0
  9
$DIMTOFL
 70
     1
  9
$DIMTVP
 40
1.0
  9
$DIMTIX
 70
     0
  9
$DIMSOXD
 70
     0
  9
$DIMSAH
 70
     0
  9
$DIMBLK1
  1

  9
$DIMBLK2
  1

  9
$DIMSTYLE
  2
STANDARD
  9
$DIMCLRD
 70
     0
  9
$DIMCLRE
 70
     0
  9
$DIMCLRT
 70
     0
  9
$DIMTFAC
 40
1.0
  9
$DIMGAP
 40
0.09
  9
$LUNITS
 70
     2
  9
$LUPREC
 70
     2
  9
$SKETCHINC
 40
0.1
  9
$FILLETRAD
 40
0.75
  9
$AUNITS
 70
     0
  9
$AUPREC
 70
     2
  9
$MENU
  1
ACAD
  9
$ELEVATION
 40
0.0
  9
$PELEVATION
 40
0.0
  9
$THICKNESS
 40
0.0
  9
$LIMCHECK
 70
     0
  9
$BLIPMODE
 70
     0
  9
$CHAMFERA
 40
0.0
  9
$CHAMFERB
 40
0.0
  9
$SKPOLY
 70
     1
  9
$TDCREATE
 40
2450580.7034460641
  9
$TDUPDATE
 40
2451939.4031912959
  9
$TDINDWG
 40
0.093149375
  9
$TDUSRTIMER
 40
0.093149375
  9
$USRTIMER
 70
     1
  9
$ANGBASE
 50
0.0
  9
$ANGDIR
 70
     0
  9
$PDMODE
 70
     0
  9
$PDSIZE
 40
0.0
  9
$PLINEWID
 40
0.0
  9
$COORDS
 70
     2
  9
$SPLFRAME
 70
     0
  9
$SPLINETYPE
 70
     6
  9
$SPLINESEGS
 70
     8
  9
$ATTDIA
 70
     0
  9
$ATTREQ
 70
     1
  9
$HANDLING
 70
 12289
  9
$HANDSEED
  5
152B
  9
$SURFTAB1
 70
     6
  9
$SURFTAB2
 70
     6
  9
$SURFTYPE
 70
     6
  9
$SURFU
 70
     6
  9
$SURFV
 70
     6
  9
$UCSNAME
  2

  9
$UCSORG
 10
0.0
 20
0.0
 30
0.0
  9
$UCSXDIR
 10
1.0
 20
0.0
 30
0.0
  9
$UCSYDIR
 10
0.0
 20
1.0
 30
0.0
  9
$PUCSNAME
  2

  9
$PUCSORG
 10
0.0
 20
0.0
 30
0.0
  9
$PUCSXDIR
 10
1.0
 20
0.0
 30
0.0
  9
$PUCSYDIR
 10
0.0
 20
1.0
 30
0.0
  9
$USERI1
 70
     0
  9
$USERI2
 70
-31485
  9
$USERI3
 70
     0
  9
$USERI4
 70
     0
  9
$USERI5
 70
     0
  9
$USERR1
 40
0.0
  9
$USERR2
 40
0.0
  9
$USERR3
 40
0.0
  9
$USERR4
 40
0.0
  9
$USERR5
 40
0.0
  9
$WORLDVIEW
 70
     1
  9
$SHADEDGE
 70
     3
  9
$SHADEDIF
 70
    70
  9
$TILEMODE
 70
     1
  9
$MAXACTVP
 70
    64
  9
$PLIMCHECK
 70
     0
  9
$PEXTMIN
 10
1.0000000000000000E+020
 20
1.0000000000000000E+020
 30
1.0000000000000000E+020
  9
$PEXTMAX
 10
-1.0000000000000000E+020
 20
-1.0000000000000000E+020
 30
-1.0000000000000000E+020
  9
$PLIMMIN
 10
0.0
 20
0.0
  9
$PLIMMAX
 10
12.0
 20
9.0
  9
$UNITMODE
 70
     0
  9
$VISRETAIN
 70
     1
  9
$PLINEGEN
 70
     0
  9
$PSLTSCALE
 70
     0
  0
ENDSEC
  0
SECTION
  2
TABLES
  0
TABLE
  2
VPORT
 70
     2
  0
VPORT
  2
*ACTIVE
 70
     0
 10
0.0
 20
0.0
 11
1.0
 21
1.0
 12
469.98779498272103
 22
272.00679151505079
 13
0.0
 23
0.0
 14
1.0
 24
1.0
 15
0.0
 25
0.0
 16
0.0
 26
0.0
 36
1.0
 17
0.0
 27
0.0
 37
0.0
 40
596.51028408253273
 41
1.7274401473296499
 42
1.0
 43
0.0
 44
0.0
 50
0.0
 51
0.0
 71
     0
 72
   100
 73
     1
 74
     1
 75
     0
 76
     0
 77
     0
 78
     0
  0
ENDTAB
  0
TABLE
  2
LTYPE
 70
     3
  0
LTYPE
  2
CONTINUOUS
 70
     0
  3
Solid line
 72
    65
 73
     0
 40
0.0
  0
LTYPE
  2
CENTER
 70
     0
  3
_______________ _ _______________ _ ___________
 72
    65
 73
     4
 40
18.0
 49
15.0
 49
-1.0
 49
1.0
 49
-1.0
  0
LTYPE
  2
HIDDEN
 70
     0
  3
___ ___ ___ ___ ___ ___ ___ ___ ___ ___ 
 72
    65
 73
     2
 40
4.0
 49
3.0
 49
-1.0
  0
ENDTAB
  0
TABLE
  2
LAYER
 70
     5
  0
LAYER
  2
0
 70
     0
 62
     7
  6
CONTINUOUS
  0
LAYER
  2
CENTER
 70
     0
 62
     1
  6
CENTER
  0
LAYER
  2
DIM
 70
     0
 62
     5
  6
CONTINUOUS
  0
LAYER
  2
HIDDEN
 70
     0
 62
     6
  6
HIDDEN
  0
LAYER
  2
LOGO
 70
     0
 62
     7
  6
CONTINUOUS
  0
ENDTAB
  0
TABLE
  2
STYLE
 70
     8
  0
STYLE
  2
STANDARD
 70
     0
 40
0.0
 41
1.0
 50
0.0
 71
     0
 42
3.0
  3
txt
  4

  0
STYLE
  2
ITALICT
 70
     0
 40
0.0
 41
1.0
 50
0.0
 71
     0
 42
3.0
  3
ITALICT.SHX
  4

  0
STYLE
  2
ROMANSS
 70
     0
 40
0.0
 41
1.0
 50
0.0
 71
     0
 42
3.0
  3
ROMANSS.SHX
  4
LMP
  0
STYLE
  2
CHINESET
 70
     0
 40
0.0
 41
1.0
 50
0.0
 71
     0
 42
4.0
  3
C:\r13\com\fonts\simplex.shx
  4
C:\r13\com\fonts\chineset.shx
  0
STYLE
  2
LOGO
 70
     0
 40
0.0
 41
1.0
 50
0.0
 71
     0
 42
5.0
  3
txt
  4

  0
ENDTAB
  0
TABLE
  2
VIEW
 70
     0
  0
ENDTAB
  0
TABLE
  2
UCS
 70
     0
  0
ENDTAB
  0
TABLE
  2
APPID
 70
     2
  0
APPID
  2
ACAD
 70
     0
  0
APPID
  2
TCAD
 70
     0
  0
ENDTAB
  0
TABLE
  2
DIMSTYLE
 70
     1
  0
DIMSTYLE
  2
STANDARD
 70
     0
  3

  4

  5

  6

  7

 40
1.0
 41
0.18
 42
0.0625
 43
0.38
 44
0.18
 45
0.0
 46
0.0
 47
0.0
 48
0.0
140
0.18
141
0.09
142
0.0
143
25.399999999999999
144
1.0
145
0.0
146
1.0
147
0.09
 71
     0
 72
     0
 73
     1
 74
     1
 75
     0
 76
     0
 77
     0
 78
     0
170
     0
171
     2
172
     0
173
     0
174
     0
175
     0
176
     0
177
     0
178
     0
  0
ENDTAB
  0
ENDSEC
  0
SECTION
  2
BLOCKS
  0
BLOCK
  8
0
  2
$MODEL_SPACE
 70
     0
 10
0.0
 20
0.0
 30
0.0
  3
$MODEL_SPACE
  1

  0
ENDBLK
  5
3F
  8
0
  0
BLOCK
 67
     1
  8
0
  2
$PAPER_SPACE
 70
     0
 10
0.0
 20
0.0
 30
0.0
  3
$PAPER_SPACE
  1

  0
ENDBLK
  5
3D
 67
     1
  8
0
  0
ENDSEC
  0
SECTION
  2
ENTITIES
  0
LINE
  5
B25
  8
0
 62
     4
 10
810.0
 20
567.0
 30
0.0
 11
810.0
 21
87.0
 31
0.0
  0
LINE
  5
B26
  8
0
 62
     4
 10
130.0
 20
87.0
 30
0.0
 11
130.0
 21
567.0
 31
0.0
  0
LINE
  5
B27
  8
0
 62
     4
 10
810.0
 20
87.0
 30
0.0
 11
130.0
 21
87.0
 31
0.0
  0
LINE
  5
B29
  8
0
 62
     4
 10
130.0
 20
567.0
 30
0.0
 11
810.0
 21
567.0
 31
0.0
  0
LINE
  5
B32
  8
CENTER
  6
CENTER
 10
291.26071555780862
 20
193.1460982339463
 30
0.0
 11
631.87700834977966
 21
193.1460982339463
 31
0.0
  0
LINE
  5
B33
  8
0
 10
423.76071555780868
 20
217.34609823394629
 30
0.0
 11
328.26071555780862
 21
217.34609823394629
 31
0.0
  0
LINE
  5
B34
  8
0
 10
423.76071555780862
 20
168.94609823394629
 30
0.0
 11
328.26071555780868
 21
168.94609823394629
 31
0.0
  0
LINE
  5
B35
  8
0
 10
423.76071555780862
 20
181.34387393129441
 30
0.0
 11
328.26071555780868
 21
181.34387393129441
 31
0.0
  0
LINE
  5
B36
  8
0
 10
423.76071555780862
 20
204.94832253659811
 30
0.0
 11
328.26071555780868
 21
204.94832253659811
 31
0.0
  0
LINE
  5
B37
  8
CENTER
  6
CENTER
 10
291.26071555780862
 20
312.0259398252557
 30
0.0
 11
630.64813400425669
 21
312.0259398252557
 31
0.0
  0
LINE
  5
B38
  8
DIM
  6
CONTINUOUS
 10
285.55837233721871
 20
247.5259398252557
 30
0.0
 11
637.12416282147456
 21
247.5259398252557
 31
0.0
  0
LINE
  5
B39
  8
0
 10
423.76071555780862
 20
474.0835588526445
 30
0.0
 11
328.26071555780868
 21
474.0835588526445
 31
0.0
  0
LINE
  5
B3A
  8
0
 10
423.76071555780862
 20
461.68578315529629
 30
0.0
 11
328.26071555780868
 21
461.68578315529629
 31
0.0
  0
LINE
  5
B3B
  8
0
 10
423.76071555780862
 20
438.08133454999268
 30
0.0
 11
328.26071555780868
 21
438.08133454999268
 31
0.0
  0
LINE
  5
B3C
  8
0
 10
423.76071555780868
 20
425.68355885264452
 30
0.0
 11
328.26071555780862
 21
425.68355885264452
 31
0.0
  0
LINE
  5
B3D
  8
0
 10
423.76071555780862
 20
336.22593982525569
 30
0.0
 11
328.26071555780862
 21
336.22593982525569
 31
0.0
  0
LINE
  5
B3E
  8
0
 10
423.76071555780862
 20
323.82816412790748
 30
0.0
 11
328.26071555780862
 21
323.82816412790748
 31
0.0
  0
LINE
  5
B3F
  8
0
 10
423.76071555780862
 20
300.22371552260381
 30
0.0
 11
328.26071555780862
 21
300.22371552260381
 31
0.0
  0
LINE
  5
B40
  8
0
 10
423.76071555780862
 20
287.82593982525572
 30
0.0
 11
328.26071555780862
 21
287.82593982525572
 31
0.0
  0
LINE
  5
B41
  8
CENTER
  6
CENTER
 10
291.26071555780862
 20
449.88355885264451
 30
0.0
 11
631.87700834977966
 21
449.88355885264451
 31
0.0
  0
ARC
  5
B42
  8
0
  6
CONTINUOUS
 10
186.40063726669081
 20
358.5259398252557
 30
0.0
 40
2.5
 50
180.0
 51
0.0
  0
LINE
  5
B43
  8
0
 10
178.40063726669081
 20
382.5259398252557
 30
0.0
 11
178.40063726669081
 21
353.5259398252557
 31
0.0
  0
LINE
  5
B44
  8
0
 10
194.40063726669081
 20
382.5259398252557
 30
0.0
 11
194.40063726669081
 21
353.5259398252557
 31
0.0
  0
LINE
  5
B45
  8
CENTER
  6
CENTER
 10
186.40063726669081
 20
386.5259398252557
 30
0.0
 11
186.40063726669081
 21
268.52593982525559
 31
0.0
  0
LINE
  5
B46
  8
0
  6
CONTINUOUS
 10
221.40063726669081
 20
352.5259398252557
 30
0.0
 11
151.40063726669081
 21
352.5259398252557
 31
0.0
  0
LINE
  5
B47
  8
0
  6
CONTINUOUS
 10
222.40063726669081
 20
351.5259398252557
 30
0.0
 11
150.40063726669081
 21
351.5259398252557
 31
0.0
  0
LINE
  5
B48
  8
0
  6
CONTINUOUS
 10
241.90063726669081
 20
344.5259398252557
 30
0.0
 11
148.90063726669081
 21
344.52593982525559
 31
0.0
  0
LINE
  5
B49
  8
0
  6
CONTINUOUS
 10
222.40063726669081
 20
272.5259398252557
 30
0.0
 11
150.40063726669081
 21
272.5259398252557
 31
0.0
  0
LINE
  5
B4A
  8
0
  6
CONTINUOUS
 10
221.40063726669081
 20
271.5259398252557
 30
0.0
 11
151.40063726669081
 21
271.5259398252557
 31
0.0
  0
LINE
  5
B4B
  8
CENTER
  6
CENTER
 10
244.90063726669081
 20
312.0259398252557
 30
0.0
 11
145.90063726669081
 21
312.0259398252557
 31
0.0
  0
LINE
  5
B4C
  8
0
  6
CONTINUOUS
 10
241.90063726669081
 20
279.5259398252557
 30
0.0
 11
148.90063726669081
 21
279.5259398252557
 31
0.0
  0
LINE
  5
B4D
  8
0
  6
CONTINUOUS
 10
150.40063726669081
 20
351.5259398252557
 30
0.0
 11
151.40063726669081
 21
352.5259398252557
 31
0.0
  0
LINE
  5
B4E
  8
0
 10
150.40063726669081
 20
344.5259398252557
 30
0.0
 11
150.40063726669081
 21
351.5259398252557
 31
0.0
  0
LINE
  5
B4F
  8
0
 10
150.40063726669081
 20
279.5259398252557
 30
0.0
 11
150.40063726669081
 21
272.5259398252557
 31
0.0
  0
LINE
  5
B50
  8
0
  6
CONTINUOUS
 10
150.40063726669081
 20
272.5259398252557
 30
0.0
 11
151.40063726669081
 21
271.5259398252557
 31
0.0
  0
LINE
  5
B51
  8
CENTER
  6
CENTER
 10
156.40063726669081
 20
295.6235821953095
 30
0.0
 11
156.40063726669081
 21
275.25945429822048
 31
0.0
  0
LINE
  5
B52
  8
0
 10
148.90063726669081
 20
344.52593982525559
 30
0.0
 11
148.90063726669081
 21
279.5259398252557
 31
0.0
  0
LINE
  5
B53
  8
CENTER
  6
CENTER
 10
156.40063726669081
 20
329.68902943176522
 30
0.0
 11
156.40063726669081
 21
349.36460111853501
 31
0.0
  0
LINE
  5
B54
  8
0
 10
196.40063726669081
 20
353.5259398252557
 30
0.0
 11
196.40063726669081
 21
352.5259398252557
 31
0.0
  0
LINE
  5
B55
  8
0
 10
176.40063726669081
 20
353.5259398252557
 30
0.0
 11
176.40063726669081
 21
352.5259398252557
 31
0.0
  0
LINE
  5
B56
  8
0
  6
CONTINUOUS
 10
196.40063726669081
 20
353.5259398252557
 30
0.0
 11
176.40063726669081
 21
353.5259398252557
 31
0.0
  0
LINE
  5
B57
  8
0
  6
CONTINUOUS
 10
222.40063726669081
 20
351.5259398252557
 30
0.0
 11
221.40063726669081
 21
352.5259398252557
 31
0.0
  0
LINE
  5
B58
  8
0
 10
222.40063726669081
 20
344.5259398252557
 30
0.0
 11
222.40063726669081
 21
351.5259398252557
 31
0.0
  0
LINE
  5
B59
  8
CENTER
  6
CENTER
 10
194.90063726669081
 20
299.5259398252557
 30
0.0
 11
194.90063726669081
 21
286.5259398252557
 31
0.0
  0
LINE
  5
B5A
  8
0
 10
212.90063726669081
 20
289.5259398252557
 30
0.0
 11
212.90063726669081
 21
293.13149619756462
 31
0.0
  0
LINE
  5
B5B
  8
0
 10
214.90063726669081
 20
289.5259398252557
 30
0.0
 11
214.90063726669081
 21
293.13149619756462
 31
0.0
  0
LINE
  5
B5C
  8
0
 10
205.90063726669081
 20
289.5259398252557
 30
0.0
 11
205.90063726669081
 21
295.29273929457429
 31
0.0
  0
ARC
  5
B5D
  8
0
 10
194.90063726669081
 20
293.0259398252557
 30
0.0
 40
7.5
 50
335.68426082882991
 51
34.193077125139702
  0
LINE
  5
B5E
  8
0
 10
221.90063726669081
 20
289.5259398252557
 30
0.0
 11
221.90063726669081
 21
295.29273929457429
 31
0.0
  0
ARC
  5
B5F
  8
0
 10
222.90063726669081
 20
289.5259398252557
 30
0.0
 40
1.0
 50
180.0
 51
270.0
  0
LINE
  5
B60
  8
0
 10
211.90063726669081
 20
288.5259398252557
 30
0.0
 11
202.64660395910619
 21
288.5259398252557
 31
0.0
  0
ARC
  5
B61
  8
0
 10
215.90063726669081
 20
289.5259398252557
 30
0.0
 40
1.0
 50
180.0
 51
270.0
  0
ARC
  5
B62
  8
0
 10
211.90063726669081
 20
289.5259398252557
 30
0.0
 40
1.0
 50
270.0
 51
0.0
  0
ARC
  5
B63
  8
0
 10
202.64660395910619
 20
289.5259398252557
 30
0.0
 40
1.0
 50
155.68426082881459
 51
270.0
  0
ARC
  5
B64
  8
0
 10
204.90063726669081
 20
289.5259398252557
 30
0.0
 40
1.0
 50
270.0
 51
0.0
  0
ARC
  5
B65
  8
0
 10
222.90063726669081
 20
295.29273929457429
 30
0.0
 40
1.0
 50
118.2737136313652
 51
180.0
  0
LINE
  5
B66
  8
0
 10
221.90063726669081
 20
334.5259398252557
 30
0.0
 11
221.90063726669081
 21
328.75914035593712
 31
0.0
  0
ARC
  5
B67
  8
0
 10
222.90063726669081
 20
328.75914035593712
 30
0.0
 40
1.0
 50
180.0
 51
241.7262863686347
  0
ARC
  5
B68
  8
0
 10
222.90063726669081
 20
334.5259398252557
 30
0.0
 40
1.0
 50
90.0
 51
180.0
  0
ARC
  5
B69
  8
0
 10
194.90063726669081
 20
331.0259398252557
 30
0.0
 40
7.5
 50
245.6842608288265
 51
304.19307712514018
  0
LINE
  5
B6A
  8
0
 10
191.40063726669081
 20
320.0259398252557
 30
0.0
 11
197.16743673600939
 21
320.0259398252557
 31
0.0
  0
ARC
  5
B6B
  8
0
 10
195.00619363899969
 20
310.0259398252557
 30
0.0
 40
1.0
 50
6.0423284190542867
 51
90.0
  0
ARC
  5
B6C
  8
0
 10
213.90063726669081
 20
312.0259398252557
 30
0.0
 40
17.999999999999972
 50
139.6507090048799
 51
173.9576715809458
  0
ARC
  5
B6D
  8
0
 10
195.00619363899969
 20
314.0259398252557
 30
0.0
 40
1.0
 50
270.0
 51
353.95767158094571
  0
ARC
  5
B6E
  8
0
 10
194.90063726669081
 20
293.0259398252557
 30
0.0
 40
7.5
 50
55.806922874859701
 51
114.315739171172
  0
LINE
  5
B6F
  8
CENTER
  6
CENTER
 10
201.40063726669081
 20
293.0259398252557
 30
0.0
 11
188.40063726669081
 21
293.0259398252557
 31
0.0
  0
LINE
  5
B70
  8
0
 10
191.40063726669081
 20
304.0259398252557
 30
0.0
 11
197.16743673600939
 21
304.0259398252557
 31
0.0
  0
ARC
  5
B71
  8
0
 10
213.90063726669081
 20
312.0259398252557
 30
0.0
 40
17.999999999999972
 50
186.04232841905389
 51
220.34929099511979
  0
ARC
  5
B72
  8
0
 10
213.90063726669081
 20
312.0259398252557
 30
0.0
 40
17.999999999999972
 50
229.6507090048799
 51
263.95767158094588
  0
ARC
  5
B73
  8
0
 10
215.90063726669081
 20
293.13149619756462
 30
0.0
 40
1.0
 50
96.042328419054286
 51
180.0
  0
ARC
  5
B74
  8
0
 10
211.90063726669081
 20
293.13149619756462
 30
0.0
 40
1.0
 50
0.0
 51
83.957671580945714
  0
ARC
  5
B75
  8
0
 10
201.9228926280654
 20
297.92687484307072
 30
0.0
 40
0.5
 50
49.650709004877889
 51
135.0
  0
ARC
  5
B76
  8
0
 10
204.90063726669081
 20
295.29273929457429
 30
0.0
 40
1.0
 50
0.0
 51
61.72628636863471
  0
ARC
  5
B77
  8
0
 10
199.80157228450591
 20
300.04819518663032
 30
0.0
 40
0.5
 50
315.00000000000688
 51
40.349290995122097
  0
ARC
  5
B78
  8
0
 10
199.39650478763451
 20
299.64312768975901
 30
0.0
 40
0.5
 50
235.80692287485761
 51
315.0
  0
LINE
  5
B79
  8
0
 10
200.15512567509921
 20
299.6946417960371
 30
0.0
 11
199.75005817822779
 21
299.28957429916579
 31
0.0
  0
LINE
  5
B7A
  8
0
 10
201.56933923747241
 20
298.28042823366388
 30
0.0
 11
201.1642717406009
 21
297.87536073679257
 31
0.0
  0
ARC
  5
B7B
  8
0
 10
201.5178251311942
 20
297.52180734619941
 30
0.0
 40
0.5
 50
135.0
 51
214.19307712514231
  0
ARC
  5
B7C
  8
0
 10
197.16743673600939
 20
303.0259398252557
 30
0.0
 40
1.0
 50
28.273713631367489
 51
90.0
  0
LINE
  5
B7D
  8
0
 10
200.15512567509921
 20
324.35723785447431
 30
0.0
 11
199.75005817822779
 21
324.76230535134562
 31
0.0
  0
ARC
  5
B7E
  8
0
 10
197.16743673600939
 20
321.0259398252557
 30
0.0
 40
1.0
 50
270.0
 51
331.72628636863169
  0
ARC
  5
B7F
  8
0
 10
199.80157228450591
 20
324.00368446388109
 30
0.0
 40
0.5
 50
319.65070900487791
 51
44.999999999993094
  0
ARC
  5
B80
  8
0
 10
199.39650478763451
 20
324.4087519607524
 30
0.0
 40
0.5
 50
45.0
 51
124.1930771251423
  0
LINE
  5
B81
  8
0
 10
190.40063726669081
 20
310.0259398252557
 30
0.0
 11
190.40063726669081
 21
300.77190651767091
 31
0.0
  0
ARC
  5
B82
  8
0
 10
191.40063726669081
 20
300.77190651767091
 30
0.0
 40
1.0
 50
180.0
 51
294.31573917118533
  0
ARC
  5
B83
  8
0
 10
191.40063726669081
 20
303.0259398252557
 30
0.0
 40
1.0
 50
90.0
 51
180.0
  0
LINE
  5
B84
  8
0
 10
190.40063726669081
 20
314.0259398252557
 30
0.0
 11
190.40063726669081
 21
323.2799731328405
 31
0.0
  0
ARC
  5
B85
  8
0
 10
191.40063726669081
 20
310.0259398252557
 30
0.0
 40
1.0
 50
90.0
 51
180.0
  0
ARC
  5
B86
  8
0
 10
191.40063726669081
 20
314.0259398252557
 30
0.0
 40
1.0
 50
180.0
 51
270.0
  0
LINE
  5
B87
  8
0
 10
191.40063726669081
 20
311.0259398252557
 30
0.0
 11
195.00619363899969
 21
311.0259398252557
 31
0.0
  0
LINE
  5
B88
  8
0
 10
191.40063726669081
 20
313.0259398252557
 30
0.0
 11
195.00619363899969
 21
313.0259398252557
 31
0.0
  0
ARC
  5
B89
  8
0
 10
191.40063726669081
 20
323.2799731328405
 30
0.0
 40
1.0
 50
65.684260828814644
 51
180.0
  0
ARC
  5
B8A
  8
0
 10
191.40063726669081
 20
321.0259398252557
 30
0.0
 40
1.0
 50
180.0
 51
270.0
  0
LINE
  5
B8B
  8
CENTER
  6
CENTER
 10
201.40063726669081
 20
331.0259398252557
 30
0.0
 11
188.40063726669081
 21
331.0259398252557
 31
0.0
  0
LINE
  5
B8C
  8
0
 10
211.90063726669081
 20
335.5259398252557
 30
0.0
 11
202.64660395910619
 21
335.5259398252557
 31
0.0
  0
ARC
  5
B8D
  8
0
 10
213.90063726669081
 20
312.0259398252557
 30
0.0
 40
17.999999999999972
 50
96.042328419054115
 51
130.34929099511999
  0
LINE
  5
B8E
  8
0
 10
214.90063726669081
 20
334.5259398252557
 30
0.0
 11
214.90063726669081
 21
330.92038345294679
 31
0.0
  0
LINE
  5
B8F
  8
0
 10
212.90063726669081
 20
334.5259398252557
 30
0.0
 11
212.90063726669081
 21
330.92038345294679
 31
0.0
  0
ARC
  5
B90
  8
0
 10
215.90063726669081
 20
330.92038345294679
 30
0.0
 40
1.0
 50
180.0
 51
263.95767158094571
  0
ARC
  5
B91
  8
0
 10
211.90063726669081
 20
330.92038345294679
 30
0.0
 40
1.0
 50
276.04232841905417
 51
0.0
  0
ARC
  5
B92
  8
0
 10
215.90063726669081
 20
334.5259398252557
 30
0.0
 40
1.0
 50
90.0
 51
180.0
  0
ARC
  5
B93
  8
0
 10
211.90063726669081
 20
334.5259398252557
 30
0.0
 40
1.0
 50
0.0
 51
90.0
  0
ARC
  5
B94
  8
0
 10
194.90063726669081
 20
331.0259398252557
 30
0.0
 40
7.5
 50
325.80692287486028
 51
24.31573917117197
  0
LINE
  5
B95
  8
0
 10
205.90063726669081
 20
334.5259398252557
 30
0.0
 11
205.90063726669081
 21
328.75914035593712
 31
0.0
  0
ARC
  5
B96
  8
0
 10
201.9228926280654
 20
326.12500480744069
 30
0.0
 40
0.5
 50
225.0
 51
310.34929099512209
  0
ARC
  5
B97
  8
0
 10
204.90063726669081
 20
328.75914035593712
 30
0.0
 40
1.0
 50
298.27371363136518
 51
0.0
  0
LINE
  5
B98
  8
0
 10
201.56933923747241
 20
325.77145141684741
 30
0.0
 11
201.1642717406009
 21
326.17651891371889
 31
0.0
  0
ARC
  5
B99
  8
0
 10
201.5178251311942
 20
326.53007230431211
 30
0.0
 40
0.5
 50
145.80692287485761
 51
225.0
  0
ARC
  5
B9A
  8
0
 10
202.64660395910619
 20
334.5259398252557
 30
0.0
 40
1.0
 50
90.0
 51
204.3157391711853
  0
ARC
  5
B9B
  8
0
 10
204.90063726669081
 20
334.5259398252557
 30
0.0
 40
1.0
 50
0.0
 51
90.0
  0
POLYLINE
  5
B9C
  8
0
 66
     1
 10
0.0
 20
0.0
 30
0.0
 70
     1
  0
VERTEX
  5
140B
  8
0
 10
197.90063726669081
 20
332.75799063282471
 30
0.0
  0
VERTEX
  5
140C
  8
0
 10
197.90063726669081
 20
329.29388901768692
 30
0.0
  0
VERTEX
  5
140D
  8
0
 10
194.90063726669069
 20
327.56183821011808
 30
0.0
  0
VERTEX
  5
140E
  8
0
 10
191.90063726669081
 20
329.29388901768692
 30
0.0
  0
VERTEX
  5
140F
  8
0
 10
191.90063726669081
 20
332.75799063282471
 30
0.0
  0
VERTEX
  5
1410
  8
0
 10
194.90063726669069
 20
334.4900414403935
 30
0.0
  0
SEQEND
  5
1411
  8
0
  0
CIRCLE
  5
BA4
  8
0
 10
194.90063726669081
 20
331.0259398252557
 30
0.0
 40
5.5
  0
CIRCLE
  5
BA5
  8
0
 10
194.90063726669081
 20
331.0259398252557
 30
0.0
 40
5.0
  0
CIRCLE
  5
BA6
  8
0
 10
194.90063726669081
 20
293.0259398252557
 30
0.0
 40
5.5
  0
CIRCLE
  5
BA7
  8
0
 10
194.90063726669081
 20
293.0259398252557
 30
0.0
 40
5.0
  0
POLYLINE
  5
BA8
  8
0
 66
     1
 10
0.0
 20
0.0
 30
0.0
 70
     1
  0
VERTEX
  5
1412
  8
0
 10
197.90063726669081
 20
294.75799063282471
 30
0.0
  0
VERTEX
  5
1413
  8
0
 10
197.90063726669081
 20
291.29388901768692
 30
0.0
  0
VERTEX
  5
1414
  8
0
 10
194.90063726669069
 20
289.56183821011803
 30
0.0
  0
VERTEX
  5
1415
  8
0
 10
191.90063726669081
 20
291.29388901768692
 30
0.0
  0
VERTEX
  5
1416
  8
0
 10
191.90063726669081
 20
294.75799063282471
 30
0.0
  0
VERTEX
  5
1417
  8
0
 10
194.90063726669069
 20
296.4900414403935
 30
0.0
  0
SEQEND
  5
1418
  8
0
  0
ARC
  5
BB0
  8
0
 10
199.39650478763451
 20
299.64312768975913
 30
0.0
 40
0.5
 50
235.80692287485761
 51
315.0
  0
LINE
  5
BB1
  8
0
 10
222.40063726669081
 20
279.5259398252557
 30
0.0
 11
222.40063726669081
 21
272.5259398252557
 31
0.0
  0
LINE
  5
BB2
  8
0
  6
CONTINUOUS
 10
222.40063726669081
 20
272.5259398252557
 30
0.0
 11
221.40063726669081
 21
271.5259398252557
 31
0.0
  0
LINE
  5
BB3
  8
CENTER
  6
CENTER
 10
216.40063726669081
 20
295.6235821953095
 30
0.0
 11
216.40063726669081
 21
275.09918084764951
 31
0.0
  0
LINE
  5
BB4
  8
CENTER
  6
CENTER
 10
252.70336007541121
 20
293.5259398252557
 30
0.0
 11
233.6329670115249
 21
293.5259398252557
 31
0.0
  0
LINE
  5
BB5
  8
0
  6
CONTINUOUS
 62
     2
 10
247.0006372666893
 20
290.32593982525498
 30
0.0
 11
249.50063726668941
 21
290.32593982525498
 31
0.0
  0
LINE
  5
BB6
  8
0
  6
CONTINUOUS
 62
     2
 10
247.0006372666893
 20
296.72593982525649
 30
0.0
 11
249.50063726668941
 21
296.72593982525649
 31
0.0
  0
LINE
  5
BB7
  8
0
  6
CONTINUOUS
 10
247.0006372666893
 20
297.5259398252557
 30
0.0
 11
248.70063726669011
 21
297.5259398252557
 31
0.0
  0
LINE
  5
BB8
  8
0
  6
CONTINUOUS
 10
247.0006372666893
 20
289.5259398252557
 30
0.0
 11
248.70063726669011
 21
289.5259398252557
 31
0.0
  0
LINE
  5
BB9
  8
0
  6
CONTINUOUS
 10
249.90063726669081
 20
290.72593982525638
 30
0.0
 11
249.90063726669081
 21
296.32593982525492
 31
0.0
  0
LINE
  5
BBA
  8
0
  6
CONTINUOUS
 10
248.70063726669011
 20
289.5259398252557
 30
0.0
 11
248.70063726669011
 21
297.5259398252557
 31
0.0
  0
LINE
  5
BBB
  8
0
  6
CONTINUOUS
 10
248.70063726669011
 20
289.5259398252557
 30
0.0
 11
249.90063726669081
 21
290.72593982525638
 31
0.0
  0
LINE
  5
BBC
  8
0
  6
CONTINUOUS
 10
248.70063726669011
 20
297.5259398252557
 30
0.0
 11
249.90063726669081
 21
296.32593982525498
 31
0.0
  0
LINE
  5
BBD
  8
CENTER
  6
CENTER
 10
232.90063726669081
 20
299.5259398252557
 30
0.0
 11
232.90063726669081
 21
286.5259398252557
 31
0.0
  0
ARC
  5
BBE
  8
0
 10
232.90063726669081
 20
293.0259398252557
 30
0.0
 40
7.5
 50
145.80692287486011
 51
204.31573917116859
  0
ARC
  5
BBF
  8
0
 10
225.15467057427571
 20
289.5259398252557
 30
0.0
 40
1.0
 50
270.0
 51
24.315739171181711
  0
LINE
  5
BC0
  8
0
 10
237.40063726669081
 20
310.0259398252557
 30
0.0
 11
237.40063726669081
 21
300.7719065176708
 31
0.0
  0
ARC
  5
BC1
  8
0
 10
213.90063726669081
 20
312.0259398252557
 30
0.0
 40
17.999999999999972
 50
319.6507090048799
 51
353.95767158094588
  0
LINE
  5
BC2
  8
CENTER
  6
CENTER
 10
239.40063726669081
 20
293.0259398252557
 30
0.0
 11
226.40063726669081
 21
293.0259398252557
 31
0.0
  0
ARC
  5
BC3
  8
0
 10
232.90063726669081
 20
293.0259398252557
 30
0.0
 40
7.5
 50
65.684260828826382
 51
124.19307712513979
  0
ARC
  5
BC4
  8
0
 10
236.40063726669081
 20
300.7719065176708
 30
0.0
 40
1.0
 50
245.68426082881311
 51
0.0
  0
LINE
  5
BC5
  8
0
 10
240.40063726669101
 20
294.5259398252557
 30
0.0
 11
239.90063726669109
 21
294.5259398252557
 31
0.0
  0
ARC
  5
BC6
  8
0
 10
236.40063726669081
 20
318.01634104255919
 30
0.0
 40
1.0
 50
270.0
 51
0.0
  0
LINE
  5
BC7
  8
0
 10
231.9315854740295
 20
317.01634104255908
 30
0.0
 11
236.40063726669081
 21
317.01634104255908
 31
0.0
  0
ARC
  5
BC8
  8
0
 10
231.9315854740295
 20
318.01634104255919
 30
0.0
 40
1.0
 50
198.37797603959399
 51
270.0
  0
ARC
  5
BC9
  8
0
 10
226.28344940218761
 20
297.52180734619941
 30
0.0
 40
0.5
 50
325.80692287485948
 51
45.0
  0
ARC
  5
BCA
  8
0
 10
228.40476974574739
 20
299.64312768975901
 30
0.0
 40
0.5
 50
225.0
 51
304.19307712514228
  0
ARC
  5
BCB
  8
0
 10
227.99970224887599
 20
300.04819518663032
 30
0.0
 40
0.5
 50
139.65070900487791
 51
224.99999999999301
  0
LINE
  5
BCC
  8
0
 10
227.6461488582826
 20
299.6946417960371
 30
0.0
 11
228.05121635515411
 21
299.28957429916568
 31
0.0
  0
LINE
  5
BCD
  8
0
 10
226.23193529590949
 20
298.28042823366388
 30
0.0
 11
226.63700279278069
 21
297.87536073679257
 31
0.0
  0
ARC
  5
BCE
  8
0
 10
225.87838190531619
 20
297.92687484307072
 30
0.0
 40
0.5
 50
45.000000000002302
 51
130.349290995122
  0
ARC
  5
BCF
  8
0
 10
232.90063726669081
 20
331.02593982525559
 30
0.0
 40
7.5
 50
235.80692287485999
 51
294.31573917117203
  0
ARC
  5
BD0
  8
0
 10
213.90063726669081
 20
312.0259398252557
 30
0.0
 40
17.999999999999972
 50
6.0423284190539261
 51
40.349290995119809
  0
LINE
  5
BD1
  8
0
 10
237.40063726669081
 20
314.02593982525559
 30
0.0
 11
237.40063726669081
 21
323.2799731328405
 31
0.0
  0
ARC
  5
BD2
  8
0
 10
236.40063726669081
 20
310.0259398252557
 30
0.0
 40
1.0
 50
0.0
 51
90.0
  0
ARC
  5
BD3
  8
0
 10
236.40063726669081
 20
314.02593982525559
 30
0.0
 40
1.0
 50
270.0
 51
0.0
  0
LINE
  5
BD4
  8
0
 10
236.40063726669081
 20
311.0259398252557
 30
0.0
 11
232.7950808943819
 21
311.0259398252557
 31
0.0
  0
ARC
  5
BD5
  8
0
 10
232.7950808943819
 20
310.0259398252557
 30
0.0
 40
1.0
 50
90.0
 51
173.95767158094571
  0
LINE
  5
BD6
  8
0
 10
236.40063726669081
 20
313.02593982525559
 30
0.0
 11
232.7950808943819
 21
313.02593982525559
 31
0.0
  0
ARC
  5
BD7
  8
0
 10
232.7950808943819
 20
314.02593982525559
 30
0.0
 40
1.0
 50
186.0423284190542
 51
270.0
  0
ARC
  5
BD8
  8
0
 10
236.40063726669081
 20
323.2799731328405
 30
0.0
 40
1.0
 50
0.0
 51
114.3157391711853
  0
LINE
  5
BD9
  8
0
 10
227.6461488582826
 20
324.35723785447419
 30
0.0
 11
228.05121635515411
 21
324.76230535134562
 31
0.0
  0
ARC
  5
BDA
  8
0
 10
227.99970224887599
 20
324.00368446388097
 30
0.0
 40
0.5
 50
135.00000000000691
 51
220.349290995122
  0
ARC
  5
BDB
  8
0
 10
228.40476974574739
 20
324.40875196075228
 30
0.0
 40
0.5
 50
55.806922874857641
 51
135.0
  0
LINE
  5
BDC
  8
CENTER
  6
CENTER
 10
239.40063726669081
 20
331.0259398252557
 30
0.0
 11
226.40063726669081
 21
331.0259398252557
 31
0.0
  0
LINE
  5
BDD
  8
0
 10
240.40063726669101
 20
329.5259398252557
 30
0.0
 11
239.90063726669081
 21
329.5259398252557
 31
0.0
  0
ARC
  5
BDE
  8
0
 10
232.90063726669081
 20
331.0259398252557
 30
0.0
 40
7.5
 50
155.68426082882979
 51
214.19307712513981
  0
ARC
  5
BDF
  8
0
 10
226.28344940218761
 20
326.53007230431211
 30
0.0
 40
0.5
 50
315.0
 51
34.193077125140519
  0
LINE
  5
BE0
  8
0
 10
226.23193529590949
 20
325.77145141684741
 30
0.0
 11
226.63700279278069
 21
326.17651891371889
 31
0.0
  0
ARC
  5
BE1
  8
0
 10
225.87838190531619
 20
326.12500480744069
 30
0.0
 40
0.5
 50
229.65070900487791
 51
314.99999999999773
  0
ARC
  5
BE2
  8
0
 10
225.15467057427571
 20
334.5259398252557
 30
0.0
 40
1.0
 50
335.68426082881462
 51
90.0
  0
CIRCLE
  5
BE3
  8
0
 10
232.90063726669081
 20
331.0259398252557
 30
0.0
 40
5.0
  0
CIRCLE
  5
BE4
  8
0
 10
232.90063726669081
 20
331.0259398252557
 30
0.0
 40
5.5
  0
POLYLINE
  5
BE5
  8
0
 66
     1
 10
0.0
 20
0.0
 30
0.0
 70
     1
  0
VERTEX
  5
1419
  8
0
 10
235.90063726669069
 20
332.75799063282471
 30
0.0
  0
VERTEX
  5
141A
  8
0
 10
235.90063726669069
 20
329.29388901768692
 30
0.0
  0
VERTEX
  5
141B
  8
0
 10
232.90063726669081
 20
327.56183821011808
 30
0.0
  0
VERTEX
  5
141C
  8
0
 10
229.90063726669081
 20
329.29388901768692
 30
0.0
  0
VERTEX
  5
141D
  8
0
 10
229.90063726669081
 20
332.75799063282471
 30
0.0
  0
VERTEX
  5
141E
  8
0
 10
232.90063726669081
 20
334.4900414403935
 30
0.0
  0
SEQEND
  5
141F
  8
0
  0
CIRCLE
  5
BED
  8
0
 10
232.90063726669081
 20
293.0259398252557
 30
0.0
 40
5.5
  0
CIRCLE
  5
BEE
  8
0
 10
232.90063726669081
 20
293.0259398252557
 30
0.0
 40
5.0
  0
POLYLINE
  5
BEF
  8
0
 66
     1
 10
0.0
 20
0.0
 30
0.0
 70
     1
  0
VERTEX
  5
1420
  8
0
 10
235.90063726669069
 20
294.75799063282471
 30
0.0
  0
VERTEX
  5
1421
  8
0
 10
235.90063726669069
 20
291.29388901768692
 30
0.0
  0
VERTEX
  5
1422
  8
0
 10
232.90063726669081
 20
289.56183821011803
 30
0.0
  0
VERTEX
  5
1423
  8
0
 10
229.90063726669081
 20
291.29388901768692
 30
0.0
  0
VERTEX
  5
1424
  8
0
 10
229.90063726669081
 20
294.75799063282471
 30
0.0
  0
VERTEX
  5
1425
  8
0
 10
232.90063726669081
 20
296.4900414403935
 30
0.0
  0
SEQEND
  5
1426
  8
0
  0
LINE
  5
BF7
  8
CENTER
  6
CENTER
 10
244.90709250823849
 20
308.0259398252557
 30
0.0
 11
225.5070925082386
 21
308.0259398252557
 31
0.0
  0
LINE
  5
BF8
  8
CENTER
  6
CENTER
 10
245.00499279721589
 20
319.5259398252557
 30
0.0
 11
231.27705232868351
 21
319.5259398252557
 31
0.0
  0
LINE
  5
BF9
  8
0
  6
CONTINUOUS
 10
242.62063726669021
 20
293.5259398252557
 30
0.0
 11
246.18063726669149
 21
293.5259398252557
 31
0.0
  0
LINE
  5
BFA
  8
0
  6
CONTINUOUS
 10
241.90063726669081
 20
293.5259398252557
 30
0.0
 11
246.18063726669149
 21
293.5259398252557
 31
0.0
  0
ARC
  5
BFB
  8
0
  6
CONTINUOUS
 10
238.4836576710797
 20
297.0259398252557
 30
0.0
 40
8.4553825989878657
 50
335.5475759094079
 51
24.452424090592022
  0
LINE
  5
BFC
  8
0
  6
CONTINUOUS
 10
246.90063726669081
 20
300.5259398252557
 30
0.0
 11
241.90063726669081
 21
300.5259398252557
 31
0.0
  0
ARC
  5
BFD
  8
0
  6
CONTINUOUS
 10
250.3176168623024
 20
297.0259398252557
 30
0.0
 40
8.4553825989882458
 50
155.54757590941711
 51
204.45242409058281
  0
LINE
  5
BFE
  8
0
  6
CONTINUOUS
 10
241.90063726669081
 20
300.5259398252557
 30
0.0
 11
241.90063726669081
 21
293.5259398252557
 31
0.0
  0
LINE
  5
BFF
  8
0
  6
CONTINUOUS
 10
246.90063726669081
 20
300.5259398252557
 30
0.0
 11
246.90063726669081
 21
286.5259398252557
 31
0.0
  0
ARC
  5
C00
  8
0
  6
CONTINUOUS
 10
238.4836576710797
 20
290.0259398252557
 30
0.0
 40
8.4553825989878657
 50
335.5475759094079
 51
24.452424090592022
  0
LINE
  5
C01
  8
0
  6
CONTINUOUS
 10
246.90063726669081
 20
286.5259398252557
 30
0.0
 11
241.90063726669081
 21
286.5259398252557
 31
0.0
  0
ARC
  5
C02
  8
0
  6
CONTINUOUS
 10
250.3176168623024
 20
290.0259398252557
 30
0.0
 40
8.4553825989882458
 50
155.54757590941711
 51
204.4524240905823
  0
LINE
  5
C03
  8
0
  6
CONTINUOUS
 10
241.90063726669081
 20
286.5259398252557
 30
0.0
 11
241.90063726669081
 21
293.5259398252557
 31
0.0
  0
LINE
  5
C04
  8
0
 10
215.90063726669081
 20
288.5259398252557
 30
0.0
 11
225.15467057427571
 21
288.5259398252557
 31
0.0
  0
CIRCLE
  5
C05
  8
0
 10
213.90063726669081
 20
312.0259398252557
 30
0.0
 40
17.499999999999972
  0
ARC
  5
C06
  8
0
 10
213.90063726669081
 20
312.0259398252557
 30
0.0
 40
17.999999999999972
 50
276.04232841905389
 51
310.34929099511982
  0
LINE
  5
C07
  8
0
 10
215.90063726669081
 20
335.5259398252557
 30
0.0
 11
225.15467057427571
 21
335.5259398252557
 31
0.0
  0
ARC
  5
C08
  8
0
 10
213.90063726669081
 20
312.0259398252557
 30
0.0
 40
17.999999999999972
 50
49.650709004880191
 51
83.957671580946055
  0
LINE
  5
C09
  8
CENTER
  6
CENTER
 10
213.90063726669081
 20
340.0259398252557
 30
0.0
 11
213.90063726669081
 21
284.0259398252557
 31
0.0
  0
POLYLINE
  5
C0A
  8
0
 66
     1
 10
0.0
 20
0.0
 30
0.0
 70
     1
  0
VERTEX
  5
1427
  8
0
 10
187.40063726669081
 20
331.0259398252557
 30
0.0
 42
-0.4142135623730951
  0
VERTEX
  5
1428
  8
0
 10
194.90063726669101
 20
338.5259398252557
 30
0.0
  0
VERTEX
  5
1429
  8
0
 10
232.90063726669081
 20
338.5259398252557
 30
0.0
 42
-0.4142135623730951
  0
VERTEX
  5
142A
  8
0
 10
240.40063726669081
 20
331.0259398252557
 30
0.0
  0
VERTEX
  5
142B
  8
0
 10
240.40063726669081
 20
293.0259398252557
 30
0.0
 42
-0.4142135623730951
  0
VERTEX
  5
142C
  8
0
 10
232.90063726669081
 20
285.5259398252557
 30
0.0
  0
VERTEX
  5
142D
  8
0
 10
194.90063726669101
 20
285.5259398252557
 30
0.0
 42
-0.4142135623730951
  0
VERTEX
  5
142E
  8
0
 10
187.40063726669081
 20
293.0259398252557
 30
0.0
  0
SEQEND
  5
142F
  8
0
  0
POLYLINE
  5
C14
  8
0
 66
     1
 10
0.0
 20
0.0
 30
0.0
 70
     1
  0
VERTEX
  5
1430
  8
0
 10
187.90063726669081
 20
331.0259398252557
 30
0.0
 42
-0.4142135623730951
  0
VERTEX
  5
1431
  8
0
 10
194.90063726669101
 20
338.0259398252557
 30
0.0
  0
VERTEX
  5
1432
  8
0
 10
232.90063726669081
 20
338.0259398252557
 30
0.0
 42
-0.4142135623730951
  0
VERTEX
  5
1433
  8
0
 10
239.90063726669069
 20
331.0259398252557
 30
0.0
  0
VERTEX
  5
1434
  8
0
 10
239.90063726669069
 20
293.0259398252557
 30
0.0
 42
-0.4142135623730951
  0
VERTEX
  5
1435
  8
0
 10
232.90063726669081
 20
286.0259398252557
 30
0.0
  0
VERTEX
  5
1436
  8
0
 10
194.90063726669101
 20
286.0259398252557
 30
0.0
 42
-0.4142135623730957
  0
VERTEX
  5
1437
  8
0
 10
187.90063726669081
 20
293.0259398252557
 30
0.0
  0
SEQEND
  5
1438
  8
0
  0
LINE
  5
C1E
  8
CENTER
  6
CENTER
 10
232.90063726669081
 20
337.5259398252557
 30
0.0
 11
232.90063726669081
 21
324.5259398252557
 31
0.0
  0
LINE
  5
C1F
  8
CENTER
  6
CENTER
 10
194.90063726669081
 20
337.5259398252557
 30
0.0
 11
194.90063726669081
 21
324.5259398252557
 31
0.0
  0
LINE
  5
C20
  8
0
 10
241.90063726669081
 20
344.5259398252557
 30
0.0
 11
241.90063726669081
 21
279.5259398252557
 31
0.0
  0
LINE
  5
C21
  8
CENTER
  6
CENTER
 10
216.40063726669081
 20
329.68902943176522
 30
0.0
 11
216.40063726669081
 21
349.35953922432071
 31
0.0
  0
LINE
  5
C22
  8
0
 10
328.26071555780862
 20
219.6460982339463
 30
0.0
 11
298.26071555780862
 21
219.1460982339463
 31
0.0
  0
LINE
  5
C23
  8
0
 10
328.26071555780862
 20
166.6460982339463
 30
0.0
 11
298.26071555780862
 21
167.1460982339463
 31
0.0
  0
LINE
  5
C24
  8
0
 10
298.26071555780862
 20
167.1460982339463
 30
0.0
 11
298.26071555780862
 21
219.1460982339463
 31
0.0
  0
LINE
  5
C25
  8
0
 10
298.26071555780862
 20
175.6460982339463
 30
0.0
 11
295.26071555780862
 21
175.6460982339463
 31
0.0
  0
ARC
  5
C26
  8
0
 10
295.26071555780862
 20
176.6460982339463
 30
0.0
 40
1.0
 50
180.0
 51
270.0
  0
ARC
  5
C27
  8
0
 10
295.26071555780862
 20
209.6460982339463
 30
0.0
 40
1.0
 50
90.0
 51
180.0
  0
LINE
  5
C28
  8
0
 10
298.26071555780862
 20
210.6460982339463
 30
0.0
 11
295.26071555780862
 21
210.6460982339463
 31
0.0
  0
LINE
  5
C29
  8
0
 10
294.26071555780868
 20
176.6460982339463
 30
0.0
 11
294.26071555780868
 21
209.6460982339463
 31
0.0
  0
LINE
  5
C2A
  8
0
 10
328.26071555780862
 20
166.6460982339463
 30
0.0
 11
328.26071555780862
 21
219.6460982339463
 31
0.0
  0
TEXT
  5
C2B
  8
DIM
  6
CONTINUOUS
 10
286.48860648815901
 20
249.0259398252557
 30
0.0
 40
3.0
  1
4
  7
ROMANSS
 72
     1
 11
287.56003505958751
 21
250.5259398252557
 31
0.0
 73
     2
  0
SOLID
  5
C2D
  8
DIM
  6
CONTINUOUS
 10
291.26071555780862
 20
248.0259398252557
 30
0.0
 11
291.26071555780862
 21
247.0259398252557
 31
0.0
 12
294.26071555780862
 22
247.5259398252557
 32
0.0
 13
294.26071555780862
 23
247.5259398252557
 33
0.0
  0
LINE
  5
C2E
  8
DIM
  6
CONTINUOUS
 10
294.26071555780862
 20
293.52119511208087
 30
0.0
 11
294.26071555780862
 21
246.5259398252557
 31
0.0
  0
SOLID
  5
C2F
  8
DIM
  6
CONTINUOUS
 10
301.26071555780862
 20
248.0259398252557
 30
0.0
 11
301.26071555780862
 21
247.0259398252557
 31
0.0
 12
298.26071555780862
 22
247.5259398252557
 32
0.0
 13
298.26071555780862
 23
247.5259398252557
 33
0.0
  0
LINE
  5
C30
  8
DIM
  6
CONTINUOUS
 10
298.26071555780862
 20
285.0259398252557
 30
0.0
 11
298.26071555780862
 21
246.5259398252557
 31
0.0
  0
LINE
  5
C31
  8
0
  6
CONTINUOUS
 10
318.51071555780851
 20
318.22690171957902
 30
0.0
 11
317.20229357290492
 21
317.47148393438141
 31
0.0
  0
LINE
  5
C32
  8
0
  6
CONTINUOUS
 10
319.01071555780851
 20
317.3608763157946
 30
0.0
 11
317.70229357290492
 21
316.60545853059688
 31
0.0
  0
ARC
  5
C33
  8
0
  6
CONTINUOUS
 10
321.76071555780851
 20
319.5259398252557
 30
0.0
 40
3.5
 50
278.21321070173809
 51
321.78678929826299
  0
LINE
  5
C34
  8
0
  6
CONTINUOUS
 10
325.01071555780851
 20
318.22690171957902
 30
0.0
 11
326.31913754271199
 21
317.47148393438141
 31
0.0
  0
LINE
  5
C35
  8
0
  6
CONTINUOUS
 10
324.51071555780851
 20
317.3608763157946
 30
0.0
 11
325.8191375427121
 21
316.60545853059688
 31
0.0
  0
LINE
  5
C36
  8
0
  6
CONTINUOUS
 10
321.26071555780851
 20
314.55100263972258
 30
0.0
 11
321.26071555780851
 21
316.06183821011791
 31
0.0
  0
LINE
  5
C37
  8
0
  6
CONTINUOUS
 10
322.26071555780851
 20
314.55100263972258
 30
0.0
 11
322.26071555780851
 21
316.06183821011791
 31
0.0
  0
ARC
  5
C38
  8
0
  6
CONTINUOUS
 10
321.76071555780851
 20
319.5259398252557
 30
0.0
 40
3.5
 50
218.21321070173829
 51
261.78678929826179
  0
CIRCLE
  5
C39
  8
0
 10
313.26071555780862
 20
308.0259398252557
 30
0.0
 40
3.9999999999999711
  0
LINE
  5
C3A
  8
CENTER
  6
CENTER
 10
324.96071555780861
 20
308.0259398252557
 30
0.0
 11
301.56071555780858
 21
308.0259398252557
 31
0.0
  0
LINE
  5
C3B
  8
0
  6
CONTINUOUS
 10
317.20229357290492
 20
321.58039571613011
 30
0.0
 11
318.51071555780851
 21
320.82497793093239
 31
0.0
  0
LINE
  5
C3C
  8
0
  6
CONTINUOUS
 10
317.70229357290492
 20
322.44642111991448
 30
0.0
 11
319.01071555780851
 21
321.6910033347167
 31
0.0
  0
ARC
  5
C3D
  8
0
  6
CONTINUOUS
 10
321.76071555780851
 20
319.5259398252557
 30
0.0
 40
3.5
 50
38.213210701738312
 51
81.786789298261766
  0
LINE
  5
C3E
  8
0
  6
CONTINUOUS
 10
326.31913754271199
 20
321.58039571613011
 30
0.0
 11
325.01071555780851
 21
320.82497793093239
 31
0.0
  0
LINE
  5
C3F
  8
0
  6
CONTINUOUS
 10
325.8191375427121
 20
322.44642111991448
 30
0.0
 11
324.51071555780851
 21
321.6910033347167
 31
0.0
  0
LINE
  5
C40
  8
0
  6
CONTINUOUS
 10
321.26071555780851
 20
322.99004144039338
 30
0.0
 11
321.26071555780851
 21
324.50087701078871
 31
0.0
  0
LINE
  5
C41
  8
0
  6
CONTINUOUS
 10
322.26071555780851
 20
322.99004144039338
 30
0.0
 11
322.26071555780851
 21
324.50087701078871
 31
0.0
  0
ARC
  5
C42
  8
0
  6
CONTINUOUS
 10
321.76071555780851
 20
319.5259398252557
 30
0.0
 40
3.5
 50
98.213210701738234
 51
141.7867892982616
  0
LINE
  5
C43
  8
CENTER
  6
CENTER
 10
321.76071555780851
 20
326.38991005952192
 30
0.0
 11
321.76071555780851
 21
312.6619695909896
 31
0.0
  0
CIRCLE
  5
C44
  8
0
  6
CONTINUOUS
 10
321.76071555780851
 20
319.5259398252557
 30
0.0
 40
2.5
  0
ARC
  5
C45
  8
0
  6
CONTINUOUS
 10
321.76071555780851
 20
319.5259398252557
 30
0.0
 40
3.5
 50
338.21321070173769
 51
21.786789298262239
  0
POLYLINE
  5
C46
  8
0
  6
CONTINUOUS
 66
     1
 10
0.0
 20
0.0
 30
0.0
 70
     1
  0
VERTEX
  5
1439
  8
0
  6
CONTINUOUS
 10
322.62674096159299
 20
318.0259398252557
 30
0.0
  0
VERTEX
  5
143A
  8
0
  6
CONTINUOUS
 10
323.49276636537741
 20
319.5259398252557
 30
0.0
  0
VERTEX
  5
143B
  8
0
  6
CONTINUOUS
 10
322.62674096159299
 20
321.0259398252557
 30
0.0
  0
VERTEX
  5
143C
  8
0
  6
CONTINUOUS
 10
320.89469015402409
 20
321.0259398252557
 30
0.0
  0
VERTEX
  5
143D
  8
0
  6
CONTINUOUS
 10
320.02866475023973
 20
319.5259398252557
 30
0.0
  0
VERTEX
  5
143E
  8
0
  6
CONTINUOUS
 10
320.89469015402409
 20
318.0259398252557
 30
0.0
  0
SEQEND
  5
143F
  8
0
  6
CONTINUOUS
  0
ARC
  5
C4E
  8
0
  6
CONTINUOUS
 10
321.76071555780851
 20
319.5259398252557
 30
0.0
 40
3.5
 50
158.2132107017386
 51
201.78678929826131
  0
CIRCLE
  5
C4F
  8
0
 10
313.26071555780862
 20
308.0259398252557
 30
0.0
 40
8.6999999999999993
  0
CIRCLE
  5
C50
  8
0
 10
313.26071555780862
 20
308.0259398252557
 30
0.0
 40
6.7000000000000028
  0
ARC
  5
C51
  8
0
 62
     2
 10
313.26071555780862
 20
308.0259398252557
 30
0.0
 40
6.5999999999999996
 50
333.86110377669672
 51
284.99745208060762
  0
CIRCLE
  5
C52
  8
0
 10
313.26071555780862
 20
308.0259398252557
 30
0.0
 40
5.7000000000000011
  0
LINE
  5
C53
  8
CENTER
  6
CENTER
 10
313.26071555780862
 20
319.72593982525569
 30
0.0
 11
313.26071555780862
 21
296.32593982525572
 31
0.0
  0
LINE
  5
C54
  8
CENTER
  6
CENTER
 10
328.62468579207467
 20
319.5259398252557
 30
0.0
 11
314.8967453235424
 21
319.5259398252557
 31
0.0
  0
CIRCLE
  5
C55
  8
0
 10
321.76071555780851
 20
319.5259398252557
 30
0.0
 40
5.0
  0
CIRCLE
  5
C56
  8
0
 10
321.76071555780851
 20
319.5259398252557
 30
0.0
 40
5.2999999999999989
  0
LINE
  5
C57
  8
0
 10
328.26071555780862
 20
285.5259398252557
 30
0.0
 11
298.26071555780862
 21
286.0259398252557
 31
0.0
  0
ARC
  5
C58
  8
0
 10
295.26071555780862
 20
295.5259398252557
 30
0.0
 40
1.0
 50
180.0
 51
270.0
  0
LINE
  5
C59
  8
0
 10
298.26071555780862
 20
294.5259398252557
 30
0.0
 11
295.26071555780862
 21
294.5259398252557
 31
0.0
  0
ARC
  5
C5A
  8
0
 10
295.26071555780862
 20
328.5259398252557
 30
0.0
 40
1.0
 50
90.0
 51
180.0
  0
LINE
  5
C5B
  8
0
 10
298.26071555780862
 20
329.5259398252557
 30
0.0
 11
295.26071555780862
 21
329.5259398252557
 31
0.0
  0
LINE
  5
C5C
  8
0
 10
294.26071555780862
 20
295.5259398252557
 30
0.0
 11
294.26071555780862
 21
328.5259398252557
 31
0.0
  0
LINE
  5
C5D
  8
0
 10
328.26071555780851
 20
338.5259398252557
 30
0.0
 11
298.26071555780851
 21
338.0259398252557
 31
0.0
  0
LINE
  5
C5E
  8
0
 10
298.26071555780862
 20
286.0259398252557
 30
0.0
 11
298.26071555780862
 21
338.0259398252557
 31
0.0
  0
LINE
  5
C5F
  8
0
 10
328.26071555780862
 20
285.5259398252557
 30
0.0
 11
328.26071555780851
 21
338.5259398252557
 31
0.0
  0
ARC
  5
C60
  8
0
  6
CONTINUOUS
 10
186.40063726669081
 20
378.5259398252557
 30
0.0
 40
2.5
 50
0.0
 51
180.0
  0
LINE
  5
C61
  8
0
 10
183.90063726669081
 20
378.5259398252557
 30
0.0
 11
183.90063726669081
 21
358.5259398252557
 31
0.0
  0
LINE
  5
C62
  8
0
 10
188.90063726669081
 20
378.5259398252557
 30
0.0
 11
188.90063726669081
 21
358.5259398252557
 31
0.0
  0
LINE
  5
C63
  8
0
  6
CONTINUOUS
 10
193.40063726669081
 20
383.5259398252557
 30
0.0
 11
179.40063726669081
 21
383.5259398252557
 31
0.0
  0
LINE
  5
C64
  8
0
  6
CONTINUOUS
 10
194.40063726669081
 20
382.5259398252557
 30
0.0
 11
178.40063726669081
 21
382.5259398252557
 31
0.0
  0
LINE
  5
C65
  8
0
  6
CONTINUOUS
 10
193.40063726669081
 20
383.5259398252557
 30
0.0
 11
194.40063726669081
 21
382.5259398252557
 31
0.0
  0
LINE
  5
C66
  8
0
  6
CONTINUOUS
 10
179.40063726669081
 20
383.5259398252557
 30
0.0
 11
178.40063726669081
 21
382.5259398252557
 31
0.0
  0
LINE
  5
C67
  8
0
 10
298.26071555780862
 20
467.3835588526444
 30
0.0
 11
295.26071555780862
 21
467.3835588526444
 31
0.0
  0
ARC
  5
C68
  8
0
 10
295.26071555780862
 20
466.38355885264451
 30
0.0
 40
1.0
 50
90.0
 51
180.0
  0
ARC
  5
C69
  8
0
 10
295.26071555780862
 20
433.38355885264451
 30
0.0
 40
1.0
 50
180.0
 51
270.0
  0
LINE
  5
C6A
  8
0
 10
298.26071555780862
 20
432.38355885264451
 30
0.0
 11
295.26071555780862
 21
432.38355885264451
 31
0.0
  0
LINE
  5
C6B
  8
0
 10
298.26071555780862
 20
475.8835588526444
 30
0.0
 11
298.26071555780862
 21
423.88355885264451
 31
0.0
  0
LINE
  5
C6C
  8
0
 10
294.26071555780868
 20
466.38355885264451
 30
0.0
 11
294.26071555780868
 21
433.38355885264451
 31
0.0
  0
LINE
  5
C6D
  8
0
 10
328.26071555780862
 20
476.38355885264451
 30
0.0
 11
328.26071555780862
 21
423.38355885264451
 31
0.0
  0
LINE
  5
C6E
  8
0
 10
328.26071555780862
 20
423.38355885264451
 30
0.0
 11
298.26071555780862
 21
423.88355885264451
 31
0.0
  0
LINE
  5
C6F
  8
0
 10
328.26071555780862
 20
476.38355885264451
 30
0.0
 11
298.26071555780862
 21
475.8835588526444
 31
0.0
  0
SOLID
  5
C70
  8
DIM
  6
CONTINUOUS
 10
408.76071555780862
 20
356.5259398252557
 30
0.0
 11
409.76071555780862
 21
356.5259398252557
 31
0.0
 12
409.26071555780862
 22
353.5259398252557
 32
0.0
 13
409.26071555780862
 23
353.5259398252557
 33
0.0
  0
LINE
  5
C71
  8
DIM
  6
CONTINUOUS
 10
409.26071555780862
 20
380.5259398252557
 30
0.0
 11
409.26071555780862
 21
345.542097137768
 31
0.0
  0
SOLID
  5
C72
  8
DIM
  6
CONTINUOUS
 10
416.76071555780862
 20
359.0259398252557
 30
0.0
 11
417.76071555780862
 21
359.0259398252557
 31
0.0
 12
417.26071555780862
 22
356.0259398252557
 32
0.0
 13
417.26071555780862
 23
356.0259398252557
 33
0.0
  0
LINE
  5
C73
  8
DIM
  6
CONTINUOUS
 10
687.21304223966922
 20
336.49966284491961
 30
0.0
 11
675.08120420804653
 21
358.90196995392222
 31
0.0
  0
TEXT
  5
C74
  8
DIM
  6
CONTINUOUS
 10
622.64405835412697
 20
355.91731033921837
 30
0.0
 40
3.0
  1
2-G1/4
  7
ROMANSS
 11
622.64405835412697
 21
357.41731033921837
 31
0.0
 73
     2
  0
LINE
  5
C75
  8
DIM
  6
CONTINUOUS
 10
789.62079384892616
 20
274.5259398252557
 30
0.0
 11
789.62079384892616
 21
380.5259398252557
 31
0.0
  0
LINE
  5
C76
  8
DIM
  6
CONTINUOUS
 10
781.6207938489265
 20
263.92713420812862
 30
0.0
 11
781.6207938489265
 21
361.74579716328032
 31
0.0
  0
LINE
  5
C77
  8
0
 10
728.1207938489265
 20
382.5259398252557
 30
0.0
 11
728.1207938489265
 21
353.5259398252557
 31
0.0
  0
LINE
  5
C78
  8
0
 10
744.1207938489265
 20
382.5259398252557
 30
0.0
 11
744.1207938489265
 21
353.5259398252557
 31
0.0
  0
LINE
  5
C79
  8
CENTER
  6
CENTER
 10
736.1207938489265
 20
386.5259398252557
 30
0.0
 11
736.1207938489265
 21
268.52593982525559
 31
0.0
  0
LINE
  5
C7A
  8
0
 10
451.26071555780862
 20
381.02593982525559
 30
0.0
 11
451.26071555780862
 21
356.0259398252557
 31
0.0
  0
LINE
  5
C7B
  8
0
 10
453.26071555780862
 20
382.5259398252557
 30
0.0
 11
453.26071555780862
 21
353.5259398252557
 31
0.0
  0
LINE
  5
C7C
  8
0
 10
469.26071555780868
 20
382.5259398252557
 30
0.0
 11
469.26071555780862
 21
353.5259398252557
 31
0.0
  0
LINE
  5
C7D
  8
CENTER
  6
CENTER
 10
461.26071555780862
 20
386.5259398252557
 30
0.0
 11
461.26071555780862
 21
268.52593982525559
 31
0.0
  0
LINE
  5
C7E
  8
0
 10
498.76071555780862
 20
217.34609823394629
 30
0.0
 11
594.26071555780868
 21
217.34609823394629
 31
0.0
  0
LINE
  5
C7F
  8
0
 10
498.76071555780862
 20
204.94832253659811
 30
0.0
 11
594.26071555780868
 21
204.94832253659811
 31
0.0
  0
LINE
  5
C80
  8
0
 10
498.76071555780862
 20
168.94609823394629
 30
0.0
 11
594.26071555780868
 21
168.94609823394629
 31
0.0
  0
LINE
  5
C81
  8
0
 10
498.76071555780862
 20
181.34387393129441
 30
0.0
 11
594.26071555780868
 21
181.34387393129441
 31
0.0
  0
LINE
  5
C82
  8
0
 10
498.76071555780862
 20
323.8281641279076
 30
0.0
 11
594.26071555780868
 21
323.8281641279076
 31
0.0
  0
LINE
  5
C83
  8
0
 10
498.76071555780862
 20
336.22593982525569
 30
0.0
 11
594.26071555780868
 21
336.22593982525569
 31
0.0
  0
LINE
  5
C84
  8
0
 10
498.76071555780862
 20
300.22371552260381
 30
0.0
 11
594.26071555780868
 21
300.22371552260381
 31
0.0
  0
LINE
  5
C85
  8
0
 10
498.76071555780862
 20
287.82593982525577
 30
0.0
 11
594.26071555780868
 21
287.82593982525577
 31
0.0
  0
CIRCLE
  5
C86
  8
0
  6
CONTINUOUS
 10
461.26071555780862
 20
165.6460982339463
 30
0.0
 40
35.0
  0
LINE
  5
C87
  8
0
 10
498.76071555780862
 20
128.1460982339463
 30
0.0
 11
498.76071555780862
 21
221.1460982339463
 31
0.0
  0
LINE
  5
C88
  8
0
 10
423.76071555780862
 20
128.1460982339463
 30
0.0
 11
423.76071555780862
 21
221.1460982339463
 31
0.0
  0
LINE
  5
C89
  8
CENTER
  6
CENTER
 10
461.26071555780862
 20
125.1460982339463
 30
0.0
 11
461.26071555780862
 21
224.1460982339463
 31
0.0
  0
CIRCLE
  5
C8A
  8
0
  6
CONTINUOUS
 10
461.26071555780862
 20
165.6460982339463
 30
0.0
 40
36.0
  0
CIRCLE
  5
C8B
  8
CENTER
  6
CENTER
 10
461.26071555780862
 20
165.6460982339463
 30
0.0
 40
30.0
  0
LINE
  5
C8C
  8
0
 10
423.76071555780862
 20
128.1460982339463
 30
0.0
 11
498.76071555780862
 21
128.1460982339463
 31
0.0
  0
CIRCLE
  5
C8D
  8
0
  6
CONTINUOUS
 10
440.0475121222122
 20
144.43289479834999
 30
0.0
 40
2.0499999999999989
  0
LINE
  5
C8E
  8
CENTER
  6
CENTER
 10
435.80487143509282
 20
140.19025411123059
 30
0.0
 11
444.64370619992468
 21
149.02908887606239
 31
0.0
  0
ARC
  5
C8F
  8
0
  6
CONTINUOUS
 62
     2
 10
440.04751212221208
 20
144.43289479835011
 30
0.0
 40
2.5
 50
201.03635853977079
 51
155.01845143419251
  0
CIRCLE
  5
C90
  8
0
  6
CONTINUOUS
 10
431.26071555780862
 20
135.6460982339463
 30
0.0
 40
2.5
  0
ARC
  5
C91
  8
0
  6
CONTINUOUS
 62
     2
 10
431.26071555780862
 20
135.6460982339463
 30
0.0
 40
3.0
 50
338.35967540570613
 51
287.47149231941358
  0
LINE
  5
C92
  8
CENTER
  6
CENTER
 10
431.26071555780862
 20
129.6460982339463
 30
0.0
 11
431.26071555780862
 21
141.6460982339463
 31
0.0
  0
LINE
  5
C93
  8
CENTER
  6
CENTER
 10
425.26071555780862
 20
135.6460982339463
 30
0.0
 11
437.26071555780862
 21
135.6460982339463
 31
0.0
  0
LINE
  5
C94
  8
CENTER
  6
CENTER
 10
485.26071555780862
 20
135.6460982339463
 30
0.0
 11
497.26071555780862
 21
135.6460982339463
 31
0.0
  0
CIRCLE
  5
C95
  8
0
  6
CONTINUOUS
 10
491.26071555780851
 20
135.6460982339463
 30
0.0
 40
2.5
  0
ARC
  5
C96
  8
0
  6
CONTINUOUS
 62
     2
 10
491.26071555780851
 20
135.6460982339463
 30
0.0
 40
3.0
 50
248.3596754057061
 51
197.47149231941381
  0
LINE
  5
C97
  8
CENTER
  6
CENTER
 10
491.26071555780851
 20
129.6460982339463
 30
0.0
 11
491.26071555780851
 21
141.6460982339463
 31
0.0
  0
POLYLINE
  5
C98
  8
0
  6
CONTINUOUS
 66
     1
 10
0.0
 20
0.0
 30
0.0
  0
VERTEX
  5
1440
  8
0
  6
CONTINUOUS
 10
479.76071555780862
 20
226.1460982339463
 30
0.0
 42
-0.0851703918331037
  0
VERTEX
  5
1441
  8
0
  6
CONTINUOUS
 10
483.76071555780862
 20
225.4580982339462
 30
0.0
 42
-0.3457679526359281
  0
VERTEX
  5
1442
  8
0
  6
CONTINUOUS
 10
486.6607155578082
 20
225.79967791062111
 30
0.0
  0
SEQEND
  5
1443
  8
0
  6
CONTINUOUS
  0
LINE
  5
C9D
  8
0
  6
CONTINUOUS
 10
483.76071555780862
 20
227.94609823394561
 30
0.0
 11
482.5607155578079
 21
229.1460982339463
 31
0.0
  0
LINE
  5
C9E
  8
0
  6
CONTINUOUS
 10
475.76071555780862
 20
227.94609823394561
 30
0.0
 11
483.76071555780862
 21
227.94609823394561
 31
0.0
  0
LINE
  5
C9F
  8
0
  6
CONTINUOUS
 10
473.46071555780929
 20
226.1460982339463
 30
0.0
 11
486.0607155578079
 21
226.1460982339463
 31
0.0
  0
POLYLINE
  5
CA0
  8
0
  6
CONTINUOUS
 66
     1
 10
0.0
 20
0.0
 30
0.0
  0
VERTEX
  5
1444
  8
0
  6
CONTINUOUS
 10
479.76071555780862
 20
221.1460982339463
 30
0.0
 42
0.0851703918331037
  0
VERTEX
  5
1445
  8
0
  6
CONTINUOUS
 10
483.76071555780862
 20
221.83409823394641
 30
0.0
 42
0.3457679526359281
  0
VERTEX
  5
1446
  8
0
  6
CONTINUOUS
 10
486.6607155578082
 20
221.4925185572715
 30
0.0
  0
SEQEND
  5
1447
  8
0
  6
CONTINUOUS
  0
POLYLINE
  5
CA5
  8
0
  6
CONTINUOUS
 66
     1
 10
0.0
 20
0.0
 30
0.0
 70
     1
  0
VERTEX
  5
1448
  8
0
  6
CONTINUOUS
 10
475.71926367348118
 20
300.5259398252557
 30
0.0
  0
VERTEX
  5
1449
  8
0
  6
CONTINUOUS
 10
471.67781178915379
 20
293.5259398252557
 30
0.0
  0
VERTEX
  5
144A
  8
0
  6
CONTINUOUS
 10
475.71926367348118
 20
286.5259398252557
 30
0.0
  0
VERTEX
  5
144B
  8
0
  6
CONTINUOUS
 10
483.8021674421359
 20
286.5259398252557
 30
0.0
  0
VERTEX
  5
144C
  8
0
  6
CONTINUOUS
 10
487.8436193264634
 20
293.5259398252557
 30
0.0
  0
VERTEX
  5
144D
  8
0
  6
CONTINUOUS
 10
483.8021674421359
 20
300.5259398252557
 30
0.0
  0
SEQEND
  5
144E
  8
0
  6
CONTINUOUS
  0
CIRCLE
  5
CAD
  8
0
  6
CONTINUOUS
 10
479.76071555780862
 20
293.5259398252557
 30
0.0
 40
7.0
  0
CIRCLE
  5
CAE
  8
0
  6
CONTINUOUS
 10
479.76071555780862
 20
293.5259398252557
 30
0.0
 40
4.0
  0
LINE
  5
CAF
  8
CENTER
  6
CENTER
 10
469.76071555780862
 20
293.5259398252557
 30
0.0
 11
489.76071555780862
 21
293.5259398252557
 31
0.0
  0
CIRCLE
  5
CB0
  8
0
  6
CONTINUOUS
 10
482.47391899340499
 20
186.85930166954279
 30
0.0
 40
2.0499999999999989
  0
LINE
  5
CB1
  8
CENTER
  6
CENTER
 10
478.19592296722641
 20
182.58130564336409
 30
0.0
 11
486.75191501958358
 21
191.1372976957214
 31
0.0
  0
ARC
  5
CB2
  8
0
  6
CONTINUOUS
 62
     2
 10
482.47391899340488
 20
186.85930166954279
 30
0.0
 40
2.5
 50
201.03635853977079
 51
155.01845143419189
  0
LINE
  5
CB3
  8
CENTER
  6
CENTER
 10
423.76071555780862
 20
165.6460982339463
 30
0.0
 11
498.76071555780862
 21
165.6460982339463
 31
0.0
  0
LINE
  5
CB4
  8
0
 10
423.76071555780862
 20
221.1460982339463
 30
0.0
 11
498.76071555780862
 21
221.1460982339463
 31
0.0
  0
LINE
  5
CB5
  8
DIM
  6
CONTINUOUS
 10
426.76071555780862
 20
255.5259398252557
 30
0.0
 11
495.76071555780862
 21
255.5259398252557
 31
0.0
  0
LINE
  5
CB6
  8
DIM
  6
CONTINUOUS
 10
428.26071555780862
 20
263.5259398252557
 30
0.0
 11
494.26071555780862
 21
263.5259398252557
 31
0.0
  0
LINE
  5
CB7
  8
0
  6
CONTINUOUS
 10
426.26071555780862
 20
352.5259398252557
 30
0.0
 11
496.26071555780862
 21
352.5259398252557
 31
0.0
  0
LINE
  5
CB8
  8
0
  6
CONTINUOUS
 10
425.26071555780862
 20
351.5259398252557
 30
0.0
 11
497.26071555780862
 21
351.5259398252557
 31
0.0
  0
LINE
  5
CB9
  8
0
  6
CONTINUOUS
 10
425.26071555780862
 20
272.5259398252557
 30
0.0
 11
497.26071555780862
 21
272.5259398252557
 31
0.0
  0
LINE
  5
CBA
  8
0
  6
CONTINUOUS
 10
426.26071555780862
 20
271.5259398252557
 30
0.0
 11
496.26071555780862
 21
271.5259398252557
 31
0.0
  0
LINE
  5
CBB
  8
0
  6
CONTINUOUS
 10
423.76071555780862
 20
279.5259398252557
 30
0.0
 11
498.76071555780862
 21
279.5259398252557
 31
0.0
  0
LINE
  5
CBC
  8
0
  6
CONTINUOUS
 10
423.76071555780862
 20
344.5259398252557
 30
0.0
 11
498.76071555780862
 21
344.52593982525559
 31
0.0
  0
LINE
  5
CBD
  8
DIM
  6
CONTINUOUS
 10
425.31914772036907
 20
352.5259398252557
 30
0.0
 11
408.26071555780862
 21
352.5259398252557
 31
0.0
  0
POLYLINE
  5
CBE
  8
0
  6
CONTINUOUS
 66
     1
 10
0.0
 20
0.0
 30
0.0
 70
     1
 40
1.0
 41
1.0
  0
VERTEX
  5
144F
  8
0
  6
CONTINUOUS
 10
461.76071555780851
 20
312.0259398252557
 30
0.0
 42
1.0
  0
VERTEX
  5
1450
  8
0
  6
CONTINUOUS
 10
460.76071555780862
 20
312.0259398252557
 30
0.0
 42
1.0
  0
SEQEND
  5
1451
  8
0
  6
CONTINUOUS
  0
CIRCLE
  5
CC2
  8
0
  6
CONTINUOUS
 10
461.26071555780862
 20
312.0259398252557
 30
0.0
 40
4.0
  0
LINE
  5
CC3
  8
CENTER
  6
CENTER
 10
479.76071555780862
 20
204.88964590099829
 30
0.0
 11
479.76071555780862
 21
232.1460982339463
 31
0.0
  0
LINE
  5
CC4
  8
0
  6
CONTINUOUS
 62
     2
 10
482.96071555780929
 20
226.1460982339463
 30
0.0
 11
482.96071555780929
 21
228.74609823394491
 31
0.0
  0
LINE
  5
CC5
  8
0
  6
CONTINUOUS
 10
472.26071555780862
 20
225.45325758729589
 30
0.0
 11
473.46071555780929
 21
226.1460982339463
 31
0.0
  0
POLYLINE
  5
CC6
  8
0
  6
CONTINUOUS
 66
     1
 10
0.0
 20
0.0
 30
0.0
  0
VERTEX
  5
1452
  8
0
  6
CONTINUOUS
 10
479.76071555780862
 20
226.1460982339463
 30
0.0
 42
0.0851703918331037
  0
VERTEX
  5
1453
  8
0
  6
CONTINUOUS
 10
475.76071555780862
 20
225.4580982339462
 30
0.0
 42
0.3457679526359281
  0
VERTEX
  5
1454
  8
0
  6
CONTINUOUS
 10
472.86071555780899
 20
225.79967791062111
 30
0.0
  0
SEQEND
  5
1455
  8
0
  6
CONTINUOUS
  0
LINE
  5
CCB
  8
0
  6
CONTINUOUS
 10
475.76071555780862
 20
227.94609823394561
 30
0.0
 11
476.96071555780929
 21
229.1460982339463
 31
0.0
  0
LINE
  5
CCC
  8
0
  6
CONTINUOUS
 10
476.96071555780929
 20
229.1460982339463
 30
0.0
 11
482.56071555780778
 21
229.14609823394639
 31
0.0
  0
LINE
  5
CCD
  8
0
  6
CONTINUOUS
 10
475.76071555780862
 20
226.1460982339463
 30
0.0
 11
475.76071555780862
 21
227.94609823394561
 31
0.0
  0
LINE
  5
CCE
  8
0
  6
CONTINUOUS
 62
     2
 10
476.5607155578079
 20
226.1460982339463
 30
0.0
 11
476.5607155578079
 21
228.74609823394491
 31
0.0
  0
LINE
  5
CCF
  8
0
  6
CONTINUOUS
 10
472.26071555780868
 20
221.8389388805968
 30
0.0
 11
473.46071555780929
 21
221.1460982339463
 31
0.0
  0
POLYLINE
  5
CD0
  8
0
  6
CONTINUOUS
 66
     1
 10
0.0
 20
0.0
 30
0.0
  0
VERTEX
  5
1456
  8
0
  6
CONTINUOUS
 10
479.76071555780862
 20
221.1460982339463
 30
0.0
 42
-0.0851703918331037
  0
VERTEX
  5
1457
  8
0
  6
CONTINUOUS
 10
475.76071555780862
 20
221.83409823394641
 30
0.0
 42
-0.3457679526359281
  0
VERTEX
  5
1458
  8
0
  6
CONTINUOUS
 10
472.86071555780899
 20
221.4925185572715
 30
0.0
  0
SEQEND
  5
1459
  8
0
  6
CONTINUOUS
  0
LINE
  5
CD5
  8
0
  6
CONTINUOUS
 10
475.76071555780862
 20
221.83409823394629
 30
0.0
 11
475.76071555780862
 21
225.4580982339462
 31
0.0
  0
LINE
  5
CD6
  8
0
  6
CONTINUOUS
 10
472.26071555780862
 20
221.8389388805968
 30
0.0
 11
472.26071555780862
 21
225.45325758729589
 31
0.0
  0
ARC
  5
CD7
  8
0
  6
CONTINUOUS
 62
     2
 10
479.76071555780862
 20
293.5259398252557
 30
0.0
 40
3.399999999999999
 50
74.242562599195679
 51
23.283227219290101
  0
POLYLINE
  5
CD8
  8
0
  6
CONTINUOUS
 66
     1
 10
0.0
 20
0.0
 30
0.0
 70
     1
  0
VERTEX
  5
145A
  8
0
  6
CONTINUOUS
 10
478.60601501942858
 20
295.5259398252557
 30
0.0
  0
VERTEX
  5
145B
  8
0
  6
CONTINUOUS
 10
477.45131448105042
 20
293.5259398252557
 30
0.0
  0
VERTEX
  5
145C
  8
0
  6
CONTINUOUS
 10
478.60601501942858
 20
291.5259398252557
 30
0.0
  0
VERTEX
  5
145D
  8
0
  6
CONTINUOUS
 10
480.91541609618849
 20
291.5259398252557
 30
0.0
  0
VERTEX
  5
145E
  8
0
  6
CONTINUOUS
 10
482.07011663456672
 20
293.5259398252557
 30
0.0
  0
VERTEX
  5
145F
  8
0
  6
CONTINUOUS
 10
480.91541609618849
 20
295.5259398252557
 30
0.0
  0
SEQEND
  5
1460
  8
0
  6
CONTINUOUS
  0
LINE
  5
CE0
  8
CENTER
  6
CENTER
 10
479.76071555780862
 20
303.5259398252557
 30
0.0
 11
479.76071555780862
 21
283.52593982525559
 31
0.0
  0
POLYLINE
  5
CE1
  8
0
  6
CONTINUOUS
 66
     1
 10
0.0
 20
0.0
 30
0.0
  0
VERTEX
  5
1461
  8
0
  6
CONTINUOUS
 10
442.76071555780862
 20
226.1460982339463
 30
0.0
 42
0.0851703918331037
  0
VERTEX
  5
1462
  8
0
  6
CONTINUOUS
 10
438.76071555780862
 20
225.4580982339462
 30
0.0
 42
0.3457679526359281
  0
VERTEX
  5
1463
  8
0
  6
CONTINUOUS
 10
435.86071555780899
 20
225.79967791062111
 30
0.0
  0
SEQEND
  5
1464
  8
0
  6
CONTINUOUS
  0
LINE
  5
CE6
  8
0
  6
CONTINUOUS
 10
438.76071555780862
 20
227.94609823394561
 30
0.0
 11
439.96071555780941
 21
229.1460982339463
 31
0.0
  0
LINE
  5
CE7
  8
0
  6
CONTINUOUS
 10
446.76071555780862
 20
227.94609823394561
 30
0.0
 11
438.76071555780862
 21
227.94609823394561
 31
0.0
  0
LINE
  5
CE8
  8
0
  6
CONTINUOUS
 10
449.0607155578079
 20
226.1460982339463
 30
0.0
 11
436.46071555780918
 21
226.1460982339463
 31
0.0
  0
POLYLINE
  5
CE9
  8
0
  6
CONTINUOUS
 66
     1
 10
0.0
 20
0.0
 30
0.0
  0
VERTEX
  5
1465
  8
0
  6
CONTINUOUS
 10
442.76071555780851
 20
221.1460982339463
 30
0.0
 42
-0.0851703918331037
  0
VERTEX
  5
1466
  8
0
  6
CONTINUOUS
 10
438.76071555780851
 20
221.83409823394641
 30
0.0
 42
-0.3457679526359281
  0
VERTEX
  5
1467
  8
0
  6
CONTINUOUS
 10
435.86071555780887
 20
221.4925185572715
 30
0.0
  0
SEQEND
  5
1468
  8
0
  6
CONTINUOUS
  0
LINE
  5
CEE
  8
CENTER
  6
CENTER
 10
431.26071555780862
 20
189.6460982339463
 30
0.0
 11
431.26071555780862
 21
201.6460982339463
 31
0.0
  0
CIRCLE
  5
CEF
  8
0
  6
CONTINUOUS
 10
431.26071555780862
 20
195.6460982339463
 30
0.0
 40
2.5
  0
ARC
  5
CF0
  8
0
  6
CONTINUOUS
 62
     2
 10
431.26071555780862
 20
195.6460982339463
 30
0.0
 40
3.0
 50
338.35967540570613
 51
287.47149231941358
  0
LINE
  5
CF1
  8
CENTER
  6
CENTER
 10
425.26071555780862
 20
195.6460982339463
 30
0.0
 11
437.26071555780862
 21
195.6460982339463
 31
0.0
  0
LINE
  5
CF2
  8
0
  6
CONTINUOUS
 10
435.26071555780862
 20
225.45325758729589
 30
0.0
 11
436.46071555780929
 21
226.1460982339463
 31
0.0
  0
LINE
  5
CF3
  8
0
  6
CONTINUOUS
 62
     2
 10
439.5607155578079
 20
226.1460982339463
 30
0.0
 11
439.5607155578079
 21
228.74609823394491
 31
0.0
  0
LINE
  5
CF4
  8
0
  6
CONTINUOUS
 10
438.76071555780851
 20
226.1460982339463
 30
0.0
 11
438.76071555780862
 21
227.94609823394561
 31
0.0
  0
LINE
  5
CF5
  8
0
  6
CONTINUOUS
 10
435.26071555780851
 20
221.8389388805968
 30
0.0
 11
436.46071555780918
 21
221.1460982339463
 31
0.0
  0
LINE
  5
CF6
  8
0
  6
CONTINUOUS
 10
435.26071555780862
 20
221.8389388805968
 30
0.0
 11
435.26071555780862
 21
225.45325758729589
 31
0.0
  0
LINE
  5
CF7
  8
0
  6
CONTINUOUS
 10
438.76071555780862
 20
221.83409823394649
 30
0.0
 11
438.76071555780862
 21
225.4580982339462
 31
0.0
  0
LINE
  5
CF8
  8
0
  6
CONTINUOUS
 10
450.26071555780862
 20
225.45325758729589
 30
0.0
 11
449.0607155578079
 21
226.1460982339463
 31
0.0
  0
POLYLINE
  5
CF9
  8
0
  6
CONTINUOUS
 66
     1
 10
0.0
 20
0.0
 30
0.0
  0
VERTEX
  5
1469
  8
0
  6
CONTINUOUS
 10
442.76071555780862
 20
226.1460982339463
 30
0.0
 42
-0.0851703918331037
  0
VERTEX
  5
146A
  8
0
  6
CONTINUOUS
 10
446.76071555780862
 20
225.4580982339462
 30
0.0
 42
-0.3457679526359281
  0
VERTEX
  5
146B
  8
0
  6
CONTINUOUS
 10
449.6607155578082
 20
225.79967791062111
 30
0.0
  0
SEQEND
  5
146C
  8
0
  6
CONTINUOUS
  0
LINE
  5
CFE
  8
CENTER
  6
CENTER
 10
442.76071555780862
 20
204.88964590099829
 30
0.0
 11
442.76071555780862
 21
232.1460982339463
 31
0.0
  0
LINE
  5
CFF
  8
0
  6
CONTINUOUS
 10
446.76071555780862
 20
227.94609823394561
 30
0.0
 11
445.56071555780778
 21
229.1460982339463
 31
0.0
  0
LINE
  5
D00
  8
0
  6
CONTINUOUS
 10
445.56071555780778
 20
229.1460982339463
 30
0.0
 11
439.96071555780941
 21
229.14609823394639
 31
0.0
  0
LINE
  5
D01
  8
0
  6
CONTINUOUS
 10
446.76071555780862
 20
226.1460982339463
 30
0.0
 11
446.76071555780862
 21
227.94609823394561
 31
0.0
  0
LINE
  5
D02
  8
0
  6
CONTINUOUS
 62
     2
 10
445.96071555780929
 20
226.1460982339463
 30
0.0
 11
445.96071555780929
 21
228.74609823394491
 31
0.0
  0
LINE
  5
D03
  8
0
  6
CONTINUOUS
 10
450.26071555780851
 20
221.8389388805968
 30
0.0
 11
449.06071555780778
 21
221.1460982339463
 31
0.0
  0
POLYLINE
  5
D04
  8
0
  6
CONTINUOUS
 66
     1
 10
0.0
 20
0.0
 30
0.0
  0
VERTEX
  5
146D
  8
0
  6
CONTINUOUS
 10
442.76071555780851
 20
221.1460982339463
 30
0.0
 42
0.0851703918331037
  0
VERTEX
  5
146E
  8
0
  6
CONTINUOUS
 10
446.76071555780851
 20
221.83409823394641
 30
0.0
 42
0.3457679526359281
  0
VERTEX
  5
146F
  8
0
  6
CONTINUOUS
 10
449.66071555780809
 20
221.4925185572715
 30
0.0
  0
SEQEND
  5
1470
  8
0
  6
CONTINUOUS
  0
LINE
  5
D09
  8
0
  6
CONTINUOUS
 10
446.76071555780862
 20
221.83409823394629
 30
0.0
 11
446.76071555780862
 21
225.4580982339462
 31
0.0
  0
LINE
  5
D0A
  8
0
  6
CONTINUOUS
 10
450.26071555780862
 20
221.8389388805968
 30
0.0
 11
450.26071555780862
 21
225.45325758729589
 31
0.0
  0
POLYLINE
  5
D0B
  8
0
  6
CONTINUOUS
 66
     1
 10
0.0
 20
0.0
 30
0.0
 70
     1
  0
VERTEX
  5
1471
  8
0
  6
CONTINUOUS
 10
438.71926367348118
 20
300.5259398252557
 30
0.0
  0
VERTEX
  5
1472
  8
0
  6
CONTINUOUS
 10
434.67781178915379
 20
293.5259398252557
 30
0.0
  0
VERTEX
  5
1473
  8
0
  6
CONTINUOUS
 10
438.71926367348118
 20
286.5259398252557
 30
0.0
  0
VERTEX
  5
1474
  8
0
  6
CONTINUOUS
 10
446.8021674421359
 20
286.5259398252557
 30
0.0
  0
VERTEX
  5
1475
  8
0
  6
CONTINUOUS
 10
450.8436193264634
 20
293.5259398252557
 30
0.0
  0
VERTEX
  5
1476
  8
0
  6
CONTINUOUS
 10
446.8021674421359
 20
300.5259398252557
 30
0.0
  0
SEQEND
  5
1477
  8
0
  6
CONTINUOUS
  0
CIRCLE
  5
D13
  8
0
  6
CONTINUOUS
 10
442.76071555780862
 20
293.5259398252557
 30
0.0
 40
7.0
  0
POLYLINE
  5
D14
  8
0
  6
CONTINUOUS
 66
     1
 10
0.0
 20
0.0
 30
0.0
 70
     1
  0
VERTEX
  5
1478
  8
0
  6
CONTINUOUS
 10
441.60601501942858
 20
295.5259398252557
 30
0.0
  0
VERTEX
  5
1479
  8
0
  6
CONTINUOUS
 10
440.45131448105042
 20
293.5259398252557
 30
0.0
  0
VERTEX
  5
147A
  8
0
  6
CONTINUOUS
 10
441.60601501942858
 20
291.5259398252557
 30
0.0
  0
VERTEX
  5
147B
  8
0
  6
CONTINUOUS
 10
443.91541609618849
 20
291.5259398252557
 30
0.0
  0
VERTEX
  5
147C
  8
0
  6
CONTINUOUS
 10
445.07011663456672
 20
293.5259398252557
 30
0.0
  0
VERTEX
  5
147D
  8
0
  6
CONTINUOUS
 10
443.91541609618849
 20
295.5259398252557
 30
0.0
  0
SEQEND
  5
147E
  8
0
  6
CONTINUOUS
  0
ARC
  5
D1C
  8
0
  6
CONTINUOUS
 62
     2
 10
442.76071555780862
 20
293.5259398252557
 30
0.0
 40
3.399999999999999
 50
74.242562599195679
 51
23.283227219290101
  0
CIRCLE
  5
D1D
  8
0
  6
CONTINUOUS
 10
442.76071555780862
 20
293.5259398252557
 30
0.0
 40
4.0
  0
LINE
  5
D1E
  8
CENTER
  6
CENTER
 10
442.76071555780862
 20
303.5259398252557
 30
0.0
 11
442.76071555780862
 21
283.52593982525559
 31
0.0
  0
TEXT
  5
D1F
  8
DIM
  6
CONTINUOUS
 10
407.76071555780851
 20
347.22777768583211
 30
0.0
 40
3.0
  1
1
 50
90.0
  7
ROMANSS
 72
     1
 11
406.26071555780862
 21
347.58492054297488
 31
0.0
 73
     2
  0
SOLID
  5
D20
  8
DIM
  6
CONTINUOUS
 10
408.76071555780862
 20
349.5259398252557
 30
0.0
 11
409.76071555780862
 21
349.5259398252557
 31
0.0
 12
409.26071555780862
 22
352.5259398252557
 32
0.0
 13
409.26071555780862
 23
352.5259398252557
 33
0.0
  0
LINE
  5
D21
  8
DIM
  6
CONTINUOUS
 10
447.76071555780862
 20
353.5259398252557
 30
0.0
 11
408.26071555780862
 21
353.5259398252557
 31
0.0
  0
LINE
  5
D22
  8
DIM
  6
CONTINUOUS
 10
450.26071555780862
 20
356.0259398252557
 30
0.0
 11
416.26071555780851
 21
356.0259398252557
 31
0.0
  0
TEXT
  5
D23
  8
DIM
  6
CONTINUOUS
 10
457.47500127209429
 20
249.0259398252557
 30
0.0
 40
3.0
  1
326
  7
ROMANSS
 72
     1
 11
461.26071555780862
 21
250.5259398252557
 31
0.0
 73
     2
  0
TEXT
  5
D24
  8
DIM
  6
CONTINUOUS
 10
458.83214412923718
 20
257.0259398252557
 30
0.0
 40
3.0
  1
75
  7
ROMANSS
 72
     1
 11
461.26071555780862
 21
258.52593982525559
 31
0.0
 73
     2
  0
SOLID
  5
D25
  8
DIM
  6
CONTINUOUS
 10
426.76071555780862
 20
256.02593982525559
 30
0.0
 11
426.76071555780862
 21
255.0259398252557
 31
0.0
 12
423.76071555780862
 22
255.5259398252557
 32
0.0
 13
423.76071555780862
 23
255.5259398252557
 33
0.0
  0
LINE
  5
D26
  8
DIM
  6
CONTINUOUS
 10
423.76071555780862
 20
278.5259398252557
 30
0.0
 11
423.76071555780862
 21
254.5259398252557
 31
0.0
  0
TEXT
  5
D27
  8
DIM
  6
CONTINUOUS
 10
457.47500127209429
 20
265.0259398252557
 30
0.0
 40
3.0
  1
%%c72
  7
ROMANSS
 72
     1
 11
461.26071555780862
 21
266.52593982525559
 31
0.0
 73
     2
  0
SOLID
  5
D28
  8
DIM
  6
CONTINUOUS
 10
428.26071555780862
 20
264.0259398252557
 30
0.0
 11
428.26071555780862
 21
263.0259398252557
 31
0.0
 12
425.26071555780862
 22
263.5259398252557
 32
0.0
 13
425.26071555780862
 23
263.5259398252557
 33
0.0
  0
LINE
  5
D29
  8
DIM
  6
CONTINUOUS
 10
425.26071555780862
 20
271.5259398252557
 30
0.0
 11
425.26071555780862
 21
262.52593982525559
 31
0.0
  0
LINE
  5
D2A
  8
CENTER
  6
CENTER
 10
431.26071555780868
 20
293.30489256945248
 30
0.0
 11
431.26071555780868
 21
276.57338562340919
 31
0.0
  0
LINE
  5
D2B
  8
CENTER
  6
CENTER
 10
431.26071555780868
 20
331.2761604230509
 30
0.0
 11
431.26071555780868
 21
347.4784940271021
 31
0.0
  0
LINE
  5
D2C
  8
0
 10
473.76071555780862
 20
353.5259398252557
 30
0.0
 11
473.76071555780862
 21
352.5259398252557
 31
0.0
  0
LINE
  5
D2D
  8
0
 10
448.76071555780862
 20
353.5259398252557
 30
0.0
 11
448.76071555780862
 21
352.5259398252557
 31
0.0
  0
LINE
  5
D2E
  8
0
  6
CONTINUOUS
 10
451.26071555780862
 20
356.0259398252557
 30
0.0
 11
453.26071555780862
 21
356.0259398252557
 31
0.0
  0
LINE
  5
D2F
  8
0
  6
CONTINUOUS
 10
448.76071555780862
 20
353.5259398252557
 30
0.0
 11
473.76071555780862
 21
353.5259398252557
 31
0.0
  0
LINE
  5
D30
  8
0
  6
CONTINUOUS
 10
425.26071555780862
 20
351.5259398252557
 30
0.0
 11
426.26071555780862
 21
352.5259398252557
 31
0.0
  0
LINE
  5
D31
  8
0
 10
425.26071555780862
 20
344.5259398252557
 30
0.0
 11
425.26071555780862
 21
351.5259398252557
 31
0.0
  0
LINE
  5
D32
  8
0
  6
CONTINUOUS
 10
425.26071555780862
 20
272.5259398252557
 30
0.0
 11
426.26071555780862
 21
271.5259398252557
 31
0.0
  0
LINE
  5
D33
  8
0
 10
425.26071555780862
 20
279.5259398252557
 30
0.0
 11
425.26071555780862
 21
272.5259398252557
 31
0.0
  0
LINE
  5
D34
  8
0
 10
423.76071555780862
 20
344.5259398252557
 30
0.0
 11
423.76071555780862
 21
279.5259398252557
 31
0.0
  0
LINE
  5
D35
  8
CENTER
  6
CENTER
 10
432.76071555780851
 20
293.5259398252557
 30
0.0
 11
452.76071555780862
 21
293.5259398252557
 31
0.0
  0
LINE
  5
D36
  8
0
  6
CONTINUOUS
 10
487.26071555780862
 20
225.45325758729589
 30
0.0
 11
486.0607155578079
 21
226.1460982339463
 31
0.0
  0
LINE
  5
D37
  8
0
  6
CONTINUOUS
 10
483.76071555780862
 20
226.1460982339463
 30
0.0
 11
483.76071555780862
 21
227.94609823394561
 31
0.0
  0
LINE
  5
D38
  8
0
  6
CONTINUOUS
 10
487.26071555780862
 20
221.8389388805968
 30
0.0
 11
486.0607155578079
 21
221.1460982339463
 31
0.0
  0
LINE
  5
D39
  8
0
  6
CONTINUOUS
 10
487.26071555780862
 20
221.8389388805968
 30
0.0
 11
487.26071555780862
 21
225.45325758729589
 31
0.0
  0
LINE
  5
D3A
  8
0
  6
CONTINUOUS
 10
483.76071555780862
 20
221.83409823394649
 30
0.0
 11
483.76071555780862
 21
225.4580982339462
 31
0.0
  0
LINE
  5
D3B
  8
CENTER
  6
CENTER
 10
485.26071555780862
 20
195.6460982339463
 30
0.0
 11
497.26071555780862
 21
195.6460982339463
 31
0.0
  0
LINE
  5
D3C
  8
CENTER
  6
CENTER
 10
491.26071555780851
 20
189.6460982339463
 30
0.0
 11
491.26071555780851
 21
201.6460982339463
 31
0.0
  0
CIRCLE
  5
D3D
  8
0
  6
CONTINUOUS
 10
491.26071555780851
 20
195.6460982339463
 30
0.0
 40
2.5
  0
ARC
  5
D3E
  8
0
  6
CONTINUOUS
 62
     2
 10
491.26071555780851
 20
195.6460982339463
 30
0.0
 40
3.0
 50
338.35967540570613
 51
287.47149231941358
  0
SOLID
  5
D3F
  8
DIM
  6
CONTINUOUS
 10
495.76071555780862
 20
256.02593982525559
 30
0.0
 11
495.76071555780862
 21
255.0259398252557
 31
0.0
 12
498.76071555780862
 22
255.5259398252557
 32
0.0
 13
498.76071555780862
 23
255.5259398252557
 33
0.0
  0
LINE
  5
D40
  8
DIM
  6
CONTINUOUS
 10
498.76071555780862
 20
278.5259398252557
 30
0.0
 11
498.76071555780862
 21
254.5259398252557
 31
0.0
  0
SOLID
  5
D41
  8
DIM
  6
CONTINUOUS
 10
494.26071555780862
 20
264.0259398252557
 30
0.0
 11
494.26071555780862
 21
263.0259398252557
 31
0.0
 12
497.26071555780862
 22
263.5259398252557
 32
0.0
 13
497.26071555780862
 23
263.5259398252557
 33
0.0
  0
LINE
  5
D42
  8
DIM
  6
CONTINUOUS
 10
497.26071555780862
 20
271.5259398252557
 30
0.0
 11
497.26071555780862
 21
262.52593982525559
 31
0.0
  0
LINE
  5
D43
  8
CENTER
  6
CENTER
 10
491.26071555780851
 20
330.95336701204047
 30
0.0
 11
491.26071555780851
 21
347.4784940271021
 31
0.0
  0
LINE
  5
D44
  8
CENTER
  6
CENTER
 10
491.26071555780851
 20
293.33131489593382
 30
0.0
 11
491.26071555780851
 21
276.57338562340919
 31
0.0
  0
LINE
  5
D45
  8
0
  6
CONTINUOUS
 10
497.26071555780862
 20
351.5259398252557
 30
0.0
 11
496.26071555780862
 21
352.5259398252557
 31
0.0
  0
LINE
  5
D46
  8
0
 10
497.26071555780862
 20
344.5259398252557
 30
0.0
 11
497.26071555780862
 21
351.5259398252557
 31
0.0
  0
LINE
  5
D47
  8
0
  6
CONTINUOUS
 10
497.26071555780862
 20
272.5259398252557
 30
0.0
 11
496.26071555780862
 21
271.5259398252557
 31
0.0
  0
LINE
  5
D48
  8
0
 10
497.26071555780862
 20
279.5259398252557
 30
0.0
 11
497.26071555780862
 21
272.5259398252557
 31
0.0
  0
LINE
  5
D49
  8
0
 10
498.76071555780862
 20
344.52593982525559
 30
0.0
 11
498.76071555780862
 21
279.5259398252557
 31
0.0
  0
LINE
  5
D4A
  8
DIM
  6
CONTINUOUS
 10
683.62079384892638
 20
255.5259398252557
 30
0.0
 11
770.62079384892638
 21
255.5259398252557
 31
0.0
  0
LINE
  5
D4B
  8
CENTER
  6
CENTER
 10
677.51643831840136
 20
304.5259398252557
 30
0.0
 11
691.24437878693379
 21
304.5259398252557
 31
0.0
  0
LINE
  5
D4C
  8
CENTER
  6
CENTER
 10
677.61433860737884
 20
316.02593982525559
 30
0.0
 11
697.0143386073787
 21
316.02593982525559
 31
0.0
  0
LINE
  5
D4D
  8
0
  6
CONTINUOUS
 10
680.6207938489265
 20
279.5259398252557
 30
0.0
 11
773.6207938489265
 21
279.5259398252557
 31
0.0
  0
LINE
  5
D4E
  8
0
  6
CONTINUOUS
 10
680.6207938489265
 20
344.5259398252557
 30
0.0
 11
773.6207938489265
 21
344.52593982525559
 31
0.0
  0
POLYLINE
  5
D4F
  8
0
 66
     1
 10
0.0
 20
0.0
 30
0.0
 70
     1
  0
VERTEX
  5
147F
  8
0
 10
686.6207938489265
 20
294.75799063282471
 30
0.0
  0
VERTEX
  5
1480
  8
0
 10
686.6207938489265
 20
291.29388901768692
 30
0.0
  0
VERTEX
  5
1481
  8
0
 10
689.6207938489265
 20
289.56183821011803
 30
0.0
  0
VERTEX
  5
1482
  8
0
 10
692.62079384892638
 20
291.29388901768692
 30
0.0
  0
VERTEX
  5
1483
  8
0
 10
692.62079384892638
 20
294.75799063282471
 30
0.0
  0
VERTEX
  5
1484
  8
0
 10
689.6207938489265
 20
296.4900414403935
 30
0.0
  0
SEQEND
  5
1485
  8
0
  0
CIRCLE
  5
D57
  8
0
 10
689.6207938489265
 20
293.0259398252557
 30
0.0
 40
5.0
  0
CIRCLE
  5
D58
  8
0
 10
689.6207938489265
 20
293.0259398252557
 30
0.0
 40
5.5
  0
POLYLINE
  5
D59
  8
0
 66
     1
 10
0.0
 20
0.0
 30
0.0
 70
     1
  0
VERTEX
  5
1486
  8
0
 10
686.6207938489265
 20
332.75799063282471
 30
0.0
  0
VERTEX
  5
1487
  8
0
 10
686.6207938489265
 20
329.29388901768692
 30
0.0
  0
VERTEX
  5
1488
  8
0
 10
689.6207938489265
 20
327.56183821011808
 30
0.0
  0
VERTEX
  5
1489
  8
0
 10
692.62079384892638
 20
329.29388901768692
 30
0.0
  0
VERTEX
  5
148A
  8
0
 10
692.62079384892638
 20
332.75799063282471
 30
0.0
  0
VERTEX
  5
148B
  8
0
 10
689.6207938489265
 20
334.4900414403935
 30
0.0
  0
SEQEND
  5
148C
  8
0
  0
CIRCLE
  5
D61
  8
0
 10
689.6207938489265
 20
331.0259398252557
 30
0.0
 40
5.5
  0
CIRCLE
  5
D62
  8
0
 10
689.6207938489265
 20
331.0259398252557
 30
0.0
 40
5.0
  0
LINE
  5
D63
  8
CENTER
  6
CENTER
 10
683.12079384892638
 20
331.0259398252557
 30
0.0
 11
696.12079384892638
 21
331.0259398252557
 31
0.0
  0
LINE
  5
D64
  8
0
 10
686.1207938489265
 20
313.02593982525559
 30
0.0
 11
689.72635022123541
 21
313.02593982525559
 31
0.0
  0
LINE
  5
D65
  8
0
 10
686.1207938489265
 20
311.0259398252557
 30
0.0
 11
689.72635022123541
 21
311.0259398252557
 31
0.0
  0
ARC
  5
D66
  8
0
 10
689.6207938489265
 20
331.02593982525559
 30
0.0
 40
7.5
 50
245.68426082882789
 51
304.1930771251387
  0
LINE
  5
D67
  8
0
 10
690.58984564158777
 20
307.03553860795228
 30
0.0
 11
686.1207938489265
 21
307.03553860795228
 31
0.0
  0
ARC
  5
D68
  8
0
 10
689.6207938489265
 20
293.0259398252557
 30
0.0
 40
7.5
 50
55.806922874861257
 51
114.3157391711738
  0
LINE
  5
D69
  8
CENTER
  6
CENTER
 10
683.12079384892638
 20
293.0259398252557
 30
0.0
 11
696.12079384892638
 21
293.0259398252557
 31
0.0
  0
LINE
  5
D6A
  8
CENTER
  6
CENTER
 10
677.6207938489265
 20
312.0259398252557
 30
0.0
 11
776.6207938489265
 21
312.0259398252557
 31
0.0
  0
POLYLINE
  5
D6B
  8
0
 66
     1
 10
0.0
 20
0.0
 30
0.0
 70
     1
  0
VERTEX
  5
148D
  8
0
 10
734.62079384892638
 20
331.0259398252557
 30
0.0
 42
0.4142135623730951
  0
VERTEX
  5
148E
  8
0
 10
727.62079384892616
 20
338.0259398252557
 30
0.0
  0
VERTEX
  5
148F
  8
0
 10
689.6207938489265
 20
338.0259398252557
 30
0.0
 42
0.4142135623730951
  0
VERTEX
  5
1490
  8
0
 10
682.6207938489265
 20
331.0259398252557
 30
0.0
  0
VERTEX
  5
1491
  8
0
 10
682.6207938489265
 20
293.0259398252557
 30
0.0
 42
0.4142135623730951
  0
VERTEX
  5
1492
  8
0
 10
689.6207938489265
 20
286.0259398252557
 30
0.0
  0
VERTEX
  5
1493
  8
0
 10
727.62079384892616
 20
286.0259398252557
 30
0.0
 42
0.4142135623730957
  0
VERTEX
  5
1494
  8
0
 10
734.62079384892638
 20
293.0259398252557
 30
0.0
  0
SEQEND
  5
1495
  8
0
  0
POLYLINE
  5
D75
  8
0
 66
     1
 10
0.0
 20
0.0
 30
0.0
 70
     1
  0
VERTEX
  5
1496
  8
0
 10
735.1207938489265
 20
331.0259398252557
 30
0.0
 42
0.4142135623730951
  0
VERTEX
  5
1497
  8
0
 10
727.62079384892616
 20
338.5259398252557
 30
0.0
  0
VERTEX
  5
1498
  8
0
 10
689.6207938489265
 20
338.5259398252557
 30
0.0
 42
0.4142135623730951
  0
VERTEX
  5
1499
  8
0
 10
682.1207938489265
 20
331.0259398252557
 30
0.0
  0
VERTEX
  5
149A
  8
0
 10
682.1207938489265
 20
293.0259398252557
 30
0.0
 42
0.4142135623730951
  0
VERTEX
  5
149B
  8
0
 10
689.6207938489265
 20
285.5259398252557
 30
0.0
  0
VERTEX
  5
149C
  8
0
 10
727.62079384892616
 20
285.5259398252557
 30
0.0
 42
0.4142135623730951
  0
VERTEX
  5
149D
  8
0
 10
735.1207938489265
 20
293.0259398252557
 30
0.0
  0
SEQEND
  5
149E
  8
0
  0
LINE
  5
D7F
  8
0
 10
624.26071555780857
 20
167.1460982339463
 30
0.0
 11
624.26071555780857
 21
219.1460982339463
 31
0.0
  0
LINE
  5
D80
  8
0
 10
624.26071555780857
 20
175.6460982339463
 30
0.0
 11
627.26071555780868
 21
175.6460982339463
 31
0.0
  0
ARC
  5
D81
  8
0
 10
627.26071555780868
 20
176.6460982339463
 30
0.0
 40
1.0
 50
270.0
 51
0.0
  0
ARC
  5
D82
  8
0
 10
627.26071555780868
 20
209.6460982339463
 30
0.0
 40
1.0
 50
0.0
 51
90.0
  0
LINE
  5
D83
  8
0
 10
628.26071555780857
 20
176.6460982339463
 30
0.0
 11
628.26071555780857
 21
209.6460982339463
 31
0.0
  0
LINE
  5
D84
  8
0
 10
594.26071555780868
 20
166.6460982339463
 30
0.0
 11
594.26071555780868
 21
219.6460982339463
 31
0.0
  0
LINE
  5
D85
  8
0
 10
594.26071555780868
 20
219.6460982339463
 30
0.0
 11
624.26071555780857
 21
219.1460982339463
 31
0.0
  0
LINE
  5
D86
  8
0
 10
594.26071555780868
 20
166.6460982339463
 30
0.0
 11
624.26071555780857
 21
167.1460982339463
 31
0.0
  0
ARC
  5
D87
  8
0
  6
CONTINUOUS
 10
672.20381425331493
 20
290.0259398252557
 30
0.0
 40
8.4553825989882458
 50
335.54757590941512
 51
24.452424090584881
  0
ARC
  5
D88
  8
0
  6
CONTINUOUS
 10
672.20381425331493
 20
297.0259398252557
 30
0.0
 40
8.4553825989882458
 50
335.54757590941512
 51
24.452424090584881
  0
LINE
  5
D89
  8
0
  6
CONTINUOUS
 10
672.6207938489265
 20
290.72593982525638
 30
0.0
 11
672.6207938489265
 21
296.32593982525492
 31
0.0
  0
LINE
  5
D8A
  8
0
  6
CONTINUOUS
 10
673.82079384892722
 20
289.5259398252557
 30
0.0
 11
672.6207938489265
 21
290.72593982525638
 31
0.0
  0
LINE
  5
D8B
  8
0
  6
CONTINUOUS
 10
675.52079384892795
 20
289.5259398252557
 30
0.0
 11
673.82079384892722
 21
289.5259398252557
 31
0.0
  0
LINE
  5
D8C
  8
0
  6
CONTINUOUS
 10
673.82079384892722
 20
297.5259398252557
 30
0.0
 11
672.6207938489265
 21
296.32593982525498
 31
0.0
  0
LINE
  5
D8D
  8
0
  6
CONTINUOUS
 10
675.52079384892795
 20
297.5259398252557
 30
0.0
 11
673.82079384892722
 21
297.5259398252557
 31
0.0
  0
LINE
  5
D8E
  8
0
  6
CONTINUOUS
 10
680.6207938489265
 20
300.5259398252557
 30
0.0
 11
680.6207938489265
 21
293.5259398252557
 31
0.0
  0
LINE
  5
D8F
  8
0
  6
CONTINUOUS
 10
675.62079384892638
 20
300.5259398252557
 30
0.0
 11
680.6207938489265
 21
300.5259398252557
 31
0.0
  0
ARC
  5
D90
  8
0
  6
CONTINUOUS
 10
684.03777344453749
 20
297.0259398252557
 30
0.0
 40
8.4553825989878657
 50
155.54757590940659
 51
204.4524240905933
  0
LINE
  5
D91
  8
0
  6
CONTINUOUS
 10
679.90079384892715
 20
293.5259398252557
 30
0.0
 11
676.34079384892584
 21
293.5259398252557
 31
0.0
  0
LINE
  5
D92
  8
0
  6
CONTINUOUS
 10
680.6207938489265
 20
286.5259398252557
 30
0.0
 11
680.6207938489265
 21
293.5259398252557
 31
0.0
  0
LINE
  5
D93
  8
0
  6
CONTINUOUS
 10
675.62079384892638
 20
286.5259398252557
 30
0.0
 11
680.6207938489265
 21
286.5259398252557
 31
0.0
  0
ARC
  5
D94
  8
0
  6
CONTINUOUS
 10
684.03777344453749
 20
290.0259398252557
 30
0.0
 40
8.4553825989878657
 50
155.54757590940659
 51
204.45242409059369
  0
LINE
  5
D95
  8
0
  6
CONTINUOUS
 10
680.6207938489265
 20
293.5259398252557
 30
0.0
 11
676.34079384892584
 21
293.5259398252557
 31
0.0
  0
LINE
  5
D96
  8
0
  6
CONTINUOUS
 62
     2
 10
675.52079384892795
 20
296.72593982525649
 30
0.0
 11
673.02079384892795
 21
296.72593982525649
 31
0.0
  0
LINE
  5
D97
  8
0
  6
CONTINUOUS
 10
675.62079384892638
 20
300.5259398252557
 30
0.0
 11
675.62079384892638
 21
286.5259398252557
 31
0.0
  0
LINE
  5
D98
  8
0
  6
CONTINUOUS
 62
     2
 10
675.52079384892795
 20
290.32593982525498
 30
0.0
 11
673.02079384892795
 21
290.32593982525498
 31
0.0
  0
LINE
  5
D99
  8
0
  6
CONTINUOUS
 10
673.82079384892722
 20
289.5259398252557
 30
0.0
 11
673.82079384892722
 21
297.5259398252557
 31
0.0
  0
LINE
  5
D9A
  8
CENTER
  6
CENTER
 10
669.81807104020618
 20
293.5259398252557
 30
0.0
 11
688.88846410409235
 21
293.5259398252557
 31
0.0
  0
SOLID
  5
D9B
  8
DIM
  6
CONTINUOUS
 10
687.65271078262526
 20
336.73776276582458
 30
0.0
 11
686.77337369671318
 21
336.26156292401481
 31
0.0
 12
688.64164176509894
 22
333.86165158718359
 32
0.0
 13
688.64164176509894
 23
333.86165158718359
 33
0.0
  0
LINE
  5
D9C
  8
DIM
  6
CONTINUOUS
 10
621.64405835412697
 20
354.41731033921837
 30
0.0
 11
641.83444554685593
 21
354.41731033921837
 31
0.0
  0
LINE
  5
D9D
  8
DIM
  6
CONTINUOUS
 10
615.48257925584039
 20
323.46738027571593
 30
0.0
 11
641.83444554685593
 21
354.41731033921837
 31
0.0
  0
SOLID
  5
D9E
  8
DIM
  6
CONTINUOUS
 10
615.86327912209504
 20
323.14323893026022
 30
0.0
 11
615.10187938958586
 21
323.79152162117168
 31
0.0
 12
613.53773118310619
 22
321.18318107818931
 32
0.0
 13
613.53773118310619
 23
321.18318107818931
 33
0.0
  0
POLYLINE
  5
D9F
  8
DIM
  6
CONTINUOUS
 66
     1
 10
0.0
 20
0.0
 30
0.0
 70
     1
  0
VERTEX
  5
149F
  8
DIM
  6
CONTINUOUS
 10
660.6979134734504
 20
310.50128359718337
 30
0.0
  0
VERTEX
  5
14A0
  8
DIM
  6
CONTINUOUS
 10
660.6979134734504
 20
308.61578473715451
 30
0.0
  0
VERTEX
  5
14A1
  8
DIM
  6
CONTINUOUS
 10
662.63866801086601
 20
308.61578473715451
 30
0.0
  0
VERTEX
  5
14A2
  8
DIM
  6
CONTINUOUS
 10
662.63866801086601
 20
310.50128359718337
 30
0.0
  0
SEQEND
  5
14A3
  8
DIM
  6
CONTINUOUS
  0
POLYLINE
  5
DA5
  8
DIM
  6
CONTINUOUS
 66
     1
 10
0.0
 20
0.0
 30
0.0
 70
     1
  0
VERTEX
  5
14A4
  8
DIM
  6
CONTINUOUS
 10
652.6979134734504
 20
310.50128359718337
 30
0.0
  0
VERTEX
  5
14A5
  8
DIM
  6
CONTINUOUS
 10
652.6979134734504
 20
308.61578473715451
 30
0.0
  0
VERTEX
  5
14A6
  8
DIM
  6
CONTINUOUS
 10
654.63866801086601
 20
308.61578473715451
 30
0.0
  0
VERTEX
  5
14A7
  8
DIM
  6
CONTINUOUS
 10
654.63866801086601
 20
310.50128359718337
 30
0.0
  0
SEQEND
  5
14A8
  8
DIM
  6
CONTINUOUS
  0
TEXT
  5
DAB
  8
DIM
  6
CONTINUOUS
 10
634.76071555780868
 20
308.24022553954148
 30
0.0
 40
3.0
  1
%%c35
 50
90.0
  7
ROMANSS
 72
     1
 11
633.26071555780857
 21
312.0259398252557
 31
0.0
 73
     2
  0
SOLID
  5
DAC
  8
DIM
  6
CONTINUOUS
 10
635.76071555780868
 20
326.5259398252557
 30
0.0
 11
636.76071555780857
 21
326.5259398252557
 31
0.0
 12
636.26071555780857
 22
329.5259398252557
 32
0.0
 13
636.26071555780857
 23
329.5259398252557
 33
0.0
  0
SOLID
  5
DAD
  8
DIM
  6
CONTINUOUS
 10
635.76071555780868
 20
297.5259398252557
 30
0.0
 11
636.76071555780857
 21
297.5259398252557
 31
0.0
 12
636.26071555780857
 22
294.5259398252557
 32
0.0
 13
636.26071555780857
 23
294.5259398252557
 33
0.0
  0
LINE
  5
DAE
  8
DIM
  6
CONTINUOUS
 10
636.26071555780857
 20
297.5259398252557
 30
0.0
 11
636.26071555780857
 21
326.5259398252557
 31
0.0
  0
LINE
  5
DAF
  8
DIM
  6
CONTINUOUS
 10
628.26071555780857
 20
329.5259398252557
 30
0.0
 11
637.26071555780857
 21
329.5259398252557
 31
0.0
  0
LINE
  5
DB0
  8
DIM
  6
CONTINUOUS
 10
628.26071555780857
 20
294.5259398252557
 30
0.0
 11
637.26071555780857
 21
294.5259398252557
 31
0.0
  0
TEXT
  5
DB1
  8
DIM
  6
CONTINUOUS
 10
655.12079384892616
 20
310.94415427734378
 30
0.0
 40
3.0
  1
53
 50
90.0
  7
ROMANSS
 72
     1
 11
653.62079384892616
 21
313.37272570591517
 31
0.0
 73
     2
  0
SOLID
  5
DB2
  8
DIM
  6
CONTINUOUS
 10
656.12079384892616
 20
335.5259398252557
 30
0.0
 11
657.12079384892616
 21
335.5259398252557
 31
0.0
 12
656.62079384892616
 22
338.5259398252557
 32
0.0
 13
656.62079384892616
 23
338.5259398252557
 33
0.0
  0
SOLID
  5
DB3
  8
DIM
  6
CONTINUOUS
 10
656.12079384892616
 20
288.5259398252557
 30
0.0
 11
657.12079384892616
 21
288.5259398252557
 31
0.0
 12
656.62079384892616
 22
285.5259398252557
 32
0.0
 13
656.62079384892616
 23
285.5259398252557
 33
0.0
  0
LINE
  5
DB4
  8
DIM
  6
CONTINUOUS
 10
656.62079384892616
 20
288.5259398252557
 30
0.0
 11
656.62079384892616
 21
335.5259398252557
 31
0.0
  0
LINE
  5
DB5
  8
DIM
  6
CONTINUOUS
 10
688.62079384892638
 20
338.5259398252557
 30
0.0
 11
655.62079384892616
 21
338.5259398252557
 31
0.0
  0
LINE
  5
DB6
  8
DIM
  6
CONTINUOUS
 10
688.62079384892638
 20
285.5259398252557
 30
0.0
 11
655.62079384892616
 21
285.5259398252557
 31
0.0
  0
TEXT
  5
DB7
  8
DIM
  6
CONTINUOUS
 10
663.12079384892627
 20
310.94415427734378
 30
0.0
 40
3.0
  1
38
 50
90.0
  7
ROMANSS
 72
     1
 11
661.62079384892616
 21
313.37272570591517
 31
0.0
 73
     2
  0
SOLID
  5
DB8
  8
DIM
  6
CONTINUOUS
 10
664.12079384892616
 20
328.0259398252557
 30
0.0
 11
665.12079384892616
 21
328.0259398252557
 31
0.0
 12
664.62079384892616
 22
331.0259398252557
 32
0.0
 13
664.62079384892616
 23
331.0259398252557
 33
0.0
  0
SOLID
  5
DB9
  8
DIM
  6
CONTINUOUS
 10
664.12079384892616
 20
296.0259398252557
 30
0.0
 11
665.12079384892616
 21
296.0259398252557
 31
0.0
 12
664.62079384892616
 22
293.0259398252557
 32
0.0
 13
664.62079384892616
 23
293.0259398252557
 33
0.0
  0
LINE
  5
DBA
  8
DIM
  6
CONTINUOUS
 10
664.62079384892616
 20
296.0259398252557
 30
0.0
 11
664.62079384892616
 21
328.0259398252557
 31
0.0
  0
LINE
  5
DBB
  8
DIM
  6
CONTINUOUS
 10
682.1207938489265
 20
331.0259398252557
 30
0.0
 11
663.62079384892616
 21
331.0259398252557
 31
0.0
  0
LINE
  5
DBC
  8
DIM
  6
CONTINUOUS
 10
682.1207938489265
 20
293.0259398252557
 30
0.0
 11
663.62079384892616
 21
293.0259398252557
 31
0.0
  0
SOLID
  5
DBD
  8
DIM
  6
CONTINUOUS
 10
683.62079384892638
 20
256.02593982525559
 30
0.0
 11
683.62079384892638
 21
255.0259398252557
 31
0.0
 12
680.6207938489265
 22
255.5259398252557
 32
0.0
 13
680.6207938489265
 23
255.5259398252557
 33
0.0
  0
LINE
  5
DBE
  8
DIM
  6
CONTINUOUS
 10
680.6207938489265
 20
278.5259398252557
 30
0.0
 11
680.6207938489265
 21
254.5259398252557
 31
0.0
  0
TEXT
  5
DBF
  8
DIM
  6
CONTINUOUS
 10
634.6086078490456
 20
249.0259398252557
 30
0.0
 40
3.0
  1
4
  7
ROMANSS
 72
     1
 11
635.68003642047415
 21
250.5259398252557
 31
0.0
 73
     2
  0
SOLID
  5
DC0
  8
DIM
  6
CONTINUOUS
 10
631.26071555780868
 20
248.0259398252557
 30
0.0
 11
631.26071555780868
 21
247.0259398252557
 31
0.0
 12
628.26071555780857
 22
247.5259398252557
 32
0.0
 13
628.26071555780857
 23
247.5259398252557
 33
0.0
  0
LINE
  5
DC1
  8
DIM
  6
CONTINUOUS
 10
628.26071555780857
 20
293.52119511208087
 30
0.0
 11
628.26071555780857
 21
246.5259398252557
 31
0.0
  0
SOLID
  5
DC2
  8
DIM
  6
CONTINUOUS
 10
621.26071555780857
 20
248.0259398252557
 30
0.0
 11
621.26071555780857
 21
247.0259398252557
 31
0.0
 12
624.26071555780857
 22
247.5259398252557
 32
0.0
 13
624.26071555780857
 23
247.5259398252557
 33
0.0
  0
LINE
  5
DC3
  8
DIM
  6
CONTINUOUS
 10
624.26071555780857
 20
285.0259398252557
 30
0.0
 11
624.26071555780857
 21
246.5259398252557
 31
0.0
  0
ARC
  5
DC4
  8
0
  6
CONTINUOUS
 10
600.76071555780857
 20
304.5259398252557
 30
0.0
 40
3.5
 50
38.213210701738312
 51
81.786789298261766
  0
ARC
  5
DC5
  8
0
  6
CONTINUOUS
 10
600.76071555780857
 20
304.5259398252557
 30
0.0
 40
3.5
 50
338.21321070173849
 51
21.786789298261379
  0
LINE
  5
DC6
  8
0
  6
CONTINUOUS
 10
600.26071555780857
 20
309.50087701078883
 30
0.0
 11
600.26071555780857
 21
307.9900414403935
 31
0.0
  0
LINE
  5
DC7
  8
0
  6
CONTINUOUS
 10
601.26071555780868
 20
309.50087701078883
 30
0.0
 11
601.26071555780868
 21
307.9900414403935
 31
0.0
  0
LINE
  5
DC8
  8
0
  6
CONTINUOUS
 10
603.51071555780868
 20
306.69100333471681
 30
0.0
 11
604.81913754271227
 21
307.44642111991448
 31
0.0
  0
LINE
  5
DC9
  8
0
  6
CONTINUOUS
 10
604.01071555780868
 20
305.82497793093239
 30
0.0
 11
605.31913754271227
 21
306.58039571613011
 31
0.0
  0
ARC
  5
DCA
  8
0
  6
CONTINUOUS
 10
600.76071555780857
 20
304.5259398252557
 30
0.0
 40
3.5
 50
278.21321070173809
 51
321.78678929826162
  0
LINE
  5
DCB
  8
0
  6
CONTINUOUS
 10
600.26071555780857
 20
301.06183821011791
 30
0.0
 11
600.26071555780857
 21
299.55100263972258
 31
0.0
  0
LINE
  5
DCC
  8
0
  6
CONTINUOUS
 10
601.26071555780868
 20
301.06183821011791
 30
0.0
 11
601.26071555780868
 21
299.55100263972258
 31
0.0
  0
LINE
  5
DCD
  8
0
  6
CONTINUOUS
 10
604.81913754271227
 20
301.60545853059688
 30
0.0
 11
603.51071555780868
 21
302.3608763157946
 31
0.0
  0
LINE
  5
DCE
  8
0
  6
CONTINUOUS
 10
605.31913754271227
 20
302.47148393438141
 30
0.0
 11
604.01071555780868
 21
303.22690171957902
 31
0.0
  0
POLYLINE
  5
DCF
  8
0
  6
CONTINUOUS
 66
     1
 10
0.0
 20
0.0
 30
0.0
 70
     1
  0
VERTEX
  5
14A9
  8
0
  6
CONTINUOUS
 10
599.89469015402426
 20
306.0259398252557
 30
0.0
  0
VERTEX
  5
14AA
  8
0
  6
CONTINUOUS
 10
599.02866475023984
 20
304.5259398252557
 30
0.0
  0
VERTEX
  5
14AB
  8
0
  6
CONTINUOUS
 10
599.89469015402426
 20
303.0259398252557
 30
0.0
  0
VERTEX
  5
14AC
  8
0
  6
CONTINUOUS
 10
601.62674096159321
 20
303.0259398252557
 30
0.0
  0
VERTEX
  5
14AD
  8
0
  6
CONTINUOUS
 10
602.49276636537752
 20
304.5259398252557
 30
0.0
  0
VERTEX
  5
14AE
  8
0
  6
CONTINUOUS
 10
601.62674096159321
 20
306.0259398252557
 30
0.0
  0
SEQEND
  5
14AF
  8
0
  6
CONTINUOUS
  0
LINE
  5
DD7
  8
0
  6
CONTINUOUS
 10
598.01071555780857
 20
306.69100333471681
 30
0.0
 11
596.70229357290498
 21
307.44642111991448
 31
0.0
  0
ARC
  5
DD8
  8
0
  6
CONTINUOUS
 10
600.76071555780857
 20
304.5259398252557
 30
0.0
 40
3.5
 50
158.21321070173769
 51
201.78678929826219
  0
LINE
  5
DD9
  8
0
  6
CONTINUOUS
 10
597.51071555780857
 20
305.82497793093239
 30
0.0
 11
596.20229357290532
 21
306.58039571613011
 31
0.0
  0
LINE
  5
DDA
  8
0
  6
CONTINUOUS
 10
596.70229357290498
 20
301.60545853059688
 30
0.0
 11
598.01071555780857
 21
302.3608763157946
 31
0.0
  0
LINE
  5
DDB
  8
0
  6
CONTINUOUS
 10
596.20229357290532
 20
302.47148393438141
 30
0.0
 11
597.51071555780857
 21
303.22690171957902
 31
0.0
  0
CIRCLE
  5
DDC
  8
0
 10
600.76071555780857
 20
304.5259398252557
 30
0.0
 40
5.2999999999999989
  0
CIRCLE
  5
DDD
  8
0
 10
600.76071555780857
 20
304.5259398252557
 30
0.0
 40
5.0
  0
ARC
  5
DDE
  8
0
  6
CONTINUOUS
 10
600.76071555780857
 20
304.5259398252557
 30
0.0
 40
3.5
 50
98.213210701738234
 51
141.7867892982643
  0
ARC
  5
DDF
  8
0
  6
CONTINUOUS
 10
600.76071555780857
 20
304.5259398252557
 30
0.0
 40
3.5
 50
218.21321070173829
 51
261.78678929826179
  0
CIRCLE
  5
DE0
  8
0
  6
CONTINUOUS
 10
600.76071555780857
 20
304.5259398252557
 30
0.0
 40
2.5
  0
LINE
  5
DE1
  8
CENTER
  6
CENTER
 10
600.76071555780857
 20
297.66196959098949
 30
0.0
 11
600.76071555780857
 21
311.38991005952192
 31
0.0
  0
LINE
  5
DE2
  8
CENTER
  6
CENTER
 10
593.89674532354252
 20
304.5259398252557
 30
0.0
 11
607.62468579207484
 21
304.5259398252557
 31
0.0
  0
LINE
  5
DE3
  8
0
 10
680.6207938489265
 20
344.5259398252557
 30
0.0
 11
680.6207938489265
 21
279.5259398252557
 31
0.0
  0
LINE
  5
DE4
  8
0
 10
682.12079384892616
 20
329.5259398252557
 30
0.0
 11
682.6207938489265
 21
329.5259398252557
 31
0.0
  0
ARC
  5
DE5
  8
0
 10
686.1207938489265
 20
323.2799731328405
 30
0.0
 40
1.0
 50
65.68426082881895
 51
180.0
  0
ARC
  5
DE6
  8
0
 10
686.1207938489265
 20
314.02593982525559
 30
0.0
 40
1.0
 50
180.0
 51
270.0
  0
ARC
  5
DE7
  8
0
 10
686.1207938489265
 20
310.0259398252557
 30
0.0
 40
1.0
 50
90.0
 51
180.0
  0
LINE
  5
DE8
  8
0
 10
685.1207938489265
 20
314.02593982525559
 30
0.0
 11
685.1207938489265
 21
323.2799731328405
 31
0.0
  0
ARC
  5
DE9
  8
0
 10
686.1207938489265
 20
306.03553860795228
 30
0.0
 40
1.0
 50
90.0
 51
180.0
  0
LINE
  5
DEA
  8
0
 10
682.12079384892616
 20
294.5259398252557
 30
0.0
 11
682.62079384892616
 21
294.5259398252557
 31
0.0
  0
ARC
  5
DEB
  8
0
 10
686.1207938489265
 20
300.7719065176708
 30
0.0
 40
1.0
 50
180.0
 51
294.31573917118101
  0
LINE
  5
DEC
  8
0
 10
685.1207938489265
 20
310.0259398252557
 30
0.0
 11
685.1207938489265
 21
300.7719065176708
 31
0.0
  0
ARC
  5
DED
  8
0
 10
627.26071555780868
 20
328.5259398252557
 30
0.0
 40
1.0
 50
0.0
 51
90.0
  0
LINE
  5
DEE
  8
0
 10
624.26071555780857
 20
329.5259398252557
 30
0.0
 11
627.26071555780868
 21
329.5259398252557
 31
0.0
  0
ARC
  5
DEF
  8
0
 10
627.26071555780868
 20
295.5259398252557
 30
0.0
 40
1.0
 50
270.0
 51
0.0
  0
LINE
  5
DF0
  8
0
 10
624.26071555780857
 20
294.5259398252557
 30
0.0
 11
627.26071555780868
 21
294.5259398252557
 31
0.0
  0
LINE
  5
DF1
  8
0
 10
628.26071555780857
 20
328.5259398252557
 30
0.0
 11
628.26071555780857
 21
295.5259398252557
 31
0.0
  0
LINE
  5
DF2
  8
0
 10
624.26071555780857
 20
338.0259398252557
 30
0.0
 11
624.26071555780857
 21
286.0259398252557
 31
0.0
  0
CIRCLE
  5
DF3
  8
0
 10
609.26071555780857
 20
316.02593982525559
 30
0.0
 40
3.9999999999999711
  0
CIRCLE
  5
DF4
  8
0
 10
609.26071555780857
 20
316.02593982525559
 30
0.0
 40
5.7000000000000011
  0
LINE
  5
DF5
  8
0
 10
594.26071555780868
 20
338.5259398252557
 30
0.0
 11
594.26071555780868
 21
285.5259398252557
 31
0.0
  0
LINE
  5
DF6
  8
CENTER
  6
CENTER
 10
609.26071555780857
 20
304.3259398252556
 30
0.0
 11
609.26071555780857
 21
327.72593982525558
 31
0.0
  0
LINE
  5
DF7
  8
0
 10
594.26071555780868
 20
338.5259398252557
 30
0.0
 11
624.26071555780857
 21
338.0259398252557
 31
0.0
  0
LINE
  5
DF8
  8
0
 10
594.26071555780868
 20
285.5259398252557
 30
0.0
 11
624.26071555780857
 21
286.0259398252557
 31
0.0
  0
CIRCLE
  5
DF9
  8
0
 10
609.26071555780857
 20
316.02593982525559
 30
0.0
 40
8.6999999999999993
  0
CIRCLE
  5
DFA
  8
0
 10
609.26071555780857
 20
316.02593982525559
 30
0.0
 40
6.7000000000000028
  0
ARC
  5
DFB
  8
0
 62
     2
 10
609.26071555780857
 20
316.02593982525559
 30
0.0
 40
6.5999999999999996
 50
153.86110377669701
 51
104.9974520806085
  0
LINE
  5
DFC
  8
CENTER
  6
CENTER
 10
597.56071555780863
 20
316.02593982525559
 30
0.0
 11
620.96071555780873
 21
316.02593982525559
 31
0.0
  0
TEXT
  5
DFD
  8
DIM
  6
CONTINUOUS
 10
788.12079384892627
 20
324.24022553954143
 30
0.0
 40
3.0
  1
112
 50
90.0
  7
ROMANSS
 72
     1
 11
786.62079384892616
 21
327.5259398252557
 31
0.0
 73
     2
  0
SOLID
  5
DFE
  8
DIM
  6
CONTINUOUS
 10
789.12079384892616
 20
274.5259398252557
 30
0.0
 11
790.12079384892616
 21
274.5259398252557
 31
0.0
 12
789.62079384892616
 22
271.5259398252557
 32
0.0
 13
789.62079384892616
 23
271.5259398252557
 33
0.0
  0
LINE
  5
DFF
  8
DIM
  6
CONTINUOUS
 10
772.1207938489265
 20
271.5259398252557
 30
0.0
 11
790.62079384892616
 21
271.5259398252557
 31
0.0
  0
TEXT
  5
E00
  8
DIM
  6
CONTINUOUS
 10
780.12079384892638
 20
309.14808479125901
 30
0.0
 40
3.0
  1
65
 50
90.0
  7
ROMANSS
 72
     1
 11
778.6207938489265
 21
311.5766562198304
 31
0.0
 73
     2
  0
SOLID
  5
E01
  8
DIM
  6
CONTINUOUS
 10
781.1207938489265
 20
341.52593982525559
 30
0.0
 11
782.1207938489265
 21
341.52593982525559
 31
0.0
 12
781.6207938489265
 22
344.52593982525559
 32
0.0
 13
781.6207938489265
 23
344.52593982525559
 33
0.0
  0
SOLID
  5
E02
  8
DIM
  6
CONTINUOUS
 10
781.1207938489265
 20
355.52593982525559
 30
0.0
 11
782.1207938489265
 21
355.52593982525559
 31
0.0
 12
781.6207938489265
 22
352.52593982525559
 32
0.0
 13
781.6207938489265
 23
352.52593982525559
 33
0.0
  0
LINE
  5
E03
  8
DIM
  6
CONTINUOUS
 10
772.1207938489265
 20
352.52593982525559
 30
0.0
 11
782.6207938489265
 21
352.52593982525559
 31
0.0
  0
LINE
  5
E04
  8
DIM
  6
CONTINUOUS
 10
774.6207938489265
 20
344.52593982525559
 30
0.0
 11
782.6207938489265
 21
344.52593982525559
 31
0.0
  0
TEXT
  5
E05
  8
DIM
  6
CONTINUOUS
 10
780.12079384892638
 20
264.82876371852331
 30
0.0
 40
3.0
  1
8
 50
90.0
  7
ROMANSS
 72
     1
 11
778.6207938489265
 21
265.82876371852331
 31
0.0
 73
     2
  0
SOLID
  5
E06
  8
DIM
  6
CONTINUOUS
 10
781.1207938489265
 20
282.5259398252557
 30
0.0
 11
782.1207938489265
 21
282.5259398252557
 31
0.0
 12
781.6207938489265
 22
279.5259398252557
 32
0.0
 13
781.6207938489265
 23
279.5259398252557
 33
0.0
  0
SOLID
  5
E07
  8
DIM
  6
CONTINUOUS
 10
781.1207938489265
 20
268.52593982525559
 30
0.0
 11
782.1207938489265
 21
268.52593982525559
 31
0.0
 12
781.6207938489265
 22
271.5259398252557
 32
0.0
 13
781.6207938489265
 23
271.5259398252557
 33
0.0
  0
LINE
  5
E08
  8
DIM
  6
CONTINUOUS
 10
774.6207938489265
 20
279.5259398252557
 30
0.0
 11
782.6207938489265
 21
279.5259398252557
 31
0.0
  0
LINE
  5
E09
  8
DIM
  6
CONTINUOUS
 10
772.1207938489265
 20
271.5259398252557
 30
0.0
 11
782.6207938489265
 21
271.5259398252557
 31
0.0
  0
TEXT
  5
E0A
  8
DIM
  6
CONTINUOUS
 10
724.69222242035505
 20
257.0259398252557
 30
0.0
 40
3.0
  1
93
  7
ROMANSS
 72
     1
 11
727.1207938489265
 21
258.52593982525559
 31
0.0
 73
     2
  0
SOLID
  5
E0B
  8
DIM
  6
CONTINUOUS
 10
770.62079384892638
 20
256.02593982525559
 30
0.0
 11
770.62079384892638
 21
255.0259398252557
 31
0.0
 12
773.6207938489265
 22
255.5259398252557
 32
0.0
 13
773.6207938489265
 23
255.5259398252557
 33
0.0
  0
LINE
  5
E0C
  8
DIM
  6
CONTINUOUS
 10
773.6207938489265
 20
278.5259398252557
 30
0.0
 11
773.6207938489265
 21
254.5259398252557
 31
0.0
  0
TEXT
  5
E0D
  8
DIM
  6
CONTINUOUS
 10
750.29936527749794
 20
265.0259398252557
 30
0.0
 40
3.0
  1
37.5
  7
ROMANSS
 72
     1
 11
754.8707938489265
 21
266.52593982525559
 31
0.0
 73
     2
  0
SOLID
  5
E0E
  8
DIM
  6
CONTINUOUS
 10
770.62079384892638
 20
264.0259398252557
 30
0.0
 11
770.62079384892638
 21
263.0259398252557
 31
0.0
 12
773.6207938489265
 22
263.5259398252557
 32
0.0
 13
773.6207938489265
 23
263.5259398252557
 33
0.0
  0
SOLID
  5
E0F
  8
DIM
  6
CONTINUOUS
 10
739.1207938489265
 20
264.0259398252557
 30
0.0
 11
739.1207938489265
 21
263.0259398252557
 31
0.0
 12
736.1207938489265
 22
263.5259398252557
 32
0.0
 13
736.1207938489265
 23
263.5259398252557
 33
0.0
  0
LINE
  5
E10
  8
DIM
  6
CONTINUOUS
 10
739.1207938489265
 20
263.5259398252557
 30
0.0
 11
770.62079384892638
 21
263.5259398252557
 31
0.0
  0
LINE
  5
E11
  8
DIM
  6
CONTINUOUS
 10
736.1207938489265
 20
267.5259398252557
 30
0.0
 11
736.1207938489265
 21
262.52593982525559
 31
0.0
  0
TEXT
  5
E12
  8
DIM
  6
CONTINUOUS
 10
717.79936527749794
 20
265.0259398252557
 30
0.0
 40
3.0
  1
27.5
  7
ROMANSS
 72
     1
 11
722.3707938489265
 21
266.52593982525559
 31
0.0
 73
     2
  0
SOLID
  5
E13
  8
DIM
  6
CONTINUOUS
 10
733.12079384892638
 20
264.0259398252557
 30
0.0
 11
733.12079384892638
 21
263.0259398252557
 31
0.0
 12
736.1207938489265
 22
263.5259398252557
 32
0.0
 13
736.1207938489265
 23
263.5259398252557
 33
0.0
  0
SOLID
  5
E14
  8
DIM
  6
CONTINUOUS
 10
711.6207938489265
 20
264.0259398252557
 30
0.0
 11
711.6207938489265
 21
263.0259398252557
 31
0.0
 12
708.62079384892638
 22
263.5259398252557
 32
0.0
 13
708.62079384892638
 23
263.5259398252557
 33
0.0
  0
LINE
  5
E15
  8
DIM
  6
CONTINUOUS
 10
711.6207938489265
 20
263.5259398252557
 30
0.0
 11
733.12079384892638
 21
263.5259398252557
 31
0.0
  0
LINE
  5
E16
  8
DIM
  6
CONTINUOUS
 10
736.1207938489265
 20
267.5259398252557
 30
0.0
 11
736.1207938489265
 21
262.52593982525559
 31
0.0
  0
LINE
  5
E17
  8
DIM
  6
CONTINUOUS
 10
708.62079384892638
 20
283.0259398252557
 30
0.0
 11
708.62079384892638
 21
262.52593982525559
 31
0.0
  0
LINE
  5
E18
  8
CENTER
  6
CENTER
 10
766.1207938489265
 20
335.47849402710222
 30
0.0
 11
766.1207938489265
 21
347.4784940271021
 31
0.0
  0
LINE
  5
E19
  8
CENTER
  6
CENTER
 10
706.1207938489265
 20
335.47849402710222
 30
0.0
 11
706.1207938489265
 21
347.4784940271021
 31
0.0
  0
LINE
  5
E1A
  8
CENTER
  6
CENTER
 10
766.1207938489265
 20
288.57338562340919
 30
0.0
 11
766.1207938489265
 21
276.57338562340919
 31
0.0
  0
LINE
  5
E1B
  8
CENTER
  6
CENTER
 10
706.1207938489265
 20
288.57338562340919
 30
0.0
 11
706.1207938489265
 21
276.57338562340919
 31
0.0
  0
LINE
  5
E1C
  8
0
  6
CONTINUOUS
 10
772.1207938489265
 20
272.5259398252557
 30
0.0
 11
771.12079384892638
 21
271.5259398252557
 31
0.0
  0
LINE
  5
E1D
  8
0
 10
772.1207938489265
 20
279.5259398252557
 30
0.0
 11
772.1207938489265
 21
272.5259398252557
 31
0.0
  0
LINE
  5
E1E
  8
0
  6
CONTINUOUS
 10
700.12079384892638
 20
272.5259398252557
 30
0.0
 11
701.12079384892638
 21
271.5259398252557
 31
0.0
  0
LINE
  5
E1F
  8
0
 10
700.12079384892638
 20
279.5259398252557
 30
0.0
 11
700.12079384892638
 21
272.5259398252557
 31
0.0
  0
LINE
  5
E20
  8
0
  6
CONTINUOUS
 10
701.12079384892638
 20
271.5259398252557
 30
0.0
 11
771.12079384892638
 21
271.5259398252557
 31
0.0
  0
LINE
  5
E21
  8
0
  6
CONTINUOUS
 10
700.12079384892638
 20
272.5259398252557
 30
0.0
 11
772.1207938489265
 21
272.5259398252557
 31
0.0
  0
LINE
  5
E22
  8
0
 10
700.12079384892638
 20
344.5259398252557
 30
0.0
 11
700.12079384892638
 21
351.5259398252557
 31
0.0
  0
LINE
  5
E23
  8
0
 10
772.1207938489265
 20
344.5259398252557
 30
0.0
 11
772.1207938489265
 21
351.5259398252557
 31
0.0
  0
LINE
  5
E24
  8
0
  6
CONTINUOUS
 10
772.1207938489265
 20
351.5259398252557
 30
0.0
 11
771.12079384892638
 21
352.5259398252557
 31
0.0
  0
LINE
  5
E25
  8
0
  6
CONTINUOUS
 10
700.12079384892638
 20
351.5259398252557
 30
0.0
 11
701.12079384892638
 21
352.5259398252557
 31
0.0
  0
LINE
  5
E26
  8
0
  6
CONTINUOUS
 10
700.12079384892638
 20
351.5259398252557
 30
0.0
 11
772.1207938489265
 21
351.5259398252557
 31
0.0
  0
LINE
  5
E27
  8
0
  6
CONTINUOUS
 10
701.12079384892638
 20
352.5259398252557
 30
0.0
 11
771.12079384892638
 21
352.5259398252557
 31
0.0
  0
LINE
  5
E28
  8
0
  6
CONTINUOUS
 10
726.12079384892638
 20
353.5259398252557
 30
0.0
 11
746.12079384892638
 21
353.5259398252557
 31
0.0
  0
LINE
  5
E29
  8
0
 10
746.12079384892638
 20
353.5259398252557
 30
0.0
 11
746.12079384892638
 21
352.5259398252557
 31
0.0
  0
LINE
  5
E2A
  8
0
 10
726.12079384892638
 20
353.5259398252557
 30
0.0
 11
726.12079384892638
 21
352.5259398252557
 31
0.0
  0
LINE
  5
E2B
  8
0
 10
773.6207938489265
 20
344.52593982525559
 30
0.0
 11
773.6207938489265
 21
279.5259398252557
 31
0.0
  0
ARC
  5
E2C
  8
0
 10
723.12492632798285
 20
299.64312768975913
 30
0.0
 40
0.5
 50
224.99999999999079
 51
304.1930771251279
  0
POLYLINE
  5
E2D
  8
0
 66
     1
 10
0.0
 20
0.0
 30
0.0
 70
     1
  0
VERTEX
  5
14B0
  8
0
 10
724.6207938489265
 20
294.75799063282471
 30
0.0
  0
VERTEX
  5
14B1
  8
0
 10
724.6207938489265
 20
291.29388901768692
 30
0.0
  0
VERTEX
  5
14B2
  8
0
 10
727.6207938489265
 20
289.56183821011803
 30
0.0
  0
VERTEX
  5
14B3
  8
0
 10
730.6207938489265
 20
291.29388901768692
 30
0.0
  0
VERTEX
  5
14B4
  8
0
 10
730.6207938489265
 20
294.75799063282471
 30
0.0
  0
VERTEX
  5
14B5
  8
0
 10
727.6207938489265
 20
296.4900414403935
 30
0.0
  0
SEQEND
  5
14B6
  8
0
  0
CIRCLE
  5
E35
  8
0
 10
727.6207938489265
 20
293.0259398252557
 30
0.0
 40
5.0
  0
CIRCLE
  5
E36
  8
0
 10
727.6207938489265
 20
293.0259398252557
 30
0.0
 40
5.5
  0
CIRCLE
  5
E37
  8
0
 10
727.6207938489265
 20
331.0259398252557
 30
0.0
 40
5.0
  0
CIRCLE
  5
E38
  8
0
 10
727.6207938489265
 20
331.0259398252557
 30
0.0
 40
5.5
  0
POLYLINE
  5
E39
  8
0
 66
     1
 10
0.0
 20
0.0
 30
0.0
 70
     1
  0
VERTEX
  5
14B7
  8
0
 10
724.6207938489265
 20
332.75799063282471
 30
0.0
  0
VERTEX
  5
14B8
  8
0
 10
724.6207938489265
 20
329.29388901768692
 30
0.0
  0
VERTEX
  5
14B9
  8
0
 10
727.6207938489265
 20
327.56183821011808
 30
0.0
  0
VERTEX
  5
14BA
  8
0
 10
730.6207938489265
 20
329.29388901768692
 30
0.0
  0
VERTEX
  5
14BB
  8
0
 10
730.6207938489265
 20
332.75799063282471
 30
0.0
  0
VERTEX
  5
14BC
  8
0
 10
727.6207938489265
 20
334.4900414403935
 30
0.0
  0
SEQEND
  5
14BD
  8
0
  0
ARC
  5
E41
  8
0
 10
717.62079384892638
 20
334.5259398252557
 30
0.0
 40
1.0
 50
90.0
 51
180.0
  0
ARC
  5
E42
  8
0
 10
719.87482715651106
 20
334.5259398252557
 30
0.0
 40
1.0
 50
335.6842608288103
 51
90.0
  0
ARC
  5
E43
  8
0
 10
721.00360598442296
 20
326.53007230431211
 30
0.0
 40
0.5
 50
314.99999999999068
 51
34.193077125151397
  0
LINE
  5
E44
  8
0
 10
720.95209187814498
 20
325.77145141684741
 30
0.0
 11
721.35715937501641
 21
326.17651891371889
 31
0.0
  0
ARC
  5
E45
  8
0
 10
717.62079384892638
 20
328.75914035593712
 30
0.0
 40
1.0
 50
180.0
 51
241.72628636862439
  0
ARC
  5
E46
  8
0
 10
720.59853848755188
 20
326.12500480744069
 30
0.0
 40
0.5
 50
229.65070900488701
 51
314.99999999999068
  0
LINE
  5
E47
  8
0
 10
716.62079384892638
 20
334.5259398252557
 30
0.0
 11
716.62079384892638
 21
328.75914035593712
 31
0.0
  0
ARC
  5
E48
  8
0
 10
727.6207938489265
 20
331.0259398252557
 30
0.0
 40
7.5
 50
155.6842608288261
 51
214.1930771251393
  0
ARC
  5
E49
  8
0
 10
710.6207938489265
 20
334.5259398252557
 30
0.0
 40
1.0
 50
90.0
 51
180.0
  0
ARC
  5
E4A
  8
0
 10
706.6207938489265
 20
334.5259398252557
 30
0.0
 40
1.0
 50
0.0
 51
90.0
  0
ARC
  5
E4B
  8
0
 10
710.6207938489265
 20
330.92038345294679
 30
0.0
 40
1.0
 50
180.0
 51
263.95767158094242
  0
ARC
  5
E4C
  8
0
 10
706.6207938489265
 20
330.92038345294679
 30
0.0
 40
1.0
 50
276.04232841905753
 51
0.0
  0
LINE
  5
E4D
  8
0
 10
709.62079384892638
 20
334.5259398252557
 30
0.0
 11
709.62079384892638
 21
330.92038345294679
 31
0.0
  0
LINE
  5
E4E
  8
0
 10
707.6207938489265
 20
334.5259398252557
 30
0.0
 11
707.6207938489265
 21
330.92038345294679
 31
0.0
  0
ARC
  5
E4F
  8
0
 10
708.62079384892638
 20
312.0259398252557
 30
0.0
 40
17.999999999999972
 50
49.650709004879928
 51
83.957671580946055
  0
LINE
  5
E50
  8
0
 10
710.6207938489265
 20
335.5259398252557
 30
0.0
 11
719.87482715651106
 21
335.5259398252557
 31
0.0
  0
LINE
  5
E51
  8
CENTER
  6
CENTER
 10
721.12079384892638
 20
331.0259398252557
 30
0.0
 11
734.12079384892638
 21
331.0259398252557
 31
0.0
  0
ARC
  5
E52
  8
0
 10
731.1207938489265
 20
321.0259398252557
 30
0.0
 40
1.0
 50
270.0
 51
0.0
  0
ARC
  5
E53
  8
0
 10
731.1207938489265
 20
323.2799731328405
 30
0.0
 40
1.0
 50
0.0
 51
114.3157391711956
  0
LINE
  5
E54
  8
0
 10
731.1207938489265
 20
313.0259398252557
 30
0.0
 11
727.51523747661747
 21
313.0259398252557
 31
0.0
  0
LINE
  5
E55
  8
0
 10
731.1207938489265
 20
311.0259398252557
 30
0.0
 11
727.51523747661747
 21
311.0259398252557
 31
0.0
  0
ARC
  5
E56
  8
0
 10
731.1207938489265
 20
314.0259398252557
 30
0.0
 40
1.0
 50
270.0
 51
0.0
  0
ARC
  5
E57
  8
0
 10
731.1207938489265
 20
310.0259398252557
 30
0.0
 40
1.0
 50
0.0
 51
90.0
  0
LINE
  5
E58
  8
0
 10
732.1207938489265
 20
314.0259398252557
 30
0.0
 11
732.1207938489265
 21
323.2799731328405
 31
0.0
  0
ARC
  5
E59
  8
0
 10
731.1207938489265
 20
303.0259398252557
 30
0.0
 40
1.0
 50
0.0
 51
90.0
  0
ARC
  5
E5A
  8
0
 10
731.1207938489265
 20
300.77190651767091
 30
0.0
 40
1.0
 50
245.6842608288043
 51
0.0
  0
LINE
  5
E5B
  8
0
 10
732.1207938489265
 20
310.0259398252557
 30
0.0
 11
732.1207938489265
 21
300.77190651767091
 31
0.0
  0
ARC
  5
E5C
  8
0
 10
723.12492632798285
 20
324.4087519607524
 30
0.0
 40
0.5
 50
55.806922874872079
 51
135.00000000000921
  0
ARC
  5
E5D
  8
0
 10
722.71985883111142
 20
324.00368446388109
 30
0.0
 40
0.5
 50
135.00000000000921
 51
220.34929099511791
  0
ARC
  5
E5E
  8
0
 10
725.35399437960791
 20
321.0259398252557
 30
0.0
 40
1.0
 50
208.2737136313682
 51
270.0
  0
LINE
  5
E5F
  8
0
 10
722.36630544051798
 20
324.35723785447431
 30
0.0
 11
722.77137293738951
 21
324.76230535134562
 31
0.0
  0
ARC
  5
E60
  8
0
 10
725.35399437960791
 20
303.0259398252557
 30
0.0
 40
1.0
 50
90.0
 51
151.72628636863169
  0
ARC
  5
E61
  8
0
 10
721.00360598442296
 20
297.52180734619941
 30
0.0
 40
0.5
 50
325.80692287484851
 51
45.000000000009209
  0
LINE
  5
E62
  8
0
 10
720.95209187814498
 20
298.28042823366388
 30
0.0
 11
721.35715937501641
 21
297.87536073679257
 31
0.0
  0
LINE
  5
E63
  8
0
 10
722.36630544051798
 20
299.6946417960371
 30
0.0
 11
722.77137293738951
 21
299.28957429916579
 31
0.0
  0
ARC
  5
E64
  8
0
 10
723.12492632798285
 20
299.64312768975901
 30
0.0
 40
0.5
 50
224.99999999999079
 51
304.1930771251279
  0
ARC
  5
E65
  8
0
 10
722.71985883111142
 20
300.04819518663032
 30
0.0
 40
0.5
 50
139.65070900488209
 51
224.99999999999079
  0
ARC
  5
E66
  8
0
 10
717.62079384892638
 20
295.29273929457429
 30
0.0
 40
1.0
 50
118.2737136313755
 51
180.0
  0
ARC
  5
E67
  8
0
 10
720.59853848755188
 20
297.92687484307072
 30
0.0
 40
0.5
 50
45.000000000009209
 51
130.34929099511291
  0
ARC
  5
E68
  8
0
 10
710.6207938489265
 20
293.13149619756462
 30
0.0
 40
1.0
 50
96.042328419057512
 51
180.0
  0
ARC
  5
E69
  8
0
 10
706.6207938489265
 20
293.13149619756462
 30
0.0
 40
1.0
 50
0.0
 51
83.957671580942474
  0
ARC
  5
E6A
  8
0
 10
708.62079384892638
 20
312.0259398252557
 30
0.0
 40
17.999999999999972
 50
276.04232841905389
 51
310.34929099511999
  0
ARC
  5
E6B
  8
0
 10
708.62079384892638
 20
312.0259398252557
 30
0.0
 40
17.999999999999972
 50
319.65070900488001
 51
353.957671580946
  0
LINE
  5
E6C
  8
0
 10
731.1207938489265
 20
304.0259398252557
 30
0.0
 11
725.35399437960791
 21
304.0259398252557
 31
0.0
  0
LINE
  5
E6D
  8
CENTER
  6
CENTER
 10
721.12079384892638
 20
293.0259398252557
 30
0.0
 11
734.12079384892638
 21
293.0259398252557
 31
0.0
  0
ARC
  5
E6E
  8
0
 10
727.6207938489265
 20
293.0259398252557
 30
0.0
 40
7.5
 50
65.684260828827945
 51
124.1930771251406
  0
ARC
  5
E6F
  8
0
 10
727.51523747661747
 20
314.0259398252557
 30
0.0
 40
1.0
 50
186.04232841905389
 51
270.0
  0
ARC
  5
E70
  8
0
 10
708.62079384892638
 20
312.0259398252557
 30
0.0
 40
17.999999999999972
 50
6.0423284190541056
 51
40.349290995120072
  0
ARC
  5
E71
  8
0
 10
727.51523747661747
 20
310.0259398252557
 30
0.0
 40
1.0
 50
90.0
 51
173.957671580946
  0
LINE
  5
E72
  8
0
 10
731.1207938489265
 20
320.0259398252557
 30
0.0
 11
725.35399437960791
 21
320.0259398252557
 31
0.0
  0
ARC
  5
E73
  8
0
 10
727.6207938489265
 20
331.0259398252557
 30
0.0
 40
7.5
 50
235.80692287485931
 51
294.31573917117379
  0
LINE
  5
E74
  8
CENTER
  6
CENTER
 10
727.6207938489265
 20
337.5259398252557
 30
0.0
 11
727.6207938489265
 21
324.5259398252557
 31
0.0
  0
ARC
  5
E75
  8
0
 10
699.6207938489265
 20
334.5259398252557
 30
0.0
 40
1.0
 50
0.0
 51
90.0
  0
ARC
  5
E76
  8
0
 10
697.36676054134159
 20
334.5259398252557
 30
0.0
 40
1.0
 50
90.0
 51
204.31573917118391
  0
ARC
  5
E77
  8
0
 10
699.6207938489265
 20
328.75914035593712
 30
0.0
 40
1.0
 50
298.27371363136092
 51
0.0
  0
ARC
  5
E78
  8
0
 10
696.64304921030111
 20
326.12500480744069
 30
0.0
 40
0.5
 50
224.99999999999079
 51
310.34929099511288
  0
LINE
  5
E79
  8
0
 10
696.28949581970767
 20
325.77145141684741
 30
0.0
 11
695.88442832283658
 21
326.17651891371889
 31
0.0
  0
ARC
  5
E7A
  8
0
 10
696.23798171342969
 20
326.53007230431211
 30
0.0
 40
0.5
 50
145.8069228748613
 51
224.99999999999079
  0
LINE
  5
E7B
  8
0
 10
700.62079384892638
 20
334.5259398252557
 30
0.0
 11
700.62079384892638
 21
328.75914035593712
 31
0.0
  0
ARC
  5
E7C
  8
0
 10
689.6207938489265
 20
331.0259398252557
 30
0.0
 40
7.5
 50
325.80692287485988
 51
24.315739171172272
  0
ARC
  5
E7D
  8
0
 10
694.1166613698698
 20
324.40875196075228
 30
0.0
 40
0.5
 50
45.000000000004597
 51
124.1930771251568
  0
ARC
  5
E7E
  8
0
 10
694.52172886674134
 20
324.00368446388097
 30
0.0
 40
0.5
 50
319.6507090048687
 51
44.999999999990777
  0
LINE
  5
E7F
  8
0
 10
694.87528225733467
 20
324.35723785447419
 30
0.0
 11
694.47021476046325
 21
324.76230535134562
 31
0.0
  0
ARC
  5
E80
  8
0
 10
689.72635022123541
 20
314.02593982525559
 30
0.0
 40
1.0
 50
270.0
 51
353.957671580946
  0
ARC
  5
E81
  8
0
 10
689.72635022123541
 20
310.0259398252557
 30
0.0
 40
1.0
 50
6.042328419053943
 51
90.0
  0
ARC
  5
E82
  8
0
 10
708.62079384892638
 20
312.0259398252557
 30
0.0
 40
17.999999999999972
 50
139.6507090048799
 51
173.957671580946
  0
ARC
  5
E83
  8
0
 10
699.6207938489265
 20
295.29273929457429
 30
0.0
 40
1.0
 50
0.0
 51
61.726286368639009
  0
ARC
  5
E84
  8
0
 10
696.64304921030111
 20
297.92687484307072
 30
0.0
 40
0.5
 50
49.650709004887069
 51
135.00000000000921
  0
LINE
  5
E85
  8
0
 10
696.28949581970767
 20
298.28042823366388
 30
0.0
 11
695.88442832283658
 21
297.87536073679257
 31
0.0
  0
LINE
  5
E86
  8
0
 10
694.87528225733467
 20
299.6946417960371
 30
0.0
 11
694.47021476046325
 21
299.28957429916568
 31
0.0
  0
ARC
  5
E87
  8
0
 10
694.52172886674134
 20
300.04819518663032
 30
0.0
 40
0.5
 50
315.00000000000921
 51
40.349290995131291
  0
ARC
  5
E88
  8
0
 10
694.1166613698698
 20
299.64312768975901
 30
0.0
 40
0.5
 50
235.8069228748432
 51
314.9999999999954
  0
ARC
  5
E89
  8
0
 10
696.23798171342969
 20
297.52180734619941
 30
0.0
 40
0.5
 50
135.00000000000921
 51
214.1930771251387
  0
ARC
  5
E8A
  8
0
 10
690.58984564158777
 20
306.03553860795228
 30
0.0
 40
1.0
 50
18.377976039593509
 51
90.0
  0
ARC
  5
E8B
  8
0
 10
708.62079384892638
 20
312.0259398252557
 30
0.0
 40
17.999999999999972
 50
186.04232841905409
 51
220.34929099511999
  0
LINE
  5
E8C
  8
CENTER
  6
CENTER
 10
689.6207938489265
 20
337.5259398252557
 30
0.0
 11
689.6207938489265
 21
324.5259398252557
 31
0.0
  0
ARC
  5
E8D
  8
0
 10
708.62079384892638
 20
312.0259398252557
 30
0.0
 40
17.999999999999972
 50
96.042328419053931
 51
130.3492909951199
  0
LINE
  5
E8E
  8
0
 10
706.6207938489265
 20
335.5259398252557
 30
0.0
 11
697.36676054134159
 21
335.5259398252557
 31
0.0
  0
ARC
  5
E8F
  8
0
 10
708.62079384892638
 20
312.0259398252557
 30
0.0
 40
17.999999999999972
 50
229.65070900488001
 51
263.957671580946
  0
CIRCLE
  5
E90
  8
0
 10
708.62079384892638
 20
312.0259398252557
 30
0.0
 40
17.499999999999972
  0
ARC
  5
E91
  8
0
 10
717.62079384892638
 20
289.5259398252557
 30
0.0
 40
1.0
 50
180.0
 51
270.0
  0
ARC
  5
E92
  8
0
 10
719.87482715651106
 20
289.5259398252557
 30
0.0
 40
1.0
 50
270.0
 51
24.315739171186699
  0
ARC
  5
E93
  8
0
 10
710.6207938489265
 20
289.5259398252557
 30
0.0
 40
1.0
 50
180.0
 51
270.0
  0
ARC
  5
E94
  8
0
 10
706.6207938489265
 20
289.5259398252557
 30
0.0
 40
1.0
 50
270.0
 51
0.0
  0
LINE
  5
E95
  8
0
 10
710.6207938489265
 20
288.5259398252557
 30
0.0
 11
719.87482715651106
 21
288.5259398252557
 31
0.0
  0
ARC
  5
E96
  8
0
 10
699.6207938489265
 20
289.5259398252557
 30
0.0
 40
1.0
 50
270.0
 51
0.0
  0
ARC
  5
E97
  8
0
 10
697.36676054134159
 20
289.5259398252557
 30
0.0
 40
1.0
 50
155.68426082881601
 51
270.0
  0
LINE
  5
E98
  8
0
 10
706.6207938489265
 20
288.5259398252557
 30
0.0
 11
697.36676054134159
 21
288.5259398252557
 31
0.0
  0
ARC
  5
E99
  8
0
 10
689.6207938489265
 20
293.0259398252557
 30
0.0
 40
7.5
 50
335.68426082882962
 51
34.19307712514005
  0
LINE
  5
E9A
  8
0
 10
700.62079384892638
 20
289.5259398252557
 30
0.0
 11
700.62079384892638
 21
295.29273929457429
 31
0.0
  0
LINE
  5
E9B
  8
CENTER
  6
CENTER
 10
689.6207938489265
 20
299.5259398252557
 30
0.0
 11
689.6207938489265
 21
286.5259398252557
 31
0.0
  0
LINE
  5
E9C
  8
CENTER
  6
CENTER
 10
708.62079384892638
 20
340.0259398252557
 30
0.0
 11
708.62079384892638
 21
284.0259398252557
 31
0.0
  0
ARC
  5
E9D
  8
0
 10
727.6207938489265
 20
293.0259398252557
 30
0.0
 40
7.5
 50
145.80692287486059
 51
204.3157391711718
  0
LINE
  5
E9E
  8
0
 10
716.62079384892638
 20
289.5259398252557
 30
0.0
 11
716.62079384892638
 21
295.29273929457429
 31
0.0
  0
LINE
  5
E9F
  8
0
 10
707.6207938489265
 20
289.5259398252557
 30
0.0
 11
707.6207938489265
 21
293.13149619756462
 31
0.0
  0
LINE
  5
EA0
  8
0
 10
709.62079384892638
 20
289.5259398252557
 30
0.0
 11
709.62079384892638
 21
293.13149619756462
 31
0.0
  0
LINE
  5
EA1
  8
CENTER
  6
CENTER
 10
727.6207938489265
 20
299.5259398252557
 30
0.0
 11
727.6207938489265
 21
286.5259398252557
 31
0.0
  0
LINE
  5
EA2
  8
DIM
  6
CONTINUOUS
 10
498.26071555780862
 20
507.38355885264451
 30
0.0
 11
551.29164899517468
 21
507.38355885264463
 31
0.0
  0
LINE
  5
EA3
  8
DIM
  6
CONTINUOUS
 10
498.26071555780862
 20
447.38355885264451
 30
0.0
 11
551.29164899517468
 21
447.38355885264451
 31
0.0
  0
LINE
  5
EA4
  8
0
 10
498.76071555780862
 20
425.68355885264452
 30
0.0
 11
594.26071555780868
 21
425.68355885264452
 31
0.0
  0
LINE
  5
EA5
  8
0
 10
498.76071555780862
 20
438.08133454999268
 30
0.0
 11
594.26071555780868
 21
438.08133454999268
 31
0.0
  0
LINE
  5
EA6
  8
0
 10
498.76071555780862
 20
474.0835588526445
 30
0.0
 11
594.26071555780868
 21
474.0835588526445
 31
0.0
  0
LINE
  5
EA7
  8
0
 10
498.76071555780862
 20
461.68578315529629
 30
0.0
 11
594.26071555780868
 21
461.68578315529629
 31
0.0
  0
CIRCLE
  5
EA8
  8
0
  6
CONTINUOUS
 10
461.26071555780862
 20
477.38355885264451
 30
0.0
 40
35.0
  0
POLYLINE
  5
EA9
  8
0
  6
CONTINUOUS
 66
     1
 10
0.0
 20
0.0
 30
0.0
  0
VERTEX
  5
14BE
  8
0
  6
CONTINUOUS
 10
479.76071555780862
 20
416.8835588526444
 30
0.0
 42
0.0851703918331037
  0
VERTEX
  5
14BF
  8
0
  6
CONTINUOUS
 10
483.76071555780862
 20
417.57155885264461
 30
0.0
 42
0.3457679526359281
  0
VERTEX
  5
14C0
  8
0
  6
CONTINUOUS
 10
486.6607155578082
 20
417.22997917596967
 30
0.0
  0
SEQEND
  5
14C1
  8
0
  6
CONTINUOUS
  0
LINE
  5
EAE
  8
0
  6
CONTINUOUS
 10
483.76071555780862
 20
415.08355885264518
 30
0.0
 11
482.5607155578079
 21
413.88355885264451
 31
0.0
  0
LINE
  5
EAF
  8
0
  6
CONTINUOUS
 10
475.76071555780862
 20
415.08355885264518
 30
0.0
 11
483.76071555780862
 21
415.08355885264518
 31
0.0
  0
LINE
  5
EB0
  8
0
  6
CONTINUOUS
 10
473.46071555780929
 20
416.8835588526444
 30
0.0
 11
486.0607155578079
 21
416.8835588526444
 31
0.0
  0
POLYLINE
  5
EB1
  8
0
  6
CONTINUOUS
 66
     1
 10
0.0
 20
0.0
 30
0.0
  0
VERTEX
  5
14C2
  8
0
  6
CONTINUOUS
 10
479.76071555780862
 20
421.8835588526444
 30
0.0
 42
-0.0851703918331037
  0
VERTEX
  5
14C3
  8
0
  6
CONTINUOUS
 10
483.76071555780862
 20
421.19555885264441
 30
0.0
 42
-0.3457679526359281
  0
VERTEX
  5
14C4
  8
0
  6
CONTINUOUS
 10
486.6607155578082
 20
421.53713852931929
 30
0.0
  0
SEQEND
  5
14C5
  8
0
  6
CONTINUOUS
  0
LINE
  5
EB6
  8
DIM
  6
CONTINUOUS
 10
466.54648921482482
 20
478.87830105140182
 30
0.0
 11
527.81437052373053
 21
493.20535051000633
 31
0.0
  0
LINE
  5
EB7
  8
CENTER
  6
CENTER
 10
478.19592296722641
 20
460.44835144322673
 30
0.0
 11
486.75191501958358
 21
451.89235939086939
 31
0.0
  0
CIRCLE
  5
EB8
  8
0
  6
CONTINUOUS
 10
482.47391899340499
 20
456.17035541704797
 30
0.0
 40
2.0499999999999989
  0
ARC
  5
EB9
  8
0
  6
CONTINUOUS
 62
     2
 10
482.47391899340488
 20
456.17035541704797
 30
0.0
 40
2.5
 50
204.98154856581149
 51
158.9636414602291
  0
CIRCLE
  5
EBA
  8
CENTER
  6
CENTER
 10
461.26071555780862
 20
477.38355885264451
 30
0.0
 40
30.0
  0
ARC
  5
EBB
  8
DIM
  6
CONTINUOUS
 10
461.26071555780862
 20
477.38355885264451
 30
0.0
 40
63.623948991042731
 50
0.0
 51
177.29813586581719
  0
LINE
  5
EBC
  8
DIM
  6
CONTINUOUS
 10
434.26071555780862
 20
522.88355885264446
 30
0.0
 11
488.26071555780862
 21
522.88355885264446
 31
0.0
  0
LINE
  5
EBD
  8
0
 10
423.76071555780862
 20
421.8835588526444
 30
0.0
 11
498.76071555780862
 21
421.8835588526444
 31
0.0
  0
LINE
  5
EBE
  8
0
 10
423.76071555780862
 20
514.88355885264446
 30
0.0
 11
498.76071555780862
 21
514.88355885264446
 31
0.0
  0
LINE
  5
EBF
  8
CENTER
  6
CENTER
 10
423.76071555780862
 20
477.38355885264451
 30
0.0
 11
498.76071555780862
 21
477.38355885264451
 31
0.0
  0
CIRCLE
  5
EC0
  8
0
  6
CONTINUOUS
 10
461.26071555780862
 20
477.38355885264451
 30
0.0
 40
36.0
  0
LINE
  5
EC1
  8
0
  6
CONTINUOUS
 62
     2
 10
482.96071555780929
 20
416.8835588526444
 30
0.0
 11
482.96071555780929
 21
414.28355885264591
 31
0.0
  0
LINE
  5
EC2
  8
0
  6
CONTINUOUS
 10
472.26071555780862
 20
417.57639949929489
 30
0.0
 11
473.46071555780929
 21
416.8835588526444
 31
0.0
  0
POLYLINE
  5
EC3
  8
0
  6
CONTINUOUS
 66
     1
 10
0.0
 20
0.0
 30
0.0
  0
VERTEX
  5
14C6
  8
0
  6
CONTINUOUS
 10
479.76071555780862
 20
416.8835588526444
 30
0.0
 42
-0.0851703918331037
  0
VERTEX
  5
14C7
  8
0
  6
CONTINUOUS
 10
475.76071555780862
 20
417.57155885264461
 30
0.0
 42
-0.3457679526359281
  0
VERTEX
  5
14C8
  8
0
  6
CONTINUOUS
 10
472.86071555780899
 20
417.22997917596967
 30
0.0
  0
SEQEND
  5
14C9
  8
0
  6
CONTINUOUS
  0
LINE
  5
EC8
  8
CENTER
  6
CENTER
 10
479.76071555780862
 20
438.14001118559253
 30
0.0
 11
479.76071555780862
 21
410.88355885264451
 31
0.0
  0
LINE
  5
EC9
  8
0
  6
CONTINUOUS
 10
475.76071555780862
 20
415.08355885264518
 30
0.0
 11
476.96071555780929
 21
413.88355885264451
 31
0.0
  0
LINE
  5
ECA
  8
0
  6
CONTINUOUS
 10
476.96071555780929
 20
413.88355885264451
 30
0.0
 11
482.56071555780778
 21
413.88355885264451
 31
0.0
  0
LINE
  5
ECB
  8
0
  6
CONTINUOUS
 10
475.76071555780862
 20
416.8835588526444
 30
0.0
 11
475.76071555780862
 21
415.08355885264518
 31
0.0
  0
LINE
  5
ECC
  8
0
  6
CONTINUOUS
 62
     2
 10
476.5607155578079
 20
416.8835588526444
 30
0.0
 11
476.5607155578079
 21
414.28355885264591
 31
0.0
  0
LINE
  5
ECD
  8
0
  6
CONTINUOUS
 10
472.26071555780868
 20
421.19071820599402
 30
0.0
 11
473.46071555780929
 21
421.8835588526444
 31
0.0
  0
POLYLINE
  5
ECE
  8
0
  6
CONTINUOUS
 66
     1
 10
0.0
 20
0.0
 30
0.0
  0
VERTEX
  5
14CA
  8
0
  6
CONTINUOUS
 10
479.76071555780862
 20
421.8835588526444
 30
0.0
 42
0.0851703918331037
  0
VERTEX
  5
14CB
  8
0
  6
CONTINUOUS
 10
475.76071555780862
 20
421.19555885264441
 30
0.0
 42
0.3457679526359281
  0
VERTEX
  5
14CC
  8
0
  6
CONTINUOUS
 10
472.86071555780899
 20
421.53713852931929
 30
0.0
  0
SEQEND
  5
14CD
  8
0
  6
CONTINUOUS
  0
LINE
  5
ED3
  8
0
  6
CONTINUOUS
 10
475.76071555780862
 20
421.19555885264452
 30
0.0
 11
475.76071555780862
 21
417.57155885264461
 31
0.0
  0
LINE
  5
ED4
  8
0
  6
CONTINUOUS
 10
472.26071555780862
 20
421.19071820599402
 30
0.0
 11
472.26071555780862
 21
417.57639949929489
 31
0.0
  0
SOLID
  5
ED5
  8
DIM
  6
CONTINUOUS
 10
466.66033921793229
 20
478.39143538533739
 30
0.0
 11
466.43263921171751
 21
479.36516671746642
 31
0.0
 12
463.62529521843783
 22
478.1952010327575
 32
0.0
 13
463.62529521843783
 23
478.1952010327575
 33
0.0
  0
LINE
  5
ED6
  8
0
  6
CONTINUOUS
 10
435.26071555780851
 20
421.19071820599402
 30
0.0
 11
436.46071555780918
 21
421.8835588526444
 31
0.0
  0
LINE
  5
ED7
  8
0
  6
CONTINUOUS
 10
450.26071555780851
 20
421.19071820599402
 30
0.0
 11
449.06071555780778
 21
421.8835588526444
 31
0.0
  0
POLYLINE
  5
ED8
  8
0
  6
CONTINUOUS
 66
     1
 10
0.0
 20
0.0
 30
0.0
  0
VERTEX
  5
14CE
  8
0
  6
CONTINUOUS
 10
442.76071555780851
 20
421.8835588526444
 30
0.0
 42
-0.0851703918331037
  0
VERTEX
  5
14CF
  8
0
  6
CONTINUOUS
 10
446.76071555780851
 20
421.19555885264441
 30
0.0
 42
-0.3457679526359281
  0
VERTEX
  5
14D0
  8
0
  6
CONTINUOUS
 10
449.66071555780809
 20
421.53713852931929
 30
0.0
  0
SEQEND
  5
14D1
  8
0
  6
CONTINUOUS
  0
POLYLINE
  5
EDD
  8
0
  6
CONTINUOUS
 66
     1
 10
0.0
 20
0.0
 30
0.0
  0
VERTEX
  5
14D2
  8
0
  6
CONTINUOUS
 10
442.76071555780851
 20
421.8835588526444
 30
0.0
 42
0.0851703918331037
  0
VERTEX
  5
14D3
  8
0
  6
CONTINUOUS
 10
438.76071555780851
 20
421.19555885264441
 30
0.0
 42
0.3457679526359281
  0
VERTEX
  5
14D4
  8
0
  6
CONTINUOUS
 10
435.86071555780887
 20
421.53713852931929
 30
0.0
  0
SEQEND
  5
14D5
  8
0
  6
CONTINUOUS
  0
LINE
  5
EE2
  8
0
  6
CONTINUOUS
 10
438.76071555780862
 20
415.08355885264518
 30
0.0
 11
439.96071555780941
 21
413.88355885264451
 31
0.0
  0
LINE
  5
EE3
  8
0
  6
CONTINUOUS
 10
438.76071555780851
 20
416.8835588526444
 30
0.0
 11
438.76071555780862
 21
415.08355885264518
 31
0.0
  0
LINE
  5
EE4
  8
0
  6
CONTINUOUS
 10
445.56071555780778
 20
413.88355885264451
 30
0.0
 11
439.96071555780941
 21
413.88355885264451
 31
0.0
  0
LINE
  5
EE5
  8
0
  6
CONTINUOUS
 10
446.76071555780862
 20
415.08355885264518
 30
0.0
 11
445.56071555780778
 21
413.88355885264451
 31
0.0
  0
LINE
  5
EE6
  8
0
  6
CONTINUOUS
 10
446.76071555780862
 20
416.8835588526444
 30
0.0
 11
446.76071555780862
 21
415.08355885264518
 31
0.0
  0
LINE
  5
EE7
  8
0
  6
CONTINUOUS
 10
449.0607155578079
 20
416.8835588526444
 30
0.0
 11
436.46071555780918
 21
416.8835588526444
 31
0.0
  0
LINE
  5
EE8
  8
0
  6
CONTINUOUS
 10
450.26071555780862
 20
417.57639949929489
 30
0.0
 11
449.0607155578079
 21
416.8835588526444
 31
0.0
  0
LINE
  5
EE9
  8
0
  6
CONTINUOUS
 10
450.26071555780862
 20
421.19071820599402
 30
0.0
 11
450.26071555780862
 21
417.57639949929489
 31
0.0
  0
LINE
  5
EEA
  8
0
  6
CONTINUOUS
 10
435.26071555780862
 20
417.57639949929489
 30
0.0
 11
436.46071555780929
 21
416.8835588526444
 31
0.0
  0
LINE
  5
EEB
  8
0
  6
CONTINUOUS
 10
435.26071555780862
 20
421.19071820599402
 30
0.0
 11
435.26071555780862
 21
417.57639949929489
 31
0.0
  0
LINE
  5
EEC
  8
0
  6
CONTINUOUS
 62
     2
 10
439.5607155578079
 20
416.8835588526444
 30
0.0
 11
439.5607155578079
 21
414.28355885264591
 31
0.0
  0
POLYLINE
  5
EED
  8
0
  6
CONTINUOUS
 66
     1
 10
0.0
 20
0.0
 30
0.0
  0
VERTEX
  5
14D6
  8
0
  6
CONTINUOUS
 10
442.76071555780862
 20
416.8835588526444
 30
0.0
 42
-0.0851703918331037
  0
VERTEX
  5
14D7
  8
0
  6
CONTINUOUS
 10
438.76071555780862
 20
417.57155885264461
 30
0.0
 42
-0.3457679526359281
  0
VERTEX
  5
14D8
  8
0
  6
CONTINUOUS
 10
435.86071555780899
 20
417.22997917596967
 30
0.0
  0
SEQEND
  5
14D9
  8
0
  6
CONTINUOUS
  0
LINE
  5
EF2
  8
0
  6
CONTINUOUS
 10
438.76071555780862
 20
421.19555885264441
 30
0.0
 11
438.76071555780862
 21
417.57155885264461
 31
0.0
  0
LINE
  5
EF3
  8
0
  6
CONTINUOUS
 62
     2
 10
445.96071555780929
 20
416.8835588526444
 30
0.0
 11
445.96071555780929
 21
414.28355885264591
 31
0.0
  0
LINE
  5
EF4
  8
0
  6
CONTINUOUS
 10
446.76071555780862
 20
415.08355885264518
 30
0.0
 11
438.76071555780862
 21
415.08355885264518
 31
0.0
  0
POLYLINE
  5
EF5
  8
0
  6
CONTINUOUS
 66
     1
 10
0.0
 20
0.0
 30
0.0
  0
VERTEX
  5
14DA
  8
0
  6
CONTINUOUS
 10
442.76071555780862
 20
416.8835588526444
 30
0.0
 42
0.0851703918331037
  0
VERTEX
  5
14DB
  8
0
  6
CONTINUOUS
 10
446.76071555780862
 20
417.57155885264461
 30
0.0
 42
0.3457679526359281
  0
VERTEX
  5
14DC
  8
0
  6
CONTINUOUS
 10
449.6607155578082
 20
417.22997917596967
 30
0.0
  0
SEQEND
  5
14DD
  8
0
  6
CONTINUOUS
  0
LINE
  5
EFA
  8
0
  6
CONTINUOUS
 10
446.76071555780862
 20
421.19555885264452
 30
0.0
 11
446.76071555780862
 21
417.57155885264461
 31
0.0
  0
CIRCLE
  5
EFB
  8
0
  6
CONTINUOUS
 10
440.0475121222122
 20
498.59676228824088
 30
0.0
 40
2.0499999999999989
  0
ARC
  5
EFC
  8
0
  6
CONTINUOUS
 62
     2
 10
440.04751212221208
 20
498.59676228824071
 30
0.0
 40
2.5
 50
204.98154856581149
 51
158.9636414602291
  0
LINE
  5
EFD
  8
CENTER
  6
CENTER
 10
435.80487143509282
 20
502.83940297536009
 30
0.0
 11
444.64370619992468
 21
494.0005682105284
 31
0.0
  0
LINE
  5
EFE
  8
CENTER
  6
CENTER
 10
442.76071555780862
 20
438.14001118559253
 30
0.0
 11
442.76071555780862
 21
410.88355885264451
 31
0.0
  0
TEXT
  5
EFF
  8
DIM
  6
CONTINUOUS
 10
458.1178584149514
 20
401.0259398252557
 30
0.0
 40
3.0
  1
18
  7
ROMANSS
 72
     1
 11
460.26071555780868
 21
402.5259398252557
 31
0.0
 73
     2
  0
SOLID
  5
F00
  8
DIM
  6
CONTINUOUS
 10
454.26071555780862
 20
400.0259398252557
 30
0.0
 11
454.26071555780862
 21
399.0259398252557
 31
0.0
 12
451.26071555780862
 22
399.5259398252557
 32
0.0
 13
451.26071555780862
 23
399.5259398252557
 33
0.0
  0
SOLID
  5
F01
  8
DIM
  6
CONTINUOUS
 10
466.26071555780862
 20
400.0259398252557
 30
0.0
 11
466.26071555780862
 21
399.0259398252557
 31
0.0
 12
469.26071555780868
 22
399.5259398252557
 32
0.0
 13
469.26071555780868
 23
399.5259398252557
 33
0.0
  0
LINE
  5
F02
  8
DIM
  6
CONTINUOUS
 10
466.26071555780862
 20
399.5259398252557
 30
0.0
 11
454.26071555780862
 21
399.5259398252557
 31
0.0
  0
LINE
  5
F03
  8
DIM
  6
CONTINUOUS
 10
451.26071555780862
 20
382.0259398252557
 30
0.0
 11
451.26071555780862
 21
400.5259398252557
 31
0.0
  0
LINE
  5
F04
  8
DIM
  6
CONTINUOUS
 10
469.26071555780868
 20
383.5259398252557
 30
0.0
 11
469.26071555780868
 21
400.5259398252557
 31
0.0
  0
TEXT
  5
F05
  8
DIM
  6
CONTINUOUS
 10
454.83924104380208
 20
393.0259398252557
 30
0.0
 40
3.0
  1
%%c16h6
  7
ROMANSS
 72
     1
 11
461.0535267580878
 21
394.5259398252557
 31
0.0
 73
     2
  0
LINE
  5
F06
  8
DIM
  6
CONTINUOUS
 10
469.26071555780868
 20
391.5259398252557
 30
0.0
 11
453.26071555780862
 21
391.5259398252557
 31
0.0
  0
SOLID
  5
F07
  8
DIM
  6
CONTINUOUS
 10
456.26071555780851
 20
392.0259398252557
 30
0.0
 11
456.26071555780851
 21
391.0259398252557
 31
0.0
 12
453.26071555780862
 22
391.5259398252557
 32
0.0
 13
453.26071555780862
 23
391.5259398252557
 33
0.0
  0
SOLID
  5
F08
  8
DIM
  6
CONTINUOUS
 10
466.26071555780868
 20
392.0259398252557
 30
0.0
 11
466.26071555780868
 21
391.0259398252557
 31
0.0
 12
469.26071555780868
 22
391.5259398252557
 32
0.0
 13
469.26071555780868
 23
391.5259398252557
 33
0.0
  0
LINE
  5
F09
  8
DIM
  6
CONTINUOUS
 10
453.26071555780862
 20
383.5259398252557
 30
0.0
 11
453.26071555780862
 21
392.5259398252557
 31
0.0
  0
LINE
  5
F0A
  8
DIM
  6
CONTINUOUS
 10
469.26071555780868
 20
383.5259398252557
 30
0.0
 11
469.26071555780868
 21
392.5259398252557
 31
0.0
  0
TEXT
  5
F0B
  8
DIM
  6
CONTINUOUS
 10
441.76071555780862
 20
486.75855885264451
 30
0.0
 40
3.0
  1
5
 50
90.0
  7
ROMANSS
 72
     1
 11
440.26071555780862
 21
487.75855885264451
 31
0.0
 73
     2
  0
LINE
  5
F0C
  8
DIM
  6
CONTINUOUS
 10
443.26071555780862
 20
474.88355885264451
 30
0.0
 11
443.26071555780862
 21
479.8835588526444
 31
0.0
  0
SOLID
  5
F0D
  8
DIM
  6
CONTINUOUS
 10
442.76071555780862
 20
482.88355885264451
 30
0.0
 11
443.76071555780862
 21
482.88355885264451
 31
0.0
 12
443.26071555780862
 22
479.8835588526444
 32
0.0
 13
443.26071555780862
 23
479.8835588526444
 33
0.0
  0
SOLID
  5
F0E
  8
DIM
  6
CONTINUOUS
 10
442.76071555780862
 20
471.88355885264463
 30
0.0
 11
443.76071555780862
 21
471.88355885264463
 31
0.0
 12
443.26071555780862
 22
474.88355885264451
 32
0.0
 13
443.26071555780862
 23
474.88355885264451
 33
0.0
  0
LINE
  5
F0F
  8
DIM
  6
CONTINUOUS
 10
443.26071555780862
 20
485.88355885264451
 30
0.0
 11
443.26071555780862
 21
488.63355885264451
 31
0.0
  0
LINE
  5
F10
  8
DIM
  6
CONTINUOUS
 10
443.26071555780862
 20
482.88355885264451
 30
0.0
 11
443.26071555780862
 21
485.88355885264451
 31
0.0
  0
LINE
  5
F11
  8
DIM
  6
CONTINUOUS
 10
443.26071555780862
 20
471.88355885264463
 30
0.0
 11
443.26071555780862
 21
468.88355885264463
 31
0.0
  0
LINE
  5
F12
  8
DIM
  6
CONTINUOUS
 10
450.26071555780862
 20
479.8835588526444
 30
0.0
 11
442.26071555780862
 21
479.8835588526444
 31
0.0
  0
LINE
  5
F13
  8
DIM
  6
CONTINUOUS
 10
450.26071555780862
 20
474.88355885264451
 30
0.0
 11
442.26071555780862
 21
474.88355885264451
 31
0.0
  0
CIRCLE
  5
F14
  8
0
  6
CONTINUOUS
 10
461.26071555780862
 20
477.38355885264451
 30
0.0
 40
12.49999999999997
  0
TEXT
  5
F15
  8
DIM
  6
CONTINUOUS
 10
407.76071555780851
 20
366.09736839668432
 30
0.0
 40
3.0
  1
30
 50
90.0
  7
ROMANSS
 72
     1
 11
406.26071555780862
 21
368.5259398252557
 31
0.0
 73
     2
  0
SOLID
  5
F16
  8
DIM
  6
CONTINUOUS
 10
408.76071555780862
 20
380.5259398252557
 30
0.0
 11
409.76071555780862
 21
380.5259398252557
 31
0.0
 12
409.26071555780862
 22
383.5259398252557
 32
0.0
 13
409.26071555780862
 23
383.5259398252557
 33
0.0
  0
LINE
  5
F17
  8
DIM
  6
CONTINUOUS
 10
453.26071555780862
 20
383.5259398252557
 30
0.0
 11
408.26071555780862
 21
383.5259398252557
 31
0.0
  0
TEXT
  5
F18
  8
DIM
  6
CONTINUOUS
 10
415.76071555780862
 20
366.09736839668432
 30
0.0
 40
3.0
  1
25
 50
90.0
  7
ROMANSS
 72
     1
 11
414.26071555780862
 21
368.5259398252557
 31
0.0
 73
     2
  0
SOLID
  5
F19
  8
DIM
  6
CONTINUOUS
 10
416.76071555780862
 20
378.0259398252557
 30
0.0
 11
417.76071555780862
 21
378.0259398252557
 31
0.0
 12
417.26071555780862
 22
381.0259398252557
 32
0.0
 13
417.26071555780862
 23
381.0259398252557
 33
0.0
  0
LINE
  5
F1A
  8
DIM
  6
CONTINUOUS
 10
417.26071555780862
 20
359.0259398252557
 30
0.0
 11
417.26071555780862
 21
378.0259398252557
 31
0.0
  0
LINE
  5
F1B
  8
DIM
  6
CONTINUOUS
 10
450.26071555780862
 20
381.0259398252557
 30
0.0
 11
416.26071555780851
 21
381.0259398252557
 31
0.0
  0
TEXT
  5
F1C
  8
DIM
  6
CONTINUOUS
 10
453.38772499224501
 20
542.39959514570751
 30
0.0
 40
3.0
  1
180%%p5%%d
  7
ROMANSS
 72
     1
 11
460.95915356367351
 21
543.89959514570751
 31
0.0
 73
     2
  0
SOLID
  5
F1D
  8
DIM
  6
CONTINUOUS
 10
398.20735567404188
 20
480.370936979139
 30
0.0
 11
397.207633627218
 21
480.39451300709368
 31
0.0
 12
397.63676656676591
 22
477.38355885264451
 32
0.0
 13
397.63676656676591
 23
477.38355885264451
 33
0.0
  0
LINE
  5
F1E
  8
DIM
  6
CONTINUOUS
 10
422.76071555780862
 20
477.38355885264451
 30
0.0
 11
396.63676656676591
 21
477.38355885264451
 31
0.0
  0
TEXT
  5
F1F
  8
DIM
  6
CONTINUOUS
 10
458.83214412923718
 20
524.38355885264446
 30
0.0
 40
3.0
  1
60
  7
ROMANSS
 72
     1
 11
461.26071555780862
 21
525.88355885264446
 31
0.0
 73
     2
  0
SOLID
  5
F20
  8
DIM
  6
CONTINUOUS
 10
434.26071555780862
 20
523.38355885264446
 30
0.0
 11
434.26071555780862
 21
522.38355885264446
 31
0.0
 12
431.26071555780862
 22
522.88355885264446
 32
0.0
 13
431.26071555780862
 23
522.88355885264446
 33
0.0
  0
LINE
  5
F21
  8
DIM
  6
CONTINUOUS
 10
431.26071555780862
 20
514.38355885264446
 30
0.0
 11
431.26071555780862
 21
523.88355885264446
 31
0.0
  0
LINE
  5
F22
  8
0
  6
CONTINUOUS
 10
451.26071555780862
 20
381.0259398252557
 30
0.0
 11
453.26071555780862
 21
381.0259398252557
 31
0.0
  0
LINE
  5
F23
  8
CENTER
  6
CENTER
 10
431.26071555780862
 20
453.38355885264451
 30
0.0
 11
431.26071555780862
 21
441.38355885264451
 31
0.0
  0
CIRCLE
  5
F24
  8
0
  6
CONTINUOUS
 10
431.26071555780862
 20
447.38355885264451
 30
0.0
 40
2.5
  0
ARC
  5
F25
  8
0
  6
CONTINUOUS
 62
     2
 10
431.26071555780862
 20
447.38355885264451
 30
0.0
 40
3.0
 50
72.528507680586145
 51
21.640324594293851
  0
CIRCLE
  5
F26
  8
0
  6
CONTINUOUS
 10
431.26071555780862
 20
507.38355885264451
 30
0.0
 40
2.5
  0
ARC
  5
F27
  8
0
  6
CONTINUOUS
 62
     2
 10
431.26071555780862
 20
507.38355885264451
 30
0.0
 40
3.0
 50
72.528507680586145
 51
21.640324594293851
  0
LINE
  5
F28
  8
CENTER
  6
CENTER
 10
431.26071555780862
 20
513.38355885264446
 30
0.0
 11
431.26071555780862
 21
501.38355885264451
 31
0.0
  0
LINE
  5
F29
  8
CENTER
  6
CENTER
 10
425.26071555780862
 20
447.38355885264463
 30
0.0
 11
437.26071555780862
 21
447.38355885264451
 31
0.0
  0
LINE
  5
F2A
  8
CENTER
  6
CENTER
 10
425.26071555780862
 20
507.38355885264451
 30
0.0
 11
437.26071555780862
 21
507.38355885264451
 31
0.0
  0
LINE
  5
F2B
  8
0
 10
423.76071555780862
 20
514.88355885264446
 30
0.0
 11
423.76071555780862
 21
421.8835588526444
 31
0.0
  0
CIRCLE
  5
F2C
  8
0
  6
CONTINUOUS
 10
461.26071555780862
 20
477.38355885264451
 30
0.0
 40
2.0499999999999989
  0
ARC
  5
F2D
  8
0
  6
CONTINUOUS
 62
     2
 10
461.26071555780862
 20
477.38355885264451
 30
0.0
 40
2.5
 50
159.98154856581121
 51
113.96364146022989
  0
LINE
  5
F2E
  8
0
 10
451.26071555780868
 20
474.88355885264451
 30
0.0
 11
453.6613734810233
 21
474.88355885264451
 31
0.0
  0
LINE
  5
F2F
  8
0
 10
451.26071555780862
 20
479.8835588526444
 30
0.0
 11
453.6613734810233
 21
479.8835588526444
 31
0.0
  0
LINE
  5
F30
  8
0
 10
451.26071555780862
 20
479.8835588526444
 30
0.0
 11
451.26071555780862
 21
474.88355885264451
 31
0.0
  0
CIRCLE
  5
F31
  8
0
  6
CONTINUOUS
 10
461.26071555780862
 20
477.38355885264451
 30
0.0
 40
6.9999999999999707
  0
CIRCLE
  5
F32
  8
0
  6
CONTINUOUS
 10
461.26071555780862
 20
477.38355885264451
 30
0.0
 40
7.9999999999999707
  0
LINE
  5
F33
  8
CENTER
  6
CENTER
 10
461.26071555780862
 20
517.88355885264446
 30
0.0
 11
461.26071555780862
 21
418.88355885264451
 31
0.0
  0
LINE
  5
F34
  8
0
  6
CONTINUOUS
 10
468.26071555780868
 20
383.5259398252557
 30
0.0
 11
469.26071555780868
 21
382.5259398252557
 31
0.0
  0
LINE
  5
F35
  8
0
  6
CONTINUOUS
 10
454.26071555780862
 20
383.5259398252557
 30
0.0
 11
453.26071555780862
 21
382.5259398252557
 31
0.0
  0
LINE
  5
F36
  8
0
  6
CONTINUOUS
 10
453.26071555780862
 20
382.5259398252557
 30
0.0
 11
469.26071555780862
 21
382.5259398252557
 31
0.0
  0
LINE
  5
F37
  8
0
  6
CONTINUOUS
 10
454.26071555780862
 20
383.5259398252557
 30
0.0
 11
468.26071555780868
 21
383.5259398252557
 31
0.0
  0
SOLID
  5
F38
  8
DIM
  6
CONTINUOUS
 10
524.31407544157537
 20
480.370936979139
 30
0.0
 11
525.31379748839925
 21
480.39451300709368
 31
0.0
 12
524.88466454885133
 22
477.38355885264451
 32
0.0
 13
524.88466454885133
 23
477.38355885264451
 33
0.0
  0
LINE
  5
F39
  8
DIM
  6
CONTINUOUS
 10
499.76071555780862
 20
477.38355885264451
 30
0.0
 11
525.88466454885133
 21
477.38355885264451
 31
0.0
  0
LINE
  5
F3A
  8
0
  6
CONTINUOUS
 10
487.26071555780862
 20
417.57639949929489
 30
0.0
 11
486.0607155578079
 21
416.8835588526444
 31
0.0
  0
LINE
  5
F3B
  8
0
  6
CONTINUOUS
 10
483.76071555780862
 20
416.8835588526444
 30
0.0
 11
483.76071555780862
 21
415.08355885264518
 31
0.0
  0
LINE
  5
F3C
  8
0
  6
CONTINUOUS
 10
487.26071555780862
 20
421.19071820599402
 30
0.0
 11
486.0607155578079
 21
421.8835588526444
 31
0.0
  0
LINE
  5
F3D
  8
0
  6
CONTINUOUS
 10
487.26071555780862
 20
421.19071820599402
 30
0.0
 11
487.26071555780862
 21
417.57639949929489
 31
0.0
  0
LINE
  5
F3E
  8
0
  6
CONTINUOUS
 10
483.76071555780862
 20
421.19555885264441
 30
0.0
 11
483.76071555780862
 21
417.57155885264461
 31
0.0
  0
TEXT
  5
F3F
  8
DIM
  6
CONTINUOUS
 10
529.11441852835367
 20
494.70535051000638
 30
0.0
 40
3.0
  1
M5x15L
  7
ROMANSS
 11
529.11441852835367
 21
496.20535051000638
 31
0.0
 73
     2
  0
LINE
  5
F40
  8
DIM
  6
CONTINUOUS
 10
527.81437052373053
 20
493.20535051000633
 30
0.0
 11
543.23941852835378
 21
493.20535051000633
 31
0.0
  0
TEXT
  5
F41
  8
DIM
  6
CONTINUOUS
 10
508.45650119307879
 20
529.896592824697
 30
0.0
 40
3.0
  1
2x4-M6x15L
  7
ROMANSS
 11
508.45650119307879
 21
531.39659282469711
 31
0.0
 73
     2
  0
LINE
  5
F42
  8
DIM
  6
CONTINUOUS
 10
508.33194819235518
 20
528.39659282469711
 30
0.0
 11
533.08150119307879
 21
528.39659282469711
 31
0.0
  0
LINE
  5
F43
  8
DIM
  6
CONTINUOUS
 10
494.9672029671126
 20
512.10016028429754
 30
0.0
 11
508.33194819235518
 21
528.39659282469711
 31
0.0
  0
SOLID
  5
F44
  8
DIM
  6
CONTINUOUS
 10
495.35381742967161
 20
511.78309679327373
 30
0.0
 11
494.5805885045537
 21
512.41722377532165
 31
0.0
 12
493.06482202096919
 22
509.78047350894389
 32
0.0
 13
493.06482202096919
 23
509.78047350894389
 33
0.0
  0
SOLID
  5
F45
  8
DIM
  6
CONTINUOUS
 10
488.26071555780862
 20
523.38355885264446
 30
0.0
 11
488.26071555780862
 21
522.38355885264446
 31
0.0
 12
491.26071555780851
 22
522.88355885264446
 32
0.0
 13
491.26071555780851
 23
522.88355885264446
 33
0.0
  0
LINE
  5
F46
  8
DIM
  6
CONTINUOUS
 10
491.26071555780851
 20
514.38355885264446
 30
0.0
 11
491.26071555780851
 21
523.88355885264446
 31
0.0
  0
LINE
  5
F47
  8
CENTER
  6
CENTER
 10
485.26071555780862
 20
507.38355885264451
 30
0.0
 11
497.26071555780862
 21
507.38355885264451
 31
0.0
  0
LINE
  5
F48
  8
CENTER
  6
CENTER
 10
485.26071555780862
 20
447.38355885264451
 30
0.0
 11
497.26071555780862
 21
447.38355885264451
 31
0.0
  0
LINE
  5
F49
  8
CENTER
  6
CENTER
 10
491.26071555780851
 20
453.38355885264451
 30
0.0
 11
491.26071555780851
 21
441.38355885264451
 31
0.0
  0
CIRCLE
  5
F4A
  8
0
  6
CONTINUOUS
 10
491.26071555780851
 20
507.38355885264451
 30
0.0
 40
2.5
  0
ARC
  5
F4B
  8
0
  6
CONTINUOUS
 62
     2
 10
491.26071555780851
 20
507.38355885264451
 30
0.0
 40
3.0
 50
162.5285076805861
 51
111.6403245942938
  0
CIRCLE
  5
F4C
  8
0
  6
CONTINUOUS
 10
491.26071555780851
 20
447.38355885264451
 30
0.0
 40
2.5
  0
ARC
  5
F4D
  8
0
  6
CONTINUOUS
 62
     2
 10
491.26071555780851
 20
447.38355885264451
 30
0.0
 40
3.0
 50
72.528507680586145
 51
21.640324594293851
  0
LINE
  5
F4E
  8
CENTER
  6
CENTER
 10
491.26071555780851
 20
513.38355885264446
 30
0.0
 11
491.26071555780851
 21
501.38355885264451
 31
0.0
  0
LINE
  5
F4F
  8
0
 10
498.76071555780862
 20
514.88355885264446
 30
0.0
 11
498.76071555780862
 21
421.8835588526444
 31
0.0
  0
TEXT
  5
F50
  8
DIM
  6
CONTINUOUS
 10
646.89232633651352
 20
360.40196995392222
 30
0.0
 40
3.0
  1
2x4-M6x15L
  7
ROMANSS
 72
     2
 11
674.32089776508496
 21
361.90196995392222
 31
0.0
 73
     2
  0
LINE
  5
F51
  8
DIM
  6
CONTINUOUS
 10
675.08120420804653
 20
358.90196995392222
 30
0.0
 11
649.69589776508485
 21
358.90196995392222
 31
0.0
  0
TEXT
  5
F52
  8
DIM
  6
CONTINUOUS
 10
548.60592586968016
 20
477.12555383094451
 30
0.0
 40
3.0
  1
60
 50
90.0
  7
ROMANSS
 72
     1
 11
547.10592586968016
 21
479.5541252595159
 31
0.0
 73
     2
  0
SOLID
  5
F53
  8
DIM
  6
CONTINUOUS
 10
549.60592586968016
 20
504.3835588526444
 30
0.0
 11
550.60592586968028
 21
504.3835588526444
 31
0.0
 12
550.10592586968028
 22
507.38355885264451
 32
0.0
 13
550.10592586968028
 23
507.38355885264451
 33
0.0
  0
SOLID
  5
F54
  8
DIM
  6
CONTINUOUS
 10
549.60592586968016
 20
450.3835588526444
 30
0.0
 11
550.60592586968028
 21
450.3835588526444
 31
0.0
 12
550.10592586968028
 22
447.38355885264451
 32
0.0
 13
550.10592586968028
 23
447.38355885264451
 33
0.0
  0
LINE
  5
F55
  8
DIM
  6
CONTINUOUS
 10
550.10592586968028
 20
450.3835588526444
 30
0.0
 11
550.10592586968028
 21
504.3835588526444
 31
0.0
  0
LINE
  5
F56
  8
CENTER
  6
CENTER
 10
600.76071555780857
 20
418.84074945041908
 30
0.0
 11
600.76071555780857
 21
437.22879179265021
 31
0.0
  0
LINE
  5
F57
  8
HIDDEN
  6
HIDDEN
 10
618.26071555780868
 20
465.88355885264451
 30
0.0
 11
618.26071555780868
 21
471.8835588526444
 31
0.0
  0
LINE
  5
F58
  8
HIDDEN
  6
HIDDEN
 10
606.26071555780868
 20
471.28355885264438
 30
0.0
 11
604.87507491175347
 21
468.88355885264451
 31
0.0
  0
LINE
  5
F59
  8
HIDDEN
  6
HIDDEN
 10
606.26071555780868
 20
466.48355885264448
 30
0.0
 11
606.26071555780868
 21
471.28355885264438
 31
0.0
  0
LINE
  5
F5A
  8
HIDDEN
  6
HIDDEN
 10
606.26071555780868
 20
466.48355885264448
 30
0.0
 11
604.87507491175347
 21
468.88355885264451
 31
0.0
  0
LINE
  5
F5B
  8
HIDDEN
  6
HIDDEN
 10
609.26071555780857
 20
465.88355885264451
 30
0.0
 11
609.26071555780857
 21
471.8835588526444
 31
0.0
  0
LINE
  5
F5C
  8
HIDDEN
  6
HIDDEN
 10
618.26071555780868
 20
466.48355885264448
 30
0.0
 11
606.26071555780868
 21
466.48355885264448
 31
0.0
  0
LINE
  5
F5D
  8
HIDDEN
  6
HIDDEN
 10
618.26071555780868
 20
471.28355885264438
 30
0.0
 11
606.26071555780868
 21
471.28355885264438
 31
0.0
  0
LINE
  5
F5E
  8
HIDDEN
  6
HIDDEN
 10
624.26071555780857
 20
465.88355885264451
 30
0.0
 11
609.26071555780857
 21
465.88355885264451
 31
0.0
  0
LINE
  5
F5F
  8
HIDDEN
  6
HIDDEN
 10
624.26071555780857
 20
471.8835588526444
 30
0.0
 11
609.26071555780857
 21
471.8835588526444
 31
0.0
  0
LINE
  5
F60
  8
HIDDEN
  6
HIDDEN
 10
618.26071555780868
 20
427.88355885264451
 30
0.0
 11
618.26071555780868
 21
433.8835588526444
 31
0.0
  0
LINE
  5
F61
  8
HIDDEN
  6
HIDDEN
 10
609.26071555780857
 20
427.88355885264451
 30
0.0
 11
609.26071555780857
 21
433.8835588526444
 31
0.0
  0
LINE
  5
F62
  8
HIDDEN
  6
HIDDEN
 10
606.26071555780868
 20
433.28355885264438
 30
0.0
 11
604.87507491175347
 21
430.88355885264451
 31
0.0
  0
LINE
  5
F63
  8
HIDDEN
  6
HIDDEN
 10
606.26071555780868
 20
428.48355885264442
 30
0.0
 11
604.87507491175347
 21
430.88355885264451
 31
0.0
  0
LINE
  5
F64
  8
HIDDEN
  6
HIDDEN
 10
606.26071555780868
 20
428.48355885264442
 30
0.0
 11
606.26071555780868
 21
433.28355885264438
 31
0.0
  0
LINE
  5
F65
  8
HIDDEN
  6
HIDDEN
 10
618.26071555780868
 20
433.28355885264438
 30
0.0
 11
606.26071555780868
 21
433.28355885264438
 31
0.0
  0
LINE
  5
F66
  8
HIDDEN
  6
HIDDEN
 10
618.26071555780868
 20
428.48355885264442
 30
0.0
 11
606.26071555780868
 21
428.48355885264442
 31
0.0
  0
LINE
  5
F67
  8
HIDDEN
  6
HIDDEN
 10
624.26071555780857
 20
433.8835588526444
 30
0.0
 11
609.26071555780857
 21
433.8835588526444
 31
0.0
  0
LINE
  5
F68
  8
HIDDEN
  6
HIDDEN
 10
624.26071555780857
 20
427.88355885264451
 30
0.0
 11
609.26071555780857
 21
427.88355885264451
 31
0.0
  0
LINE
  5
F69
  8
0
 10
624.26071555780857
 20
467.3835588526444
 30
0.0
 11
627.26071555780868
 21
467.3835588526444
 31
0.0
  0
ARC
  5
F6A
  8
0
 10
627.26071555780868
 20
466.38355885264451
 30
0.0
 40
1.0
 50
0.0
 51
90.0
  0
LINE
  5
F6B
  8
CENTER
  6
CENTER
 10
609.26071555780857
 20
419.2816872242945
 30
0.0
 11
609.26071555780857
 21
437.25422737998531
 31
0.0
  0
LINE
  5
F6C
  8
0
 10
594.26071555780868
 20
476.38355885264451
 30
0.0
 11
624.26071555780857
 21
475.8835588526444
 31
0.0
  0
LINE
  5
F6D
  8
CENTER
  6
CENTER
 10
627.34826566586003
 20
468.88355885264451
 30
0.0
 11
593.26071555780868
 21
468.88355885264451
 31
0.0
  0
LINE
  5
F6E
  8
0
 10
624.26071555780857
 20
432.38355885264451
 30
0.0
 11
627.26071555780868
 21
432.38355885264451
 31
0.0
  0
ARC
  5
F6F
  8
0
 10
627.26071555780868
 20
433.38355885264451
 30
0.0
 40
1.0
 50
270.0
 51
0.0
  0
LINE
  5
F70
  8
0
 10
594.26071555780868
 20
423.38355885264451
 30
0.0
 11
624.26071555780857
 21
423.88355885264451
 31
0.0
  0
LINE
  5
F71
  8
CENTER
  6
CENTER
 10
626.68384569611703
 20
430.88355885264451
 30
0.0
 11
593.26071555780868
 21
430.88355885264451
 31
0.0
  0
LINE
  5
F72
  8
0
 10
628.26071555780857
 20
466.38355885264451
 30
0.0
 11
628.26071555780857
 21
433.38355885264451
 31
0.0
  0
LINE
  5
F73
  8
0
 10
624.26071555780857
 20
475.8835588526444
 30
0.0
 11
624.26071555780857
 21
423.88355885264451
 31
0.0
  0
LINE
  5
F74
  8
0
 10
594.26071555780868
 20
476.38355885264451
 30
0.0
 11
594.26071555780868
 21
423.38355885264451
 31
0.0
  0
SOLID
  5
F75
  8
DIM
  6
CONTINUOUS
 10
789.12079384892616
 20
380.5259398252557
 30
0.0
 11
790.12079384892616
 21
380.5259398252557
 31
0.0
 12
789.62079384892616
 22
383.5259398252557
 32
0.0
 13
789.62079384892616
 23
383.5259398252557
 33
0.0
  0
LINE
  5
F76
  8
DIM
  6
CONTINUOUS
 10
744.1207938489265
 20
383.5259398252557
 30
0.0
 11
790.62079384892616
 21
383.5259398252557
 31
0.0
  0
TEXT
  5
F77
  8
DIM
  6
CONTINUOUS
 10
780.12079384892638
 20
358.55615230059351
 30
0.0
 40
3.0
  1
8
 50
90.0
  7
ROMANSS
 72
     1
 11
778.6207938489265
 21
359.55615230059351
 31
0.0
 73
     2
  0
LINE
  5
F78
  8
0
  6
CONTINUOUS
 10
743.1207938489265
 20
383.5259398252557
 30
0.0
 11
744.1207938489265
 21
382.5259398252557
 31
0.0
  0
LINE
  5
F79
  8
0
  6
CONTINUOUS
 10
729.12079384892638
 20
383.5259398252557
 30
0.0
 11
728.1207938489265
 21
382.5259398252557
 31
0.0
  0
LINE
  5
F7A
  8
0
  6
CONTINUOUS
 10
728.1207938489265
 20
382.5259398252557
 30
0.0
 11
744.1207938489265
 21
382.5259398252557
 31
0.0
  0
LINE
  5
F7B
  8
0
  6
CONTINUOUS
 10
729.12079384892638
 20
383.5259398252557
 30
0.0
 11
743.1207938489265
 21
383.5259398252557
 31
0.0
  0
CIRCLE
  5
F7C
  8
0
  6
CONTINUOUS
 10
194.90063726669081
 20
331.0259398252557
 30
0.0
 40
2.5
  0
ARC
  5
F7D
  8
0
  6
CONTINUOUS
 62
     2
 10
194.90063726669081
 20
331.0259398252557
 30
0.0
 40
3.0000000000000031
 50
165.00000000000551
 51
104.9999999999944
  0
CIRCLE
  5
F7E
  8
0
  6
CONTINUOUS
 10
232.90063726669081
 20
331.0259398252557
 30
0.0
 40
2.5
  0
ARC
  5
F7F
  8
0
  6
CONTINUOUS
 62
     2
 10
232.90063726669081
 20
331.0259398252557
 30
0.0
 40
3.0000000000000031
 50
165.00000000000551
 51
104.9999999999944
  0
CIRCLE
  5
F80
  8
0
  6
CONTINUOUS
 10
194.90063726669081
 20
293.0259398252557
 30
0.0
 40
2.5
  0
ARC
  5
F81
  8
0
  6
CONTINUOUS
 62
     2
 10
194.90063726669081
 20
293.0259398252557
 30
0.0
 40
3.0000000000000031
 50
165.00000000000551
 51
104.9999999999944
  0
CIRCLE
  5
F82
  8
0
  6
CONTINUOUS
 10
232.90063726669081
 20
293.0259398252557
 30
0.0
 40
2.5
  0
ARC
  5
F83
  8
0
  6
CONTINUOUS
 62
     2
 10
232.90063726669081
 20
293.0259398252557
 30
0.0
 40
3.0000000000000031
 50
165.00000000000551
 51
104.9999999999944
  0
CIRCLE
  5
F84
  8
0
  6
CONTINUOUS
 10
689.6207938489265
 20
331.0259398252557
 30
0.0
 40
2.5
  0
ARC
  5
F85
  8
0
  6
CONTINUOUS
 62
     2
 10
689.6207938489265
 20
331.0259398252557
 30
0.0
 40
3.0000000000000031
 50
75.000000000005556
 51
14.999999999994451
  0
CIRCLE
  5
F86
  8
0
  6
CONTINUOUS
 10
727.6207938489265
 20
331.0259398252557
 30
0.0
 40
2.5
  0
ARC
  5
F87
  8
0
  6
CONTINUOUS
 62
     2
 10
727.6207938489265
 20
331.0259398252557
 30
0.0
 40
3.0000000000000031
 50
75.000000000005556
 51
14.999999999994451
  0
CIRCLE
  5
F88
  8
0
  6
CONTINUOUS
 10
727.6207938489265
 20
293.0259398252557
 30
0.0
 40
2.5
  0
ARC
  5
F89
  8
0
  6
CONTINUOUS
 62
     2
 10
727.6207938489265
 20
293.0259398252557
 30
0.0
 40
3.0000000000000031
 50
75.000000000005556
 51
14.999999999994451
  0
CIRCLE
  5
F8A
  8
0
  6
CONTINUOUS
 10
689.6207938489265
 20
293.0259398252557
 30
0.0
 40
2.5
  0
ARC
  5
F8B
  8
0
  6
CONTINUOUS
 62
     2
 10
689.6207938489265
 20
293.0259398252557
 30
0.0
 40
3.0000000000000031
 50
75.000000000005556
 51
14.999999999994451
  0
LINE
  5
F8C
  8
CENTER
  6
CENTER
 10
321.76071555780851
 20
418.84074945041908
 30
0.0
 11
321.76071555780851
 21
437.22879179265021
 31
0.0
  0
LINE
  5
F8D
  8
HIDDEN
  6
HIDDEN
 10
304.26071555780851
 20
465.88355885264451
 30
0.0
 11
304.26071555780851
 21
471.8835588526444
 31
0.0
  0
LINE
  5
F8E
  8
HIDDEN
  6
HIDDEN
 10
316.26071555780851
 20
471.28355885264438
 30
0.0
 11
317.64635620386372
 21
468.88355885264451
 31
0.0
  0
LINE
  5
F8F
  8
HIDDEN
  6
HIDDEN
 10
316.26071555780851
 20
466.48355885264448
 30
0.0
 11
316.26071555780851
 21
471.28355885264438
 31
0.0
  0
LINE
  5
F90
  8
HIDDEN
  6
HIDDEN
 10
316.26071555780851
 20
466.48355885264448
 30
0.0
 11
317.64635620386372
 21
468.88355885264451
 31
0.0
  0
LINE
  5
F91
  8
HIDDEN
  6
HIDDEN
 10
313.26071555780851
 20
465.88355885264451
 30
0.0
 11
313.26071555780851
 21
471.8835588526444
 31
0.0
  0
LINE
  5
F92
  8
HIDDEN
  6
HIDDEN
 10
304.26071555780851
 20
466.48355885264448
 30
0.0
 11
316.26071555780851
 21
466.48355885264448
 31
0.0
  0
LINE
  5
F93
  8
HIDDEN
  6
HIDDEN
 10
304.26071555780851
 20
471.28355885264438
 30
0.0
 11
316.26071555780851
 21
471.28355885264438
 31
0.0
  0
LINE
  5
F94
  8
HIDDEN
  6
HIDDEN
 10
298.26071555780851
 20
465.88355885264451
 30
0.0
 11
313.26071555780851
 21
465.88355885264451
 31
0.0
  0
LINE
  5
F95
  8
HIDDEN
  6
HIDDEN
 10
298.26071555780851
 20
471.8835588526444
 30
0.0
 11
313.26071555780851
 21
471.8835588526444
 31
0.0
  0
LINE
  5
F96
  8
HIDDEN
  6
HIDDEN
 10
304.26071555780851
 20
427.88355885264451
 30
0.0
 11
304.26071555780851
 21
433.8835588526444
 31
0.0
  0
LINE
  5
F97
  8
HIDDEN
  6
HIDDEN
 10
313.26071555780851
 20
427.88355885264451
 30
0.0
 11
313.26071555780851
 21
433.8835588526444
 31
0.0
  0
LINE
  5
F98
  8
HIDDEN
  6
HIDDEN
 10
316.26071555780851
 20
433.28355885264438
 30
0.0
 11
317.64635620386372
 21
430.88355885264451
 31
0.0
  0
LINE
  5
F99
  8
HIDDEN
  6
HIDDEN
 10
316.26071555780851
 20
428.48355885264442
 30
0.0
 11
317.64635620386372
 21
430.88355885264451
 31
0.0
  0
LINE
  5
F9A
  8
HIDDEN
  6
HIDDEN
 10
316.26071555780851
 20
428.48355885264442
 30
0.0
 11
316.26071555780851
 21
433.28355885264438
 31
0.0
  0
LINE
  5
F9B
  8
HIDDEN
  6
HIDDEN
 10
304.26071555780851
 20
433.28355885264438
 30
0.0
 11
316.26071555780851
 21
433.28355885264438
 31
0.0
  0
LINE
  5
F9C
  8
HIDDEN
  6
HIDDEN
 10
304.26071555780851
 20
428.48355885264442
 30
0.0
 11
316.26071555780851
 21
428.48355885264442
 31
0.0
  0
LINE
  5
F9D
  8
HIDDEN
  6
HIDDEN
 10
298.26071555780851
 20
433.8835588526444
 30
0.0
 11
313.26071555780851
 21
433.8835588526444
 31
0.0
  0
LINE
  5
F9E
  8
HIDDEN
  6
HIDDEN
 10
298.26071555780851
 20
427.88355885264451
 30
0.0
 11
313.26071555780851
 21
427.88355885264451
 31
0.0
  0
LINE
  5
F9F
  8
CENTER
  6
CENTER
 10
313.26071555780851
 20
419.2816872242945
 30
0.0
 11
313.26071555780851
 21
437.25422737998531
 31
0.0
  0
LINE
  5
FA0
  8
CENTER
  6
CENTER
 10
295.17316544975722
 20
468.88355885264451
 30
0.0
 11
329.26071555780851
 21
468.88355885264451
 31
0.0
  0
LINE
  5
FA1
  8
CENTER
  6
CENTER
 10
295.83758541950021
 20
430.88355885264451
 30
0.0
 11
329.26071555780851
 21
430.88355885264451
 31
0.0
  0
LINE
  5
FA2
  8
0
 10
624.26071555780857
 20
210.6460982339463
 30
0.0
 11
627.26071555780868
 21
210.6460982339463
 31
0.0
  0
LINE
  5
FA3
  8
HIDDEN
  6
HIDDEN
 10
304.26071555780851
 20
328.0259398252557
 30
0.0
 11
304.26071555780851
 21
334.0259398252557
 31
0.0
  0
LINE
  5
FA4
  8
HIDDEN
  6
HIDDEN
 10
316.26071555780851
 20
333.42593982525568
 30
0.0
 11
317.64635620386372
 21
331.0259398252557
 31
0.0
  0
LINE
  5
FA5
  8
HIDDEN
  6
HIDDEN
 10
316.26071555780851
 20
328.62593982525573
 30
0.0
 11
316.26071555780851
 21
333.42593982525568
 31
0.0
  0
LINE
  5
FA6
  8
HIDDEN
  6
HIDDEN
 10
316.26071555780851
 20
328.62593982525573
 30
0.0
 11
317.64635620386372
 21
331.0259398252557
 31
0.0
  0
LINE
  5
FA7
  8
HIDDEN
  6
HIDDEN
 10
313.26071555780851
 20
328.0259398252557
 30
0.0
 11
313.26071555780851
 21
334.0259398252557
 31
0.0
  0
LINE
  5
FA8
  8
HIDDEN
  6
HIDDEN
 10
304.26071555780851
 20
328.62593982525573
 30
0.0
 11
316.26071555780851
 21
328.62593982525573
 31
0.0
  0
LINE
  5
FA9
  8
HIDDEN
  6
HIDDEN
 10
304.26071555780851
 20
333.42593982525568
 30
0.0
 11
316.26071555780851
 21
333.42593982525568
 31
0.0
  0
LINE
  5
FAA
  8
HIDDEN
  6
HIDDEN
 10
298.26071555780851
 20
328.0259398252557
 30
0.0
 11
313.26071555780851
 21
328.0259398252557
 31
0.0
  0
LINE
  5
FAB
  8
HIDDEN
  6
HIDDEN
 10
298.26071555780851
 20
334.0259398252557
 30
0.0
 11
313.26071555780851
 21
334.0259398252557
 31
0.0
  0
LINE
  5
FAC
  8
HIDDEN
  6
HIDDEN
 10
304.26071555780851
 20
290.0259398252557
 30
0.0
 11
304.26071555780851
 21
296.0259398252557
 31
0.0
  0
LINE
  5
FAD
  8
HIDDEN
  6
HIDDEN
 10
313.26071555780851
 20
290.0259398252557
 30
0.0
 11
313.26071555780851
 21
296.0259398252557
 31
0.0
  0
LINE
  5
FAE
  8
HIDDEN
  6
HIDDEN
 10
316.26071555780851
 20
295.42593982525568
 30
0.0
 11
317.64635620386372
 21
293.0259398252557
 31
0.0
  0
LINE
  5
FAF
  8
HIDDEN
  6
HIDDEN
 10
316.26071555780851
 20
290.62593982525561
 30
0.0
 11
317.64635620386372
 21
293.0259398252557
 31
0.0
  0
LINE
  5
FB0
  8
HIDDEN
  6
HIDDEN
 10
316.26071555780851
 20
290.62593982525561
 30
0.0
 11
316.26071555780851
 21
295.42593982525568
 31
0.0
  0
LINE
  5
FB1
  8
HIDDEN
  6
HIDDEN
 10
304.26071555780851
 20
295.42593982525568
 30
0.0
 11
316.26071555780851
 21
295.42593982525568
 31
0.0
  0
LINE
  5
FB2
  8
HIDDEN
  6
HIDDEN
 10
304.26071555780851
 20
290.62593982525561
 30
0.0
 11
316.26071555780851
 21
290.62593982525561
 31
0.0
  0
LINE
  5
FB3
  8
HIDDEN
  6
HIDDEN
 10
298.26071555780851
 20
296.0259398252557
 30
0.0
 11
313.26071555780851
 21
296.0259398252557
 31
0.0
  0
LINE
  5
FB4
  8
HIDDEN
  6
HIDDEN
 10
298.26071555780851
 20
290.0259398252557
 30
0.0
 11
313.26071555780851
 21
290.0259398252557
 31
0.0
  0
LINE
  5
FB5
  8
CENTER
  6
CENTER
 10
295.17316544975711
 20
331.0259398252557
 30
0.0
 11
329.26071555780851
 21
331.0259398252557
 31
0.0
  0
LINE
  5
FB6
  8
CENTER
  6
CENTER
 10
295.8375854195001
 20
293.0259398252557
 30
0.0
 11
329.26071555780851
 21
293.0259398252557
 31
0.0
  0
LINE
  5
FB7
  8
HIDDEN
  6
HIDDEN
 10
304.26071555780851
 20
209.1460982339463
 30
0.0
 11
304.26071555780851
 21
215.1460982339463
 31
0.0
  0
LINE
  5
FB8
  8
HIDDEN
  6
HIDDEN
 10
316.26071555780851
 20
214.54609823394631
 30
0.0
 11
317.64635620386372
 21
212.1460982339463
 31
0.0
  0
LINE
  5
FB9
  8
HIDDEN
  6
HIDDEN
 10
316.26071555780851
 20
209.7460982339463
 30
0.0
 11
316.26071555780851
 21
214.54609823394631
 31
0.0
  0
LINE
  5
FBA
  8
HIDDEN
  6
HIDDEN
 10
316.26071555780851
 20
209.7460982339463
 30
0.0
 11
317.64635620386372
 21
212.1460982339463
 31
0.0
  0
LINE
  5
FBB
  8
HIDDEN
  6
HIDDEN
 10
313.26071555780851
 20
209.1460982339463
 30
0.0
 11
313.26071555780851
 21
215.1460982339463
 31
0.0
  0
LINE
  5
FBC
  8
HIDDEN
  6
HIDDEN
 10
304.26071555780851
 20
209.7460982339463
 30
0.0
 11
316.26071555780851
 21
209.7460982339463
 31
0.0
  0
LINE
  5
FBD
  8
HIDDEN
  6
HIDDEN
 10
304.26071555780851
 20
214.54609823394631
 30
0.0
 11
316.26071555780851
 21
214.54609823394631
 31
0.0
  0
LINE
  5
FBE
  8
HIDDEN
  6
HIDDEN
 10
298.26071555780851
 20
209.1460982339463
 30
0.0
 11
313.26071555780851
 21
209.1460982339463
 31
0.0
  0
LINE
  5
FBF
  8
HIDDEN
  6
HIDDEN
 10
298.26071555780851
 20
215.1460982339463
 30
0.0
 11
313.26071555780851
 21
215.1460982339463
 31
0.0
  0
LINE
  5
FC0
  8
HIDDEN
  6
HIDDEN
 10
304.26071555780851
 20
171.1460982339463
 30
0.0
 11
304.26071555780851
 21
177.1460982339463
 31
0.0
  0
LINE
  5
FC1
  8
HIDDEN
  6
HIDDEN
 10
313.26071555780851
 20
171.1460982339463
 30
0.0
 11
313.26071555780851
 21
177.1460982339463
 31
0.0
  0
LINE
  5
FC2
  8
HIDDEN
  6
HIDDEN
 10
316.26071555780851
 20
176.54609823394631
 30
0.0
 11
317.64635620386372
 21
174.1460982339463
 31
0.0
  0
LINE
  5
FC3
  8
HIDDEN
  6
HIDDEN
 10
316.26071555780851
 20
171.74609823394621
 30
0.0
 11
317.64635620386372
 21
174.1460982339463
 31
0.0
  0
LINE
  5
FC4
  8
HIDDEN
  6
HIDDEN
 10
316.26071555780851
 20
171.74609823394621
 30
0.0
 11
316.26071555780851
 21
176.54609823394631
 31
0.0
  0
LINE
  5
FC5
  8
HIDDEN
  6
HIDDEN
 10
304.26071555780851
 20
176.54609823394631
 30
0.0
 11
316.26071555780851
 21
176.54609823394631
 31
0.0
  0
LINE
  5
FC6
  8
HIDDEN
  6
HIDDEN
 10
304.26071555780851
 20
171.74609823394621
 30
0.0
 11
316.26071555780851
 21
171.74609823394621
 31
0.0
  0
LINE
  5
FC7
  8
HIDDEN
  6
HIDDEN
 10
298.26071555780851
 20
177.1460982339463
 30
0.0
 11
313.26071555780851
 21
177.1460982339463
 31
0.0
  0
LINE
  5
FC8
  8
HIDDEN
  6
HIDDEN
 10
298.26071555780851
 20
171.1460982339463
 30
0.0
 11
313.26071555780851
 21
171.1460982339463
 31
0.0
  0
LINE
  5
FC9
  8
CENTER
  6
CENTER
 10
295.17316544975722
 20
212.1460982339463
 30
0.0
 11
329.26071555780851
 21
212.1460982339463
 31
0.0
  0
LINE
  5
FCA
  8
CENTER
  6
CENTER
 10
295.83758541950021
 20
174.1460982339463
 30
0.0
 11
329.26071555780851
 21
174.1460982339463
 31
0.0
  0
LINE
  5
FCB
  8
CENTER
  6
CENTER
 10
321.76071555780851
 20
224.18890763617171
 30
0.0
 11
321.76071555780851
 21
205.8008652939406
 31
0.0
  0
LINE
  5
FCC
  8
CENTER
  6
CENTER
 10
313.26071555780851
 20
223.74796986229629
 30
0.0
 11
313.26071555780851
 21
205.77542970660551
 31
0.0
  0
LINE
  5
FCD
  8
HIDDEN
  6
HIDDEN
 10
618.26071555780868
 20
328.0259398252557
 30
0.0
 11
618.26071555780868
 21
334.0259398252557
 31
0.0
  0
LINE
  5
FCE
  8
HIDDEN
  6
HIDDEN
 10
606.26071555780868
 20
333.42593982525568
 30
0.0
 11
604.87507491175347
 21
331.0259398252557
 31
0.0
  0
LINE
  5
FCF
  8
HIDDEN
  6
HIDDEN
 10
606.26071555780868
 20
328.62593982525573
 30
0.0
 11
606.26071555780868
 21
333.42593982525568
 31
0.0
  0
LINE
  5
FD0
  8
HIDDEN
  6
HIDDEN
 10
606.26071555780868
 20
328.62593982525573
 30
0.0
 11
604.87507491175347
 21
331.0259398252557
 31
0.0
  0
LINE
  5
FD1
  8
HIDDEN
  6
HIDDEN
 10
609.26071555780857
 20
328.0259398252557
 30
0.0
 11
609.26071555780857
 21
334.0259398252557
 31
0.0
  0
LINE
  5
FD2
  8
HIDDEN
  6
HIDDEN
 10
618.26071555780868
 20
328.62593982525573
 30
0.0
 11
606.26071555780868
 21
328.62593982525573
 31
0.0
  0
LINE
  5
FD3
  8
HIDDEN
  6
HIDDEN
 10
618.26071555780868
 20
333.42593982525568
 30
0.0
 11
606.26071555780868
 21
333.42593982525568
 31
0.0
  0
LINE
  5
FD4
  8
HIDDEN
  6
HIDDEN
 10
624.26071555780857
 20
328.0259398252557
 30
0.0
 11
609.26071555780857
 21
328.0259398252557
 31
0.0
  0
LINE
  5
FD5
  8
HIDDEN
  6
HIDDEN
 10
624.26071555780857
 20
334.0259398252557
 30
0.0
 11
609.26071555780857
 21
334.0259398252557
 31
0.0
  0
LINE
  5
FD6
  8
HIDDEN
  6
HIDDEN
 10
618.26071555780868
 20
290.0259398252557
 30
0.0
 11
618.26071555780868
 21
296.0259398252557
 31
0.0
  0
LINE
  5
FD7
  8
HIDDEN
  6
HIDDEN
 10
609.26071555780857
 20
290.0259398252557
 30
0.0
 11
609.26071555780857
 21
296.0259398252557
 31
0.0
  0
LINE
  5
FD8
  8
HIDDEN
  6
HIDDEN
 10
606.26071555780868
 20
295.42593982525568
 30
0.0
 11
604.87507491175347
 21
293.0259398252557
 31
0.0
  0
LINE
  5
FD9
  8
HIDDEN
  6
HIDDEN
 10
606.26071555780868
 20
290.62593982525561
 30
0.0
 11
604.87507491175347
 21
293.0259398252557
 31
0.0
  0
LINE
  5
FDA
  8
HIDDEN
  6
HIDDEN
 10
606.26071555780868
 20
290.62593982525561
 30
0.0
 11
606.26071555780868
 21
295.42593982525568
 31
0.0
  0
LINE
  5
FDB
  8
HIDDEN
  6
HIDDEN
 10
618.26071555780868
 20
295.42593982525568
 30
0.0
 11
606.26071555780868
 21
295.42593982525568
 31
0.0
  0
LINE
  5
FDC
  8
HIDDEN
  6
HIDDEN
 10
618.26071555780868
 20
290.62593982525561
 30
0.0
 11
606.26071555780868
 21
290.62593982525561
 31
0.0
  0
LINE
  5
FDD
  8
HIDDEN
  6
HIDDEN
 10
624.26071555780857
 20
296.0259398252557
 30
0.0
 11
609.26071555780857
 21
296.0259398252557
 31
0.0
  0
LINE
  5
FDE
  8
HIDDEN
  6
HIDDEN
 10
624.26071555780857
 20
290.0259398252557
 30
0.0
 11
609.26071555780857
 21
290.0259398252557
 31
0.0
  0
LINE
  5
FDF
  8
CENTER
  6
CENTER
 10
627.34826566586003
 20
331.0259398252557
 30
0.0
 11
593.26071555780868
 21
331.0259398252557
 31
0.0
  0
LINE
  5
FE0
  8
CENTER
  6
CENTER
 10
626.68384569611703
 20
293.0259398252557
 30
0.0
 11
593.26071555780868
 21
293.0259398252557
 31
0.0
  0
LINE
  5
FE1
  8
HIDDEN
  6
HIDDEN
 10
618.26071555780868
 20
209.1460982339463
 30
0.0
 11
618.26071555780868
 21
215.1460982339463
 31
0.0
  0
LINE
  5
FE2
  8
HIDDEN
  6
HIDDEN
 10
606.26071555780868
 20
214.54609823394631
 30
0.0
 11
604.87507491175347
 21
212.1460982339463
 31
0.0
  0
LINE
  5
FE3
  8
HIDDEN
  6
HIDDEN
 10
606.26071555780868
 20
209.7460982339463
 30
0.0
 11
606.26071555780868
 21
214.54609823394631
 31
0.0
  0
LINE
  5
FE4
  8
HIDDEN
  6
HIDDEN
 10
606.26071555780868
 20
209.7460982339463
 30
0.0
 11
604.87507491175347
 21
212.1460982339463
 31
0.0
  0
LINE
  5
FE5
  8
HIDDEN
  6
HIDDEN
 10
609.26071555780857
 20
209.1460982339463
 30
0.0
 11
609.26071555780857
 21
215.1460982339463
 31
0.0
  0
LINE
  5
FE6
  8
HIDDEN
  6
HIDDEN
 10
618.26071555780868
 20
209.7460982339463
 30
0.0
 11
606.26071555780868
 21
209.7460982339463
 31
0.0
  0
LINE
  5
FE7
  8
HIDDEN
  6
HIDDEN
 10
618.26071555780868
 20
214.54609823394631
 30
0.0
 11
606.26071555780868
 21
214.54609823394631
 31
0.0
  0
LINE
  5
FE8
  8
HIDDEN
  6
HIDDEN
 10
624.26071555780857
 20
209.1460982339463
 30
0.0
 11
609.26071555780857
 21
209.1460982339463
 31
0.0
  0
LINE
  5
FE9
  8
HIDDEN
  6
HIDDEN
 10
624.26071555780857
 20
215.1460982339463
 30
0.0
 11
609.26071555780857
 21
215.1460982339463
 31
0.0
  0
LINE
  5
FEA
  8
HIDDEN
  6
HIDDEN
 10
618.26071555780868
 20
171.1460982339463
 30
0.0
 11
618.26071555780868
 21
177.1460982339463
 31
0.0
  0
LINE
  5
FEB
  8
HIDDEN
  6
HIDDEN
 10
609.26071555780857
 20
171.1460982339463
 30
0.0
 11
609.26071555780857
 21
177.1460982339463
 31
0.0
  0
LINE
  5
FEC
  8
HIDDEN
  6
HIDDEN
 10
606.26071555780868
 20
176.54609823394631
 30
0.0
 11
604.87507491175347
 21
174.1460982339463
 31
0.0
  0
LINE
  5
FED
  8
HIDDEN
  6
HIDDEN
 10
606.26071555780868
 20
171.74609823394621
 30
0.0
 11
604.87507491175347
 21
174.1460982339463
 31
0.0
  0
LINE
  5
FEE
  8
HIDDEN
  6
HIDDEN
 10
606.26071555780868
 20
171.74609823394621
 30
0.0
 11
606.26071555780868
 21
176.54609823394631
 31
0.0
  0
LINE
  5
FEF
  8
HIDDEN
  6
HIDDEN
 10
618.26071555780868
 20
176.54609823394631
 30
0.0
 11
606.26071555780868
 21
176.54609823394631
 31
0.0
  0
LINE
  5
FF0
  8
HIDDEN
  6
HIDDEN
 10
618.26071555780868
 20
171.74609823394621
 30
0.0
 11
606.26071555780868
 21
171.74609823394621
 31
0.0
  0
LINE
  5
FF1
  8
HIDDEN
  6
HIDDEN
 10
624.26071555780857
 20
177.1460982339463
 30
0.0
 11
609.26071555780857
 21
177.1460982339463
 31
0.0
  0
LINE
  5
FF2
  8
HIDDEN
  6
HIDDEN
 10
624.26071555780857
 20
171.1460982339463
 30
0.0
 11
609.26071555780857
 21
171.1460982339463
 31
0.0
  0
LINE
  5
FF3
  8
CENTER
  6
CENTER
 10
627.34826566586003
 20
212.1460982339463
 30
0.0
 11
593.26071555780868
 21
212.1460982339463
 31
0.0
  0
LINE
  5
FF4
  8
CENTER
  6
CENTER
 10
626.68384569611703
 20
174.1460982339463
 30
0.0
 11
593.26071555780868
 21
174.1460982339463
 31
0.0
  0
LINE
  5
FF5
  8
CENTER
  6
CENTER
 10
600.76071555780857
 20
224.18890763617171
 30
0.0
 11
600.76071555780857
 21
205.8008652939406
 31
0.0
  0
LINE
  5
FF6
  8
CENTER
  6
CENTER
 10
609.26071555780857
 20
223.74796986229629
 30
0.0
 11
609.26071555780857
 21
205.77542970660551
 31
0.0
  0
CIRCLE
  5
FF7
  8
0
  6
CONTINUOUS
 10
461.26071555780862
 20
507.38355885264451
 30
0.0
 40
4.25
  0
CIRCLE
  5
FF8
  8
0
  6
CONTINUOUS
 10
461.26071555780862
 20
507.38355885264451
 30
0.0
 40
3.9035796766743651
  0
POLYLINE
  5
FF9
  8
0
  6
CONTINUOUS
 66
     1
 10
0.0
 20
0.0
 30
0.0
 70
     1
  0
VERTEX
  5
14DE
  8
0
  6
CONTINUOUS
 10
460.10601501942858
 20
509.3835588526444
 30
0.0
  0
VERTEX
  5
14DF
  8
0
  6
CONTINUOUS
 10
458.95131448105047
 20
507.38355885264451
 30
0.0
  0
VERTEX
  5
14E0
  8
0
  6
CONTINUOUS
 10
460.10601501942858
 20
505.38355885264451
 30
0.0
  0
VERTEX
  5
14E1
  8
0
  6
CONTINUOUS
 10
462.41541609618861
 20
505.38355885264451
 30
0.0
  0
VERTEX
  5
14E2
  8
0
  6
CONTINUOUS
 10
463.57011663456672
 20
507.38355885264451
 30
0.0
  0
VERTEX
  5
14E3
  8
0
  6
CONTINUOUS
 10
462.41541609618861
 20
509.3835588526444
 30
0.0
  0
SEQEND
  5
14E4
  8
0
  6
CONTINUOUS
  0
CIRCLE
  5
1001
  8
0
  6
CONTINUOUS
 10
461.26071555780862
 20
447.38355885264451
 30
0.0
 40
4.25
  0
CIRCLE
  5
1002
  8
0
  6
CONTINUOUS
 10
461.26071555780862
 20
447.38355885264451
 30
0.0
 40
3.9035796766743651
  0
POLYLINE
  5
1003
  8
0
  6
CONTINUOUS
 66
     1
 10
0.0
 20
0.0
 30
0.0
 70
     1
  0
VERTEX
  5
14E5
  8
0
  6
CONTINUOUS
 10
460.10601501942858
 20
449.38355885264451
 30
0.0
  0
VERTEX
  5
14E6
  8
0
  6
CONTINUOUS
 10
458.95131448105047
 20
447.38355885264451
 30
0.0
  0
VERTEX
  5
14E7
  8
0
  6
CONTINUOUS
 10
460.10601501942858
 20
445.38355885264451
 30
0.0
  0
VERTEX
  5
14E8
  8
0
  6
CONTINUOUS
 10
462.41541609618861
 20
445.38355885264451
 30
0.0
  0
VERTEX
  5
14E9
  8
0
  6
CONTINUOUS
 10
463.57011663456672
 20
447.38355885264451
 30
0.0
  0
VERTEX
  5
14EA
  8
0
  6
CONTINUOUS
 10
462.41541609618861
 20
449.38355885264451
 30
0.0
  0
SEQEND
  5
14EB
  8
0
  6
CONTINUOUS
  0
CIRCLE
  5
100B
  8
0
  6
CONTINUOUS
 10
431.26071555780862
 20
477.38355885264451
 30
0.0
 40
4.25
  0
CIRCLE
  5
100C
  8
0
  6
CONTINUOUS
 10
431.26071555780862
 20
477.38355885264451
 30
0.0
 40
3.9035796766743651
  0
POLYLINE
  5
100D
  8
0
  6
CONTINUOUS
 66
     1
 10
0.0
 20
0.0
 30
0.0
 70
     1
  0
VERTEX
  5
14EC
  8
0
  6
CONTINUOUS
 10
430.10601501942858
 20
479.3835588526444
 30
0.0
  0
VERTEX
  5
14ED
  8
0
  6
CONTINUOUS
 10
428.95131448105047
 20
477.38355885264451
 30
0.0
  0
VERTEX
  5
14EE
  8
0
  6
CONTINUOUS
 10
430.10601501942858
 20
475.3835588526444
 30
0.0
  0
VERTEX
  5
14EF
  8
0
  6
CONTINUOUS
 10
432.41541609618861
 20
475.3835588526444
 30
0.0
  0
VERTEX
  5
14F0
  8
0
  6
CONTINUOUS
 10
433.57011663456677
 20
477.38355885264451
 30
0.0
  0
VERTEX
  5
14F1
  8
0
  6
CONTINUOUS
 10
432.41541609618861
 20
479.3835588526444
 30
0.0
  0
SEQEND
  5
14F2
  8
0
  6
CONTINUOUS
  0
CIRCLE
  5
1015
  8
0
  6
CONTINUOUS
 10
491.26071555780851
 20
477.38355885264451
 30
0.0
 40
4.25
  0
CIRCLE
  5
1016
  8
0
  6
CONTINUOUS
 10
491.26071555780851
 20
477.38355885264451
 30
0.0
 40
3.9035796766743651
  0
POLYLINE
  5
1017
  8
0
  6
CONTINUOUS
 66
     1
 10
0.0
 20
0.0
 30
0.0
 70
     1
  0
VERTEX
  5
14F3
  8
0
  6
CONTINUOUS
 10
490.10601501942858
 20
479.3835588526444
 30
0.0
  0
VERTEX
  5
14F4
  8
0
  6
CONTINUOUS
 10
488.95131448105042
 20
477.38355885264451
 30
0.0
  0
VERTEX
  5
14F5
  8
0
  6
CONTINUOUS
 10
490.10601501942858
 20
475.3835588526444
 30
0.0
  0
VERTEX
  5
14F6
  8
0
  6
CONTINUOUS
 10
492.41541609618861
 20
475.3835588526444
 30
0.0
  0
VERTEX
  5
14F7
  8
0
  6
CONTINUOUS
 10
493.57011663456672
 20
477.38355885264451
 30
0.0
  0
VERTEX
  5
14F8
  8
0
  6
CONTINUOUS
 10
492.41541609618861
 20
479.3835588526444
 30
0.0
  0
SEQEND
  5
14F9
  8
0
  6
CONTINUOUS
  0
CIRCLE
  5
101F
  8
0
  6
CONTINUOUS
 10
461.26071555780862
 20
135.6460982339463
 30
0.0
 40
4.25
  0
CIRCLE
  5
1020
  8
0
  6
CONTINUOUS
 10
461.26071555780862
 20
135.6460982339463
 30
0.0
 40
3.9035796766743651
  0
POLYLINE
  5
1021
  8
0
  6
CONTINUOUS
 66
     1
 10
0.0
 20
0.0
 30
0.0
 70
     1
  0
VERTEX
  5
14FA
  8
0
  6
CONTINUOUS
 10
460.10601501942858
 20
133.6460982339463
 30
0.0
  0
VERTEX
  5
14FB
  8
0
  6
CONTINUOUS
 10
458.95131448105047
 20
135.6460982339463
 30
0.0
  0
VERTEX
  5
14FC
  8
0
  6
CONTINUOUS
 10
460.10601501942858
 20
137.6460982339463
 30
0.0
  0
VERTEX
  5
14FD
  8
0
  6
CONTINUOUS
 10
462.41541609618861
 20
137.6460982339463
 30
0.0
  0
VERTEX
  5
14FE
  8
0
  6
CONTINUOUS
 10
463.57011663456672
 20
135.6460982339463
 30
0.0
  0
VERTEX
  5
14FF
  8
0
  6
CONTINUOUS
 10
462.41541609618861
 20
133.6460982339463
 30
0.0
  0
SEQEND
  5
1500
  8
0
  6
CONTINUOUS
  0
CIRCLE
  5
1029
  8
0
  6
CONTINUOUS
 10
431.26071555780862
 20
165.6460982339463
 30
0.0
 40
4.25
  0
CIRCLE
  5
102A
  8
0
  6
CONTINUOUS
 10
431.26071555780862
 20
165.6460982339463
 30
0.0
 40
3.9035796766743651
  0
POLYLINE
  5
102B
  8
0
  6
CONTINUOUS
 66
     1
 10
0.0
 20
0.0
 30
0.0
 70
     1
  0
VERTEX
  5
1501
  8
0
  6
CONTINUOUS
 10
430.10601501942858
 20
163.6460982339463
 30
0.0
  0
VERTEX
  5
1502
  8
0
  6
CONTINUOUS
 10
428.95131448105047
 20
165.6460982339463
 30
0.0
  0
VERTEX
  5
1503
  8
0
  6
CONTINUOUS
 10
430.10601501942858
 20
167.6460982339463
 30
0.0
  0
VERTEX
  5
1504
  8
0
  6
CONTINUOUS
 10
432.41541609618861
 20
167.6460982339463
 30
0.0
  0
VERTEX
  5
1505
  8
0
  6
CONTINUOUS
 10
433.57011663456677
 20
165.6460982339463
 30
0.0
  0
VERTEX
  5
1506
  8
0
  6
CONTINUOUS
 10
432.41541609618861
 20
163.6460982339463
 30
0.0
  0
SEQEND
  5
1507
  8
0
  6
CONTINUOUS
  0
CIRCLE
  5
1033
  8
0
  6
CONTINUOUS
 10
461.26071555780862
 20
195.6460982339463
 30
0.0
 40
4.25
  0
CIRCLE
  5
1034
  8
0
  6
CONTINUOUS
 10
461.26071555780862
 20
195.6460982339463
 30
0.0
 40
3.9035796766743651
  0
POLYLINE
  5
1035
  8
0
  6
CONTINUOUS
 66
     1
 10
0.0
 20
0.0
 30
0.0
 70
     1
  0
VERTEX
  5
1508
  8
0
  6
CONTINUOUS
 10
460.10601501942858
 20
193.6460982339463
 30
0.0
  0
VERTEX
  5
1509
  8
0
  6
CONTINUOUS
 10
458.95131448105047
 20
195.6460982339463
 30
0.0
  0
VERTEX
  5
150A
  8
0
  6
CONTINUOUS
 10
460.10601501942858
 20
197.6460982339463
 30
0.0
  0
VERTEX
  5
150B
  8
0
  6
CONTINUOUS
 10
462.41541609618861
 20
197.6460982339463
 30
0.0
  0
VERTEX
  5
150C
  8
0
  6
CONTINUOUS
 10
463.57011663456672
 20
195.6460982339463
 30
0.0
  0
VERTEX
  5
150D
  8
0
  6
CONTINUOUS
 10
462.41541609618861
 20
193.6460982339463
 30
0.0
  0
SEQEND
  5
150E
  8
0
  6
CONTINUOUS
  0
CIRCLE
  5
103D
  8
0
  6
CONTINUOUS
 10
491.26071555780851
 20
165.6460982339463
 30
0.0
 40
4.25
  0
CIRCLE
  5
103E
  8
0
  6
CONTINUOUS
 10
491.26071555780851
 20
165.6460982339463
 30
0.0
 40
3.9035796766743651
  0
POLYLINE
  5
103F
  8
0
  6
CONTINUOUS
 66
     1
 10
0.0
 20
0.0
 30
0.0
 70
     1
  0
VERTEX
  5
150F
  8
0
  6
CONTINUOUS
 10
490.10601501942858
 20
163.6460982339463
 30
0.0
  0
VERTEX
  5
1510
  8
0
  6
CONTINUOUS
 10
488.95131448105042
 20
165.6460982339463
 30
0.0
  0
VERTEX
  5
1511
  8
0
  6
CONTINUOUS
 10
490.10601501942858
 20
167.6460982339463
 30
0.0
  0
VERTEX
  5
1512
  8
0
  6
CONTINUOUS
 10
492.41541609618861
 20
167.6460982339463
 30
0.0
  0
VERTEX
  5
1513
  8
0
  6
CONTINUOUS
 10
493.57011663456672
 20
165.6460982339463
 30
0.0
  0
VERTEX
  5
1514
  8
0
  6
CONTINUOUS
 10
492.41541609618861
 20
163.6460982339463
 30
0.0
  0
SEQEND
  5
1515
  8
0
  6
CONTINUOUS
  0
TEXT
  5
104B
  8
LOGO
 62
     6
 10
726.59193219389454
 20
6.8107479689317207
 30
0.0
 40
14.663067554990709
  1
作動角度
 41
0.9
  7
CHINESET
 72
     4
 11
752.98545379287782
 21
13.68466222504634
 31
0.0
  0
LINE
  5
104C
  8
LOGO
 62
     6
 10
790.84992642476072
 20
-13.80858944056113
 30
0.0
 11
715.12098116099492
 21
-13.80858944056123
 31
0.0
  0
LINE
  5
104D
  8
LOGO
 62
     6
 10
790.84992642476072
 20
26.514846335663321
 30
0.0
 11
715.12098116099492
 21
26.514846335663321
 31
0.0
  0
TEXT
  5
104E
  8
LOGO
  6
CONTINUOUS
 62
     6
 10
718.42250884182829
 20
-7.6989779593151138
 30
0.0
 40
9.1644172218691935
  1
Rotary angle
 41
0.8
  7
CHINESET
 72
     4
 11
752.98545379287782
 21
-4.6441722186920478
 31
0.0
  0
TEXT
  5
104F
  8
LOGO
  6
CONTINUOUS
 62
     7
 10
732.876104475293
 20
50.134480974980427
 30
0.0
 40
18.32883444373838
  1
180
  7
CHINESET
 72
     1
 11
754.69614547974345
 21
59.29889819684962
 31
0.0
 73
     2
  0
LINE
  5
1050
  8
LOGO
 62
     6
 10
783.51839264726527
 20
76.002699333756979
 30
0.0
 11
722.45251493849025
 21
76.002699333756979
 31
0.0
  0
LINE
  5
1051
  8
LOGO
 62
     6
 10
783.51839264726527
 20
43.010797335027839
 30
0.0
 11
722.45251493849025
 21
43.010797335027867
 31
0.0
  0
LINE
  5
1052
  8
LOGO
 62
     1
 10
809.99999999999989
 20
87.0
 30
0.0
 11
130.0
 21
87.0
 31
0.0
  0
LINE
  5
1053
  8
LOGO
 62
     1
 10
809.99999999999989
 20
-22.973006662430318
 30
0.0
 11
130.0
 21
-22.973006662430318
 31
0.0
  0
LINE
  5
1054
  8
LOGO
  6
CONTINUOUS
 62
     6
 10
339.09654533049962
 20
57.772836935849412
 30
0.0
 11
359.11406800747437
 21
60.416912921971658
 31
0.0
  0
LINE
  5
1055
  8
LOGO
  6
CONTINUOUS
 62
     6
 10
339.09654533049962
 20
50.290405679894988
 30
0.0
 11
359.11406800747437
 21
47.646329693772742
 31
0.0
  0
LINE
  5
1056
  8
LOGO
 62
     1
 10
371.9406146573466
 20
65.005398667513944
 30
0.0
 11
210.64687155244891
 21
65.005398667513944
 31
0.0
  0
LINE
  5
1057
  8
LOGO
 62
     1
 10
371.9406146573466
 20
43.010797335027867
 30
0.0
 11
210.64687155244891
 21
43.010797335027867
 31
0.0
  0
TEXT
  5
1058
  8
LOGO
 62
     6
 10
315.1230411907606
 20
70.504049000635462
 30
0.0
 40
10.99730066624303
  1
1 : 1
  7
CHINESET
 72
     1
 11
334.49923760271253
 21
76.002699333756979
 31
0.0
 73
     2
  0
TEXT
  5
1059
  8
LOGO
 62
     6
 10
315.1230411907606
 20
26.514846335663329
 30
0.0
 40
10.99730066624303
  1
m/m
  7
CHINESET
 72
     1
 11
334.49923760271253
 21
32.013496668784839
 31
0.0
 73
     2
  0
LINE
  5
105A
  8
LOGO
 62
     1
 10
371.9406146573466
 20
21.016196002541928
 30
0.0
 11
129.9999999999998
 21
21.016196002541928
 31
0.0
  0
TEXT
  5
105B
  8
LOGO
  6
CONTINUOUS
 62
     5
 10
133.5996021876534
 20
-1.3689754673336261
 30
0.0
 40
16.495950999364549
  1
金器工業股份有限公司
 41
0.8
  7
LOGO
  0
TEXT
  5
105C
  8
LOGO
  6
CONTINUOUS
 62
     5
 10
138.323047612972
 20
-17.868158379761539
 30
0.0
 40
10.99730066624303
  1
MINDMAN INDUSTRIAL CO.,LTD
 41
0.85
  7
CHINESET
  0
SOLID
  5
105D
  8
LOGO
 62
     5
 10
141.40987593447949
 20
39.297643017684862
 30
0.0
 11
146.16482017339331
 21
39.297643017683292
 31
0.0
 12
166.0044151012774
 22
84.387631490146177
 32
0.0
 13
170.7593593401908
 23
84.387631490143036
 33
0.0
  0
SOLID
  5
105E
  8
LOGO
 62
     5
 10
148.13238330674
 20
39.297643017684862
 30
0.0
 11
152.88732754565331
 21
39.297643017684862
 31
0.0
 12
170.7593593401908
 22
80.780432412347622
 32
0.0
 13
166.0044151012774
 23
63.34563686966203
 33
0.0
  0
SOLID
  5
105F
  8
LOGO
 62
     2
 10
146.16482017339331
 20
39.297643017683292
 30
0.0
 11
148.13238330674
 21
39.297643017684862
 31
0.0
 12
170.7593593401908
 22
84.387631490143036
 32
0.0
 13
172.72692247353589
 23
84.387631490143036
 33
0.0
  0
SOLID
  5
1060
  8
LOGO
 62
     5
 10
146.30049103053511
 20
31.099463295419039
 30
0.0
 11
147.94012697498661
 21
31.099463295419039
 31
0.0
 12
146.30049103053511
 22
22.90128357315475
 32
0.0
 13
147.94012697498661
 23
22.90128357315475
 33
0.0
  0
SOLID
  5
1061
  8
LOGO
 62
     5
 10
133.78653426433979
 20
22.90128357315475
 30
0.0
 11
135.4261702087947
 21
22.90128357315475
 31
0.0
 12
140.04351264743639
 22
31.099463295419039
 32
0.0
 13
141.68314859188831
 23
31.099463295419039
 33
0.0
  0
SOLID
  5
1062
  8
LOGO
 62
     5
 10
140.04351264743639
 20
31.099463295419039
 30
0.0
 11
141.68314859188831
 21
31.099463295419039
 31
0.0
 12
140.04351264743639
 22
22.90128357315475
 32
0.0
 13
141.68314859188831
 23
22.90128357315475
 33
0.0
  0
SOLID
  5
1063
  8
LOGO
 62
     5
 10
140.04351264743639
 20
22.90128357315475
 30
0.0
 11
141.68314859188831
 21
22.90128357315475
 31
0.0
 12
146.30049103053511
 22
31.099463295419039
 32
0.0
 13
147.94012697498661
 23
31.099463295419039
 33
0.0
  0
LINE
  5
1064
  8
LOGO
 62
     1
 10
130.0
 20
-22.973006662430318
 30
0.0
 11
130.0
 21
87.0
 31
0.0
  0
TEXT
  5
1065
  8
LOGO
 62
     6
 10
219.71473509287341
 20
70.509461058049951
 30
0.0
 40
10.99730066624303
  1
比例 Scale:
 41
0.9
  7
CHINESET
 72
     4
 11
254.636074217421
 21
76.002699333756979
 31
0.0
  0
TEXT
  5
1066
  8
LOGO
 62
     6
 10
223.55888081683241
 20
48.66414230924687
 30
0.0
 40
10.99730066624303
  1
投影 View:
 41
0.9
  7
CHINESET
 72
     4
 11
254.636074217421
 21
54.008098001270888
 31
0.0
  0
TEXT
  5
1067
  8
LOGO
 62
     6
 10
224.63406333732681
 20
26.514846335663329
 30
0.0
 40
10.99730066624303
  1
單位 Unit:
 41
0.9
  7
CHINESET
 72
     4
 11
254.636074217421
 21
32.013496668784839
 31
0.0
  0
POLYLINE
  5
1068
  8
LOGO
 62
     5
 66
     1
 10
0.0
 20
0.0
 30
0.0
 70
     1
 40
1.6422635661589591
 41
1.6422635661589591
  0
VERTEX
  5
1516
  8
LOGO
 62
     5
 10
186.22144581518259
 20
27.000373434286072
 30
0.0
 42
1.0
  0
VERTEX
  5
1517
  8
LOGO
 62
     5
 10
192.79050007981829
 20
27.000373434286072
 30
0.0
 42
1.0
  0
SEQEND
  5
1518
  8
LOGO
 62
     5
  0
LINE
  5
1069
  8
LOGO
 62
     5
 10
202.07640587924519
 20
22.90128357315475
 30
0.0
 11
202.07640587924519
 21
27.820191406512659
 31
0.0
  0
SOLID
  5
106A
  8
LOGO
 62
     5
 10
191.96526290058941
 20
31.099463295419039
 30
0.0
 11
193.60489884504111
 21
31.099463295419039
 31
0.0
 12
191.96526290058941
 22
22.90128357315475
 32
0.0
 13
193.60489884504111
 23
22.90128357315475
 33
0.0
  0
SOLID
  5
106B
  8
LOGO
 62
     5
 10
195.5178621014326
 20
22.90128357315475
 30
0.0
 11
197.15749804588719
 21
22.90128357315475
 31
0.0
 12
195.5178621014326
 22
31.099463295419039
 32
0.0
 13
197.15749804588719
 23
31.099463295419039
 33
0.0
  0
SOLID
  5
106C
  8
LOGO
 62
     5
 10
200.4367699347938
 20
27.820191406512659
 30
0.0
 11
202.07640587924519
 21
27.82019140651245
 31
0.0
 12
200.4367699347938
 22
22.90128357315475
 32
0.0
 13
202.07640587924519
 23
22.90128357315475
 33
0.0
  0
SOLID
  5
106D
  8
LOGO
 62
     5
 10
168.46370505436369
 20
33.558917212099551
 30
0.0
 11
170.10334099881521
 21
33.558917212099551
 31
0.0
 12
168.46370505436369
 22
22.90128357315475
 32
0.0
 13
170.10334099881521
 23
22.90128357315475
 33
0.0
  0
SOLID
  5
106E
  8
LOGO
 62
     5
 10
172.01630425521151
 20
31.099463295419039
 30
0.0
 11
173.65594019966321
 21
31.099463295419039
 31
0.0
 12
172.01630425521151
 22
22.90128357315475
 32
0.0
 13
173.65594019966321
 23
22.90128357315475
 33
0.0
  0
SOLID
  5
106F
  8
LOGO
 62
     5
 10
176.9352120885695
 20
27.820191406512659
 30
0.0
 11
178.5748480330212
 21
27.820191406512659
 31
0.0
 12
176.9352120885695
 22
22.90128357315475
 32
0.0
 13
178.5748480330212
 23
22.90128357315475
 33
0.0
  0
SOLID
  5
1070
  8
LOGO
 62
     5
 10
181.85411992192769
 20
27.820191406512659
 30
0.0
 11
183.49375586637919
 21
27.820191406512659
 31
0.0
 12
181.85411992192769
 22
22.90128357315162
 32
0.0
 13
183.49375586637919
 23
22.90128357315162
 33
0.0
  0
LINE
  5
1071
  8
LOGO
 62
     1
 10
210.64687155244891
 20
21.0161960025418
 30
0.0
 11
210.64687155244891
 21
87.0
 31
0.0
  0
SOLID
  5
1072
  8
LOGO
 62
     5
 10
153.43365424234551
 20
31.099463295419039
 30
0.0
 11
155.0732901867969
 21
31.099463295419039
 31
0.0
 12
153.43365424234551
 22
22.90128357315475
 32
0.0
 13
155.0732901867969
 23
22.90128357315475
 33
0.0
  0
SOLID
  5
1073
  8
LOGO
 62
     5
 10
158.3525620757031
 20
27.820191406512659
 30
0.0
 11
159.9921980201577
 21
27.820191406512659
 31
0.0
 12
158.3525620757031
 22
22.90128357315475
 32
0.0
 13
159.9921980201577
 23
22.90128357315475
 33
0.0
  0
SOLID
  5
1074
  8
LOGO
 62
     5
 10
149.88105504149721
 20
31.099463295419039
 30
0.0
 11
151.52069098595359
 21
31.099463295419039
 31
0.0
 12
149.88105504149721
 22
22.90128357315162
 32
0.0
 13
151.52069098595359
 23
22.90128357315475
 33
0.0
  0
POLYLINE
  5
1075
  8
LOGO
 62
     5
 66
     1
 10
0.0
 20
0.0
 30
0.0
 70
     1
 40
1.6422635661589591
 41
1.6422635661589591
  0
VERTEX
  5
1519
  8
LOGO
 62
     5
 10
162.7198879689584
 20
27.000373434286072
 30
0.0
 42
1.0
  0
VERTEX
  5
151A
  8
LOGO
 62
     5
 10
169.2889422335943
 20
27.000373434286072
 30
0.0
 42
1.0
  0
SEQEND
  5
151B
  8
LOGO
 62
     5
  0
POLYLINE
  5
1076
  8
LOGO
 62
     5
 66
     1
 10
0.0
 20
0.0
 30
0.0
 40
1.6422635661589591
 41
1.6422635661589591
  0
VERTEX
  5
151C
  8
LOGO
 62
     5
 10
201.26052933957911
 20
27.820191406512659
 30
0.0
 42
1.0
  0
VERTEX
  5
151D
  8
LOGO
 62
     5
 10
196.333738641102
 20
27.820191406512659
 30
0.0
 42
1.0
  0
SEQEND
  5
151E
  8
LOGO
 62
     5
  0
SOLID
  5
1077
  8
LOGO
 62
     5
 10
197.3214616403319
 20
39.297643017683292
 30
0.0
 11
202.07640587924519
 21
39.297643017683292
 31
0.0
 12
197.3214616403319
 22
84.387631490143036
 32
0.0
 13
202.07640587924519
 23
84.387631490146177
 33
0.0
  0
SOLID
  5
1078
  8
LOGO
 62
     5
 10
172.72692247353589
 20
84.387631490143036
 30
0.0
 11
177.48186671244909
 21
84.387631490146177
 31
0.0
 12
172.72692247353589
 22
42.904842095480276
 32
0.0
 13
177.48186671244909
 23
60.339637638165883
 33
0.0
  0
SOLID
  5
1079
  8
LOGO
 62
     5
 10
172.72692247353589
 20
42.904842095480276
 30
0.0
 11
177.48186671244909
 21
60.339637638165883
 31
0.0
 12
195.3538985069867
 22
84.387631490146177
 32
0.0
 13
190.5989542680729
 23
84.387631490146177
 33
0.0
  0
SOLID
  5
107A
  8
LOGO
 62
     5
 10
195.3538985069867
 20
80.780432412347622
 30
0.0
 11
190.5989542680729
 21
63.34563686966203
 31
0.0
 12
195.3538985069867
 22
39.297643017683292
 32
0.0
 13
190.5989542680729
 23
39.297643017683292
 33
0.0
  0
SOLID
  5
107B
  8
LOGO
 62
     2
 10
195.3538985069867
 20
84.387631490146177
 30
0.0
 11
197.3214616403319
 21
84.387631490143036
 31
0.0
 12
195.3538985069867
 22
39.297643017683292
 32
0.0
 13
197.3214616403319
 23
39.297643017683292
 33
0.0
  0
SOLID
  5
107C
  8
LOGO
 62
     5
 10
166.0044151012774
 20
39.297643017684862
 30
0.0
 11
170.7593593401908
 21
39.297643017684862
 31
0.0
 12
166.0044151012774
 22
63.34563686966203
 32
0.0
 13
170.7593593401908
 23
80.780432412347622
 33
0.0
  0
SOLID
  5
107D
  8
LOGO
 62
     2
 10
170.7593593401908
 20
84.387631490143036
 30
0.0
 11
172.72692247353589
 21
84.387631490143036
 31
0.0
 12
170.7593593401908
 22
39.297643017684862
 32
0.0
 13
172.72692247353589
 23
39.297643017684862
 33
0.0
  0
SOLID
  5
107E
  8
LOGO
 62
     5
 10
172.72692247353589
 20
39.297643017684862
 30
0.0
 11
177.48186671244909
 21
39.297643017684862
 31
0.0
 12
195.3538985069867
 22
80.780432412347622
 32
0.0
 13
190.5989542680729
 23
63.34563686966203
 33
0.0
  0
SOLID
  5
107F
  8
LOGO
 62
     2
 10
170.7593593401908
 20
39.297643017684862
 30
0.0
 11
172.72692247353589
 21
39.297643017684862
 31
0.0
 12
195.3538985069867
 22
84.387631490146177
 32
0.0
 13
197.3214616403319
 23
84.387631490143036
 33
0.0
  0
POLYLINE
  5
1080
  8
LOGO
 62
     5
 66
     1
 10
0.0
 20
0.0
 30
0.0
 40
1.6422635661589591
 41
1.6422635661589591
  0
VERTEX
  5
151F
  8
LOGO
 62
     5
 10
177.75897149335489
 20
27.820191406512659
 30
0.0
 42
1.0
  0
VERTEX
  5
1520
  8
LOGO
 62
     5
 10
172.83218079487779
 20
27.820191406512659
 30
0.0
 42
1.0
  0
SEQEND
  5
1521
  8
LOGO
 62
     5
  0
POLYLINE
  5
1081
  8
LOGO
 62
     5
 66
     1
 10
0.0
 20
0.0
 30
0.0
 40
1.6422635661589591
 41
1.6422635661589591
  0
VERTEX
  5
1522
  8
LOGO
 62
     5
 10
159.17632148048881
 20
27.820191406512659
 30
0.0
 42
1.0
  0
VERTEX
  5
1523
  8
LOGO
 62
     5
 10
154.24953078201179
 20
27.820191406512659
 30
0.0
 42
1.0
  0
SEQEND
  5
1524
  8
LOGO
 62
     5
  0
SOLID
  5
1082
  8
LOGO
 62
     5
 10
149.88105504149721
 20
32.247208456535482
 30
0.0
 11
151.52069098595359
 21
32.247208456535482
 31
0.0
 12
149.88105504149721
 22
33.558917212099551
 32
0.0
 13
151.52069098595359
 23
33.558917212099551
 33
0.0
  0
POLYLINE
  5
1083
  8
LOGO
 62
     5
 66
     1
 10
0.0
 20
0.0
 30
0.0
 70
     1
  0
VERTEX
  5
1525
  8
LOGO
 62
     5
 10
187.04651903082151
 20
27.000373434286871
 30
0.0
 42
1.0000000573306349
  0
VERTEX
  5
1526
  8
LOGO
 62
     5
 10
191.96542686418161
 20
27.000373434286871
 30
0.0
 42
1.0000000573306349
  0
SEQEND
  5
1527
  8
LOGO
 62
     5
  0
CIRCLE
  5
1084
  8
LOGO
 62
     5
 10
189.50597294750139
 20
27.000373434286882
 30
0.0
 40
2.4594539166796578
  0
POLYLINE
  5
1085
  8
LOGO
 62
     5
 66
     1
 10
0.0
 20
0.0
 30
0.0
 40
1.6422635661589591
 41
1.6422635661589591
  0
VERTEX
  5
1528
  8
LOGO
 62
     5
 10
182.67787932671291
 20
27.820191406512659
 30
0.0
 42
1.0
  0
VERTEX
  5
1529
  8
LOGO
 62
     5
 10
177.75108862823581
 20
27.820191406512659
 30
0.0
 42
1.0
  0
SEQEND
  5
152A
  8
LOGO
 62
     5
  0
LINE
  5
1086
  8
LOGO
 62
     1
 10
298.62527688239311
 20
21.0161960025418
 30
0.0
 11
298.62527688239311
 21
87.0
 31
0.0
  0
CIRCLE
  5
1087
  8
LOGO
  6
CONTINUOUS
 62
     6
 10
318.98815458656571
 20
54.0316213078722
 30
0.0
 40
6.385291614099458
  0
CIRCLE
  5
1088
  8
LOGO
  6
CONTINUOUS
 62
     6
 10
318.98815458656571
 20
54.0316213078722
 30
0.0
 40
3.7412156279772142
  0
LINE
  5
1089
  8
LOGO
 62
     6
 10
339.09654533049991
 20
50.290405679894988
 30
0.0
 11
339.09654533049962
 21
57.77283693584944
 31
0.0
  0
TEXT
  5
108A
  8
LOGO
  6
CONTINUOUS
 62
     6
 10
549.73677433311968
 20
-9.2263808296265317
 30
0.0
 40
9.1644172218691935
  1
Model
  7
CHINESET
 72
     4
 11
567.1928071366799
 21
-4.6441722186919341
 31
0.0
  0
TEXT
  5
108B
  8
LOGO
  6
CONTINUOUS
 62
     7
 10
533.58994398982634
 20
50.342331112523219
 30
0.0
 40
18.32883444373838
  1
MRTH
  7
CHINESET
 72
     1
 11
567.1928071366799
 21
59.506748334392412
 31
0.0
 73
     2
  0
LINE
  5
108C
  8
LOGO
 62
     6
 10
611.18200980165204
 20
76.002699333756979
 30
0.0
 11
523.20360447170776
 21
76.002699333756979
 31
0.0
  0
LINE
  5
108D
  8
LOGO
 62
     6
 10
611.18200980165204
 20
43.010797335027867
 30
0.0
 11
523.20360447170776
 21
43.010797335027867
 31
0.0
  0
LINE
  5
108E
  8
LOGO
 62
     6
 10
603.85047602415671
 20
26.514846335663321
 30
0.0
 11
530.53513824920333
 21
26.514846335663321
 31
0.0
  0
LINE
  5
108F
  8
LOGO
 62
     6
 10
603.85047602415671
 20
-13.80858944056116
 30
0.0
 11
530.53513824920333
 21
-13.80858944056123
 31
0.0
  0
TEXT
  5
1090
  8
LOGO
 62
     7
 10
380.94244282225691
 20
59.465260222354729
 30
0.0
 40
21.994601332486059
  1
訂購代號:
  7
CHINESET
  0
TEXT
  5
1091
  8
LOGO
 62
     7
 10
378.31176724425649
 20
38.822697131804617
 30
0.0
 40
14.663067554990709
  1
Order example:
 41
0.8
  7
CHINESET
  0
LINE
  5
1092
  8
LOGO
 62
     1
 10
371.9406146573466
 20
-22.973006662430318
 30
0.0
 11
371.9406146573466
 21
87.0
 31
0.0
  0
LINE
  5
1093
  8
LOGO
 62
     6
 10
359.11406800747437
 20
47.646329693772742
 30
0.0
 11
359.11406800747437
 21
60.416912921971658
 31
0.0
  0
LINE
  5
1094
  8
LOGO
 62
     6
 10
530.53513824920333
 20
26.514846335663321
 30
0.0
 11
530.53513824920333
 21
-13.80858944056123
 31
0.0
  0
LINE
  5
1095
  8
LOGO
 62
     6
 10
523.20360447170776
 20
76.002699333756979
 30
0.0
 11
523.20360447170776
 21
43.010797335027867
 31
0.0
  0
TEXT
  5
1096
  8
LOGO
  6
CONTINUOUS
 62
     7
 10
653.94042562156176
 20
50.134480974980647
 30
0.0
 40
18.32883444373838
  1
40
  7
CHINESET
 72
     1
 11
668.77805350458823
 21
59.298898196849841
 31
0.0
 73
     2
  0
LINE
  5
1097
  8
LOGO
 62
     6
 10
696.49504603345349
 20
-13.80858944056093
 30
0.0
 11
637.63967760199125
 21
-13.80858944056102
 31
0.0
  0
LINE
  5
1098
  8
LOGO
 62
     6
 10
696.49504603345349
 20
43.010797335028087
 30
0.0
 11
637.63967760199125
 21
43.010797335028087
 31
0.0
  0
LINE
  5
1099
  8
LOGO
 62
     6
 10
696.49504603345349
 20
26.51484633566352
 30
0.0
 11
637.63967760199125
 21
26.51484633566352
 31
0.0
  0
LINE
  5
109A
  8
LOGO
 62
     6
 10
696.49504603345349
 20
76.002699333757377
 30
0.0
 11
637.63967760199125
 21
76.002699333757164
 31
0.0
  0
LINE
  5
109B
  8
LOGO
 62
     6
 10
637.63967760199125
 20
26.51484633566352
 30
0.0
 11
637.63967760199125
 21
-13.80858944056093
 31
0.0
  0
LINE
  5
109C
  8
LOGO
 62
     6
 10
603.85047602415682
 20
26.514846335663321
 30
0.0
 11
603.85047602415682
 21
-13.80858944056113
 31
0.0
  0
TEXT
  5
109D
  8
LOGO
 62
     6
 10
552.52973958168934
 20
6.7283644282890478
 30
0.0
 40
14.663067554990709
  1
型式
  7
CHINESET
 72
     4
 11
567.1928071366799
 21
13.68466222504645
 31
0.0
  0
LINE
  5
109E
  8
LOGO
 62
     6
 10
567.1928071366799
 20
43.010797335027867
 30
0.0
 11
567.1928071366799
 21
26.514846335663321
 31
0.0
  0
LINE
  5
109F
  8
LOGO
 62
     6
 10
637.63967760199125
 20
76.002699333757164
 30
0.0
 11
637.63967760199125
 21
43.010797335028087
 31
0.0
  0
LINE
  5
10A0
  8
LOGO
 62
     6
 10
611.18200980165204
 20
76.002699333756979
 30
0.0
 11
611.18200980165204
 21
43.010797335027867
 31
0.0
  0
LINE
  5
10A1
  8
LOGO
  6
CONTINUOUS
 62
     7
 10
617.36621759272293
 20
59.389885803560169
 30
0.0
 11
631.93423769434935
 21
59.389885803560169
 31
0.0
  0
LINE
  5
10A2
  8
LOGO
 62
     6
 10
715.12098116099492
 20
26.514846335663321
 30
0.0
 11
715.12098116099492
 21
-13.80858944056123
 31
0.0
  0
LINE
  5
10A3
  8
LOGO
 62
     6
 10
696.49504603345349
 20
26.51484633566352
 30
0.0
 11
696.49504603345349
 21
-13.808589440560819
 31
0.0
  0
TEXT
  5
10A4
  8
LOGO
  6
CONTINUOUS
 62
     6
 10
655.72094049540817
 20
-9.2263808296264322
 30
0.0
 40
9.1644172218691935
  1
Bore
 41
0.8
  7
CHINESET
 72
     4
 11
667.06736181772237
 21
-4.6441722186918346
 31
0.0
  0
TEXT
  5
10A5
  8
LOGO
 62
     6
 10
653.04580346826265
 20
6.3531284475511969
 30
0.0
 40
14.663067554990709
  1
內徑
 41
0.9
  7
CHINESET
 72
     4
 11
667.06736181772237
 21
13.68466222504655
 31
0.0
  0
LINE
  5
10A6
  8
LOGO
  6
CONTINUOUS
 62
     7
 10
702.17905492922193
 20
59.389885803560361
 30
0.0
 11
716.74707503084869
 21
59.389885803560361
 31
0.0
  0
LINE
  5
10A7
  8
LOGO
 62
     6
 10
696.49504603345349
 20
76.002699333757377
 30
0.0
 11
696.49504603345349
 21
43.010797335028087
 31
0.0
  0
LINE
  5
10A8
  8
LOGO
 62
     6
 10
667.06736097245346
 20
43.010797335028087
 30
0.0
 11
667.06736097245346
 21
26.51484633566352
 31
0.0
  0
LINE
  5
10A9
  8
LOGO
 62
     6
 10
722.45251493849048
 20
76.002699333756979
 30
0.0
 11
722.45251493849025
 21
43.010797335027867
 31
0.0
  0
LINE
  5
10AA
  8
LOGO
 62
     6
 10
753.76182993528414
 20
43.010797335027867
 30
0.0
 11
753.76182993528414
 21
26.514846335663321
 31
0.0
  0
LINE
  5
10B0
  8
LOGO
 62
     6
 10
790.84992642476072
 20
26.514846335663321
 30
0.0
 11
790.84992642476072
 21
-13.96063553102203
 31
0.0
  0
LINE
  5
10B1
  8
LOGO
 62
     6
 10
783.51839264726527
 20
76.002699333756979
 30
0.0
 11
783.51839264726527
 21
43.010797335027839
 31
0.0
  0
LINE
  5
10BA
  8
LOGO
 62
     1
 10
809.99999999999989
 20
-22.973006662430318
 30
0.0
 11
809.99999999999989
 21
87.0
 31
0.0
  0
ENDSEC
  0
EOF
