  0
SECTION
  2
HEADER
  9
$ACADVER
  1
AC1009
  9
$INSBASE
 10
0.0
 20
0.0
 30
0.0
  9
$EXTMIN
 10
129.9426290601757
 20
-17.828337260787741
 30
-0.0015258207003583
  9
$EXTMAX
 10
810.03296090526635
 20
567.00824109768519
 30
0.0000000349246037
  9
$LIMMIN
 10
0.0
 20
0.0
  9
$LIMMAX
 10
840.0
 20
594.0
  9
$ORTHOMODE
 70
     1
  9
$REGENMODE
 70
     1
  9
$FILLMODE
 70
     1
  9
$QTEXTMODE
 70
     0
  9
$MIRRTEXT
 70
     1
  9
$DRAGMODE
 70
     2
  9
$LTSCALE
 40
1.0
  9
$OSMODE
 70
    39
  9
$ATTMODE
 70
     1
  9
$TEXTSIZE
 40
3.0
  9
$TRACEWID
 40
0.05
  9
$TEXTSTYLE
  7
ITALICT
  9
$CLAYER
  8
0
  9
$CELTYPE
  6
CONTINUOUS
  9
$CECOLOR
 62
   256
  9
$DIMSCALE
 40
1.0
  9
$DIMASZ
 40
3.0
  9
$DIMEXO
 40
1.0
  9
$DIMDLI
 40
1.6471290567571920E+015
  9
$DIMRND
 40
0.0
  9
$DIMDLE
 40
0.0
  9
$DIMEXE
 40
1.0
  9
$DIMTP
 40
0.15
  9
$DIMTM
 40
-0.1
  9
$DIMTXT
 40
3.0
  9
$DIMCEN
 40
2.0
  9
$DIMTSZ
 40
0.0
  9
$DIMTOL
 70
     0
  9
$DIMLIM
 70
     0
  9
$DIMTIH
 70
     0
  9
$DIMTOH
 70
     0
  9
$DIMSE1
 70
     0
  9
$DIMSE2
 70
     0
  9
$DIMTAD
 70
     1
  9
$DIMZIN
 70
     0
  9
$DIMBLK
  1

  9
$DIMASO
 70
     0
  9
$DIMSHO
 70
     0
  9
$DIMPOST
  1

  9
$DIMAPOST
  1

  9
$DIMALT
 70
     0
  9
$DIMALTD
 70
     2
  9
$DIMALTF
 40
25.399999999999999
  9
$DIMLFAC
 40
1.0
  9
$DIMTOFL
 70
     1
  9
$DIMTVP
 40
1.0
  9
$DIMTIX
 70
     0
  9
$DIMSOXD
 70
     0
  9
$DIMSAH
 70
     0
  9
$DIMBLK1
  1

  9
$DIMBLK2
  1

  9
$DIMSTYLE
  2
STANDARD
  9
$DIMCLRD
 70
     0
  9
$DIMCLRE
 70
     0
  9
$DIMCLRT
 70
     0
  9
$DIMTFAC
 40
1.0
  9
$DIMGAP
 40
0.09
  9
$LUNITS
 70
     2
  9
$LUPREC
 70
     2
  9
$SKETCHINC
 40
0.1
  9
$FILLETRAD
 40
0.75
  9
$AUNITS
 70
     0
  9
$AUPREC
 70
     2
  9
$MENU
  1
ACAD
  9
$ELEVATION
 40
0.0
  9
$PELEVATION
 40
0.0
  9
$THICKNESS
 40
0.0
  9
$LIMCHECK
 70
     0
  9
$BLIPMODE
 70
     0
  9
$CHAMFERA
 40
0.0
  9
$CHAMFERB
 40
0.0
  9
$SKPOLY
 70
     1
  9
$TDCREATE
 40
2450580.7034460641
  9
$TDUPDATE
 40
2451939.399103472
  9
$TDINDWG
 40
0.0951410069
  9
$TDUSRTIMER
 40
0.0951410069
  9
$USRTIMER
 70
     1
  9
$ANGBASE
 50
0.0
  9
$ANGDIR
 70
     0
  9
$PDMODE
 70
     0
  9
$PDSIZE
 40
0.0
  9
$PLINEWID
 40
0.0
  9
$COORDS
 70
     2
  9
$SPLFRAME
 70
     0
  9
$SPLINETYPE
 70
     6
  9
$SPLINESEGS
 70
     8
  9
$ATTDIA
 70
     0
  9
$ATTREQ
 70
     1
  9
$HANDLING
 70
 12289
  9
$HANDSEED
  5
1587
  9
$SURFTAB1
 70
     6
  9
$SURFTAB2
 70
     6
  9
$SURFTYPE
 70
     6
  9
$SURFU
 70
     6
  9
$SURFV
 70
     6
  9
$UCSNAME
  2

  9
$UCSORG
 10
0.0
 20
0.0
 30
0.0
  9
$UCSXDIR
 10
1.0
 20
0.0
 30
0.0
  9
$UCSYDIR
 10
0.0
 20
1.0
 30
0.0
  9
$PUCSNAME
  2

  9
$PUCSORG
 10
0.0
 20
0.0
 30
0.0
  9
$PUCSXDIR
 10
1.0
 20
0.0
 30
0.0
  9
$PUCSYDIR
 10
0.0
 20
1.0
 30
0.0
  9
$USERI1
 70
     0
  9
$USERI2
 70
-31485
  9
$USERI3
 70
     0
  9
$USERI4
 70
     0
  9
$USERI5
 70
     0
  9
$USERR1
 40
0.0
  9
$USERR2
 40
0.0
  9
$USERR3
 40
0.0
  9
$USERR4
 40
0.0
  9
$USERR5
 40
0.0
  9
$WORLDVIEW
 70
     1
  9
$SHADEDGE
 70
     3
  9
$SHADEDIF
 70
    70
  9
$TILEMODE
 70
     1
  9
$MAXACTVP
 70
    64
  9
$PLIMCHECK
 70
     0
  9
$PEXTMIN
 10
1.0000000000000000E+020
 20
1.0000000000000000E+020
 30
1.0000000000000000E+020
  9
$PEXTMAX
 10
-1.0000000000000000E+020
 20
-1.0000000000000000E+020
 30
-1.0000000000000000E+020
  9
$PLIMMIN
 10
0.0
 20
0.0
  9
$PLIMMAX
 10
12.0
 20
9.0
  9
$UNITMODE
 70
     0
  9
$VISRETAIN
 70
     1
  9
$PLINEGEN
 70
     0
  9
$PSLTSCALE
 70
     0
  0
ENDSEC
  0
SECTION
  2
TABLES
  0
TABLE
  2
VPORT
 70
     2
  0
VPORT
  2
*ACTIVE
 70
     0
 10
0.0
 20
0.0
 11
1.0
 21
1.0
 12
469.98779498272103
 22
274.58995191844872
 13
0.0
 23
0.0
 14
1.0
 24
1.0
 15
0.0
 25
0.0
 16
0.0
 26
0.0
 36
1.0
 17
0.0
 27
0.0
 37
0.0
 40
591.28698179625019
 41
1.7274401473296499
 42
1.0
 43
0.0
 44
0.0
 50
0.0
 51
0.0
 71
     0
 72
   100
 73
     1
 74
     1
 75
     0
 76
     0
 77
     0
 78
     0
  0
ENDTAB
  0
TABLE
  2
LTYPE
 70
     3
  0
LTYPE
  2
CONTINUOUS
 70
     0
  3
Solid line
 72
    65
 73
     0
 40
0.0
  0
LTYPE
  2
CENTER
 70
     0
  3
_______________ _ _______________ _ ___________
 72
    65
 73
     4
 40
18.0
 49
15.0
 49
-1.0
 49
1.0
 49
-1.0
  0
LTYPE
  2
HIDDEN
 70
     0
  3
___ ___ ___ ___ ___ ___ ___ ___ ___ ___ 
 72
    65
 73
     2
 40
4.0
 49
3.0
 49
-1.0
  0
ENDTAB
  0
TABLE
  2
LAYER
 70
     5
  0
LAYER
  2
0
 70
     0
 62
     7
  6
CONTINUOUS
  0
LAYER
  2
CENTER
 70
     0
 62
     1
  6
CENTER
  0
LAYER
  2
DIM
 70
     0
 62
     5
  6
CONTINUOUS
  0
LAYER
  2
HIDDEN
 70
     0
 62
     6
  6
HIDDEN
  0
LAYER
  2
LOGO
 70
     0
 62
     7
  6
CONTINUOUS
  0
ENDTAB
  0
TABLE
  2
STYLE
 70
     8
  0
STYLE
  2
STANDARD
 70
     0
 40
0.0
 41
1.0
 50
0.0
 71
     0
 42
3.0
  3
txt
  4

  0
STYLE
  2
ITALICT
 70
     0
 40
0.0
 41
1.0
 50
0.0
 71
     0
 42
3.0
  3
ITALICT.SHX
  4

  0
STYLE
  2
ROMANSS
 70
     0
 40
0.0
 41
1.0
 50
0.0
 71
     0
 42
3.0
  3
ROMANSS.SHX
  4
LMP
  0
STYLE
  2
CHINESET
 70
     0
 40
0.0
 41
1.0
 50
0.0
 71
     0
 42
4.0
  3
C:\r13\com\fonts\simplex.shx
  4
C:\r13\com\fonts\chineset.shx
  0
STYLE
  2
LOGO
 70
     0
 40
0.0
 41
1.0
 50
0.0
 71
     0
 42
5.0
  3
txt
  4

  0
ENDTAB
  0
TABLE
  2
VIEW
 70
     0
  0
ENDTAB
  0
TABLE
  2
UCS
 70
     0
  0
ENDTAB
  0
TABLE
  2
APPID
 70
     2
  0
APPID
  2
ACAD
 70
     0
  0
APPID
  2
TCAD
 70
     0
  0
ENDTAB
  0
TABLE
  2
DIMSTYLE
 70
     1
  0
DIMSTYLE
  2
STANDARD
 70
     0
  3

  4

  5

  6

  7

 40
1.0
 41
0.18
 42
0.0625
 43
0.38
 44
0.18
 45
0.0
 46
0.0
 47
0.0
 48
0.0
140
0.18
141
0.09
142
0.0
143
25.399999999999999
144
1.0
145
0.0
146
1.0
147
0.09
 71
     0
 72
     0
 73
     1
 74
     1
 75
     0
 76
     0
 77
     0
 78
     0
170
     0
171
     2
172
     0
173
     0
174
     0
175
     0
176
     0
177
     0
178
     0
  0
ENDTAB
  0
ENDSEC
  0
SECTION
  2
BLOCKS
  0
BLOCK
  8
0
  2
$MODEL_SPACE
 70
     0
 10
0.0
 20
0.0
 30
0.0
  3
$MODEL_SPACE
  1

  0
ENDBLK
  5
3F
  8
0
  0
BLOCK
 67
     1
  8
0
  2
$PAPER_SPACE
 70
     0
 10
0.0
 20
0.0
 30
0.0
  3
$PAPER_SPACE
  1

  0
ENDBLK
  5
3D
 67
     1
  8
0
  0
ENDSEC
  0
SECTION
  2
ENTITIES
  0
LINE
  5
B25
  8
0
 62
     4
 10
810.0
 20
567.0
 30
0.0
 11
810.0
 21
77.0
 31
0.0
  0
LINE
  5
B26
  8
0
 62
     4
 10
130.0
 20
77.0
 30
0.0
 11
130.0
 21
567.0
 31
0.0
  0
LINE
  5
B29
  8
0
 62
     4
 10
130.0
 20
567.0
 30
0.0
 11
810.0
 21
567.0
 31
0.0
  0
LINE
  5
B32
  8
CENTER
  6
CENTER
 10
322.76071555780862
 20
161.56554446481221
 30
0.0
 11
600.37700834977977
 21
161.56554446481221
 31
0.0
  0
LINE
  5
B33
  8
0
 10
423.76071555780868
 20
185.76554446481211
 30
0.0
 11
359.76071555780862
 21
185.76554446481211
 31
0.0
  0
LINE
  5
B34
  8
0
 10
423.76071555780862
 20
137.3655444648121
 30
0.0
 11
359.76071555780868
 21
137.3655444648121
 31
0.0
  0
LINE
  5
B35
  8
0
 10
423.76071555780862
 20
149.76332016216031
 30
0.0
 11
359.76071555780868
 21
149.76332016216031
 31
0.0
  0
LINE
  5
B36
  8
0
 10
423.76071555780862
 20
173.3677687674639
 30
0.0
 11
359.76071555780868
 21
173.3677687674639
 31
0.0
  0
LINE
  5
B37
  8
CENTER
  6
CENTER
 10
322.76071555780862
 20
323.20547819388293
 30
0.0
 11
599.14813400425658
 21
323.20547819388293
 31
0.0
  0
LINE
  5
B38
  8
DIM
  6
CONTINUOUS
 10
317.05837233721883
 20
211.7054781938829
 30
0.0
 11
605.62416282147456
 21
211.7054781938829
 31
0.0
  0
LINE
  5
B39
  8
0
 10
423.76071555780862
 20
485.26309722127172
 30
0.0
 11
359.76071555780868
 21
485.26309722127172
 31
0.0
  0
LINE
  5
B3A
  8
0
 10
423.76071555780862
 20
472.86532152392363
 30
0.0
 11
359.76071555780868
 21
472.86532152392363
 31
0.0
  0
LINE
  5
B3B
  8
0
 10
423.76071555780862
 20
449.26087291862001
 30
0.0
 11
359.76071555780868
 21
449.26087291862001
 31
0.0
  0
LINE
  5
B3C
  8
0
 10
423.76071555780868
 20
436.86309722127169
 30
0.0
 11
359.76071555780862
 21
436.86309722127169
 31
0.0
  0
LINE
  5
B3D
  8
0
 10
423.76071555780862
 20
347.4054781938828
 30
0.0
 11
359.76071555780862
 21
347.4054781938828
 31
0.0
  0
LINE
  5
B3E
  8
0
 10
423.76071555780862
 20
335.00770249653471
 30
0.0
 11
359.76071555780862
 21
335.00770249653471
 31
0.0
  0
LINE
  5
B3F
  8
0
 10
423.76071555780862
 20
311.40325389123109
 30
0.0
 11
359.76071555780862
 21
311.40325389123109
 31
0.0
  0
LINE
  5
B40
  8
0
 10
423.76071555780862
 20
299.00547819388288
 30
0.0
 11
359.76071555780862
 21
299.00547819388288
 31
0.0
  0
LINE
  5
B41
  8
CENTER
  6
CENTER
 10
322.76071555780862
 20
461.06309722127168
 30
0.0
 11
600.37700834977977
 21
461.06309722127168
 31
0.0
  0
ARC
  5
B42
  8
0
  6
CONTINUOUS
 10
186.40063726669081
 20
369.70547819388293
 30
0.0
 40
2.5
 50
180.0
 51
0.0
  0
LINE
  5
B43
  8
0
 10
178.40063726669081
 20
393.70547819388293
 30
0.0
 11
178.40063726669081
 21
364.70547819388293
 31
0.0
  0
LINE
  5
B44
  8
0
 10
194.40063726669081
 20
393.70547819388293
 30
0.0
 11
194.40063726669081
 21
364.70547819388293
 31
0.0
  0
LINE
  5
B45
  8
CENTER
  6
CENTER
 10
186.40063726669081
 20
397.70547819388293
 30
0.0
 11
186.40063726669081
 21
247.9413410481487
 31
0.0
  0
LINE
  5
B46
  8
0
  6
CONTINUOUS
 10
221.40063726669069
 20
363.70547819388293
 30
0.0
 11
151.40063726669081
 21
363.70547819388293
 31
0.0
  0
LINE
  5
B47
  8
0
  6
CONTINUOUS
 10
222.40063726669081
 20
362.70547819388293
 30
0.0
 11
150.40063726669081
 21
362.70547819388293
 31
0.0
  0
LINE
  5
B48
  8
0
  6
CONTINUOUS
 10
241.90063726669069
 20
355.70547819388298
 30
0.0
 11
148.90063726669081
 21
355.70547819388281
 31
0.0
  0
LINE
  5
B49
  8
0
  6
CONTINUOUS
 10
222.40063726669081
 20
283.70547819388293
 30
0.0
 11
150.40063726669081
 21
283.70547819388293
 31
0.0
  0
LINE
  5
B4A
  8
0
  6
CONTINUOUS
 10
221.40063726669069
 20
282.70547819388293
 30
0.0
 11
151.40063726669081
 21
282.70547819388293
 31
0.0
  0
LINE
  5
B4B
  8
CENTER
  6
CENTER
 10
244.90063726669081
 20
323.20547819388293
 30
0.0
 11
145.90063726669081
 21
323.20547819388293
 31
0.0
  0
LINE
  5
B4C
  8
0
  6
CONTINUOUS
 10
241.90063726669069
 20
290.70547819388293
 30
0.0
 11
148.90063726669081
 21
290.70547819388293
 31
0.0
  0
LINE
  5
B4D
  8
0
  6
CONTINUOUS
 10
150.40063726669081
 20
362.70547819388293
 30
0.0
 11
151.40063726669081
 21
363.70547819388293
 31
0.0
  0
LINE
  5
B4E
  8
0
 10
150.40063726669081
 20
355.70547819388298
 30
0.0
 11
150.40063726669081
 21
362.70547819388293
 31
0.0
  0
LINE
  5
B4F
  8
0
 10
150.40063726669081
 20
290.70547819388293
 30
0.0
 11
150.40063726669081
 21
283.70547819388293
 31
0.0
  0
LINE
  5
B50
  8
0
  6
CONTINUOUS
 10
150.40063726669081
 20
283.70547819388293
 30
0.0
 11
151.40063726669081
 21
282.70547819388293
 31
0.0
  0
LINE
  5
B51
  8
CENTER
  6
CENTER
 10
156.40063726669081
 20
306.80312056393672
 30
0.0
 11
156.40063726669081
 21
286.4389926668477
 31
0.0
  0
LINE
  5
B52
  8
0
 10
148.90063726669081
 20
355.70547819388281
 30
0.0
 11
148.90063726669081
 21
290.70547819388293
 31
0.0
  0
LINE
  5
B53
  8
CENTER
  6
CENTER
 10
156.40063726669081
 20
340.86856780039238
 30
0.0
 11
156.40063726669081
 21
360.54413948716223
 31
0.0
  0
LINE
  5
B54
  8
0
 10
196.40063726669081
 20
364.70547819388293
 30
0.0
 11
196.40063726669081
 21
363.70547819388293
 31
0.0
  0
LINE
  5
B55
  8
0
 10
176.40063726669081
 20
364.70547819388293
 30
0.0
 11
176.40063726669081
 21
363.70547819388293
 31
0.0
  0
LINE
  5
B56
  8
0
  6
CONTINUOUS
 10
196.40063726669081
 20
364.70547819388293
 30
0.0
 11
176.40063726669081
 21
364.70547819388293
 31
0.0
  0
LINE
  5
B57
  8
0
  6
CONTINUOUS
 10
222.40063726669081
 20
362.70547819388293
 30
0.0
 11
221.40063726669069
 21
363.70547819388293
 31
0.0
  0
LINE
  5
B58
  8
0
 10
222.40063726669081
 20
355.70547819388298
 30
0.0
 11
222.40063726669081
 21
362.70547819388293
 31
0.0
  0
LINE
  5
B59
  8
CENTER
  6
CENTER
 10
194.90063726669069
 20
310.70547819388293
 30
0.0
 11
194.90063726669069
 21
297.70547819388293
 31
0.0
  0
LINE
  5
B5A
  8
0
 10
212.90063726669069
 20
300.70547819388293
 30
0.0
 11
212.90063726669069
 21
304.31103456619189
 31
0.0
  0
LINE
  5
B5B
  8
0
 10
214.90063726669069
 20
300.70547819388293
 30
0.0
 11
214.90063726669069
 21
304.31103456619189
 31
0.0
  0
LINE
  5
B5C
  8
0
 10
205.90063726669081
 20
300.70547819388293
 30
0.0
 11
205.90063726669081
 21
306.47227766320151
 31
0.0
  0
ARC
  5
B5D
  8
0
 10
194.90063726669069
 20
304.20547819388293
 30
0.0
 40
7.5
 50
335.68426082882991
 51
34.193077125139702
  0
LINE
  5
B5E
  8
0
 10
221.90063726669081
 20
300.70547819388293
 30
0.0
 11
221.90063726669081
 21
306.47227766320151
 31
0.0
  0
ARC
  5
B5F
  8
0
 10
222.90063726669081
 20
300.70547819388293
 30
0.0
 40
1.0
 50
180.0
 51
270.0
  0
LINE
  5
B60
  8
0
 10
211.90063726669081
 20
299.70547819388298
 30
0.0
 11
202.6466039591061
 21
299.70547819388298
 31
0.0
  0
ARC
  5
B61
  8
0
 10
215.90063726669081
 20
300.70547819388293
 30
0.0
 40
1.0
 50
180.0
 51
270.0
  0
ARC
  5
B62
  8
0
 10
211.90063726669081
 20
300.70547819388293
 30
0.0
 40
1.0
 50
270.0
 51
0.0
  0
ARC
  5
B63
  8
0
 10
202.6466039591061
 20
300.70547819388293
 30
0.0
 40
1.0
 50
155.68426082881459
 51
270.0
  0
ARC
  5
B64
  8
0
 10
204.90063726669081
 20
300.70547819388293
 30
0.0
 40
1.0
 50
270.0
 51
0.0
  0
ARC
  5
B65
  8
0
 10
222.90063726669081
 20
306.47227766320151
 30
0.0
 40
1.0
 50
118.2737136313652
 51
180.0
  0
LINE
  5
B66
  8
0
 10
221.90063726669081
 20
345.70547819388293
 30
0.0
 11
221.90063726669081
 21
339.9386787245644
 31
0.0
  0
ARC
  5
B67
  8
0
 10
222.90063726669081
 20
339.9386787245644
 30
0.0
 40
1.0
 50
180.0
 51
241.7262863686347
  0
ARC
  5
B68
  8
0
 10
222.90063726669081
 20
345.70547819388293
 30
0.0
 40
1.0
 50
90.0
 51
180.0
  0
ARC
  5
B69
  8
0
 10
194.90063726669069
 20
342.20547819388293
 30
0.0
 40
7.5
 50
245.6842608288265
 51
304.19307712514018
  0
LINE
  5
B6A
  8
0
 10
191.40063726669081
 20
331.20547819388293
 30
0.0
 11
197.16743673600939
 21
331.20547819388293
 31
0.0
  0
ARC
  5
B6B
  8
0
 10
195.00619363899969
 20
321.20547819388293
 30
0.0
 40
1.0
 50
6.0423284190542867
 51
90.0
  0
ARC
  5
B6C
  8
0
 10
213.90063726669081
 20
323.20547819388293
 30
0.0
 40
17.999999999999972
 50
139.6507090048799
 51
173.9576715809458
  0
ARC
  5
B6D
  8
0
 10
195.00619363899969
 20
325.20547819388293
 30
0.0
 40
1.0
 50
270.0
 51
353.95767158094571
  0
ARC
  5
B6E
  8
0
 10
194.90063726669069
 20
304.20547819388293
 30
0.0
 40
7.5
 50
55.806922874859701
 51
114.315739171172
  0
LINE
  5
B6F
  8
CENTER
  6
CENTER
 10
201.40063726669081
 20
304.20547819388293
 30
0.0
 11
188.40063726669081
 21
304.20547819388293
 31
0.0
  0
LINE
  5
B70
  8
0
 10
191.40063726669081
 20
315.20547819388293
 30
0.0
 11
197.16743673600939
 21
315.20547819388293
 31
0.0
  0
ARC
  5
B71
  8
0
 10
213.90063726669081
 20
323.20547819388293
 30
0.0
 40
17.999999999999972
 50
186.04232841905389
 51
220.34929099511979
  0
ARC
  5
B72
  8
0
 10
213.90063726669081
 20
323.20547819388293
 30
0.0
 40
17.999999999999972
 50
229.6507090048799
 51
263.95767158094588
  0
ARC
  5
B73
  8
0
 10
215.90063726669081
 20
304.31103456619189
 30
0.0
 40
1.0
 50
96.042328419054286
 51
180.0
  0
ARC
  5
B74
  8
0
 10
211.90063726669081
 20
304.31103456619189
 30
0.0
 40
1.0
 50
0.0
 51
83.957671580945714
  0
ARC
  5
B75
  8
0
 10
201.9228926280654
 20
309.10641321169788
 30
0.0
 40
0.5
 50
49.650709004877889
 51
135.0
  0
ARC
  5
B76
  8
0
 10
204.90063726669081
 20
306.47227766320151
 30
0.0
 40
1.0
 50
0.0
 51
61.72628636863471
  0
ARC
  5
B77
  8
0
 10
199.8015722845058
 20
311.2277335552576
 30
0.0
 40
0.5
 50
315.00000000000688
 51
40.349290995122097
  0
ARC
  5
B78
  8
0
 10
199.3965047876344
 20
310.82266605838618
 30
0.0
 40
0.5
 50
235.80692287485761
 51
315.0
  0
LINE
  5
B79
  8
0
 10
200.15512567509921
 20
310.87418016466432
 30
0.0
 11
199.7500581782277
 21
310.46911266779301
 31
0.0
  0
LINE
  5
B7A
  8
0
 10
201.56933923747229
 20
309.4599666022911
 30
0.0
 11
201.16427174060081
 21
309.05489910541979
 31
0.0
  0
ARC
  5
B7B
  8
0
 10
201.5178251311942
 20
308.70134571482657
 30
0.0
 40
0.5
 50
135.0
 51
214.19307712514231
  0
ARC
  5
B7C
  8
0
 10
197.16743673600939
 20
314.20547819388298
 30
0.0
 40
1.0
 50
28.273713631367489
 51
90.0
  0
LINE
  5
B7D
  8
0
 10
200.15512567509921
 20
335.53677622310153
 30
0.0
 11
199.7500581782277
 21
335.94184371997289
 31
0.0
  0
ARC
  5
B7E
  8
0
 10
197.16743673600939
 20
332.20547819388293
 30
0.0
 40
1.0
 50
270.0
 51
331.72628636863169
  0
ARC
  5
B7F
  8
0
 10
199.8015722845058
 20
335.18322283250831
 30
0.0
 40
0.5
 50
319.65070900487791
 51
44.999999999993094
  0
ARC
  5
B80
  8
0
 10
199.3965047876344
 20
335.58829032937962
 30
0.0
 40
0.5
 50
45.0
 51
124.1930771251423
  0
LINE
  5
B81
  8
0
 10
190.40063726669081
 20
321.20547819388293
 30
0.0
 11
190.40063726669081
 21
311.95144488629819
 31
0.0
  0
ARC
  5
B82
  8
0
 10
191.40063726669081
 20
311.95144488629819
 30
0.0
 40
1.0
 50
180.0
 51
294.31573917118533
  0
ARC
  5
B83
  8
0
 10
191.40063726669081
 20
314.20547819388298
 30
0.0
 40
1.0
 50
90.0
 51
180.0
  0
LINE
  5
B84
  8
0
 10
190.40063726669081
 20
325.20547819388293
 30
0.0
 11
190.40063726669081
 21
334.45951150146772
 31
0.0
  0
ARC
  5
B85
  8
0
 10
191.40063726669081
 20
321.20547819388293
 30
0.0
 40
1.0
 50
90.0
 51
180.0
  0
ARC
  5
B86
  8
0
 10
191.40063726669081
 20
325.20547819388293
 30
0.0
 40
1.0
 50
180.0
 51
270.0
  0
LINE
  5
B87
  8
0
 10
191.40063726669081
 20
322.20547819388298
 30
0.0
 11
195.00619363899969
 21
322.20547819388298
 31
0.0
  0
LINE
  5
B88
  8
0
 10
191.40063726669081
 20
324.20547819388293
 30
0.0
 11
195.00619363899969
 21
324.20547819388293
 31
0.0
  0
ARC
  5
B89
  8
0
 10
191.40063726669081
 20
334.45951150146772
 30
0.0
 40
1.0
 50
65.684260828814644
 51
180.0
  0
ARC
  5
B8A
  8
0
 10
191.40063726669081
 20
332.20547819388293
 30
0.0
 40
1.0
 50
180.0
 51
270.0
  0
LINE
  5
B8B
  8
CENTER
  6
CENTER
 10
201.40063726669081
 20
342.20547819388293
 30
0.0
 11
188.40063726669081
 21
342.20547819388293
 31
0.0
  0
LINE
  5
B8C
  8
0
 10
211.90063726669081
 20
346.70547819388293
 30
0.0
 11
202.6466039591061
 21
346.70547819388293
 31
0.0
  0
ARC
  5
B8D
  8
0
 10
213.90063726669081
 20
323.20547819388293
 30
0.0
 40
17.999999999999972
 50
96.042328419054115
 51
130.34929099511999
  0
LINE
  5
B8E
  8
0
 10
214.90063726669069
 20
345.70547819388293
 30
0.0
 11
214.90063726669069
 21
342.09992182157401
 31
0.0
  0
LINE
  5
B8F
  8
0
 10
212.90063726669069
 20
345.70547819388293
 30
0.0
 11
212.90063726669069
 21
342.09992182157401
 31
0.0
  0
ARC
  5
B90
  8
0
 10
215.90063726669081
 20
342.09992182157401
 30
0.0
 40
1.0
 50
180.0
 51
263.95767158094571
  0
ARC
  5
B91
  8
0
 10
211.90063726669081
 20
342.09992182157401
 30
0.0
 40
1.0
 50
276.04232841905417
 51
0.0
  0
ARC
  5
B92
  8
0
 10
215.90063726669081
 20
345.70547819388293
 30
0.0
 40
1.0
 50
90.0
 51
180.0
  0
ARC
  5
B93
  8
0
 10
211.90063726669081
 20
345.70547819388293
 30
0.0
 40
1.0
 50
0.0
 51
90.0
  0
ARC
  5
B94
  8
0
 10
194.90063726669069
 20
342.20547819388293
 30
0.0
 40
7.5
 50
325.80692287486028
 51
24.31573917117197
  0
LINE
  5
B95
  8
0
 10
205.90063726669081
 20
345.70547819388293
 30
0.0
 11
205.90063726669081
 21
339.9386787245644
 31
0.0
  0
ARC
  5
B96
  8
0
 10
201.9228926280654
 20
337.30454317606802
 30
0.0
 40
0.5
 50
225.0
 51
310.34929099512209
  0
ARC
  5
B97
  8
0
 10
204.90063726669081
 20
339.9386787245644
 30
0.0
 40
1.0
 50
298.27371363136518
 51
0.0
  0
LINE
  5
B98
  8
0
 10
201.56933923747229
 20
336.95098978547458
 30
0.0
 11
201.16427174060081
 21
337.35605728234611
 31
0.0
  0
ARC
  5
B99
  8
0
 10
201.5178251311942
 20
337.70961067293928
 30
0.0
 40
0.5
 50
145.80692287485761
 51
225.0
  0
ARC
  5
B9A
  8
0
 10
202.6466039591061
 20
345.70547819388293
 30
0.0
 40
1.0
 50
90.0
 51
204.3157391711853
  0
ARC
  5
B9B
  8
0
 10
204.90063726669081
 20
345.70547819388293
 30
0.0
 40
1.0
 50
0.0
 51
90.0
  0
POLYLINE
  5
B9C
  8
0
 66
     1
 10
0.0
 20
0.0
 30
0.0
 70
     1
  0
VERTEX
  5
1467
  8
0
 10
197.90063726669081
 20
343.93752900145188
 30
0.0
  0
VERTEX
  5
1468
  8
0
 10
197.90063726669081
 20
340.47342738631409
 30
0.0
  0
VERTEX
  5
1469
  8
0
 10
194.90063726669069
 20
338.7413765787453
 30
0.0
  0
VERTEX
  5
146A
  8
0
 10
191.90063726669081
 20
340.47342738631409
 30
0.0
  0
VERTEX
  5
146B
  8
0
 10
191.90063726669081
 20
343.93752900145188
 30
0.0
  0
VERTEX
  5
146C
  8
0
 10
194.90063726669069
 20
345.66957980902072
 30
0.0
  0
SEQEND
  5
146D
  8
0
  0
CIRCLE
  5
BA4
  8
0
 10
194.90063726669069
 20
342.20547819388293
 30
0.0
 40
5.5
  0
CIRCLE
  5
BA5
  8
0
 10
194.90063726669069
 20
342.20547819388293
 30
0.0
 40
5.0
  0
CIRCLE
  5
BA6
  8
0
 10
194.90063726669069
 20
304.20547819388293
 30
0.0
 40
5.5
  0
CIRCLE
  5
BA7
  8
0
 10
194.90063726669069
 20
304.20547819388293
 30
0.0
 40
5.0
  0
POLYLINE
  5
BA8
  8
0
 66
     1
 10
0.0
 20
0.0
 30
0.0
 70
     1
  0
VERTEX
  5
146E
  8
0
 10
197.90063726669081
 20
305.93752900145188
 30
0.0
  0
VERTEX
  5
146F
  8
0
 10
197.90063726669081
 20
302.47342738631409
 30
0.0
  0
VERTEX
  5
1470
  8
0
 10
194.90063726669069
 20
300.7413765787453
 30
0.0
  0
VERTEX
  5
1471
  8
0
 10
191.90063726669081
 20
302.47342738631409
 30
0.0
  0
VERTEX
  5
1472
  8
0
 10
191.90063726669081
 20
305.93752900145188
 30
0.0
  0
VERTEX
  5
1473
  8
0
 10
194.90063726669069
 20
307.66957980902072
 30
0.0
  0
SEQEND
  5
1474
  8
0
  0
ARC
  5
BB0
  8
0
 10
199.3965047876344
 20
310.8226660583864
 30
0.0
 40
0.5
 50
235.80692287485761
 51
315.0
  0
LINE
  5
BB1
  8
0
 10
222.40063726669081
 20
290.70547819388293
 30
0.0
 11
222.40063726669081
 21
283.70547819388293
 31
0.0
  0
LINE
  5
BB2
  8
0
  6
CONTINUOUS
 10
222.40063726669081
 20
283.70547819388293
 30
0.0
 11
221.40063726669069
 21
282.70547819388293
 31
0.0
  0
LINE
  5
BB3
  8
CENTER
  6
CENTER
 10
216.40063726669081
 20
306.80312056393672
 30
0.0
 11
216.40063726669081
 21
286.27871921627673
 31
0.0
  0
LINE
  5
BB4
  8
CENTER
  6
CENTER
 10
252.7033600754111
 20
304.70547819388293
 30
0.0
 11
233.63296701152481
 21
304.70547819388293
 31
0.0
  0
LINE
  5
BB5
  8
0
  6
CONTINUOUS
 62
     2
 10
247.0006372666893
 20
301.5054781938822
 30
0.0
 11
249.5006372666893
 21
301.5054781938822
 31
0.0
  0
LINE
  5
BB6
  8
0
  6
CONTINUOUS
 62
     2
 10
247.0006372666893
 20
307.9054781938836
 30
0.0
 11
249.5006372666893
 21
307.9054781938836
 31
0.0
  0
LINE
  5
BB7
  8
0
  6
CONTINUOUS
 10
247.0006372666893
 20
308.70547819388293
 30
0.0
 11
248.70063726668999
 21
308.70547819388293
 31
0.0
  0
LINE
  5
BB8
  8
0
  6
CONTINUOUS
 10
247.0006372666893
 20
300.70547819388293
 30
0.0
 11
248.70063726668999
 21
300.70547819388293
 31
0.0
  0
LINE
  5
BB9
  8
0
  6
CONTINUOUS
 10
249.90063726669081
 20
301.90547819388371
 30
0.0
 11
249.90063726669081
 21
307.50547819388208
 31
0.0
  0
LINE
  5
BBA
  8
0
  6
CONTINUOUS
 10
248.70063726668999
 20
300.70547819388293
 30
0.0
 11
248.70063726668999
 21
308.70547819388293
 31
0.0
  0
LINE
  5
BBB
  8
0
  6
CONTINUOUS
 10
248.70063726668999
 20
300.70547819388293
 30
0.0
 11
249.90063726669081
 21
301.90547819388371
 31
0.0
  0
LINE
  5
BBC
  8
0
  6
CONTINUOUS
 10
248.70063726668999
 20
308.70547819388293
 30
0.0
 11
249.90063726669081
 21
307.5054781938822
 31
0.0
  0
LINE
  5
BBD
  8
CENTER
  6
CENTER
 10
232.90063726669081
 20
310.70547819388293
 30
0.0
 11
232.90063726669081
 21
297.70547819388293
 31
0.0
  0
ARC
  5
BBE
  8
0
 10
232.90063726669081
 20
304.20547819388293
 30
0.0
 40
7.5
 50
145.80692287486011
 51
204.31573917116859
  0
ARC
  5
BBF
  8
0
 10
225.15467057427571
 20
300.70547819388293
 30
0.0
 40
1.0
 50
270.0
 51
24.315739171181711
  0
LINE
  5
BC0
  8
0
 10
237.40063726669081
 20
321.20547819388293
 30
0.0
 11
237.40063726669081
 21
311.95144488629802
 31
0.0
  0
ARC
  5
BC1
  8
0
 10
213.90063726669081
 20
323.20547819388293
 30
0.0
 40
17.999999999999972
 50
319.6507090048799
 51
353.95767158094588
  0
LINE
  5
BC2
  8
CENTER
  6
CENTER
 10
239.40063726669081
 20
304.20547819388293
 30
0.0
 11
226.40063726669081
 21
304.20547819388293
 31
0.0
  0
ARC
  5
BC3
  8
0
 10
232.90063726669081
 20
304.20547819388293
 30
0.0
 40
7.5
 50
65.684260828826382
 51
124.19307712513979
  0
ARC
  5
BC4
  8
0
 10
236.40063726669081
 20
311.95144488629802
 30
0.0
 40
1.0
 50
245.68426082881311
 51
0.0
  0
LINE
  5
BC5
  8
0
 10
240.40063726669101
 20
305.70547819388298
 30
0.0
 11
239.90063726669101
 21
305.70547819388298
 31
0.0
  0
ARC
  5
BC6
  8
0
 10
236.40063726669081
 20
329.1958794111863
 30
0.0
 40
1.0
 50
270.0
 51
0.0
  0
LINE
  5
BC7
  8
0
 10
231.9315854740295
 20
328.19587941118641
 30
0.0
 11
236.40063726669081
 21
328.19587941118641
 31
0.0
  0
ARC
  5
BC8
  8
0
 10
231.9315854740295
 20
329.1958794111863
 30
0.0
 40
1.0
 50
198.37797603959399
 51
270.0
  0
ARC
  5
BC9
  8
0
 10
226.28344940218761
 20
308.70134571482657
 30
0.0
 40
0.5
 50
325.80692287485948
 51
45.0
  0
ARC
  5
BCA
  8
0
 10
228.4047697457473
 20
310.82266605838618
 30
0.0
 40
0.5
 50
225.0
 51
304.19307712514228
  0
ARC
  5
BCB
  8
0
 10
227.99970224887591
 20
311.2277335552576
 30
0.0
 40
0.5
 50
139.65070900487791
 51
224.99999999999301
  0
LINE
  5
BCC
  8
0
 10
227.6461488582826
 20
310.87418016466432
 30
0.0
 11
228.051216355154
 21
310.4691126677929
 31
0.0
  0
LINE
  5
BCD
  8
0
 10
226.23193529590949
 20
309.4599666022911
 30
0.0
 11
226.63700279278069
 21
309.05489910541979
 31
0.0
  0
ARC
  5
BCE
  8
0
 10
225.8783819053161
 20
309.10641321169788
 30
0.0
 40
0.5
 50
45.000000000002302
 51
130.349290995122
  0
ARC
  5
BCF
  8
0
 10
232.90063726669081
 20
342.20547819388281
 30
0.0
 40
7.5
 50
235.80692287485999
 51
294.31573917117203
  0
ARC
  5
BD0
  8
0
 10
213.90063726669081
 20
323.20547819388293
 30
0.0
 40
17.999999999999972
 50
6.0423284190539261
 51
40.349290995119809
  0
LINE
  5
BD1
  8
0
 10
237.40063726669081
 20
325.20547819388281
 30
0.0
 11
237.40063726669081
 21
334.45951150146772
 31
0.0
  0
ARC
  5
BD2
  8
0
 10
236.40063726669081
 20
321.20547819388293
 30
0.0
 40
1.0
 50
0.0
 51
90.0
  0
ARC
  5
BD3
  8
0
 10
236.40063726669081
 20
325.20547819388281
 30
0.0
 40
1.0
 50
270.0
 51
0.0
  0
LINE
  5
BD4
  8
0
 10
236.40063726669081
 20
322.20547819388298
 30
0.0
 11
232.7950808943819
 21
322.20547819388298
 31
0.0
  0
ARC
  5
BD5
  8
0
 10
232.7950808943819
 20
321.20547819388293
 30
0.0
 40
1.0
 50
90.0
 51
173.95767158094571
  0
LINE
  5
BD6
  8
0
 10
236.40063726669081
 20
324.20547819388281
 30
0.0
 11
232.7950808943819
 21
324.20547819388281
 31
0.0
  0
ARC
  5
BD7
  8
0
 10
232.7950808943819
 20
325.20547819388281
 30
0.0
 40
1.0
 50
186.0423284190542
 51
270.0
  0
ARC
  5
BD8
  8
0
 10
236.40063726669081
 20
334.45951150146772
 30
0.0
 40
1.0
 50
0.0
 51
114.3157391711853
  0
LINE
  5
BD9
  8
0
 10
227.6461488582826
 20
335.53677622310141
 30
0.0
 11
228.051216355154
 21
335.94184371997289
 31
0.0
  0
ARC
  5
BDA
  8
0
 10
227.99970224887591
 20
335.18322283250819
 30
0.0
 40
0.5
 50
135.00000000000691
 51
220.349290995122
  0
ARC
  5
BDB
  8
0
 10
228.4047697457473
 20
335.5882903293795
 30
0.0
 40
0.5
 50
55.806922874857641
 51
135.0
  0
LINE
  5
BDC
  8
CENTER
  6
CENTER
 10
239.40063726669081
 20
342.20547819388293
 30
0.0
 11
226.40063726669081
 21
342.20547819388293
 31
0.0
  0
LINE
  5
BDD
  8
0
 10
240.40063726669101
 20
340.70547819388293
 30
0.0
 11
239.90063726669069
 21
340.70547819388293
 31
0.0
  0
ARC
  5
BDE
  8
0
 10
232.90063726669081
 20
342.20547819388293
 30
0.0
 40
7.5
 50
155.68426082882979
 51
214.19307712513981
  0
ARC
  5
BDF
  8
0
 10
226.28344940218761
 20
337.70961067293928
 30
0.0
 40
0.5
 50
315.0
 51
34.193077125140519
  0
LINE
  5
BE0
  8
0
 10
226.23193529590949
 20
336.95098978547458
 30
0.0
 11
226.63700279278069
 21
337.35605728234611
 31
0.0
  0
ARC
  5
BE1
  8
0
 10
225.8783819053161
 20
337.30454317606802
 30
0.0
 40
0.5
 50
229.65070900487791
 51
314.99999999999773
  0
ARC
  5
BE2
  8
0
 10
225.15467057427571
 20
345.70547819388293
 30
0.0
 40
1.0
 50
335.68426082881462
 51
90.0
  0
CIRCLE
  5
BE3
  8
0
 10
232.90063726669081
 20
342.20547819388293
 30
0.0
 40
5.0
  0
CIRCLE
  5
BE4
  8
0
 10
232.90063726669081
 20
342.20547819388293
 30
0.0
 40
5.5
  0
POLYLINE
  5
BE5
  8
0
 66
     1
 10
0.0
 20
0.0
 30
0.0
 70
     1
  0
VERTEX
  5
1475
  8
0
 10
235.90063726669069
 20
343.93752900145188
 30
0.0
  0
VERTEX
  5
1476
  8
0
 10
235.90063726669069
 20
340.47342738631409
 30
0.0
  0
VERTEX
  5
1477
  8
0
 10
232.90063726669081
 20
338.7413765787453
 30
0.0
  0
VERTEX
  5
1478
  8
0
 10
229.90063726669081
 20
340.47342738631409
 30
0.0
  0
VERTEX
  5
1479
  8
0
 10
229.90063726669081
 20
343.93752900145188
 30
0.0
  0
VERTEX
  5
147A
  8
0
 10
232.90063726669081
 20
345.66957980902072
 30
0.0
  0
SEQEND
  5
147B
  8
0
  0
CIRCLE
  5
BED
  8
0
 10
232.90063726669081
 20
304.20547819388293
 30
0.0
 40
5.5
  0
CIRCLE
  5
BEE
  8
0
 10
232.90063726669081
 20
304.20547819388293
 30
0.0
 40
5.0
  0
POLYLINE
  5
BEF
  8
0
 66
     1
 10
0.0
 20
0.0
 30
0.0
 70
     1
  0
VERTEX
  5
147C
  8
0
 10
235.90063726669069
 20
305.93752900145188
 30
0.0
  0
VERTEX
  5
147D
  8
0
 10
235.90063726669069
 20
302.47342738631409
 30
0.0
  0
VERTEX
  5
147E
  8
0
 10
232.90063726669081
 20
300.7413765787453
 30
0.0
  0
VERTEX
  5
147F
  8
0
 10
229.90063726669081
 20
302.47342738631409
 30
0.0
  0
VERTEX
  5
1480
  8
0
 10
229.90063726669081
 20
305.93752900145188
 30
0.0
  0
VERTEX
  5
1481
  8
0
 10
232.90063726669081
 20
307.66957980902072
 30
0.0
  0
SEQEND
  5
1482
  8
0
  0
LINE
  5
BF7
  8
CENTER
  6
CENTER
 10
244.90709250823841
 20
319.20547819388293
 30
0.0
 11
225.5070925082386
 21
319.20547819388293
 31
0.0
  0
LINE
  5
BF8
  8
CENTER
  6
CENTER
 10
245.00499279721581
 20
330.70547819388298
 30
0.0
 11
231.27705232868351
 21
330.70547819388298
 31
0.0
  0
LINE
  5
BF9
  8
0
  6
CONTINUOUS
 10
242.6206372666901
 20
304.70547819388293
 30
0.0
 11
246.18063726669141
 21
304.70547819388293
 31
0.0
  0
LINE
  5
BFA
  8
0
  6
CONTINUOUS
 10
241.90063726669069
 20
304.70547819388293
 30
0.0
 11
246.18063726669141
 21
304.70547819388293
 31
0.0
  0
ARC
  5
BFB
  8
0
  6
CONTINUOUS
 10
238.48365767107961
 20
308.20547819388293
 30
0.0
 40
8.4553825989878657
 50
335.5475759094079
 51
24.452424090592022
  0
LINE
  5
BFC
  8
0
  6
CONTINUOUS
 10
246.90063726669081
 20
311.70547819388293
 30
0.0
 11
241.90063726669069
 21
311.70547819388293
 31
0.0
  0
ARC
  5
BFD
  8
0
  6
CONTINUOUS
 10
250.31761686230229
 20
308.20547819388293
 30
0.0
 40
8.4553825989882458
 50
155.54757590941711
 51
204.45242409058281
  0
LINE
  5
BFE
  8
0
  6
CONTINUOUS
 10
241.90063726669069
 20
311.70547819388293
 30
0.0
 11
241.90063726669069
 21
304.70547819388293
 31
0.0
  0
LINE
  5
BFF
  8
0
  6
CONTINUOUS
 10
246.90063726669081
 20
311.70547819388293
 30
0.0
 11
246.90063726669081
 21
297.70547819388293
 31
0.0
  0
ARC
  5
C00
  8
0
  6
CONTINUOUS
 10
238.48365767107961
 20
301.20547819388293
 30
0.0
 40
8.4553825989878657
 50
335.5475759094079
 51
24.452424090592022
  0
LINE
  5
C01
  8
0
  6
CONTINUOUS
 10
246.90063726669081
 20
297.70547819388293
 30
0.0
 11
241.90063726669069
 21
297.70547819388293
 31
0.0
  0
ARC
  5
C02
  8
0
  6
CONTINUOUS
 10
250.31761686230229
 20
301.20547819388293
 30
0.0
 40
8.4553825989882458
 50
155.54757590941711
 51
204.4524240905823
  0
LINE
  5
C03
  8
0
  6
CONTINUOUS
 10
241.90063726669069
 20
297.70547819388293
 30
0.0
 11
241.90063726669069
 21
304.70547819388293
 31
0.0
  0
LINE
  5
C04
  8
0
 10
215.90063726669081
 20
299.70547819388298
 30
0.0
 11
225.15467057427571
 21
299.70547819388298
 31
0.0
  0
CIRCLE
  5
C05
  8
0
 10
213.90063726669081
 20
323.20547819388293
 30
0.0
 40
17.499999999999972
  0
ARC
  5
C06
  8
0
 10
213.90063726669081
 20
323.20547819388293
 30
0.0
 40
17.999999999999972
 50
276.04232841905389
 51
310.34929099511982
  0
LINE
  5
C07
  8
0
 10
215.90063726669081
 20
346.70547819388293
 30
0.0
 11
225.15467057427571
 21
346.70547819388293
 31
0.0
  0
ARC
  5
C08
  8
0
 10
213.90063726669081
 20
323.20547819388293
 30
0.0
 40
17.999999999999972
 50
49.650709004880191
 51
83.957671580946055
  0
LINE
  5
C09
  8
CENTER
  6
CENTER
 10
213.90063726669081
 20
351.20547819388293
 30
0.0
 11
213.90063726669081
 21
295.20547819388293
 31
0.0
  0
POLYLINE
  5
C0A
  8
0
 66
     1
 10
0.0
 20
0.0
 30
0.0
 70
     1
  0
VERTEX
  5
1483
  8
0
 10
187.40063726669081
 20
342.20547819388293
 30
0.0
 42
-0.4142135623730951
  0
VERTEX
  5
1484
  8
0
 10
194.90063726669101
 20
349.70547819388298
 30
0.0
  0
VERTEX
  5
1485
  8
0
 10
232.90063726669081
 20
349.70547819388298
 30
0.0
 42
-0.4142135623730951
  0
VERTEX
  5
1486
  8
0
 10
240.40063726669081
 20
342.20547819388293
 30
0.0
  0
VERTEX
  5
1487
  8
0
 10
240.40063726669081
 20
304.20547819388293
 30
0.0
 42
-0.4142135623730951
  0
VERTEX
  5
1488
  8
0
 10
232.90063726669081
 20
296.70547819388293
 30
0.0
  0
VERTEX
  5
1489
  8
0
 10
194.90063726669101
 20
296.70547819388293
 30
0.0
 42
-0.4142135623730951
  0
VERTEX
  5
148A
  8
0
 10
187.40063726669081
 20
304.20547819388293
 30
0.0
  0
SEQEND
  5
148B
  8
0
  0
POLYLINE
  5
C14
  8
0
 66
     1
 10
0.0
 20
0.0
 30
0.0
 70
     1
  0
VERTEX
  5
148C
  8
0
 10
187.90063726669081
 20
342.20547819388293
 30
0.0
 42
-0.4142135623730951
  0
VERTEX
  5
148D
  8
0
 10
194.90063726669101
 20
349.20547819388293
 30
0.0
  0
VERTEX
  5
148E
  8
0
 10
232.90063726669081
 20
349.20547819388293
 30
0.0
 42
-0.4142135623730951
  0
VERTEX
  5
148F
  8
0
 10
239.90063726669069
 20
342.20547819388293
 30
0.0
  0
VERTEX
  5
1490
  8
0
 10
239.90063726669069
 20
304.20547819388293
 30
0.0
 42
-0.4142135623730951
  0
VERTEX
  5
1491
  8
0
 10
232.90063726669081
 20
297.20547819388293
 30
0.0
  0
VERTEX
  5
1492
  8
0
 10
194.90063726669101
 20
297.20547819388293
 30
0.0
 42
-0.4142135623730957
  0
VERTEX
  5
1493
  8
0
 10
187.90063726669081
 20
304.20547819388293
 30
0.0
  0
SEQEND
  5
1494
  8
0
  0
LINE
  5
C1E
  8
CENTER
  6
CENTER
 10
232.90063726669081
 20
348.70547819388293
 30
0.0
 11
232.90063726669081
 21
335.70547819388293
 31
0.0
  0
LINE
  5
C1F
  8
CENTER
  6
CENTER
 10
194.90063726669069
 20
348.70547819388293
 30
0.0
 11
194.90063726669069
 21
335.70547819388293
 31
0.0
  0
LINE
  5
C20
  8
0
 10
241.90063726669069
 20
355.70547819388298
 30
0.0
 11
241.90063726669069
 21
290.70547819388293
 31
0.0
  0
LINE
  5
C21
  8
CENTER
  6
CENTER
 10
216.40063726669081
 20
340.86856780039238
 30
0.0
 11
216.40063726669081
 21
360.53907759294799
 31
0.0
  0
LINE
  5
C22
  8
0
 10
359.76071555780862
 20
188.06554446481221
 30
0.0
 11
329.76071555780862
 21
187.56554446481221
 31
0.0
  0
LINE
  5
C23
  8
0
 10
359.76071555780862
 20
135.06554446481221
 30
0.0
 11
329.76071555780868
 21
135.56554446481221
 31
0.0
  0
LINE
  5
C24
  8
0
 10
329.76071555780868
 20
135.56554446481221
 30
0.0
 11
329.76071555780868
 21
187.56554446481221
 31
0.0
  0
LINE
  5
C25
  8
0
 10
329.76071555780868
 20
144.06554446481221
 30
0.0
 11
326.76071555780862
 21
144.06554446481221
 31
0.0
  0
ARC
  5
C26
  8
0
 10
326.76071555780862
 20
145.06554446481221
 30
0.0
 40
1.0
 50
180.0
 51
270.0
  0
ARC
  5
C27
  8
0
 10
326.76071555780862
 20
178.06554446481221
 30
0.0
 40
1.0
 50
90.0
 51
180.0
  0
LINE
  5
C28
  8
0
 10
329.76071555780868
 20
179.06554446481209
 30
0.0
 11
326.76071555780862
 21
179.06554446481209
 31
0.0
  0
LINE
  5
C29
  8
0
 10
325.76071555780862
 20
145.06554446481221
 30
0.0
 11
325.76071555780862
 21
178.06554446481221
 31
0.0
  0
LINE
  5
C2A
  8
0
 10
359.76071555780862
 20
135.06554446481221
 30
0.0
 11
359.76071555780862
 21
188.06554446481221
 31
0.0
  0
TEXT
  5
C2B
  8
DIM
  6
CONTINUOUS
 10
317.98860648815901
 20
213.2054781938829
 30
0.0
 40
3.0
  1
4
  7
ROMANSS
 72
     1
 11
319.06003505958751
 21
214.7054781938829
 31
0.0
 73
     2
  0
SOLID
  5
C2D
  8
DIM
  6
CONTINUOUS
 10
322.76071555780862
 20
212.20547819388301
 30
0.0
 11
322.76071555780862
 21
211.2054781938829
 31
0.0
 12
325.76071555780862
 22
211.7054781938829
 32
0.0
 13
325.76071555780862
 23
211.7054781938829
 33
0.0
  0
LINE
  5
C2E
  8
DIM
  6
CONTINUOUS
 10
325.76071555780862
 20
304.70073348070821
 30
0.0
 11
325.76071555780862
 21
210.7054781938829
 31
0.0
  0
SOLID
  5
C2F
  8
DIM
  6
CONTINUOUS
 10
332.76071555780862
 20
212.20547819388301
 30
0.0
 11
332.76071555780862
 21
211.2054781938829
 31
0.0
 12
329.76071555780862
 22
211.7054781938829
 32
0.0
 13
329.76071555780862
 23
211.7054781938829
 33
0.0
  0
LINE
  5
C30
  8
DIM
  6
CONTINUOUS
 10
329.76071555780862
 20
296.20547819388293
 30
0.0
 11
329.76071555780862
 21
210.7054781938829
 31
0.0
  0
LINE
  5
C31
  8
0
  6
CONTINUOUS
 10
350.01071555780851
 20
329.4064400882063
 30
0.0
 11
348.70229357290492
 21
328.65102230300857
 31
0.0
  0
LINE
  5
C32
  8
0
  6
CONTINUOUS
 10
350.51071555780851
 20
328.54041468442182
 30
0.0
 11
349.20229357290492
 21
327.78499689922421
 31
0.0
  0
ARC
  5
C33
  8
0
  6
CONTINUOUS
 10
353.26071555780851
 20
330.70547819388298
 30
0.0
 40
3.5
 50
278.21321070173809
 51
321.78678929826299
  0
LINE
  5
C34
  8
0
  6
CONTINUOUS
 10
356.51071555780851
 20
329.4064400882063
 30
0.0
 11
357.81913754271199
 21
328.65102230300857
 31
0.0
  0
LINE
  5
C35
  8
0
  6
CONTINUOUS
 10
356.01071555780851
 20
328.54041468442182
 30
0.0
 11
357.3191375427121
 21
327.78499689922421
 31
0.0
  0
LINE
  5
C36
  8
0
  6
CONTINUOUS
 10
352.76071555780851
 20
325.7305410083498
 30
0.0
 11
352.76071555780851
 21
327.24137657874508
 31
0.0
  0
LINE
  5
C37
  8
0
  6
CONTINUOUS
 10
353.76071555780851
 20
325.7305410083498
 30
0.0
 11
353.76071555780851
 21
327.24137657874508
 31
0.0
  0
ARC
  5
C38
  8
0
  6
CONTINUOUS
 10
353.26071555780851
 20
330.70547819388298
 30
0.0
 40
3.5
 50
218.21321070173829
 51
261.78678929826179
  0
CIRCLE
  5
C39
  8
0
 10
344.76071555780862
 20
319.20547819388293
 30
0.0
 40
3.9999999999999711
  0
LINE
  5
C3A
  8
CENTER
  6
CENTER
 10
356.46071555780861
 20
319.20547819388293
 30
0.0
 11
333.06071555780858
 21
319.20547819388293
 31
0.0
  0
LINE
  5
C3B
  8
0
  6
CONTINUOUS
 10
348.70229357290492
 20
332.75993408475728
 30
0.0
 11
350.01071555780851
 21
332.00451629955961
 31
0.0
  0
LINE
  5
C3C
  8
0
  6
CONTINUOUS
 10
349.20229357290492
 20
333.6259594885417
 30
0.0
 11
350.51071555780851
 21
332.87054170334397
 31
0.0
  0
ARC
  5
C3D
  8
0
  6
CONTINUOUS
 10
353.26071555780851
 20
330.70547819388298
 30
0.0
 40
3.5
 50
38.213210701738312
 51
81.786789298261766
  0
LINE
  5
C3E
  8
0
  6
CONTINUOUS
 10
357.81913754271199
 20
332.75993408475728
 30
0.0
 11
356.51071555780851
 21
332.00451629955961
 31
0.0
  0
LINE
  5
C3F
  8
0
  6
CONTINUOUS
 10
357.3191375427121
 20
333.6259594885417
 30
0.0
 11
356.01071555780851
 21
332.87054170334397
 31
0.0
  0
LINE
  5
C40
  8
0
  6
CONTINUOUS
 10
352.76071555780851
 20
334.1695798090206
 30
0.0
 11
352.76071555780851
 21
335.68041537941588
 31
0.0
  0
LINE
  5
C41
  8
0
  6
CONTINUOUS
 10
353.76071555780851
 20
334.1695798090206
 30
0.0
 11
353.76071555780851
 21
335.68041537941588
 31
0.0
  0
ARC
  5
C42
  8
0
  6
CONTINUOUS
 10
353.26071555780851
 20
330.70547819388298
 30
0.0
 40
3.5
 50
98.213210701738234
 51
141.7867892982616
  0
LINE
  5
C43
  8
CENTER
  6
CENTER
 10
353.26071555780851
 20
337.56944842814909
 30
0.0
 11
353.26071555780851
 21
323.84150795961682
 31
0.0
  0
CIRCLE
  5
C44
  8
0
  6
CONTINUOUS
 10
353.26071555780851
 20
330.70547819388298
 30
0.0
 40
2.5
  0
ARC
  5
C45
  8
0
  6
CONTINUOUS
 10
353.26071555780851
 20
330.70547819388298
 30
0.0
 40
3.5
 50
338.21321070173769
 51
21.786789298262239
  0
POLYLINE
  5
C46
  8
0
  6
CONTINUOUS
 66
     1
 10
0.0
 20
0.0
 30
0.0
 70
     1
  0
VERTEX
  5
1495
  8
0
  6
CONTINUOUS
 10
354.12674096159299
 20
329.20547819388293
 30
0.0
  0
VERTEX
  5
1496
  8
0
  6
CONTINUOUS
 10
354.99276636537729
 20
330.70547819388298
 30
0.0
  0
VERTEX
  5
1497
  8
0
  6
CONTINUOUS
 10
354.12674096159299
 20
332.20547819388293
 30
0.0
  0
VERTEX
  5
1498
  8
0
  6
CONTINUOUS
 10
352.39469015402409
 20
332.20547819388293
 30
0.0
  0
VERTEX
  5
1499
  8
0
  6
CONTINUOUS
 10
351.52866475023973
 20
330.70547819388298
 30
0.0
  0
VERTEX
  5
149A
  8
0
  6
CONTINUOUS
 10
352.39469015402409
 20
329.20547819388293
 30
0.0
  0
SEQEND
  5
149B
  8
0
  6
CONTINUOUS
  0
ARC
  5
C4E
  8
0
  6
CONTINUOUS
 10
353.26071555780851
 20
330.70547819388298
 30
0.0
 40
3.5
 50
158.2132107017386
 51
201.78678929826131
  0
CIRCLE
  5
C4F
  8
0
 10
344.76071555780862
 20
319.20547819388293
 30
0.0
 40
8.6999999999999993
  0
CIRCLE
  5
C50
  8
0
 10
344.76071555780862
 20
319.20547819388293
 30
0.0
 40
6.7000000000000028
  0
ARC
  5
C51
  8
0
 62
     2
 10
344.76071555780862
 20
319.20547819388293
 30
0.0
 40
6.5999999999999996
 50
333.86110377669672
 51
284.99745208060762
  0
CIRCLE
  5
C52
  8
0
 10
344.76071555780862
 20
319.20547819388293
 30
0.0
 40
5.7000000000000011
  0
LINE
  5
C53
  8
CENTER
  6
CENTER
 10
344.76071555780862
 20
330.90547819388291
 30
0.0
 11
344.76071555780862
 21
307.50547819388288
 31
0.0
  0
LINE
  5
C54
  8
CENTER
  6
CENTER
 10
360.12468579207467
 20
330.70547819388298
 30
0.0
 11
346.3967453235424
 21
330.70547819388298
 31
0.0
  0
CIRCLE
  5
C55
  8
0
 10
353.26071555780851
 20
330.70547819388298
 30
0.0
 40
5.0
  0
CIRCLE
  5
C56
  8
0
 10
353.26071555780851
 20
330.70547819388298
 30
0.0
 40
5.2999999999999989
  0
LINE
  5
C57
  8
0
 10
359.76071555780862
 20
296.70547819388293
 30
0.0
 11
329.76071555780862
 21
297.20547819388293
 31
0.0
  0
ARC
  5
C58
  8
0
 10
326.76071555780862
 20
306.70547819388293
 30
0.0
 40
1.0
 50
180.0
 51
270.0
  0
LINE
  5
C59
  8
0
 10
329.76071555780862
 20
305.70547819388298
 30
0.0
 11
326.76071555780862
 21
305.70547819388298
 31
0.0
  0
ARC
  5
C5A
  8
0
 10
326.76071555780862
 20
339.70547819388293
 30
0.0
 40
1.0
 50
90.0
 51
180.0
  0
LINE
  5
C5B
  8
0
 10
329.76071555780862
 20
340.70547819388293
 30
0.0
 11
326.76071555780862
 21
340.70547819388293
 31
0.0
  0
LINE
  5
C5C
  8
0
 10
325.76071555780862
 20
306.70547819388293
 30
0.0
 11
325.76071555780862
 21
339.70547819388293
 31
0.0
  0
LINE
  5
C5D
  8
0
 10
359.76071555780851
 20
349.70547819388298
 30
0.0
 11
329.76071555780851
 21
349.20547819388293
 31
0.0
  0
LINE
  5
C5E
  8
0
 10
329.76071555780862
 20
297.20547819388293
 30
0.0
 11
329.76071555780862
 21
349.20547819388293
 31
0.0
  0
LINE
  5
C5F
  8
0
 10
359.76071555780862
 20
296.70547819388293
 30
0.0
 11
359.76071555780851
 21
349.70547819388298
 31
0.0
  0
ARC
  5
C60
  8
0
  6
CONTINUOUS
 10
186.40063726669081
 20
389.70547819388293
 30
0.0
 40
2.5
 50
0.0
 51
180.0
  0
LINE
  5
C61
  8
0
 10
183.90063726669081
 20
389.70547819388293
 30
0.0
 11
183.90063726669081
 21
369.70547819388293
 31
0.0
  0
LINE
  5
C62
  8
0
 10
188.90063726669081
 20
389.70547819388293
 30
0.0
 11
188.90063726669081
 21
369.70547819388293
 31
0.0
  0
LINE
  5
C63
  8
0
  6
CONTINUOUS
 10
193.40063726669081
 20
394.70547819388293
 30
0.0
 11
179.40063726669081
 21
394.70547819388293
 31
0.0
  0
LINE
  5
C64
  8
0
  6
CONTINUOUS
 10
194.40063726669081
 20
393.70547819388293
 30
0.0
 11
178.40063726669081
 21
393.70547819388293
 31
0.0
  0
LINE
  5
C65
  8
0
  6
CONTINUOUS
 10
193.40063726669081
 20
394.70547819388293
 30
0.0
 11
194.40063726669081
 21
393.70547819388293
 31
0.0
  0
LINE
  5
C66
  8
0
  6
CONTINUOUS
 10
179.40063726669081
 20
394.70547819388293
 30
0.0
 11
178.40063726669081
 21
393.70547819388293
 31
0.0
  0
LINE
  5
C67
  8
0
 10
329.76071555780868
 20
478.56309722127168
 30
0.0
 11
326.76071555780862
 21
478.56309722127168
 31
0.0
  0
ARC
  5
C68
  8
0
 10
326.76071555780862
 20
477.56309722127168
 30
0.0
 40
1.0
 50
90.0
 51
180.0
  0
ARC
  5
C69
  8
0
 10
326.76071555780862
 20
444.56309722127168
 30
0.0
 40
1.0
 50
180.0
 51
270.0
  0
LINE
  5
C6A
  8
0
 10
329.76071555780868
 20
443.56309722127168
 30
0.0
 11
326.76071555780862
 21
443.56309722127168
 31
0.0
  0
LINE
  5
C6B
  8
0
 10
329.76071555780868
 20
487.06309722127168
 30
0.0
 11
329.76071555780868
 21
435.06309722127168
 31
0.0
  0
LINE
  5
C6C
  8
0
 10
325.76071555780862
 20
477.56309722127168
 30
0.0
 11
325.76071555780862
 21
444.56309722127168
 31
0.0
  0
LINE
  5
C6D
  8
0
 10
359.76071555780862
 20
487.56309722127168
 30
0.0
 11
359.76071555780862
 21
434.56309722127168
 31
0.0
  0
LINE
  5
C6E
  8
0
 10
359.76071555780862
 20
434.56309722127168
 30
0.0
 11
329.76071555780862
 21
435.06309722127168
 31
0.0
  0
LINE
  5
C6F
  8
0
 10
359.76071555780862
 20
487.56309722127168
 30
0.0
 11
329.76071555780868
 21
487.06309722127168
 31
0.0
  0
SOLID
  5
C70
  8
DIM
  6
CONTINUOUS
 10
408.76071555780862
 20
367.70547819388293
 30
0.0
 11
409.76071555780862
 21
367.70547819388293
 31
0.0
 12
409.26071555780862
 22
364.70547819388293
 32
0.0
 13
409.26071555780862
 23
364.70547819388293
 33
0.0
  0
LINE
  5
C71
  8
DIM
  6
CONTINUOUS
 10
409.26071555780862
 20
391.70547819388298
 30
0.0
 11
409.26071555780862
 21
356.72163550639522
 31
0.0
  0
SOLID
  5
C72
  8
DIM
  6
CONTINUOUS
 10
416.76071555780862
 20
370.20547819388298
 30
0.0
 11
417.76071555780862
 21
370.20547819388298
 31
0.0
 12
417.26071555780862
 22
367.20547819388293
 32
0.0
 13
417.26071555780862
 23
367.20547819388293
 33
0.0
  0
LINE
  5
C73
  8
DIM
  6
CONTINUOUS
 10
687.21304223966922
 20
347.67920121354689
 30
0.0
 11
675.08120420804653
 21
370.08150832254938
 31
0.0
  0
TEXT
  5
C74
  8
DIM
  6
CONTINUOUS
 10
591.14405835412708
 20
367.0968487078456
 30
0.0
 40
3.0
  1
2-G1/4
  7
ROMANSS
 11
591.14405835412708
 21
368.5968487078456
 31
0.0
 73
     2
  0
LINE
  5
C75
  8
DIM
  6
CONTINUOUS
 10
789.62079384892616
 20
251.7054781938829
 30
0.0
 11
789.62079384892627
 21
394.70547819388298
 31
0.0
  0
LINE
  5
C76
  8
DIM
  6
CONTINUOUS
 10
781.6207938489265
 20
275.1066725767559
 30
0.0
 11
781.6207938489265
 21
372.92533553190748
 31
0.0
  0
LINE
  5
C77
  8
0
 10
728.1207938489265
 20
393.70547819388293
 30
0.0
 11
728.1207938489265
 21
364.70547819388293
 31
0.0
  0
LINE
  5
C78
  8
0
 10
744.1207938489265
 20
393.70547819388293
 30
0.0
 11
744.1207938489265
 21
364.70547819388293
 31
0.0
  0
LINE
  5
C79
  8
CENTER
  6
CENTER
 10
736.1207938489265
 20
397.70547819388293
 30
0.0
 11
736.12079384892672
 21
249.1022831034351
 31
0.0
  0
LINE
  5
C7A
  8
0
 10
451.26071555780862
 20
392.20547819388293
 30
0.0
 11
451.26071555780862
 21
367.20547819388293
 31
0.0
  0
LINE
  5
C7B
  8
0
 10
453.26071555780862
 20
393.70547819388293
 30
0.0
 11
453.26071555780862
 21
364.70547819388293
 31
0.0
  0
LINE
  5
C7C
  8
0
 10
469.26071555780868
 20
393.70547819388293
 30
0.0
 11
469.26071555780862
 21
364.70547819388293
 31
0.0
  0
LINE
  5
C7D
  8
CENTER
  6
CENTER
 10
461.26071555780862
 20
397.70547819388293
 30
0.0
 11
461.26071555780862
 21
249.5091298549309
 31
0.0
  0
LINE
  5
C7E
  8
0
 10
498.76071555780862
 20
185.76554446481211
 30
0.0
 11
562.76071555780857
 21
185.76554446481211
 31
0.0
  0
LINE
  5
C7F
  8
0
 10
498.76071555780862
 20
173.3677687674639
 30
0.0
 11
562.76071555780857
 21
173.3677687674639
 31
0.0
  0
LINE
  5
C80
  8
0
 10
498.76071555780862
 20
137.3655444648121
 30
0.0
 11
562.76071555780857
 21
137.3655444648121
 31
0.0
  0
LINE
  5
C81
  8
0
 10
498.76071555780862
 20
149.76332016216031
 30
0.0
 11
562.76071555780857
 21
149.76332016216031
 31
0.0
  0
LINE
  5
C82
  8
0
 10
498.76071555780862
 20
335.00770249653482
 30
0.0
 11
562.76071555780857
 21
335.00770249653482
 31
0.0
  0
LINE
  5
C83
  8
0
 10
498.76071555780862
 20
347.40547819388303
 30
0.0
 11
562.76071555780857
 21
347.4054781938828
 31
0.0
  0
LINE
  5
C84
  8
0
 10
498.76071555780862
 20
311.40325389123109
 30
0.0
 11
562.76071555780857
 21
311.40325389123109
 31
0.0
  0
LINE
  5
C85
  8
0
 10
498.76071555780862
 20
299.00547819388299
 30
0.0
 11
562.76071555780857
 21
299.00547819388299
 31
0.0
  0
CIRCLE
  5
C86
  8
0
  6
CONTINUOUS
 10
461.26071555780862
 20
134.06554446481221
 30
0.0
 40
35.0
  0
LINE
  5
C87
  8
0
 10
498.76071555780862
 20
96.565544464812206
 30
0.0
 11
498.76071555780862
 21
189.56554446481221
 31
0.0
  0
LINE
  5
C88
  8
0
 10
423.76071555780862
 20
96.565544464812206
 30
0.0
 11
423.76071555780862
 21
189.56554446481221
 31
0.0
  0
LINE
  5
C89
  8
CENTER
  6
CENTER
 10
461.26071555780862
 20
93.565544464812206
 30
0.0
 11
461.26071555780862
 21
192.56554446481209
 31
0.0
  0
CIRCLE
  5
C8A
  8
0
  6
CONTINUOUS
 10
461.26071555780862
 20
134.06554446481221
 30
0.0
 40
36.0
  0
CIRCLE
  5
C8B
  8
CENTER
  6
CENTER
 10
461.26071555780862
 20
134.06554446481221
 30
0.0
 40
30.0
  0
LINE
  5
C8C
  8
0
 10
423.76071555780862
 20
96.565544464812206
 30
0.0
 11
498.76071555780862
 21
96.565544464812206
 31
0.0
  0
CIRCLE
  5
C8D
  8
0
  6
CONTINUOUS
 10
440.0475121222122
 20
112.85234102921579
 30
0.0
 40
2.0499999999999989
  0
LINE
  5
C8E
  8
CENTER
  6
CENTER
 10
435.80487143509282
 20
108.6097003420965
 30
0.0
 11
444.64370619992468
 21
117.4485351069282
 31
0.0
  0
ARC
  5
C8F
  8
0
  6
CONTINUOUS
 62
     2
 10
440.04751212221208
 20
112.85234102921591
 30
0.0
 40
2.5
 50
201.03635853977079
 51
155.01845143419209
  0
CIRCLE
  5
C90
  8
0
  6
CONTINUOUS
 10
431.26071555780862
 20
104.06554446481211
 30
0.0
 40
2.5
  0
ARC
  5
C91
  8
0
  6
CONTINUOUS
 62
     2
 10
431.26071555780862
 20
104.06554446481211
 30
0.0
 40
3.0
 50
338.35967540570613
 51
287.47149231941358
  0
LINE
  5
C92
  8
CENTER
  6
CENTER
 10
431.26071555780862
 20
98.065544464812206
 30
0.0
 11
431.26071555780862
 21
110.06554446481221
 31
0.0
  0
LINE
  5
C93
  8
CENTER
  6
CENTER
 10
425.26071555780862
 20
104.06554446481211
 30
0.0
 11
437.26071555780862
 21
104.06554446481211
 31
0.0
  0
LINE
  5
C94
  8
CENTER
  6
CENTER
 10
485.26071555780862
 20
104.06554446481211
 30
0.0
 11
497.26071555780862
 21
104.06554446481211
 31
0.0
  0
CIRCLE
  5
C95
  8
0
  6
CONTINUOUS
 10
491.26071555780851
 20
104.06554446481211
 30
0.0
 40
2.5
  0
ARC
  5
C96
  8
0
  6
CONTINUOUS
 62
     2
 10
491.26071555780851
 20
104.06554446481211
 30
0.0
 40
3.0
 50
248.3596754057061
 51
197.47149231941381
  0
LINE
  5
C97
  8
CENTER
  6
CENTER
 10
491.26071555780851
 20
98.065544464812206
 30
0.0
 11
491.26071555780851
 21
110.06554446481221
 31
0.0
  0
POLYLINE
  5
C98
  8
0
  6
CONTINUOUS
 66
     1
 10
0.0
 20
0.0
 30
0.0
  0
VERTEX
  5
149C
  8
0
  6
CONTINUOUS
 10
503.76071555780862
 20
115.56554446481211
 30
0.0
 42
-0.0851703918331037
  0
VERTEX
  5
149D
  8
0
  6
CONTINUOUS
 10
503.07271555780858
 20
111.56554446481211
 30
0.0
 42
-0.3457679526359281
  0
VERTEX
  5
149E
  8
0
  6
CONTINUOUS
 10
503.41429523448352
 20
108.6655444648125
 30
0.0
  0
SEQEND
  5
149F
  8
0
  6
CONTINUOUS
  0
LINE
  5
C9D
  8
0
  6
CONTINUOUS
 10
505.5607155578079
 20
111.56554446481221
 30
0.0
 11
506.76071555780868
 21
112.7655444648129
 31
0.0
  0
LINE
  5
C9E
  8
0
  6
CONTINUOUS
 10
505.5607155578079
 20
119.56554446481221
 30
0.0
 11
505.5607155578079
 21
111.56554446481221
 31
0.0
  0
LINE
  5
C9F
  8
0
  6
CONTINUOUS
 10
503.76071555780862
 20
121.86554446481141
 30
0.0
 11
503.76071555780862
 21
109.26554446481281
 31
0.0
  0
POLYLINE
  5
CA0
  8
0
  6
CONTINUOUS
 66
     1
 10
0.0
 20
0.0
 30
0.0
  0
VERTEX
  5
14A0
  8
0
  6
CONTINUOUS
 10
498.76071555780862
 20
115.56554446481211
 30
0.0
 42
0.0851703918331037
  0
VERTEX
  5
14A1
  8
0
  6
CONTINUOUS
 10
499.44871555780873
 20
111.56554446481211
 30
0.0
 42
0.3457679526359281
  0
VERTEX
  5
14A2
  8
0
  6
CONTINUOUS
 10
499.10713588113379
 20
108.6655444648124
 30
0.0
  0
SEQEND
  5
14A3
  8
0
  6
CONTINUOUS
  0
POLYLINE
  5
CA5
  8
0
  6
CONTINUOUS
 66
     1
 10
0.0
 20
0.0
 30
0.0
 70
     1
  0
VERTEX
  5
14A4
  8
0
  6
CONTINUOUS
 10
750.57934196459928
 20
311.70547819388293
 30
0.0
  0
VERTEX
  5
14A5
  8
0
  6
CONTINUOUS
 10
746.53789008027184
 20
304.70547819388293
 30
0.0
  0
VERTEX
  5
14A6
  8
0
  6
CONTINUOUS
 10
750.57934196459928
 20
297.70547819388293
 30
0.0
  0
VERTEX
  5
14A7
  8
0
  6
CONTINUOUS
 10
758.66224573325405
 20
297.70547819388293
 30
0.0
  0
VERTEX
  5
14A8
  8
0
  6
CONTINUOUS
 10
762.70369761758138
 20
304.70547819388293
 30
0.0
  0
VERTEX
  5
14A9
  8
0
  6
CONTINUOUS
 10
758.66224573325405
 20
311.70547819388293
 30
0.0
  0
SEQEND
  5
14AA
  8
0
  6
CONTINUOUS
  0
CIRCLE
  5
CAD
  8
0
  6
CONTINUOUS
 10
754.62079384892672
 20
304.70547819388293
 30
0.0
 40
7.0
  0
CIRCLE
  5
CAE
  8
0
  6
CONTINUOUS
 10
754.62079384892672
 20
304.70547819388293
 30
0.0
 40
4.0
  0
LINE
  5
CAF
  8
CENTER
  6
CENTER
 10
744.62079384892661
 20
304.70547819388293
 30
0.0
 11
764.62079384892672
 21
304.70547819388293
 31
0.0
  0
CIRCLE
  5
CB0
  8
0
  6
CONTINUOUS
 10
482.47391899340499
 20
155.2787479004086
 30
0.0
 40
2.0499999999999989
  0
LINE
  5
CB1
  8
CENTER
  6
CENTER
 10
478.19592296722641
 20
151.00075187422991
 30
0.0
 11
486.75191501958358
 21
159.55674392658719
 31
0.0
  0
ARC
  5
CB2
  8
0
  6
CONTINUOUS
 62
     2
 10
482.47391899340488
 20
155.2787479004086
 30
0.0
 40
2.5
 50
201.03635853977079
 51
155.01845143419189
  0
LINE
  5
CB3
  8
CENTER
  6
CENTER
 10
423.76071555780862
 20
134.06554446481221
 30
0.0
 11
498.76071555780862
 21
134.06554446481221
 31
0.0
  0
LINE
  5
CB4
  8
0
 10
423.76071555780862
 20
189.56554446481221
 30
0.0
 11
498.76071555780862
 21
189.56554446481221
 31
0.0
  0
LINE
  5
CB5
  8
DIM
  6
CONTINUOUS
 10
426.76071555780868
 20
219.7054781938829
 30
0.0
 11
495.76071555780862
 21
219.7054781938829
 31
0.0
  0
LINE
  5
CB6
  8
DIM
  6
CONTINUOUS
 10
428.26071555780862
 20
227.7054781938829
 30
0.0
 11
494.26071555780868
 21
227.7054781938829
 31
0.0
  0
LINE
  5
CB7
  8
0
  6
CONTINUOUS
 10
426.26071555780862
 20
363.70547819388293
 30
0.0
 11
496.26071555780862
 21
363.70547819388293
 31
0.0
  0
LINE
  5
CB8
  8
0
  6
CONTINUOUS
 10
425.26071555780862
 20
362.70547819388293
 30
0.0
 11
497.26071555780862
 21
362.70547819388293
 31
0.0
  0
LINE
  5
CB9
  8
0
  6
CONTINUOUS
 10
425.26071555780862
 20
283.70547819388293
 30
0.0
 11
497.26071555780862
 21
283.70547819388293
 31
0.0
  0
LINE
  5
CBA
  8
0
  6
CONTINUOUS
 10
426.26071555780862
 20
282.70547819388293
 30
0.0
 11
496.26071555780862
 21
282.70547819388293
 31
0.0
  0
LINE
  5
CBB
  8
0
  6
CONTINUOUS
 10
423.76071555780862
 20
290.70547819388293
 30
0.0
 11
498.76071555780862
 21
290.70547819388293
 31
0.0
  0
LINE
  5
CBC
  8
0
  6
CONTINUOUS
 10
423.76071555780862
 20
355.70547819388298
 30
0.0
 11
498.76071555780862
 21
355.70547819388281
 31
0.0
  0
LINE
  5
CBD
  8
DIM
  6
CONTINUOUS
 10
425.31914772036907
 20
363.70547819388293
 30
0.0
 11
408.26071555780862
 21
363.70547819388293
 31
0.0
  0
POLYLINE
  5
CBE
  8
0
  6
CONTINUOUS
 66
     1
 10
0.0
 20
0.0
 30
0.0
 70
     1
 40
1.0
 41
1.0
  0
VERTEX
  5
14AB
  8
0
  6
CONTINUOUS
 10
461.76071555780851
 20
323.20547819388293
 30
0.0
 42
1.0
  0
VERTEX
  5
14AC
  8
0
  6
CONTINUOUS
 10
460.76071555780862
 20
323.20547819388293
 30
0.0
 42
1.0
  0
SEQEND
  5
14AD
  8
0
  6
CONTINUOUS
  0
CIRCLE
  5
CC2
  8
0
  6
CONTINUOUS
 10
461.26071555780862
 20
323.20547819388293
 30
0.0
 40
4.0
  0
LINE
  5
CC3
  8
CENTER
  6
CENTER
 10
482.50426322486072
 20
115.56554446481211
 30
0.0
 11
509.76071555780868
 21
115.56554446481211
 31
0.0
  0
LINE
  5
CC4
  8
0
  6
CONTINUOUS
 62
     2
 10
503.76071555780862
 20
112.36554446481141
 30
0.0
 11
506.36071555780723
 21
112.36554446481141
 31
0.0
  0
LINE
  5
CC5
  8
0
  6
CONTINUOUS
 10
503.06787491115819
 20
123.06554446481221
 30
0.0
 11
503.76071555780862
 21
121.86554446481141
 31
0.0
  0
POLYLINE
  5
CC6
  8
0
  6
CONTINUOUS
 66
     1
 10
0.0
 20
0.0
 30
0.0
  0
VERTEX
  5
14AE
  8
0
  6
CONTINUOUS
 10
503.76071555780862
 20
115.56554446481211
 30
0.0
 42
0.0851703918331037
  0
VERTEX
  5
14AF
  8
0
  6
CONTINUOUS
 10
503.07271555780858
 20
119.56554446481221
 30
0.0
 42
0.3457679526359281
  0
VERTEX
  5
14B0
  8
0
  6
CONTINUOUS
 10
503.41429523448352
 20
122.4655444648118
 30
0.0
  0
SEQEND
  5
14B1
  8
0
  6
CONTINUOUS
  0
LINE
  5
CCB
  8
0
  6
CONTINUOUS
 10
505.5607155578079
 20
119.56554446481221
 30
0.0
 11
506.76071555780868
 21
118.36554446481141
 31
0.0
  0
LINE
  5
CCC
  8
0
  6
CONTINUOUS
 10
506.76071555780868
 20
118.36554446481141
 30
0.0
 11
506.76071555780868
 21
112.7655444648129
 31
0.0
  0
LINE
  5
CCD
  8
0
  6
CONTINUOUS
 10
503.76071555780862
 20
119.56554446481221
 30
0.0
 11
505.5607155578079
 21
119.56554446481221
 31
0.0
  0
LINE
  5
CCE
  8
0
  6
CONTINUOUS
 62
     2
 10
503.76071555780862
 20
118.7655444648129
 30
0.0
 11
506.36071555780723
 21
118.7655444648129
 31
0.0
  0
LINE
  5
CCF
  8
0
  6
CONTINUOUS
 10
499.45355620445912
 20
123.06554446481211
 30
0.0
 11
498.76071555780862
 21
121.86554446481141
 31
0.0
  0
POLYLINE
  5
CD0
  8
0
  6
CONTINUOUS
 66
     1
 10
0.0
 20
0.0
 30
0.0
  0
VERTEX
  5
14B2
  8
0
  6
CONTINUOUS
 10
498.76071555780862
 20
115.56554446481211
 30
0.0
 42
-0.0851703918331037
  0
VERTEX
  5
14B3
  8
0
  6
CONTINUOUS
 10
499.44871555780873
 20
119.56554446481211
 30
0.0
 42
-0.3457679526359281
  0
VERTEX
  5
14B4
  8
0
  6
CONTINUOUS
 10
499.10713588113379
 20
122.4655444648117
 30
0.0
  0
SEQEND
  5
14B5
  8
0
  6
CONTINUOUS
  0
LINE
  5
CD5
  8
0
  6
CONTINUOUS
 10
499.44871555780873
 20
119.56554446481221
 30
0.0
 11
503.07271555780858
 21
119.56554446481221
 31
0.0
  0
LINE
  5
CD6
  8
0
  6
CONTINUOUS
 10
499.45355620445912
 20
123.06554446481221
 30
0.0
 11
503.06787491115819
 21
123.06554446481221
 31
0.0
  0
ARC
  5
CD7
  8
0
  6
CONTINUOUS
 62
     2
 10
754.62079384892672
 20
304.70547819388293
 30
0.0
 40
3.399999999999999
 50
74.242562599197527
 51
23.28322721929047
  0
POLYLINE
  5
CD8
  8
0
  6
CONTINUOUS
 66
     1
 10
0.0
 20
0.0
 30
0.0
 70
     1
  0
VERTEX
  5
14B6
  8
0
  6
CONTINUOUS
 10
753.46609331054674
 20
306.70547819388293
 30
0.0
  0
VERTEX
  5
14B7
  8
0
  6
CONTINUOUS
 10
752.31139277216846
 20
304.70547819388293
 30
0.0
  0
VERTEX
  5
14B8
  8
0
  6
CONTINUOUS
 10
753.46609331054674
 20
302.70547819388293
 30
0.0
  0
VERTEX
  5
14B9
  8
0
  6
CONTINUOUS
 10
755.77549438730659
 20
302.70547819388293
 30
0.0
  0
VERTEX
  5
14BA
  8
0
  6
CONTINUOUS
 10
756.93019492568476
 20
304.70547819388293
 30
0.0
  0
VERTEX
  5
14BB
  8
0
  6
CONTINUOUS
 10
755.77549438730659
 20
306.70547819388293
 30
0.0
  0
SEQEND
  5
14BC
  8
0
  6
CONTINUOUS
  0
LINE
  5
CE0
  8
CENTER
  6
CENTER
 10
754.62079384892672
 20
314.70547819388293
 30
0.0
 11
754.62079384892672
 21
294.70547819388293
 31
0.0
  0
POLYLINE
  5
CE1
  8
0
  6
CONTINUOUS
 66
     1
 10
0.0
 20
0.0
 30
0.0
  0
VERTEX
  5
14BD
  8
0
  6
CONTINUOUS
 10
442.76071555780862
 20
194.56554446481209
 30
0.0
 42
0.0851703918331037
  0
VERTEX
  5
14BE
  8
0
  6
CONTINUOUS
 10
438.76071555780862
 20
193.87754446481199
 30
0.0
 42
0.3457679526359281
  0
VERTEX
  5
14BF
  8
0
  6
CONTINUOUS
 10
435.86071555780899
 20
194.2191241414869
 30
0.0
  0
SEQEND
  5
14C0
  8
0
  6
CONTINUOUS
  0
LINE
  5
CE6
  8
0
  6
CONTINUOUS
 10
438.76071555780862
 20
196.36554446481139
 30
0.0
 11
439.96071555780941
 21
197.56554446481221
 31
0.0
  0
LINE
  5
CE7
  8
0
  6
CONTINUOUS
 10
446.76071555780862
 20
196.36554446481139
 30
0.0
 11
438.76071555780862
 21
196.36554446481139
 31
0.0
  0
LINE
  5
CE8
  8
0
  6
CONTINUOUS
 10
449.0607155578079
 20
194.56554446481221
 30
0.0
 11
436.46071555780918
 21
194.56554446481221
 31
0.0
  0
POLYLINE
  5
CE9
  8
0
  6
CONTINUOUS
 66
     1
 10
0.0
 20
0.0
 30
0.0
  0
VERTEX
  5
14C1
  8
0
  6
CONTINUOUS
 10
442.76071555780851
 20
189.56554446481209
 30
0.0
 42
-0.0851703918331037
  0
VERTEX
  5
14C2
  8
0
  6
CONTINUOUS
 10
438.76071555780851
 20
190.25354446481219
 30
0.0
 42
-0.3457679526359281
  0
VERTEX
  5
14C3
  8
0
  6
CONTINUOUS
 10
435.86071555780887
 20
189.9119647881374
 30
0.0
  0
SEQEND
  5
14C4
  8
0
  6
CONTINUOUS
  0
LINE
  5
CEE
  8
CENTER
  6
CENTER
 10
431.26071555780862
 20
158.06554446481221
 30
0.0
 11
431.26071555780862
 21
170.06554446481221
 31
0.0
  0
CIRCLE
  5
CEF
  8
0
  6
CONTINUOUS
 10
431.26071555780862
 20
164.06554446481221
 30
0.0
 40
2.5
  0
ARC
  5
CF0
  8
0
  6
CONTINUOUS
 62
     2
 10
431.26071555780862
 20
164.06554446481221
 30
0.0
 40
3.0
 50
338.35967540570613
 51
287.47149231941358
  0
LINE
  5
CF1
  8
CENTER
  6
CENTER
 10
425.26071555780862
 20
164.06554446481201
 30
0.0
 11
437.26071555780862
 21
164.06554446481221
 31
0.0
  0
LINE
  5
CF2
  8
0
  6
CONTINUOUS
 10
435.26071555780862
 20
193.87270381816171
 30
0.0
 11
436.46071555780929
 21
194.56554446481221
 31
0.0
  0
LINE
  5
CF3
  8
0
  6
CONTINUOUS
 62
     2
 10
439.5607155578079
 20
194.56554446481221
 30
0.0
 11
439.5607155578079
 21
197.16554446481069
 31
0.0
  0
LINE
  5
CF4
  8
0
  6
CONTINUOUS
 10
438.76071555780851
 20
194.56554446481221
 30
0.0
 11
438.76071555780862
 21
196.36554446481139
 31
0.0
  0
LINE
  5
CF5
  8
0
  6
CONTINUOUS
 10
435.26071555780851
 20
190.25838511146259
 30
0.0
 11
436.46071555780918
 21
189.56554446481221
 31
0.0
  0
LINE
  5
CF6
  8
0
  6
CONTINUOUS
 10
435.26071555780862
 20
190.25838511146259
 30
0.0
 11
435.26071555780862
 21
193.87270381816171
 31
0.0
  0
LINE
  5
CF7
  8
0
  6
CONTINUOUS
 10
438.76071555780862
 20
190.25354446481231
 30
0.0
 11
438.76071555780862
 21
193.8775444648121
 31
0.0
  0
LINE
  5
CF8
  8
0
  6
CONTINUOUS
 10
450.26071555780862
 20
193.87270381816171
 30
0.0
 11
449.0607155578079
 21
194.56554446481221
 31
0.0
  0
POLYLINE
  5
CF9
  8
0
  6
CONTINUOUS
 66
     1
 10
0.0
 20
0.0
 30
0.0
  0
VERTEX
  5
14C5
  8
0
  6
CONTINUOUS
 10
442.76071555780862
 20
194.56554446481209
 30
0.0
 42
-0.0851703918331037
  0
VERTEX
  5
14C6
  8
0
  6
CONTINUOUS
 10
446.76071555780862
 20
193.87754446481199
 30
0.0
 42
-0.3457679526359281
  0
VERTEX
  5
14C7
  8
0
  6
CONTINUOUS
 10
449.6607155578082
 20
194.2191241414869
 30
0.0
  0
SEQEND
  5
14C8
  8
0
  6
CONTINUOUS
  0
LINE
  5
CFE
  8
CENTER
  6
CENTER
 10
442.76071555780862
 20
173.30909213186411
 30
0.0
 11
442.76071555780862
 21
200.56554446481221
 31
0.0
  0
LINE
  5
CFF
  8
0
  6
CONTINUOUS
 10
446.76071555780862
 20
196.36554446481139
 30
0.0
 11
445.56071555780778
 21
197.56554446481221
 31
0.0
  0
LINE
  5
D00
  8
0
  6
CONTINUOUS
 10
445.56071555780778
 20
197.56554446481221
 30
0.0
 11
439.96071555780941
 21
197.56554446481221
 31
0.0
  0
LINE
  5
D01
  8
0
  6
CONTINUOUS
 10
446.76071555780862
 20
194.56554446481221
 30
0.0
 11
446.76071555780862
 21
196.36554446481139
 31
0.0
  0
LINE
  5
D02
  8
0
  6
CONTINUOUS
 62
     2
 10
445.96071555780929
 20
194.56554446481221
 30
0.0
 11
445.96071555780929
 21
197.16554446481069
 31
0.0
  0
LINE
  5
D03
  8
0
  6
CONTINUOUS
 10
450.26071555780851
 20
190.25838511146259
 30
0.0
 11
449.06071555780778
 21
189.56554446481221
 31
0.0
  0
POLYLINE
  5
D04
  8
0
  6
CONTINUOUS
 66
     1
 10
0.0
 20
0.0
 30
0.0
  0
VERTEX
  5
14C9
  8
0
  6
CONTINUOUS
 10
442.76071555780851
 20
189.56554446481209
 30
0.0
 42
0.0851703918331037
  0
VERTEX
  5
14CA
  8
0
  6
CONTINUOUS
 10
446.76071555780851
 20
190.25354446481219
 30
0.0
 42
0.3457679526359281
  0
VERTEX
  5
14CB
  8
0
  6
CONTINUOUS
 10
449.66071555780809
 20
189.9119647881374
 30
0.0
  0
SEQEND
  5
14CC
  8
0
  6
CONTINUOUS
  0
LINE
  5
D09
  8
0
  6
CONTINUOUS
 10
446.76071555780862
 20
190.25354446481219
 30
0.0
 11
446.76071555780862
 21
193.8775444648121
 31
0.0
  0
LINE
  5
D0A
  8
0
  6
CONTINUOUS
 10
450.26071555780862
 20
190.25838511146259
 30
0.0
 11
450.26071555780862
 21
193.87270381816171
 31
0.0
  0
POLYLINE
  5
D0B
  8
0
  6
CONTINUOUS
 66
     1
 10
0.0
 20
0.0
 30
0.0
 70
     1
  0
VERTEX
  5
14CD
  8
0
  6
CONTINUOUS
 10
438.71926367348118
 20
311.70547819388293
 30
0.0
  0
VERTEX
  5
14CE
  8
0
  6
CONTINUOUS
 10
434.67781178915379
 20
304.70547819388293
 30
0.0
  0
VERTEX
  5
14CF
  8
0
  6
CONTINUOUS
 10
438.71926367348118
 20
297.70547819388293
 30
0.0
  0
VERTEX
  5
14D0
  8
0
  6
CONTINUOUS
 10
446.8021674421359
 20
297.70547819388293
 30
0.0
  0
VERTEX
  5
14D1
  8
0
  6
CONTINUOUS
 10
450.8436193264634
 20
304.70547819388293
 30
0.0
  0
VERTEX
  5
14D2
  8
0
  6
CONTINUOUS
 10
446.8021674421359
 20
311.70547819388293
 30
0.0
  0
SEQEND
  5
14D3
  8
0
  6
CONTINUOUS
  0
CIRCLE
  5
D13
  8
0
  6
CONTINUOUS
 10
442.76071555780862
 20
304.70547819388293
 30
0.0
 40
7.0
  0
POLYLINE
  5
D14
  8
0
  6
CONTINUOUS
 66
     1
 10
0.0
 20
0.0
 30
0.0
 70
     1
  0
VERTEX
  5
14D4
  8
0
  6
CONTINUOUS
 10
441.60601501942858
 20
306.70547819388293
 30
0.0
  0
VERTEX
  5
14D5
  8
0
  6
CONTINUOUS
 10
440.45131448105042
 20
304.70547819388293
 30
0.0
  0
VERTEX
  5
14D6
  8
0
  6
CONTINUOUS
 10
441.60601501942858
 20
302.70547819388293
 30
0.0
  0
VERTEX
  5
14D7
  8
0
  6
CONTINUOUS
 10
443.91541609618849
 20
302.70547819388293
 30
0.0
  0
VERTEX
  5
14D8
  8
0
  6
CONTINUOUS
 10
445.07011663456672
 20
304.70547819388293
 30
0.0
  0
VERTEX
  5
14D9
  8
0
  6
CONTINUOUS
 10
443.91541609618849
 20
306.70547819388293
 30
0.0
  0
SEQEND
  5
14DA
  8
0
  6
CONTINUOUS
  0
ARC
  5
D1C
  8
0
  6
CONTINUOUS
 62
     2
 10
442.76071555780862
 20
304.70547819388293
 30
0.0
 40
3.399999999999999
 50
74.242562599195679
 51
23.283227219290101
  0
CIRCLE
  5
D1D
  8
0
  6
CONTINUOUS
 10
442.76071555780862
 20
304.70547819388293
 30
0.0
 40
4.0
  0
LINE
  5
D1E
  8
CENTER
  6
CENTER
 10
442.76071555780862
 20
314.70547819388293
 30
0.0
 11
442.76071555780862
 21
294.70547819388293
 31
0.0
  0
TEXT
  5
D1F
  8
DIM
  6
CONTINUOUS
 10
407.76071555780851
 20
358.40731605445939
 30
0.0
 40
3.0
  1
1
 50
90.0
  7
ROMANSS
 72
     1
 11
406.26071555780862
 21
358.76445891160222
 31
0.0
 73
     2
  0
SOLID
  5
D20
  8
DIM
  6
CONTINUOUS
 10
408.76071555780862
 20
360.70547819388293
 30
0.0
 11
409.76071555780862
 21
360.70547819388293
 31
0.0
 12
409.26071555780862
 22
363.70547819388293
 32
0.0
 13
409.26071555780862
 23
363.70547819388293
 33
0.0
  0
LINE
  5
D21
  8
DIM
  6
CONTINUOUS
 10
447.76071555780862
 20
364.70547819388293
 30
0.0
 11
408.26071555780862
 21
364.70547819388293
 31
0.0
  0
LINE
  5
D22
  8
DIM
  6
CONTINUOUS
 10
450.26071555780862
 20
367.20547819388293
 30
0.0
 11
416.26071555780851
 21
367.20547819388293
 31
0.0
  0
TEXT
  5
D23
  8
DIM
  6
CONTINUOUS
 10
457.40357270066579
 20
213.2054781938829
 30
0.0
 40
3.0
  1
263
  7
ROMANSS
 72
     1
 11
461.26071555780862
 21
214.7054781938829
 31
0.0
 73
     2
  0
TEXT
  5
D24
  8
DIM
  6
CONTINUOUS
 10
458.83214412923718
 20
221.2054781938829
 30
0.0
 40
3.0
  1
75
  7
ROMANSS
 72
     1
 11
461.26071555780862
 21
222.7054781938829
 31
0.0
 73
     2
  0
SOLID
  5
D25
  8
DIM
  6
CONTINUOUS
 10
426.76071555780868
 20
220.20547819388301
 30
0.0
 11
426.76071555780868
 21
219.2054781938829
 31
0.0
 12
423.76071555780862
 22
219.7054781938829
 32
0.0
 13
423.76071555780862
 23
219.7054781938829
 33
0.0
  0
LINE
  5
D26
  8
DIM
  6
CONTINUOUS
 10
423.76071555780862
 20
289.79554911272999
 30
0.0
 11
423.76071555780862
 21
218.41796255384509
 31
0.0
  0
TEXT
  5
D27
  8
DIM
  6
CONTINUOUS
 10
457.4750012720944
 20
229.2054781938829
 30
0.0
 40
3.0
  1
%%c72
  7
ROMANSS
 72
     1
 11
461.26071555780862
 21
230.7054781938829
 31
0.0
 73
     2
  0
SOLID
  5
D28
  8
DIM
  6
CONTINUOUS
 10
428.26071555780862
 20
228.2054781938829
 30
0.0
 11
428.26071555780862
 21
227.2054781938829
 31
0.0
 12
425.26071555780862
 22
227.7054781938829
 32
0.0
 13
425.26071555780862
 23
227.7054781938829
 33
0.0
  0
LINE
  5
D29
  8
DIM
  6
CONTINUOUS
 10
425.26071555780862
 20
282.63315087451758
 30
0.0
 11
425.26071555780862
 21
226.31840431503281
 31
0.0
  0
LINE
  5
D2A
  8
CENTER
  6
CENTER
 10
431.26071555780868
 20
304.4844309380797
 30
0.0
 11
431.26071555780868
 21
287.75292399203647
 31
0.0
  0
LINE
  5
D2B
  8
CENTER
  6
CENTER
 10
431.26071555780868
 20
342.45569879167812
 30
0.0
 11
431.26071555780868
 21
358.65803239572932
 31
0.0
  0
LINE
  5
D2C
  8
0
 10
473.76071555780862
 20
364.70547819388293
 30
0.0
 11
473.76071555780862
 21
363.70547819388293
 31
0.0
  0
LINE
  5
D2D
  8
0
 10
448.76071555780862
 20
364.70547819388293
 30
0.0
 11
448.76071555780862
 21
363.70547819388293
 31
0.0
  0
LINE
  5
D2E
  8
0
  6
CONTINUOUS
 10
451.26071555780862
 20
367.20547819388293
 30
0.0
 11
453.26071555780862
 21
367.20547819388293
 31
0.0
  0
LINE
  5
D2F
  8
0
  6
CONTINUOUS
 10
448.76071555780862
 20
364.70547819388293
 30
0.0
 11
473.76071555780862
 21
364.70547819388293
 31
0.0
  0
LINE
  5
D30
  8
0
  6
CONTINUOUS
 10
425.26071555780862
 20
362.70547819388293
 30
0.0
 11
426.26071555780862
 21
363.70547819388293
 31
0.0
  0
LINE
  5
D31
  8
0
 10
425.26071555780862
 20
355.70547819388298
 30
0.0
 11
425.26071555780862
 21
362.70547819388293
 31
0.0
  0
LINE
  5
D32
  8
0
  6
CONTINUOUS
 10
425.26071555780862
 20
283.70547819388293
 30
0.0
 11
426.26071555780862
 21
282.70547819388293
 31
0.0
  0
LINE
  5
D33
  8
0
 10
425.26071555780862
 20
290.70547819388293
 30
0.0
 11
425.26071555780862
 21
283.70547819388293
 31
0.0
  0
LINE
  5
D34
  8
0
 10
423.76071555780862
 20
355.70547819388298
 30
0.0
 11
423.76071555780862
 21
290.70547819388293
 31
0.0
  0
LINE
  5
D35
  8
CENTER
  6
CENTER
 10
432.76071555780851
 20
304.70547819388293
 30
0.0
 11
452.76071555780862
 21
304.70547819388293
 31
0.0
  0
LINE
  5
D36
  8
0
  6
CONTINUOUS
 10
503.06787491115819
 20
108.06554446481221
 30
0.0
 11
503.76071555780862
 21
109.2655444648129
 31
0.0
  0
LINE
  5
D37
  8
0
  6
CONTINUOUS
 10
503.76071555780862
 20
111.56554446481211
 30
0.0
 11
505.5607155578079
 21
111.56554446481221
 31
0.0
  0
LINE
  5
D38
  8
0
  6
CONTINUOUS
 10
499.45355620445912
 20
108.06554446481211
 30
0.0
 11
498.76071555780862
 21
109.26554446481281
 31
0.0
  0
LINE
  5
D39
  8
0
  6
CONTINUOUS
 10
499.45355620445912
 20
108.06554446481221
 30
0.0
 11
503.06787491115819
 21
108.06554446481221
 31
0.0
  0
LINE
  5
D3A
  8
0
  6
CONTINUOUS
 10
499.44871555780878
 20
111.56554446481221
 30
0.0
 11
503.07271555780858
 21
111.56554446481221
 31
0.0
  0
LINE
  5
D3B
  8
CENTER
  6
CENTER
 10
485.26071555780862
 20
164.06554446481221
 30
0.0
 11
497.26071555780862
 21
164.06554446481221
 31
0.0
  0
LINE
  5
D3C
  8
CENTER
  6
CENTER
 10
491.26071555780851
 20
158.06554446481221
 30
0.0
 11
491.26071555780851
 21
170.06554446481221
 31
0.0
  0
CIRCLE
  5
D3D
  8
0
  6
CONTINUOUS
 10
491.26071555780851
 20
164.06554446481221
 30
0.0
 40
2.5
  0
ARC
  5
D3E
  8
0
  6
CONTINUOUS
 62
     2
 10
491.26071555780851
 20
164.06554446481221
 30
0.0
 40
3.0
 50
338.35967540570613
 51
287.47149231941358
  0
SOLID
  5
D3F
  8
DIM
  6
CONTINUOUS
 10
495.76071555780862
 20
220.20547819388301
 30
0.0
 11
495.76071555780862
 21
219.2054781938829
 31
0.0
 12
498.76071555780862
 22
219.7054781938829
 32
0.0
 13
498.76071555780862
 23
219.7054781938829
 33
0.0
  0
LINE
  5
D40
  8
DIM
  6
CONTINUOUS
 10
498.76071555780862
 20
289.38591928499608
 30
0.0
 11
498.76071555780862
 21
218.56640287532241
 31
0.0
  0
SOLID
  5
D41
  8
DIM
  6
CONTINUOUS
 10
494.26071555780868
 20
228.2054781938829
 30
0.0
 11
494.26071555780868
 21
227.2054781938829
 31
0.0
 12
497.26071555780868
 22
227.7054781938829
 32
0.0
 13
497.26071555780868
 23
227.7054781938829
 33
0.0
  0
LINE
  5
D42
  8
DIM
  6
CONTINUOUS
 10
497.26071555780862
 20
282.50365947577922
 30
0.0
 11
497.26071555780862
 21
226.2805755343168
 31
0.0
  0
LINE
  5
D43
  8
CENTER
  6
CENTER
 10
491.26071555780851
 20
342.13290538066758
 30
0.0
 11
491.26071555780851
 21
358.65803239572932
 31
0.0
  0
LINE
  5
D44
  8
CENTER
  6
CENTER
 10
491.26071555780851
 20
304.51085326456098
 30
0.0
 11
491.26071555780851
 21
287.75292399203647
 31
0.0
  0
LINE
  5
D45
  8
0
  6
CONTINUOUS
 10
497.26071555780862
 20
362.70547819388293
 30
0.0
 11
496.26071555780862
 21
363.70547819388293
 31
0.0
  0
LINE
  5
D46
  8
0
 10
497.26071555780862
 20
355.70547819388298
 30
0.0
 11
497.26071555780862
 21
362.70547819388293
 31
0.0
  0
LINE
  5
D47
  8
0
  6
CONTINUOUS
 10
497.26071555780862
 20
283.70547819388293
 30
0.0
 11
496.26071555780862
 21
282.70547819388293
 31
0.0
  0
LINE
  5
D48
  8
0
 10
497.26071555780862
 20
290.70547819388293
 30
0.0
 11
497.26071555780862
 21
283.70547819388293
 31
0.0
  0
LINE
  5
D49
  8
0
 10
498.76071555780862
 20
355.70547819388281
 30
0.0
 11
498.76071555780862
 21
290.70547819388293
 31
0.0
  0
LINE
  5
D4A
  8
DIM
  6
CONTINUOUS
 10
683.62079384892638
 20
235.7054781938829
 30
0.0
 11
770.62079384892638
 21
235.7054781938829
 31
0.0
  0
LINE
  5
D4B
  8
CENTER
  6
CENTER
 10
677.51643831840136
 20
315.70547819388293
 30
0.0
 11
691.24437878693379
 21
315.70547819388293
 31
0.0
  0
LINE
  5
D4C
  8
CENTER
  6
CENTER
 10
677.61433860737884
 20
327.20547819388281
 30
0.0
 11
697.0143386073787
 21
327.20547819388281
 31
0.0
  0
LINE
  5
D4D
  8
0
  6
CONTINUOUS
 10
680.6207938489265
 20
290.70547819388293
 30
0.0
 11
773.6207938489265
 21
290.70547819388293
 31
0.0
  0
LINE
  5
D4E
  8
0
  6
CONTINUOUS
 10
680.6207938489265
 20
355.70547819388298
 30
0.0
 11
773.6207938489265
 21
355.70547819388281
 31
0.0
  0
POLYLINE
  5
D4F
  8
0
 66
     1
 10
0.0
 20
0.0
 30
0.0
 70
     1
  0
VERTEX
  5
14DB
  8
0
 10
686.6207938489265
 20
305.93752900145188
 30
0.0
  0
VERTEX
  5
14DC
  8
0
 10
686.6207938489265
 20
302.47342738631409
 30
0.0
  0
VERTEX
  5
14DD
  8
0
 10
689.6207938489265
 20
300.7413765787453
 30
0.0
  0
VERTEX
  5
14DE
  8
0
 10
692.62079384892638
 20
302.47342738631409
 30
0.0
  0
VERTEX
  5
14DF
  8
0
 10
692.62079384892638
 20
305.93752900145188
 30
0.0
  0
VERTEX
  5
14E0
  8
0
 10
689.6207938489265
 20
307.66957980902072
 30
0.0
  0
SEQEND
  5
14E1
  8
0
  0
CIRCLE
  5
D57
  8
0
 10
689.6207938489265
 20
304.20547819388293
 30
0.0
 40
5.0
  0
CIRCLE
  5
D58
  8
0
 10
689.6207938489265
 20
304.20547819388293
 30
0.0
 40
5.5
  0
POLYLINE
  5
D59
  8
0
 66
     1
 10
0.0
 20
0.0
 30
0.0
 70
     1
  0
VERTEX
  5
14E2
  8
0
 10
686.6207938489265
 20
343.93752900145188
 30
0.0
  0
VERTEX
  5
14E3
  8
0
 10
686.6207938489265
 20
340.47342738631409
 30
0.0
  0
VERTEX
  5
14E4
  8
0
 10
689.6207938489265
 20
338.7413765787453
 30
0.0
  0
VERTEX
  5
14E5
  8
0
 10
692.62079384892638
 20
340.47342738631409
 30
0.0
  0
VERTEX
  5
14E6
  8
0
 10
692.62079384892638
 20
343.93752900145188
 30
0.0
  0
VERTEX
  5
14E7
  8
0
 10
689.6207938489265
 20
345.66957980902072
 30
0.0
  0
SEQEND
  5
14E8
  8
0
  0
CIRCLE
  5
D61
  8
0
 10
689.6207938489265
 20
342.20547819388293
 30
0.0
 40
5.5
  0
CIRCLE
  5
D62
  8
0
 10
689.6207938489265
 20
342.20547819388293
 30
0.0
 40
5.0
  0
LINE
  5
D63
  8
CENTER
  6
CENTER
 10
683.12079384892638
 20
342.20547819388293
 30
0.0
 11
696.12079384892638
 21
342.20547819388293
 31
0.0
  0
LINE
  5
D64
  8
0
 10
686.1207938489265
 20
324.20547819388281
 30
0.0
 11
689.72635022123541
 21
324.20547819388281
 31
0.0
  0
LINE
  5
D65
  8
0
 10
686.1207938489265
 20
322.20547819388298
 30
0.0
 11
689.72635022123541
 21
322.20547819388298
 31
0.0
  0
ARC
  5
D66
  8
0
 10
689.6207938489265
 20
342.20547819388281
 30
0.0
 40
7.5
 50
245.68426082882789
 51
304.1930771251387
  0
LINE
  5
D67
  8
0
 10
690.58984564158777
 20
318.2150769765795
 30
0.0
 11
686.1207938489265
 21
318.2150769765795
 31
0.0
  0
ARC
  5
D68
  8
0
 10
689.6207938489265
 20
304.20547819388293
 30
0.0
 40
7.5
 50
55.806922874861257
 51
114.3157391711738
  0
LINE
  5
D69
  8
CENTER
  6
CENTER
 10
683.12079384892638
 20
304.20547819388293
 30
0.0
 11
696.12079384892638
 21
304.20547819388293
 31
0.0
  0
LINE
  5
D6A
  8
CENTER
  6
CENTER
 10
677.6207938489265
 20
323.20547819388293
 30
0.0
 11
776.6207938489265
 21
323.20547819388293
 31
0.0
  0
POLYLINE
  5
D6B
  8
0
 66
     1
 10
0.0
 20
0.0
 30
0.0
 70
     1
  0
VERTEX
  5
14E9
  8
0
 10
734.62079384892638
 20
342.20547819388293
 30
0.0
 42
0.4142135623730951
  0
VERTEX
  5
14EA
  8
0
 10
727.62079384892616
 20
349.20547819388293
 30
0.0
  0
VERTEX
  5
14EB
  8
0
 10
689.6207938489265
 20
349.20547819388293
 30
0.0
 42
0.4142135623730951
  0
VERTEX
  5
14EC
  8
0
 10
682.6207938489265
 20
342.20547819388293
 30
0.0
  0
VERTEX
  5
14ED
  8
0
 10
682.6207938489265
 20
304.20547819388293
 30
0.0
 42
0.4142135623730951
  0
VERTEX
  5
14EE
  8
0
 10
689.6207938489265
 20
297.20547819388293
 30
0.0
  0
VERTEX
  5
14EF
  8
0
 10
727.62079384892616
 20
297.20547819388293
 30
0.0
 42
0.4142135623730957
  0
VERTEX
  5
14F0
  8
0
 10
734.62079384892638
 20
304.20547819388293
 30
0.0
  0
SEQEND
  5
14F1
  8
0
  0
POLYLINE
  5
D75
  8
0
 66
     1
 10
0.0
 20
0.0
 30
0.0
 70
     1
  0
VERTEX
  5
14F2
  8
0
 10
735.1207938489265
 20
342.20547819388293
 30
0.0
 42
0.4142135623730951
  0
VERTEX
  5
14F3
  8
0
 10
727.62079384892616
 20
349.70547819388298
 30
0.0
  0
VERTEX
  5
14F4
  8
0
 10
689.6207938489265
 20
349.70547819388298
 30
0.0
 42
0.4142135623730951
  0
VERTEX
  5
14F5
  8
0
 10
682.1207938489265
 20
342.20547819388293
 30
0.0
  0
VERTEX
  5
14F6
  8
0
 10
682.1207938489265
 20
304.20547819388293
 30
0.0
 42
0.4142135623730951
  0
VERTEX
  5
14F7
  8
0
 10
689.6207938489265
 20
296.70547819388293
 30
0.0
  0
VERTEX
  5
14F8
  8
0
 10
727.62079384892616
 20
296.70547819388293
 30
0.0
 42
0.4142135623730951
  0
VERTEX
  5
14F9
  8
0
 10
735.1207938489265
 20
304.20547819388293
 30
0.0
  0
SEQEND
  5
14FA
  8
0
  0
LINE
  5
D7F
  8
0
 10
592.76071555780857
 20
135.56554446481221
 30
0.0
 11
592.76071555780857
 21
187.56554446481221
 31
0.0
  0
LINE
  5
D80
  8
0
 10
592.76071555780857
 20
144.06554446481221
 30
0.0
 11
595.76071555780857
 21
144.06554446481221
 31
0.0
  0
ARC
  5
D81
  8
0
 10
595.76071555780857
 20
145.06554446481221
 30
0.0
 40
1.0
 50
270.0
 51
0.0
  0
ARC
  5
D82
  8
0
 10
595.76071555780857
 20
178.06554446481221
 30
0.0
 40
1.0
 50
0.0
 51
90.0
  0
LINE
  5
D83
  8
0
 10
596.76071555780857
 20
145.06554446481221
 30
0.0
 11
596.76071555780857
 21
178.06554446481221
 31
0.0
  0
LINE
  5
D84
  8
0
 10
562.76071555780857
 20
135.06554446481221
 30
0.0
 11
562.76071555780857
 21
188.06554446481221
 31
0.0
  0
LINE
  5
D85
  8
0
 10
562.76071555780857
 20
188.06554446481221
 30
0.0
 11
592.76071555780857
 21
187.56554446481221
 31
0.0
  0
LINE
  5
D86
  8
0
 10
562.76071555780857
 20
135.06554446481221
 30
0.0
 11
592.76071555780857
 21
135.56554446481221
 31
0.0
  0
ARC
  5
D87
  8
0
  6
CONTINUOUS
 10
672.20381425331493
 20
301.20547819388293
 30
0.0
 40
8.4553825989882458
 50
335.54757590941512
 51
24.452424090584881
  0
ARC
  5
D88
  8
0
  6
CONTINUOUS
 10
672.20381425331493
 20
308.20547819388293
 30
0.0
 40
8.4553825989882458
 50
335.54757590941512
 51
24.452424090584881
  0
LINE
  5
D89
  8
0
  6
CONTINUOUS
 10
672.6207938489265
 20
301.90547819388371
 30
0.0
 11
672.6207938489265
 21
307.50547819388208
 31
0.0
  0
LINE
  5
D8A
  8
0
  6
CONTINUOUS
 10
673.82079384892722
 20
300.70547819388293
 30
0.0
 11
672.6207938489265
 21
301.90547819388371
 31
0.0
  0
LINE
  5
D8B
  8
0
  6
CONTINUOUS
 10
675.52079384892795
 20
300.70547819388293
 30
0.0
 11
673.82079384892722
 21
300.70547819388293
 31
0.0
  0
LINE
  5
D8C
  8
0
  6
CONTINUOUS
 10
673.82079384892722
 20
308.70547819388293
 30
0.0
 11
672.6207938489265
 21
307.5054781938822
 31
0.0
  0
LINE
  5
D8D
  8
0
  6
CONTINUOUS
 10
675.52079384892795
 20
308.70547819388293
 30
0.0
 11
673.82079384892722
 21
308.70547819388293
 31
0.0
  0
LINE
  5
D8E
  8
0
  6
CONTINUOUS
 10
680.6207938489265
 20
311.70547819388293
 30
0.0
 11
680.6207938489265
 21
304.70547819388293
 31
0.0
  0
LINE
  5
D8F
  8
0
  6
CONTINUOUS
 10
675.62079384892638
 20
311.70547819388293
 30
0.0
 11
680.6207938489265
 21
311.70547819388293
 31
0.0
  0
ARC
  5
D90
  8
0
  6
CONTINUOUS
 10
684.03777344453749
 20
308.20547819388293
 30
0.0
 40
8.4553825989878657
 50
155.54757590940659
 51
204.4524240905933
  0
LINE
  5
D91
  8
0
  6
CONTINUOUS
 10
679.90079384892715
 20
304.70547819388293
 30
0.0
 11
676.34079384892584
 21
304.70547819388293
 31
0.0
  0
LINE
  5
D92
  8
0
  6
CONTINUOUS
 10
680.6207938489265
 20
297.70547819388293
 30
0.0
 11
680.6207938489265
 21
304.70547819388293
 31
0.0
  0
LINE
  5
D93
  8
0
  6
CONTINUOUS
 10
675.62079384892638
 20
297.70547819388293
 30
0.0
 11
680.6207938489265
 21
297.70547819388293
 31
0.0
  0
ARC
  5
D94
  8
0
  6
CONTINUOUS
 10
684.03777344453749
 20
301.20547819388293
 30
0.0
 40
8.4553825989878657
 50
155.54757590940659
 51
204.45242409059369
  0
LINE
  5
D95
  8
0
  6
CONTINUOUS
 10
680.6207938489265
 20
304.70547819388293
 30
0.0
 11
676.34079384892584
 21
304.70547819388293
 31
0.0
  0
LINE
  5
D96
  8
0
  6
CONTINUOUS
 62
     2
 10
675.52079384892795
 20
307.9054781938836
 30
0.0
 11
673.02079384892795
 21
307.9054781938836
 31
0.0
  0
LINE
  5
D97
  8
0
  6
CONTINUOUS
 10
675.62079384892638
 20
311.70547819388293
 30
0.0
 11
675.62079384892638
 21
297.70547819388293
 31
0.0
  0
LINE
  5
D98
  8
0
  6
CONTINUOUS
 62
     2
 10
675.52079384892795
 20
301.5054781938822
 30
0.0
 11
673.02079384892795
 21
301.5054781938822
 31
0.0
  0
LINE
  5
D99
  8
0
  6
CONTINUOUS
 10
673.82079384892722
 20
300.70547819388293
 30
0.0
 11
673.82079384892722
 21
308.70547819388293
 31
0.0
  0
LINE
  5
D9A
  8
CENTER
  6
CENTER
 10
669.81807104020618
 20
304.70547819388293
 30
0.0
 11
688.88846410409235
 21
304.70547819388293
 31
0.0
  0
SOLID
  5
D9B
  8
DIM
  6
CONTINUOUS
 10
687.65271078262526
 20
347.91730113445192
 30
0.0
 11
686.77337369671318
 21
347.44110129264197
 31
0.0
 12
688.64164176509894
 22
345.04118995581081
 32
0.0
 13
688.64164176509894
 23
345.04118995581081
 33
0.0
  0
LINE
  5
D9C
  8
DIM
  6
CONTINUOUS
 10
590.14405835412708
 20
365.5968487078456
 30
0.0
 11
610.33444554685593
 21
365.5968487078456
 31
0.0
  0
LINE
  5
D9D
  8
DIM
  6
CONTINUOUS
 10
583.98257925584039
 20
334.64691864434309
 30
0.0
 11
610.33444554685593
 21
365.5968487078456
 31
0.0
  0
SOLID
  5
D9E
  8
DIM
  6
CONTINUOUS
 10
584.36327912209504
 20
334.32277729888739
 30
0.0
 11
583.60187938958586
 21
334.9710599897989
 31
0.0
 12
582.03773118310608
 22
332.36271944681653
 32
0.0
 13
582.03773118310608
 23
332.36271944681653
 33
0.0
  0
POLYLINE
  5
D9F
  8
DIM
  6
CONTINUOUS
 66
     1
 10
0.0
 20
0.0
 30
0.0
 70
     1
  0
VERTEX
  5
14FB
  8
DIM
  6
CONTINUOUS
 10
660.6979134734504
 20
321.68082196581059
 30
0.0
  0
VERTEX
  5
14FC
  8
DIM
  6
CONTINUOUS
 10
660.6979134734504
 20
319.79532310578168
 30
0.0
  0
VERTEX
  5
14FD
  8
DIM
  6
CONTINUOUS
 10
662.63866801086601
 20
319.79532310578168
 30
0.0
  0
VERTEX
  5
14FE
  8
DIM
  6
CONTINUOUS
 10
662.63866801086601
 20
321.68082196581059
 30
0.0
  0
SEQEND
  5
14FF
  8
DIM
  6
CONTINUOUS
  0
POLYLINE
  5
DA5
  8
DIM
  6
CONTINUOUS
 66
     1
 10
0.0
 20
0.0
 30
0.0
 70
     1
  0
VERTEX
  5
1500
  8
DIM
  6
CONTINUOUS
 10
652.6979134734504
 20
321.68082196581059
 30
0.0
  0
VERTEX
  5
1501
  8
DIM
  6
CONTINUOUS
 10
652.6979134734504
 20
319.79532310578168
 30
0.0
  0
VERTEX
  5
1502
  8
DIM
  6
CONTINUOUS
 10
654.63866801086601
 20
319.79532310578168
 30
0.0
  0
VERTEX
  5
1503
  8
DIM
  6
CONTINUOUS
 10
654.63866801086601
 20
321.68082196581059
 30
0.0
  0
SEQEND
  5
1504
  8
DIM
  6
CONTINUOUS
  0
TEXT
  5
DAB
  8
DIM
  6
CONTINUOUS
 10
603.26071555780857
 20
319.4197639081687
 30
0.0
 40
3.0
  1
%%c35
 50
90.0
  7
ROMANSS
 72
     1
 11
601.76071555780868
 21
323.20547819388293
 31
0.0
 73
     2
  0
SOLID
  5
DAC
  8
DIM
  6
CONTINUOUS
 10
604.26071555780857
 20
337.70547819388293
 30
0.0
 11
605.26071555780868
 21
337.70547819388293
 31
0.0
 12
604.76071555780857
 22
340.70547819388293
 32
0.0
 13
604.76071555780857
 23
340.70547819388293
 33
0.0
  0
SOLID
  5
DAD
  8
DIM
  6
CONTINUOUS
 10
604.26071555780857
 20
308.70547819388293
 30
0.0
 11
605.26071555780868
 21
308.70547819388293
 31
0.0
 12
604.76071555780857
 22
305.70547819388298
 32
0.0
 13
604.76071555780857
 23
305.70547819388298
 33
0.0
  0
LINE
  5
DAE
  8
DIM
  6
CONTINUOUS
 10
604.76071555780857
 20
308.70547819388293
 30
0.0
 11
604.76071555780857
 21
337.70547819388293
 31
0.0
  0
LINE
  5
DAF
  8
DIM
  6
CONTINUOUS
 10
596.76071555780857
 20
340.70547819388293
 30
0.0
 11
605.76071555780868
 21
340.70547819388293
 31
0.0
  0
LINE
  5
DB0
  8
DIM
  6
CONTINUOUS
 10
596.76071555780857
 20
305.70547819388298
 30
0.0
 11
605.76071555780868
 21
305.70547819388298
 31
0.0
  0
TEXT
  5
DB1
  8
DIM
  6
CONTINUOUS
 10
655.12079384892616
 20
322.123692645971
 30
0.0
 40
3.0
  1
53
 50
90.0
  7
ROMANSS
 72
     1
 11
653.62079384892616
 21
324.55226407454239
 31
0.0
 73
     2
  0
SOLID
  5
DB2
  8
DIM
  6
CONTINUOUS
 10
656.12079384892616
 20
346.70547819388293
 30
0.0
 11
657.12079384892616
 21
346.70547819388293
 31
0.0
 12
656.62079384892616
 22
349.70547819388298
 32
0.0
 13
656.62079384892616
 23
349.70547819388298
 33
0.0
  0
SOLID
  5
DB3
  8
DIM
  6
CONTINUOUS
 10
656.12079384892616
 20
299.70547819388298
 30
0.0
 11
657.12079384892616
 21
299.70547819388298
 31
0.0
 12
656.62079384892616
 22
296.70547819388293
 32
0.0
 13
656.62079384892616
 23
296.70547819388293
 33
0.0
  0
LINE
  5
DB4
  8
DIM
  6
CONTINUOUS
 10
656.62079384892616
 20
299.70547819388298
 30
0.0
 11
656.62079384892616
 21
346.70547819388293
 31
0.0
  0
LINE
  5
DB5
  8
DIM
  6
CONTINUOUS
 10
688.62079384892638
 20
349.70547819388298
 30
0.0
 11
655.62079384892616
 21
349.70547819388298
 31
0.0
  0
LINE
  5
DB6
  8
DIM
  6
CONTINUOUS
 10
688.62079384892638
 20
296.70547819388293
 30
0.0
 11
655.62079384892616
 21
296.70547819388293
 31
0.0
  0
TEXT
  5
DB7
  8
DIM
  6
CONTINUOUS
 10
663.12079384892627
 20
322.123692645971
 30
0.0
 40
3.0
  1
38
 50
90.0
  7
ROMANSS
 72
     1
 11
661.62079384892616
 21
324.55226407454239
 31
0.0
 73
     2
  0
SOLID
  5
DB8
  8
DIM
  6
CONTINUOUS
 10
664.12079384892616
 20
339.20547819388298
 30
0.0
 11
665.12079384892616
 21
339.20547819388298
 31
0.0
 12
664.62079384892616
 22
342.20547819388293
 32
0.0
 13
664.62079384892616
 23
342.20547819388293
 33
0.0
  0
SOLID
  5
DB9
  8
DIM
  6
CONTINUOUS
 10
664.12079384892616
 20
307.20547819388293
 30
0.0
 11
665.12079384892616
 21
307.20547819388293
 31
0.0
 12
664.62079384892616
 22
304.20547819388293
 32
0.0
 13
664.62079384892616
 23
304.20547819388293
 33
0.0
  0
LINE
  5
DBA
  8
DIM
  6
CONTINUOUS
 10
664.62079384892616
 20
307.20547819388293
 30
0.0
 11
664.62079384892616
 21
339.20547819388298
 31
0.0
  0
LINE
  5
DBB
  8
DIM
  6
CONTINUOUS
 10
682.1207938489265
 20
342.20547819388293
 30
0.0
 11
663.62079384892616
 21
342.20547819388293
 31
0.0
  0
LINE
  5
DBC
  8
DIM
  6
CONTINUOUS
 10
682.1207938489265
 20
304.20547819388293
 30
0.0
 11
663.62079384892616
 21
304.20547819388293
 31
0.0
  0
SOLID
  5
DBD
  8
DIM
  6
CONTINUOUS
 10
683.62079384892638
 20
236.20547819388281
 30
0.0
 11
683.62079384892638
 21
235.2054781938829
 31
0.0
 12
680.6207938489265
 22
235.7054781938829
 32
0.0
 13
680.6207938489265
 23
235.7054781938829
 33
0.0
  0
LINE
  5
DBE
  8
DIM
  6
CONTINUOUS
 10
680.6207938489265
 20
289.20845400789977
 30
0.0
 11
680.6207938489265
 21
234.7054781938829
 31
0.0
  0
TEXT
  5
DBF
  8
DIM
  6
CONTINUOUS
 10
603.1086078490456
 20
213.2054781938829
 30
0.0
 40
3.0
  1
4
  7
ROMANSS
 72
     1
 11
604.18003642047415
 21
214.7054781938829
 31
0.0
 73
     2
  0
SOLID
  5
DC0
  8
DIM
  6
CONTINUOUS
 10
599.76071555780857
 20
212.20547819388301
 30
0.0
 11
599.76071555780857
 21
211.2054781938829
 31
0.0
 12
596.76071555780857
 22
211.7054781938829
 32
0.0
 13
596.76071555780857
 23
211.7054781938829
 33
0.0
  0
LINE
  5
DC1
  8
DIM
  6
CONTINUOUS
 10
596.76071555780857
 20
304.70073348070821
 30
0.0
 11
596.76071555780857
 21
210.7054781938829
 31
0.0
  0
SOLID
  5
DC2
  8
DIM
  6
CONTINUOUS
 10
589.76071555780868
 20
212.20547819388301
 30
0.0
 11
589.76071555780868
 21
211.2054781938829
 31
0.0
 12
592.76071555780857
 22
211.7054781938829
 32
0.0
 13
592.76071555780857
 23
211.7054781938829
 33
0.0
  0
LINE
  5
DC3
  8
DIM
  6
CONTINUOUS
 10
592.76071555780857
 20
296.20547819388293
 30
0.0
 11
592.76071555780857
 21
210.7054781938829
 31
0.0
  0
ARC
  5
DC4
  8
0
  6
CONTINUOUS
 10
569.26071555780868
 20
315.70547819388293
 30
0.0
 40
3.5
 50
38.213210701738312
 51
81.786789298261766
  0
ARC
  5
DC5
  8
0
  6
CONTINUOUS
 10
569.26071555780868
 20
315.70547819388293
 30
0.0
 40
3.5
 50
338.21321070173849
 51
21.786789298261379
  0
LINE
  5
DC6
  8
0
  6
CONTINUOUS
 10
568.76071555780868
 20
320.68041537941599
 30
0.0
 11
568.76071555780868
 21
319.16957980902072
 31
0.0
  0
LINE
  5
DC7
  8
0
  6
CONTINUOUS
 10
569.76071555780857
 20
320.68041537941599
 30
0.0
 11
569.76071555780857
 21
319.16957980902072
 31
0.0
  0
LINE
  5
DC8
  8
0
  6
CONTINUOUS
 10
572.01071555780857
 20
317.87054170334409
 30
0.0
 11
573.31913754271216
 21
318.6259594885417
 31
0.0
  0
LINE
  5
DC9
  8
0
  6
CONTINUOUS
 10
572.51071555780857
 20
317.00451629955961
 30
0.0
 11
573.81913754271216
 21
317.75993408475728
 31
0.0
  0
ARC
  5
DCA
  8
0
  6
CONTINUOUS
 10
569.26071555780868
 20
315.70547819388293
 30
0.0
 40
3.5
 50
278.21321070173809
 51
321.78678929826162
  0
LINE
  5
DCB
  8
0
  6
CONTINUOUS
 10
568.76071555780868
 20
312.24137657874519
 30
0.0
 11
568.76071555780868
 21
310.7305410083498
 31
0.0
  0
LINE
  5
DCC
  8
0
  6
CONTINUOUS
 10
569.76071555780857
 20
312.24137657874519
 30
0.0
 11
569.76071555780857
 21
310.7305410083498
 31
0.0
  0
LINE
  5
DCD
  8
0
  6
CONTINUOUS
 10
573.31913754271216
 20
312.78499689922421
 30
0.0
 11
572.01071555780857
 21
313.54041468442182
 31
0.0
  0
LINE
  5
DCE
  8
0
  6
CONTINUOUS
 10
573.81913754271216
 20
313.65102230300857
 30
0.0
 11
572.51071555780857
 21
314.40644008820618
 31
0.0
  0
POLYLINE
  5
DCF
  8
0
  6
CONTINUOUS
 66
     1
 10
0.0
 20
0.0
 30
0.0
 70
     1
  0
VERTEX
  5
1505
  8
0
  6
CONTINUOUS
 10
568.39469015402426
 20
317.20547819388293
 30
0.0
  0
VERTEX
  5
1506
  8
0
  6
CONTINUOUS
 10
567.52866475023984
 20
315.70547819388293
 30
0.0
  0
VERTEX
  5
1507
  8
0
  6
CONTINUOUS
 10
568.39469015402426
 20
314.20547819388298
 30
0.0
  0
VERTEX
  5
1508
  8
0
  6
CONTINUOUS
 10
570.1267409615931
 20
314.20547819388298
 30
0.0
  0
VERTEX
  5
1509
  8
0
  6
CONTINUOUS
 10
570.99276636537752
 20
315.70547819388293
 30
0.0
  0
VERTEX
  5
150A
  8
0
  6
CONTINUOUS
 10
570.1267409615931
 20
317.20547819388293
 30
0.0
  0
SEQEND
  5
150B
  8
0
  6
CONTINUOUS
  0
LINE
  5
DD7
  8
0
  6
CONTINUOUS
 10
566.51071555780868
 20
317.87054170334409
 30
0.0
 11
565.20229357290509
 21
318.6259594885417
 31
0.0
  0
ARC
  5
DD8
  8
0
  6
CONTINUOUS
 10
569.26071555780868
 20
315.70547819388293
 30
0.0
 40
3.5
 50
158.21321070173769
 51
201.78678929826219
  0
LINE
  5
DD9
  8
0
  6
CONTINUOUS
 10
566.01071555780868
 20
317.00451629955961
 30
0.0
 11
564.70229357290532
 21
317.75993408475728
 31
0.0
  0
LINE
  5
DDA
  8
0
  6
CONTINUOUS
 10
565.20229357290509
 20
312.78499689922421
 30
0.0
 11
566.51071555780868
 21
313.54041468442182
 31
0.0
  0
LINE
  5
DDB
  8
0
  6
CONTINUOUS
 10
564.70229357290532
 20
313.65102230300857
 30
0.0
 11
566.01071555780868
 21
314.40644008820618
 31
0.0
  0
CIRCLE
  5
DDC
  8
0
 10
569.26071555780868
 20
315.70547819388293
 30
0.0
 40
5.2999999999999989
  0
CIRCLE
  5
DDD
  8
0
 10
569.26071555780868
 20
315.70547819388293
 30
0.0
 40
5.0
  0
ARC
  5
DDE
  8
0
  6
CONTINUOUS
 10
569.26071555780868
 20
315.70547819388293
 30
0.0
 40
3.5
 50
98.213210701738234
 51
141.7867892982643
  0
ARC
  5
DDF
  8
0
  6
CONTINUOUS
 10
569.26071555780868
 20
315.70547819388293
 30
0.0
 40
3.5
 50
218.21321070173829
 51
261.78678929826179
  0
CIRCLE
  5
DE0
  8
0
  6
CONTINUOUS
 10
569.26071555780868
 20
315.70547819388293
 30
0.0
 40
2.5
  0
LINE
  5
DE1
  8
CENTER
  6
CENTER
 10
569.26071555780868
 20
308.84150795961682
 30
0.0
 11
569.26071555780868
 21
322.56944842814909
 31
0.0
  0
LINE
  5
DE2
  8
CENTER
  6
CENTER
 10
562.39674532354252
 20
315.70547819388293
 30
0.0
 11
576.12468579207484
 21
315.70547819388293
 31
0.0
  0
LINE
  5
DE3
  8
0
 10
680.6207938489265
 20
355.70547819388298
 30
0.0
 11
680.6207938489265
 21
290.70547819388293
 31
0.0
  0
LINE
  5
DE4
  8
0
 10
682.12079384892616
 20
340.70547819388293
 30
0.0
 11
682.6207938489265
 21
340.70547819388293
 31
0.0
  0
ARC
  5
DE5
  8
0
 10
686.1207938489265
 20
334.45951150146772
 30
0.0
 40
1.0
 50
65.68426082881895
 51
180.0
  0
ARC
  5
DE6
  8
0
 10
686.1207938489265
 20
325.20547819388281
 30
0.0
 40
1.0
 50
180.0
 51
270.0
  0
ARC
  5
DE7
  8
0
 10
686.1207938489265
 20
321.20547819388293
 30
0.0
 40
1.0
 50
90.0
 51
180.0
  0
LINE
  5
DE8
  8
0
 10
685.1207938489265
 20
325.20547819388281
 30
0.0
 11
685.1207938489265
 21
334.45951150146772
 31
0.0
  0
ARC
  5
DE9
  8
0
 10
686.1207938489265
 20
317.2150769765795
 30
0.0
 40
1.0
 50
90.0
 51
180.0
  0
LINE
  5
DEA
  8
0
 10
682.12079384892616
 20
305.70547819388298
 30
0.0
 11
682.62079384892616
 21
305.70547819388298
 31
0.0
  0
ARC
  5
DEB
  8
0
 10
686.1207938489265
 20
311.95144488629802
 30
0.0
 40
1.0
 50
180.0
 51
294.31573917118101
  0
LINE
  5
DEC
  8
0
 10
685.1207938489265
 20
321.20547819388293
 30
0.0
 11
685.1207938489265
 21
311.95144488629802
 31
0.0
  0
ARC
  5
DED
  8
0
 10
595.76071555780857
 20
339.70547819388293
 30
0.0
 40
1.0
 50
0.0
 51
90.0
  0
LINE
  5
DEE
  8
0
 10
592.76071555780857
 20
340.70547819388293
 30
0.0
 11
595.76071555780857
 21
340.70547819388293
 31
0.0
  0
ARC
  5
DEF
  8
0
 10
595.76071555780857
 20
306.70547819388293
 30
0.0
 40
1.0
 50
270.0
 51
0.0
  0
LINE
  5
DF0
  8
0
 10
592.76071555780857
 20
305.70547819388298
 30
0.0
 11
595.76071555780857
 21
305.70547819388298
 31
0.0
  0
LINE
  5
DF1
  8
0
 10
596.76071555780857
 20
339.70547819388293
 30
0.0
 11
596.76071555780857
 21
306.70547819388293
 31
0.0
  0
LINE
  5
DF2
  8
0
 10
592.76071555780857
 20
349.20547819388293
 30
0.0
 11
592.76071555780857
 21
297.20547819388293
 31
0.0
  0
CIRCLE
  5
DF3
  8
0
 10
577.76071555780868
 20
327.20547819388281
 30
0.0
 40
3.9999999999999711
  0
CIRCLE
  5
DF4
  8
0
 10
577.76071555780868
 20
327.20547819388281
 30
0.0
 40
5.7000000000000011
  0
LINE
  5
DF5
  8
0
 10
562.76071555780857
 20
349.70547819388298
 30
0.0
 11
562.76071555780857
 21
296.70547819388293
 31
0.0
  0
LINE
  5
DF6
  8
CENTER
  6
CENTER
 10
577.76071555780868
 20
315.50547819388288
 30
0.0
 11
577.76071555780868
 21
338.9054781938828
 31
0.0
  0
LINE
  5
DF7
  8
0
 10
562.76071555780857
 20
349.70547819388298
 30
0.0
 11
592.76071555780857
 21
349.20547819388293
 31
0.0
  0
LINE
  5
DF8
  8
0
 10
562.76071555780857
 20
296.70547819388293
 30
0.0
 11
592.76071555780857
 21
297.20547819388293
 31
0.0
  0
CIRCLE
  5
DF9
  8
0
 10
577.76071555780868
 20
327.20547819388281
 30
0.0
 40
8.6999999999999993
  0
CIRCLE
  5
DFA
  8
0
 10
577.76071555780868
 20
327.20547819388281
 30
0.0
 40
6.7000000000000028
  0
ARC
  5
DFB
  8
0
 62
     2
 10
577.76071555780868
 20
327.20547819388281
 30
0.0
 40
6.5999999999999996
 50
153.86110377669701
 51
104.9974520806085
  0
LINE
  5
DFC
  8
CENTER
  6
CENTER
 10
566.06071555780863
 20
327.20547819388281
 30
0.0
 11
589.46071555780873
 21
327.20547819388281
 31
0.0
  0
TEXT
  5
DFD
  8
DIM
  6
CONTINUOUS
 10
788.12079384892627
 20
319.57512956308977
 30
0.0
 40
3.0
  1
143
 50
90.0
  7
ROMANSS
 72
     1
 11
786.62079384892616
 21
323.14655813451839
 31
0.0
 73
     2
  0
TEXT
  5
DFE
  8
DIM
  6
CONTINUOUS
 10
780.12079384892638
 20
320.32762315988617
 30
0.0
 40
3.0
  1
65
 50
90.0
  7
ROMANSS
 72
     1
 11
778.6207938489265
 21
322.75619458845767
 31
0.0
 73
     2
  0
SOLID
  5
DFF
  8
DIM
  6
CONTINUOUS
 10
781.1207938489265
 20
352.70547819388281
 30
0.0
 11
782.1207938489265
 21
352.70547819388281
 31
0.0
 12
781.6207938489265
 22
355.70547819388281
 32
0.0
 13
781.6207938489265
 23
355.70547819388281
 33
0.0
  0
SOLID
  5
E00
  8
DIM
  6
CONTINUOUS
 10
781.1207938489265
 20
366.70547819388281
 30
0.0
 11
782.1207938489265
 21
366.70547819388281
 31
0.0
 12
781.6207938489265
 22
363.70547819388281
 32
0.0
 13
781.6207938489265
 23
363.70547819388281
 33
0.0
  0
LINE
  5
E01
  8
DIM
  6
CONTINUOUS
 10
772.1207938489265
 20
363.70547819388281
 30
0.0
 11
782.6207938489265
 21
363.70547819388281
 31
0.0
  0
LINE
  5
E02
  8
DIM
  6
CONTINUOUS
 10
774.6207938489265
 20
355.70547819388281
 30
0.0
 11
782.6207938489265
 21
355.70547819388281
 31
0.0
  0
TEXT
  5
E03
  8
DIM
  6
CONTINUOUS
 10
780.12079384892638
 20
276.00830208715053
 30
0.0
 40
3.0
  1
8
 50
90.0
  7
ROMANSS
 72
     1
 11
778.6207938489265
 21
277.00830208715053
 31
0.0
 73
     2
  0
SOLID
  5
E04
  8
DIM
  6
CONTINUOUS
 10
781.1207938489265
 20
293.70547819388293
 30
0.0
 11
782.1207938489265
 21
293.70547819388293
 31
0.0
 12
781.6207938489265
 22
290.70547819388293
 32
0.0
 13
781.6207938489265
 23
290.70547819388293
 33
0.0
  0
SOLID
  5
E05
  8
DIM
  6
CONTINUOUS
 10
781.1207938489265
 20
279.70547819388293
 30
0.0
 11
782.1207938489265
 21
279.70547819388293
 31
0.0
 12
781.6207938489265
 22
282.70547819388293
 32
0.0
 13
781.6207938489265
 23
282.70547819388293
 33
0.0
  0
LINE
  5
E06
  8
DIM
  6
CONTINUOUS
 10
774.6207938489265
 20
290.70547819388293
 30
0.0
 11
782.6207938489265
 21
290.70547819388293
 31
0.0
  0
LINE
  5
E07
  8
DIM
  6
CONTINUOUS
 10
772.1207938489265
 20
282.70547819388293
 30
0.0
 11
782.6207938489265
 21
282.70547819388293
 31
0.0
  0
TEXT
  5
E08
  8
DIM
  6
CONTINUOUS
 10
724.69222242035505
 20
237.2054781938829
 30
0.0
 40
3.0
  1
93
  7
ROMANSS
 72
     1
 11
727.1207938489265
 21
238.70547819388281
 31
0.0
 73
     2
  0
SOLID
  5
E09
  8
DIM
  6
CONTINUOUS
 10
770.62079384892638
 20
236.20547819388281
 30
0.0
 11
770.62079384892638
 21
235.2054781938829
 31
0.0
 12
773.6207938489265
 22
235.7054781938829
 32
0.0
 13
773.6207938489265
 23
235.7054781938829
 33
0.0
  0
LINE
  5
E0A
  8
DIM
  6
CONTINUOUS
 10
773.6207938489265
 20
289.21224787433619
 30
0.0
 11
773.6207938489265
 21
234.7054781938829
 31
0.0
  0
TEXT
  5
E0B
  8
DIM
  6
CONTINUOUS
 10
750.29936527749794
 20
245.2054781938829
 30
0.0
 40
3.0
  1
37.5
  7
ROMANSS
 72
     1
 11
754.8707938489265
 21
246.70547819388281
 31
0.0
 73
     2
  0
SOLID
  5
E0C
  8
DIM
  6
CONTINUOUS
 10
770.62079384892638
 20
244.20547819388281
 30
0.0
 11
770.62079384892638
 21
243.2054781938829
 31
0.0
 12
773.6207938489265
 22
243.7054781938829
 32
0.0
 13
773.6207938489265
 23
243.7054781938829
 33
0.0
  0
SOLID
  5
E0D
  8
DIM
  6
CONTINUOUS
 10
739.1207938489265
 20
244.20547819388281
 30
0.0
 11
739.1207938489265
 21
243.2054781938829
 31
0.0
 12
736.1207938489265
 22
243.7054781938829
 32
0.0
 13
736.1207938489265
 23
243.7054781938829
 33
0.0
  0
LINE
  5
E0E
  8
DIM
  6
CONTINUOUS
 10
708.62079384892661
 20
243.7054781938829
 30
0.0
 11
773.6207938489265
 21
243.7054781938829
 31
0.0
  0
TEXT
  5
E0F
  8
DIM
  6
CONTINUOUS
 10
717.79936527749794
 20
245.2054781938829
 30
0.0
 40
3.0
  1
27.5
  7
ROMANSS
 72
     1
 11
722.3707938489265
 21
246.70547819388281
 31
0.0
 73
     2
  0
SOLID
  5
E10
  8
DIM
  6
CONTINUOUS
 10
733.12079384892638
 20
244.20547819388281
 30
0.0
 11
733.12079384892638
 21
243.2054781938829
 31
0.0
 12
736.1207938489265
 22
243.7054781938829
 32
0.0
 13
736.1207938489265
 23
243.7054781938829
 33
0.0
  0
SOLID
  5
E11
  8
DIM
  6
CONTINUOUS
 10
711.6207938489265
 20
244.20547819388281
 30
0.0
 11
711.6207938489265
 21
243.2054781938829
 31
0.0
 12
708.62079384892638
 22
243.7054781938829
 32
0.0
 13
708.62079384892638
 23
243.7054781938829
 33
0.0
  0
LINE
  5
E12
  8
DIM
  6
CONTINUOUS
 10
736.1207938489265
 20
247.48274898669709
 30
0.0
 11
736.1207938489265
 21
242.70547819388281
 31
0.0
  0
LINE
  5
E13
  8
DIM
  6
CONTINUOUS
 10
708.62079384892638
 20
293.55827354875993
 30
0.0
 11
708.62079384892638
 21
242.70547819388281
 31
0.0
  0
LINE
  5
E14
  8
CENTER
  6
CENTER
 10
766.1207938489265
 20
346.65803239572949
 30
0.0
 11
766.1207938489265
 21
358.65803239572932
 31
0.0
  0
LINE
  5
E15
  8
CENTER
  6
CENTER
 10
706.1207938489265
 20
346.65803239572949
 30
0.0
 11
706.1207938489265
 21
358.65803239572932
 31
0.0
  0
LINE
  5
E16
  8
CENTER
  6
CENTER
 10
766.1207938489265
 20
299.75292399203641
 30
0.0
 11
766.1207938489265
 21
287.75292399203647
 31
0.0
  0
LINE
  5
E17
  8
CENTER
  6
CENTER
 10
706.1207938489265
 20
299.75292399203641
 30
0.0
 11
706.1207938489265
 21
287.75292399203647
 31
0.0
  0
LINE
  5
E18
  8
0
  6
CONTINUOUS
 10
772.1207938489265
 20
283.70547819388293
 30
0.0
 11
771.12079384892638
 21
282.70547819388293
 31
0.0
  0
LINE
  5
E19
  8
0
 10
772.1207938489265
 20
290.70547819388293
 30
0.0
 11
772.1207938489265
 21
283.70547819388293
 31
0.0
  0
LINE
  5
E1A
  8
0
  6
CONTINUOUS
 10
700.12079384892638
 20
283.70547819388293
 30
0.0
 11
701.12079384892638
 21
282.70547819388293
 31
0.0
  0
LINE
  5
E1B
  8
0
 10
700.12079384892638
 20
290.70547819388293
 30
0.0
 11
700.12079384892638
 21
283.70547819388293
 31
0.0
  0
LINE
  5
E1C
  8
0
  6
CONTINUOUS
 10
701.12079384892638
 20
282.70547819388293
 30
0.0
 11
771.12079384892638
 21
282.70547819388293
 31
0.0
  0
LINE
  5
E1D
  8
0
  6
CONTINUOUS
 10
700.12079384892638
 20
283.70547819388293
 30
0.0
 11
772.1207938489265
 21
283.70547819388293
 31
0.0
  0
LINE
  5
E1E
  8
0
 10
700.12079384892638
 20
355.70547819388298
 30
0.0
 11
700.12079384892638
 21
362.70547819388293
 31
0.0
  0
LINE
  5
E1F
  8
0
 10
772.1207938489265
 20
355.70547819388298
 30
0.0
 11
772.1207938489265
 21
362.70547819388293
 31
0.0
  0
LINE
  5
E20
  8
0
  6
CONTINUOUS
 10
772.1207938489265
 20
362.70547819388293
 30
0.0
 11
771.12079384892638
 21
363.70547819388293
 31
0.0
  0
LINE
  5
E21
  8
0
  6
CONTINUOUS
 10
700.12079384892638
 20
362.70547819388293
 30
0.0
 11
701.12079384892638
 21
363.70547819388293
 31
0.0
  0
LINE
  5
E22
  8
0
  6
CONTINUOUS
 10
700.12079384892638
 20
362.70547819388293
 30
0.0
 11
772.1207938489265
 21
362.70547819388293
 31
0.0
  0
LINE
  5
E23
  8
0
  6
CONTINUOUS
 10
701.12079384892638
 20
363.70547819388293
 30
0.0
 11
771.12079384892638
 21
363.70547819388293
 31
0.0
  0
LINE
  5
E24
  8
0
  6
CONTINUOUS
 10
726.12079384892638
 20
364.70547819388293
 30
0.0
 11
746.12079384892638
 21
364.70547819388293
 31
0.0
  0
LINE
  5
E25
  8
0
 10
746.12079384892638
 20
364.70547819388293
 30
0.0
 11
746.12079384892638
 21
363.70547819388293
 31
0.0
  0
LINE
  5
E26
  8
0
 10
726.12079384892638
 20
364.70547819388293
 30
0.0
 11
726.12079384892638
 21
363.70547819388293
 31
0.0
  0
LINE
  5
E27
  8
0
 10
773.6207938489265
 20
355.70547819388281
 30
0.0
 11
773.6207938489265
 21
290.70547819388293
 31
0.0
  0
ARC
  5
E28
  8
0
 10
723.12492632798285
 20
310.8226660583864
 30
0.0
 40
0.5
 50
224.99999999999079
 51
304.1930771251279
  0
POLYLINE
  5
E29
  8
0
 66
     1
 10
0.0
 20
0.0
 30
0.0
 70
     1
  0
VERTEX
  5
150C
  8
0
 10
724.6207938489265
 20
305.93752900145188
 30
0.0
  0
VERTEX
  5
150D
  8
0
 10
724.6207938489265
 20
302.47342738631409
 30
0.0
  0
VERTEX
  5
150E
  8
0
 10
727.6207938489265
 20
300.7413765787453
 30
0.0
  0
VERTEX
  5
150F
  8
0
 10
730.6207938489265
 20
302.47342738631409
 30
0.0
  0
VERTEX
  5
1510
  8
0
 10
730.6207938489265
 20
305.93752900145188
 30
0.0
  0
VERTEX
  5
1511
  8
0
 10
727.6207938489265
 20
307.66957980902072
 30
0.0
  0
SEQEND
  5
1512
  8
0
  0
CIRCLE
  5
E31
  8
0
 10
727.6207938489265
 20
304.20547819388293
 30
0.0
 40
5.0
  0
CIRCLE
  5
E32
  8
0
 10
727.6207938489265
 20
304.20547819388293
 30
0.0
 40
5.5
  0
CIRCLE
  5
E33
  8
0
 10
727.6207938489265
 20
342.20547819388293
 30
0.0
 40
5.0
  0
CIRCLE
  5
E34
  8
0
 10
727.6207938489265
 20
342.20547819388293
 30
0.0
 40
5.5
  0
POLYLINE
  5
E35
  8
0
 66
     1
 10
0.0
 20
0.0
 30
0.0
 70
     1
  0
VERTEX
  5
1513
  8
0
 10
724.6207938489265
 20
343.93752900145188
 30
0.0
  0
VERTEX
  5
1514
  8
0
 10
724.6207938489265
 20
340.47342738631409
 30
0.0
  0
VERTEX
  5
1515
  8
0
 10
727.6207938489265
 20
338.7413765787453
 30
0.0
  0
VERTEX
  5
1516
  8
0
 10
730.6207938489265
 20
340.47342738631409
 30
0.0
  0
VERTEX
  5
1517
  8
0
 10
730.6207938489265
 20
343.93752900145188
 30
0.0
  0
VERTEX
  5
1518
  8
0
 10
727.6207938489265
 20
345.66957980902072
 30
0.0
  0
SEQEND
  5
1519
  8
0
  0
ARC
  5
E3D
  8
0
 10
717.62079384892638
 20
345.70547819388293
 30
0.0
 40
1.0
 50
90.0
 51
180.0
  0
ARC
  5
E3E
  8
0
 10
719.87482715651106
 20
345.70547819388293
 30
0.0
 40
1.0
 50
335.6842608288103
 51
90.0
  0
ARC
  5
E3F
  8
0
 10
721.00360598442296
 20
337.70961067293928
 30
0.0
 40
0.5
 50
314.99999999999068
 51
34.193077125151397
  0
LINE
  5
E40
  8
0
 10
720.95209187814498
 20
336.95098978547458
 30
0.0
 11
721.35715937501641
 21
337.35605728234611
 31
0.0
  0
ARC
  5
E41
  8
0
 10
717.62079384892638
 20
339.9386787245644
 30
0.0
 40
1.0
 50
180.0
 51
241.72628636862439
  0
ARC
  5
E42
  8
0
 10
720.59853848755188
 20
337.30454317606802
 30
0.0
 40
0.5
 50
229.65070900488701
 51
314.99999999999068
  0
LINE
  5
E43
  8
0
 10
716.62079384892638
 20
345.70547819388293
 30
0.0
 11
716.62079384892638
 21
339.9386787245644
 31
0.0
  0
ARC
  5
E44
  8
0
 10
727.6207938489265
 20
342.20547819388293
 30
0.0
 40
7.5
 50
155.6842608288261
 51
214.1930771251393
  0
ARC
  5
E45
  8
0
 10
710.6207938489265
 20
345.70547819388293
 30
0.0
 40
1.0
 50
90.0
 51
180.0
  0
ARC
  5
E46
  8
0
 10
706.6207938489265
 20
345.70547819388293
 30
0.0
 40
1.0
 50
0.0
 51
90.0
  0
ARC
  5
E47
  8
0
 10
710.6207938489265
 20
342.09992182157401
 30
0.0
 40
1.0
 50
180.0
 51
263.95767158094242
  0
ARC
  5
E48
  8
0
 10
706.6207938489265
 20
342.09992182157401
 30
0.0
 40
1.0
 50
276.04232841905753
 51
0.0
  0
LINE
  5
E49
  8
0
 10
709.62079384892638
 20
345.70547819388293
 30
0.0
 11
709.62079384892638
 21
342.09992182157401
 31
0.0
  0
LINE
  5
E4A
  8
0
 10
707.6207938489265
 20
345.70547819388293
 30
0.0
 11
707.6207938489265
 21
342.09992182157401
 31
0.0
  0
ARC
  5
E4B
  8
0
 10
708.62079384892638
 20
323.20547819388293
 30
0.0
 40
17.999999999999972
 50
49.650709004879928
 51
83.957671580946055
  0
LINE
  5
E4C
  8
0
 10
710.6207938489265
 20
346.70547819388293
 30
0.0
 11
719.87482715651106
 21
346.70547819388293
 31
0.0
  0
LINE
  5
E4D
  8
CENTER
  6
CENTER
 10
721.12079384892638
 20
342.20547819388293
 30
0.0
 11
734.12079384892638
 21
342.20547819388293
 31
0.0
  0
ARC
  5
E4E
  8
0
 10
731.1207938489265
 20
332.20547819388293
 30
0.0
 40
1.0
 50
270.0
 51
0.0
  0
ARC
  5
E4F
  8
0
 10
731.1207938489265
 20
334.45951150146772
 30
0.0
 40
1.0
 50
0.0
 51
114.3157391711956
  0
LINE
  5
E50
  8
0
 10
731.1207938489265
 20
324.20547819388293
 30
0.0
 11
727.51523747661747
 21
324.20547819388293
 31
0.0
  0
LINE
  5
E51
  8
0
 10
731.1207938489265
 20
322.20547819388298
 30
0.0
 11
727.51523747661747
 21
322.20547819388298
 31
0.0
  0
ARC
  5
E52
  8
0
 10
731.1207938489265
 20
325.20547819388293
 30
0.0
 40
1.0
 50
270.0
 51
0.0
  0
ARC
  5
E53
  8
0
 10
731.1207938489265
 20
321.20547819388293
 30
0.0
 40
1.0
 50
0.0
 51
90.0
  0
LINE
  5
E54
  8
0
 10
732.1207938489265
 20
325.20547819388293
 30
0.0
 11
732.1207938489265
 21
334.45951150146772
 31
0.0
  0
ARC
  5
E55
  8
0
 10
731.1207938489265
 20
314.20547819388298
 30
0.0
 40
1.0
 50
0.0
 51
90.0
  0
ARC
  5
E56
  8
0
 10
731.1207938489265
 20
311.95144488629819
 30
0.0
 40
1.0
 50
245.6842608288043
 51
0.0
  0
LINE
  5
E57
  8
0
 10
732.1207938489265
 20
321.20547819388293
 30
0.0
 11
732.1207938489265
 21
311.95144488629819
 31
0.0
  0
ARC
  5
E58
  8
0
 10
723.12492632798285
 20
335.58829032937962
 30
0.0
 40
0.5
 50
55.806922874872079
 51
135.00000000000921
  0
ARC
  5
E59
  8
0
 10
722.71985883111142
 20
335.18322283250831
 30
0.0
 40
0.5
 50
135.00000000000921
 51
220.34929099511791
  0
ARC
  5
E5A
  8
0
 10
725.35399437960791
 20
332.20547819388293
 30
0.0
 40
1.0
 50
208.2737136313682
 51
270.0
  0
LINE
  5
E5B
  8
0
 10
722.36630544051798
 20
335.53677622310153
 30
0.0
 11
722.77137293738951
 21
335.94184371997289
 31
0.0
  0
ARC
  5
E5C
  8
0
 10
725.35399437960791
 20
314.20547819388298
 30
0.0
 40
1.0
 50
90.0
 51
151.72628636863169
  0
ARC
  5
E5D
  8
0
 10
721.00360598442296
 20
308.70134571482657
 30
0.0
 40
0.5
 50
325.80692287484851
 51
45.000000000009209
  0
LINE
  5
E5E
  8
0
 10
720.95209187814498
 20
309.4599666022911
 30
0.0
 11
721.35715937501641
 21
309.05489910541979
 31
0.0
  0
LINE
  5
E5F
  8
0
 10
722.36630544051798
 20
310.87418016466432
 30
0.0
 11
722.77137293738951
 21
310.46911266779301
 31
0.0
  0
ARC
  5
E60
  8
0
 10
723.12492632798285
 20
310.82266605838618
 30
0.0
 40
0.5
 50
224.99999999999079
 51
304.1930771251279
  0
ARC
  5
E61
  8
0
 10
722.71985883111142
 20
311.2277335552576
 30
0.0
 40
0.5
 50
139.65070900488209
 51
224.99999999999079
  0
ARC
  5
E62
  8
0
 10
717.62079384892638
 20
306.47227766320151
 30
0.0
 40
1.0
 50
118.2737136313755
 51
180.0
  0
ARC
  5
E63
  8
0
 10
720.59853848755188
 20
309.10641321169788
 30
0.0
 40
0.5
 50
45.000000000009209
 51
130.34929099511291
  0
ARC
  5
E64
  8
0
 10
710.6207938489265
 20
304.31103456619189
 30
0.0
 40
1.0
 50
96.042328419057512
 51
180.0
  0
ARC
  5
E65
  8
0
 10
706.6207938489265
 20
304.31103456619189
 30
0.0
 40
1.0
 50
0.0
 51
83.957671580942474
  0
ARC
  5
E66
  8
0
 10
708.62079384892638
 20
323.20547819388293
 30
0.0
 40
17.999999999999972
 50
276.04232841905389
 51
310.34929099511999
  0
ARC
  5
E67
  8
0
 10
708.62079384892638
 20
323.20547819388293
 30
0.0
 40
17.999999999999972
 50
319.65070900488001
 51
353.957671580946
  0
LINE
  5
E68
  8
0
 10
731.1207938489265
 20
315.20547819388293
 30
0.0
 11
725.35399437960791
 21
315.20547819388293
 31
0.0
  0
LINE
  5
E69
  8
CENTER
  6
CENTER
 10
721.12079384892638
 20
304.20547819388293
 30
0.0
 11
734.12079384892638
 21
304.20547819388293
 31
0.0
  0
ARC
  5
E6A
  8
0
 10
727.6207938489265
 20
304.20547819388293
 30
0.0
 40
7.5
 50
65.684260828827945
 51
124.1930771251406
  0
ARC
  5
E6B
  8
0
 10
727.51523747661747
 20
325.20547819388293
 30
0.0
 40
1.0
 50
186.04232841905389
 51
270.0
  0
ARC
  5
E6C
  8
0
 10
708.62079384892638
 20
323.20547819388293
 30
0.0
 40
17.999999999999972
 50
6.0423284190541056
 51
40.349290995120072
  0
ARC
  5
E6D
  8
0
 10
727.51523747661747
 20
321.20547819388293
 30
0.0
 40
1.0
 50
90.0
 51
173.957671580946
  0
LINE
  5
E6E
  8
0
 10
731.1207938489265
 20
331.20547819388293
 30
0.0
 11
725.35399437960791
 21
331.20547819388293
 31
0.0
  0
ARC
  5
E6F
  8
0
 10
727.6207938489265
 20
342.20547819388293
 30
0.0
 40
7.5
 50
235.80692287485931
 51
294.31573917117379
  0
LINE
  5
E70
  8
CENTER
  6
CENTER
 10
727.6207938489265
 20
348.70547819388293
 30
0.0
 11
727.6207938489265
 21
335.70547819388293
 31
0.0
  0
ARC
  5
E71
  8
0
 10
699.6207938489265
 20
345.70547819388293
 30
0.0
 40
1.0
 50
0.0
 51
90.0
  0
ARC
  5
E72
  8
0
 10
697.36676054134159
 20
345.70547819388293
 30
0.0
 40
1.0
 50
90.0
 51
204.31573917118391
  0
ARC
  5
E73
  8
0
 10
699.6207938489265
 20
339.9386787245644
 30
0.0
 40
1.0
 50
298.27371363136092
 51
0.0
  0
ARC
  5
E74
  8
0
 10
696.64304921030111
 20
337.30454317606802
 30
0.0
 40
0.5
 50
224.99999999999079
 51
310.34929099511288
  0
LINE
  5
E75
  8
0
 10
696.28949581970767
 20
336.95098978547458
 30
0.0
 11
695.88442832283658
 21
337.35605728234611
 31
0.0
  0
ARC
  5
E76
  8
0
 10
696.23798171342969
 20
337.70961067293928
 30
0.0
 40
0.5
 50
145.8069228748613
 51
224.99999999999079
  0
LINE
  5
E77
  8
0
 10
700.62079384892638
 20
345.70547819388293
 30
0.0
 11
700.62079384892638
 21
339.9386787245644
 31
0.0
  0
ARC
  5
E78
  8
0
 10
689.6207938489265
 20
342.20547819388293
 30
0.0
 40
7.5
 50
325.80692287485988
 51
24.315739171172272
  0
ARC
  5
E79
  8
0
 10
694.1166613698698
 20
335.5882903293795
 30
0.0
 40
0.5
 50
45.000000000004597
 51
124.1930771251568
  0
ARC
  5
E7A
  8
0
 10
694.52172886674134
 20
335.18322283250819
 30
0.0
 40
0.5
 50
319.6507090048687
 51
44.999999999990777
  0
LINE
  5
E7B
  8
0
 10
694.87528225733467
 20
335.53677622310141
 30
0.0
 11
694.47021476046325
 21
335.94184371997289
 31
0.0
  0
ARC
  5
E7C
  8
0
 10
689.72635022123541
 20
325.20547819388281
 30
0.0
 40
1.0
 50
270.0
 51
353.957671580946
  0
ARC
  5
E7D
  8
0
 10
689.72635022123541
 20
321.20547819388293
 30
0.0
 40
1.0
 50
6.042328419053943
 51
90.0
  0
ARC
  5
E7E
  8
0
 10
708.62079384892638
 20
323.20547819388293
 30
0.0
 40
17.999999999999972
 50
139.6507090048799
 51
173.957671580946
  0
ARC
  5
E7F
  8
0
 10
699.6207938489265
 20
306.47227766320151
 30
0.0
 40
1.0
 50
0.0
 51
61.726286368639009
  0
ARC
  5
E80
  8
0
 10
696.64304921030111
 20
309.10641321169788
 30
0.0
 40
0.5
 50
49.650709004887069
 51
135.00000000000921
  0
LINE
  5
E81
  8
0
 10
696.28949581970767
 20
309.4599666022911
 30
0.0
 11
695.88442832283658
 21
309.05489910541979
 31
0.0
  0
LINE
  5
E82
  8
0
 10
694.87528225733467
 20
310.87418016466432
 30
0.0
 11
694.47021476046325
 21
310.4691126677929
 31
0.0
  0
ARC
  5
E83
  8
0
 10
694.52172886674134
 20
311.2277335552576
 30
0.0
 40
0.5
 50
315.00000000000921
 51
40.349290995131291
  0
ARC
  5
E84
  8
0
 10
694.1166613698698
 20
310.82266605838618
 30
0.0
 40
0.5
 50
235.8069228748432
 51
314.9999999999954
  0
ARC
  5
E85
  8
0
 10
696.23798171342969
 20
308.70134571482657
 30
0.0
 40
0.5
 50
135.00000000000921
 51
214.1930771251387
  0
ARC
  5
E86
  8
0
 10
690.58984564158777
 20
317.2150769765795
 30
0.0
 40
1.0
 50
18.377976039593509
 51
90.0
  0
ARC
  5
E87
  8
0
 10
708.62079384892638
 20
323.20547819388293
 30
0.0
 40
17.999999999999972
 50
186.04232841905409
 51
220.34929099511999
  0
LINE
  5
E88
  8
CENTER
  6
CENTER
 10
689.6207938489265
 20
348.70547819388293
 30
0.0
 11
689.6207938489265
 21
335.70547819388293
 31
0.0
  0
ARC
  5
E89
  8
0
 10
708.62079384892638
 20
323.20547819388293
 30
0.0
 40
17.999999999999972
 50
96.042328419053931
 51
130.34929099511999
  0
LINE
  5
E8A
  8
0
 10
706.6207938489265
 20
346.70547819388293
 30
0.0
 11
697.36676054134159
 21
346.70547819388293
 31
0.0
  0
ARC
  5
E8B
  8
0
 10
708.62079384892638
 20
323.20547819388293
 30
0.0
 40
17.999999999999972
 50
229.6507090048799
 51
263.957671580946
  0
CIRCLE
  5
E8C
  8
0
 10
708.62079384892638
 20
323.20547819388293
 30
0.0
 40
17.499999999999972
  0
ARC
  5
E8D
  8
0
 10
717.62079384892638
 20
300.70547819388293
 30
0.0
 40
1.0
 50
180.0
 51
270.0
  0
ARC
  5
E8E
  8
0
 10
719.87482715651106
 20
300.70547819388293
 30
0.0
 40
1.0
 50
270.0
 51
24.315739171186699
  0
ARC
  5
E8F
  8
0
 10
710.6207938489265
 20
300.70547819388293
 30
0.0
 40
1.0
 50
180.0
 51
270.0
  0
ARC
  5
E90
  8
0
 10
706.6207938489265
 20
300.70547819388293
 30
0.0
 40
1.0
 50
270.0
 51
0.0
  0
LINE
  5
E91
  8
0
 10
710.6207938489265
 20
299.70547819388298
 30
0.0
 11
719.87482715651106
 21
299.70547819388298
 31
0.0
  0
ARC
  5
E92
  8
0
 10
699.6207938489265
 20
300.70547819388293
 30
0.0
 40
1.0
 50
270.0
 51
0.0
  0
ARC
  5
E93
  8
0
 10
697.36676054134159
 20
300.70547819388293
 30
0.0
 40
1.0
 50
155.68426082881601
 51
270.0
  0
LINE
  5
E94
  8
0
 10
706.6207938489265
 20
299.70547819388298
 30
0.0
 11
697.36676054134159
 21
299.70547819388298
 31
0.0
  0
ARC
  5
E95
  8
0
 10
689.6207938489265
 20
304.20547819388293
 30
0.0
 40
7.5
 50
335.68426082882962
 51
34.19307712514005
  0
LINE
  5
E96
  8
0
 10
700.62079384892638
 20
300.70547819388293
 30
0.0
 11
700.62079384892638
 21
306.47227766320151
 31
0.0
  0
LINE
  5
E97
  8
CENTER
  6
CENTER
 10
689.6207938489265
 20
310.70547819388293
 30
0.0
 11
689.6207938489265
 21
297.70547819388293
 31
0.0
  0
LINE
  5
E98
  8
CENTER
  6
CENTER
 10
708.62079384892638
 20
351.20547819388293
 30
0.0
 11
708.62079384892638
 21
295.20547819388293
 31
0.0
  0
ARC
  5
E99
  8
0
 10
727.6207938489265
 20
304.20547819388293
 30
0.0
 40
7.5
 50
145.80692287486059
 51
204.3157391711718
  0
LINE
  5
E9A
  8
0
 10
716.62079384892638
 20
300.70547819388293
 30
0.0
 11
716.62079384892638
 21
306.47227766320151
 31
0.0
  0
LINE
  5
E9B
  8
0
 10
707.6207938489265
 20
300.70547819388293
 30
0.0
 11
707.6207938489265
 21
304.31103456619189
 31
0.0
  0
LINE
  5
E9C
  8
0
 10
709.62079384892638
 20
300.70547819388293
 30
0.0
 11
709.62079384892638
 21
304.31103456619189
 31
0.0
  0
LINE
  5
E9D
  8
CENTER
  6
CENTER
 10
727.6207938489265
 20
310.70547819388293
 30
0.0
 11
727.6207938489265
 21
297.70547819388293
 31
0.0
  0
LINE
  5
E9E
  8
DIM
  6
CONTINUOUS
 10
498.26071555780862
 20
518.56309722127173
 30
0.0
 11
552.48333869072144
 21
518.56309722127173
 31
0.0
  0
LINE
  5
E9F
  8
DIM
  6
CONTINUOUS
 10
498.26071555780862
 20
458.56309722127168
 30
0.0
 11
552.48333869072144
 21
458.56309722127168
 31
0.0
  0
LINE
  5
EA0
  8
0
 10
498.76071555780862
 20
436.86309722127169
 30
0.0
 11
562.76071555780857
 21
436.86309722127169
 31
0.0
  0
LINE
  5
EA1
  8
0
 10
498.76071555780862
 20
449.26087291862001
 30
0.0
 11
562.76071555780857
 21
449.26087291862001
 31
0.0
  0
LINE
  5
EA2
  8
0
 10
498.76071555780862
 20
485.26309722127172
 30
0.0
 11
562.76071555780857
 21
485.26309722127172
 31
0.0
  0
LINE
  5
EA3
  8
0
 10
498.76071555780862
 20
472.86532152392363
 30
0.0
 11
562.76071555780857
 21
472.86532152392363
 31
0.0
  0
CIRCLE
  5
EA4
  8
0
  6
CONTINUOUS
 10
461.26071555780862
 20
488.56309722127168
 30
0.0
 40
35.0
  0
POLYLINE
  5
EA5
  8
0
  6
CONTINUOUS
 66
     1
 10
0.0
 20
0.0
 30
0.0
  0
VERTEX
  5
151A
  8
0
  6
CONTINUOUS
 10
503.76071555780862
 20
507.06309722127162
 30
0.0
 42
0.0851703918331037
  0
VERTEX
  5
151B
  8
0
  6
CONTINUOUS
 10
503.07271555780858
 20
511.06309722127168
 30
0.0
 42
0.3457679526359281
  0
VERTEX
  5
151C
  8
0
  6
CONTINUOUS
 10
503.41429523448352
 20
513.96309722127125
 30
0.0
  0
SEQEND
  5
151D
  8
0
  6
CONTINUOUS
  0
LINE
  5
EAA
  8
0
  6
CONTINUOUS
 10
505.5607155578079
 20
511.06309722127168
 30
0.0
 11
506.76071555780868
 21
509.86309722127089
 31
0.0
  0
LINE
  5
EAB
  8
0
  6
CONTINUOUS
 10
505.5607155578079
 20
503.06309722127162
 30
0.0
 11
505.5607155578079
 21
511.06309722127168
 31
0.0
  0
LINE
  5
EAC
  8
0
  6
CONTINUOUS
 10
503.76071555780862
 20
500.7630972212724
 30
0.0
 11
503.76071555780862
 21
513.36309722127112
 31
0.0
  0
POLYLINE
  5
EAD
  8
0
  6
CONTINUOUS
 66
     1
 10
0.0
 20
0.0
 30
0.0
  0
VERTEX
  5
151E
  8
0
  6
CONTINUOUS
 10
498.76071555780862
 20
507.06309722127168
 30
0.0
 42
-0.0851703918331037
  0
VERTEX
  5
151F
  8
0
  6
CONTINUOUS
 10
499.44871555780873
 20
511.06309722127168
 30
0.0
 42
-0.3457679526359281
  0
VERTEX
  5
1520
  8
0
  6
CONTINUOUS
 10
499.10713588113379
 20
513.96309722127148
 30
0.0
  0
SEQEND
  5
1521
  8
0
  6
CONTINUOUS
  0
LINE
  5
EB2
  8
DIM
  6
CONTINUOUS
 10
466.54648921482482
 20
490.0578394200291
 30
0.0
 11
527.81437052373053
 21
504.38488887863349
 31
0.0
  0
LINE
  5
EB3
  8
CENTER
  6
CENTER
 10
478.19592296722641
 20
471.62788981185389
 30
0.0
 11
486.75191501958358
 21
463.07189775949661
 31
0.0
  0
CIRCLE
  5
EB4
  8
0
  6
CONTINUOUS
 10
482.47391899340499
 20
467.34989378567519
 30
0.0
 40
2.0499999999999989
  0
ARC
  5
EB5
  8
0
  6
CONTINUOUS
 62
     2
 10
482.47391899340488
 20
467.34989378567519
 30
0.0
 40
2.5
 50
204.98154856581149
 51
158.9636414602291
  0
CIRCLE
  5
EB6
  8
CENTER
  6
CENTER
 10
461.26071555780862
 20
488.56309722127168
 30
0.0
 40
30.0
  0
LINE
  5
EB7
  8
DIM
  6
CONTINUOUS
 10
434.26071555780862
 20
534.06309722127162
 30
0.0
 11
488.26071555780862
 21
534.06309722127162
 31
0.0
  0
LINE
  5
EB8
  8
0
 10
423.76071555780862
 20
433.06309722127168
 30
0.0
 11
498.76071555780862
 21
433.06309722127168
 31
0.0
  0
LINE
  5
EB9
  8
0
 10
423.76071555780862
 20
526.06309722127162
 30
0.0
 11
498.76071555780862
 21
526.06309722127162
 31
0.0
  0
LINE
  5
EBA
  8
CENTER
  6
CENTER
 10
423.76071555780862
 20
488.56309722127168
 30
0.0
 11
498.76071555780862
 21
488.56309722127168
 31
0.0
  0
CIRCLE
  5
EBB
  8
0
  6
CONTINUOUS
 10
461.26071555780862
 20
488.56309722127168
 30
0.0
 40
36.0
  0
LINE
  5
EBC
  8
0
  6
CONTINUOUS
 62
     2
 10
503.76071555780862
 20
510.2630972212724
 30
0.0
 11
506.36071555780723
 21
510.2630972212724
 31
0.0
  0
LINE
  5
EBD
  8
0
  6
CONTINUOUS
 10
503.06787491115819
 20
499.56309722127162
 30
0.0
 11
503.76071555780862
 21
500.7630972212724
 31
0.0
  0
POLYLINE
  5
EBE
  8
0
  6
CONTINUOUS
 66
     1
 10
0.0
 20
0.0
 30
0.0
  0
VERTEX
  5
1522
  8
0
  6
CONTINUOUS
 10
503.76071555780862
 20
507.06309722127162
 30
0.0
 42
-0.0851703918331037
  0
VERTEX
  5
1523
  8
0
  6
CONTINUOUS
 10
503.07271555780858
 20
503.06309722127162
 30
0.0
 42
-0.3457679526359281
  0
VERTEX
  5
1524
  8
0
  6
CONTINUOUS
 10
503.41429523448352
 20
500.16309722127198
 30
0.0
  0
SEQEND
  5
1525
  8
0
  6
CONTINUOUS
  0
LINE
  5
EC3
  8
CENTER
  6
CENTER
 10
482.50426322486072
 20
507.06309722127162
 30
0.0
 11
509.76071555780868
 21
507.06309722127162
 31
0.0
  0
LINE
  5
EC4
  8
0
  6
CONTINUOUS
 10
505.5607155578079
 20
503.06309722127162
 30
0.0
 11
506.76071555780868
 21
504.2630972212724
 31
0.0
  0
LINE
  5
EC5
  8
0
  6
CONTINUOUS
 10
506.76071555780868
 20
504.2630972212724
 30
0.0
 11
506.76071555780868
 21
509.86309722127089
 31
0.0
  0
LINE
  5
EC6
  8
0
  6
CONTINUOUS
 10
503.76071555780862
 20
503.06309722127162
 30
0.0
 11
505.5607155578079
 21
503.06309722127162
 31
0.0
  0
LINE
  5
EC7
  8
0
  6
CONTINUOUS
 62
     2
 10
503.76071555780862
 20
503.86309722127089
 30
0.0
 11
506.36071555780723
 21
503.86309722127089
 31
0.0
  0
LINE
  5
EC8
  8
0
  6
CONTINUOUS
 10
499.45355620445912
 20
499.56309722127168
 30
0.0
 11
498.76071555780862
 21
500.7630972212724
 31
0.0
  0
POLYLINE
  5
EC9
  8
0
  6
CONTINUOUS
 66
     1
 10
0.0
 20
0.0
 30
0.0
  0
VERTEX
  5
1526
  8
0
  6
CONTINUOUS
 10
498.76071555780862
 20
507.06309722127168
 30
0.0
 42
0.0851703918331037
  0
VERTEX
  5
1527
  8
0
  6
CONTINUOUS
 10
499.44871555780873
 20
503.06309722127168
 30
0.0
 42
0.3457679526359281
  0
VERTEX
  5
1528
  8
0
  6
CONTINUOUS
 10
499.10713588113379
 20
500.1630972212721
 30
0.0
  0
SEQEND
  5
1529
  8
0
  6
CONTINUOUS
  0
LINE
  5
ECE
  8
0
  6
CONTINUOUS
 10
499.44871555780861
 20
503.06309722127162
 30
0.0
 11
503.07271555780858
 21
503.06309722127162
 31
0.0
  0
LINE
  5
ECF
  8
0
  6
CONTINUOUS
 10
499.45355620445912
 20
499.56309722127162
 30
0.0
 11
503.06787491115819
 21
499.56309722127162
 31
0.0
  0
SOLID
  5
ED0
  8
DIM
  6
CONTINUOUS
 10
466.66033921793229
 20
489.57097375396461
 30
0.0
 11
466.43263921171751
 21
490.5447050860937
 31
0.0
 12
463.62529521843783
 22
489.37473940138472
 32
0.0
 13
463.62529521843783
 23
489.37473940138472
 33
0.0
  0
LINE
  5
ED1
  8
0
  6
CONTINUOUS
 10
435.26071555780851
 20
432.37025657462129
 30
0.0
 11
436.46071555780918
 21
433.06309722127168
 31
0.0
  0
LINE
  5
ED2
  8
0
  6
CONTINUOUS
 10
450.26071555780851
 20
432.37025657462129
 30
0.0
 11
449.06071555780778
 21
433.06309722127168
 31
0.0
  0
POLYLINE
  5
ED3
  8
0
  6
CONTINUOUS
 66
     1
 10
0.0
 20
0.0
 30
0.0
  0
VERTEX
  5
152A
  8
0
  6
CONTINUOUS
 10
442.76071555780851
 20
433.06309722127168
 30
0.0
 42
-0.0851703918331037
  0
VERTEX
  5
152B
  8
0
  6
CONTINUOUS
 10
446.76071555780851
 20
432.37509722127157
 30
0.0
 42
-0.3457679526359281
  0
VERTEX
  5
152C
  8
0
  6
CONTINUOUS
 10
449.66071555780809
 20
432.71667689794651
 30
0.0
  0
SEQEND
  5
152D
  8
0
  6
CONTINUOUS
  0
POLYLINE
  5
ED8
  8
0
  6
CONTINUOUS
 66
     1
 10
0.0
 20
0.0
 30
0.0
  0
VERTEX
  5
152E
  8
0
  6
CONTINUOUS
 10
442.76071555780851
 20
433.06309722127168
 30
0.0
 42
0.0851703918331037
  0
VERTEX
  5
152F
  8
0
  6
CONTINUOUS
 10
438.76071555780851
 20
432.37509722127157
 30
0.0
 42
0.3457679526359281
  0
VERTEX
  5
1530
  8
0
  6
CONTINUOUS
 10
435.86071555780887
 20
432.71667689794651
 30
0.0
  0
SEQEND
  5
1531
  8
0
  6
CONTINUOUS
  0
LINE
  5
EDD
  8
0
  6
CONTINUOUS
 10
438.76071555780862
 20
426.2630972212724
 30
0.0
 11
439.96071555780941
 21
425.06309722127168
 31
0.0
  0
LINE
  5
EDE
  8
0
  6
CONTINUOUS
 10
438.76071555780851
 20
428.06309722127168
 30
0.0
 11
438.76071555780862
 21
426.2630972212724
 31
0.0
  0
LINE
  5
EDF
  8
0
  6
CONTINUOUS
 10
445.56071555780778
 20
425.06309722127168
 30
0.0
 11
439.96071555780941
 21
425.06309722127168
 31
0.0
  0
LINE
  5
EE0
  8
0
  6
CONTINUOUS
 10
446.76071555780862
 20
426.2630972212724
 30
0.0
 11
445.56071555780778
 21
425.06309722127168
 31
0.0
  0
LINE
  5
EE1
  8
0
  6
CONTINUOUS
 10
446.76071555780862
 20
428.06309722127168
 30
0.0
 11
446.76071555780862
 21
426.2630972212724
 31
0.0
  0
LINE
  5
EE2
  8
0
  6
CONTINUOUS
 10
449.0607155578079
 20
428.06309722127168
 30
0.0
 11
436.46071555780918
 21
428.06309722127168
 31
0.0
  0
LINE
  5
EE3
  8
0
  6
CONTINUOUS
 10
450.26071555780862
 20
428.75593786792223
 30
0.0
 11
449.0607155578079
 21
428.06309722127168
 31
0.0
  0
LINE
  5
EE4
  8
0
  6
CONTINUOUS
 10
450.26071555780862
 20
432.37025657462129
 30
0.0
 11
450.26071555780862
 21
428.75593786792223
 31
0.0
  0
LINE
  5
EE5
  8
0
  6
CONTINUOUS
 10
435.26071555780862
 20
428.75593786792223
 30
0.0
 11
436.46071555780929
 21
428.06309722127168
 31
0.0
  0
LINE
  5
EE6
  8
0
  6
CONTINUOUS
 10
435.26071555780862
 20
432.37025657462129
 30
0.0
 11
435.26071555780862
 21
428.75593786792223
 31
0.0
  0
LINE
  5
EE7
  8
0
  6
CONTINUOUS
 62
     2
 10
439.5607155578079
 20
428.06309722127168
 30
0.0
 11
439.5607155578079
 21
425.46309722127319
 31
0.0
  0
POLYLINE
  5
EE8
  8
0
  6
CONTINUOUS
 66
     1
 10
0.0
 20
0.0
 30
0.0
  0
VERTEX
  5
1532
  8
0
  6
CONTINUOUS
 10
442.76071555780862
 20
428.06309722127168
 30
0.0
 42
-0.0851703918331037
  0
VERTEX
  5
1533
  8
0
  6
CONTINUOUS
 10
438.76071555780862
 20
428.75109722127178
 30
0.0
 42
-0.3457679526359281
  0
VERTEX
  5
1534
  8
0
  6
CONTINUOUS
 10
435.86071555780899
 20
428.40951754459689
 30
0.0
  0
SEQEND
  5
1535
  8
0
  6
CONTINUOUS
  0
LINE
  5
EED
  8
0
  6
CONTINUOUS
 10
438.76071555780862
 20
432.37509722127157
 30
0.0
 11
438.76071555780862
 21
428.75109722127178
 31
0.0
  0
LINE
  5
EEE
  8
0
  6
CONTINUOUS
 62
     2
 10
445.96071555780929
 20
428.06309722127168
 30
0.0
 11
445.96071555780929
 21
425.46309722127319
 31
0.0
  0
LINE
  5
EEF
  8
0
  6
CONTINUOUS
 10
446.76071555780862
 20
426.2630972212724
 30
0.0
 11
438.76071555780862
 21
426.2630972212724
 31
0.0
  0
POLYLINE
  5
EF0
  8
0
  6
CONTINUOUS
 66
     1
 10
0.0
 20
0.0
 30
0.0
  0
VERTEX
  5
1536
  8
0
  6
CONTINUOUS
 10
442.76071555780862
 20
428.06309722127168
 30
0.0
 42
0.0851703918331037
  0
VERTEX
  5
1537
  8
0
  6
CONTINUOUS
 10
446.76071555780862
 20
428.75109722127178
 30
0.0
 42
0.3457679526359281
  0
VERTEX
  5
1538
  8
0
  6
CONTINUOUS
 10
449.6607155578082
 20
428.40951754459689
 30
0.0
  0
SEQEND
  5
1539
  8
0
  6
CONTINUOUS
  0
LINE
  5
EF5
  8
0
  6
CONTINUOUS
 10
446.76071555780862
 20
432.37509722127169
 30
0.0
 11
446.76071555780862
 21
428.75109722127178
 31
0.0
  0
CIRCLE
  5
EF6
  8
0
  6
CONTINUOUS
 10
440.0475121222122
 20
509.7763006568681
 30
0.0
 40
2.0499999999999989
  0
ARC
  5
EF7
  8
0
  6
CONTINUOUS
 62
     2
 10
440.04751212221208
 20
509.77630065686799
 30
0.0
 40
2.5
 50
204.98154856581149
 51
158.9636414602291
  0
LINE
  5
EF8
  8
CENTER
  6
CENTER
 10
435.80487143509282
 20
514.01894134398742
 30
0.0
 11
444.64370619992468
 21
505.18010657915568
 31
0.0
  0
LINE
  5
EF9
  8
CENTER
  6
CENTER
 10
442.76071555780862
 20
449.31954955421969
 30
0.0
 11
442.76071555780862
 21
422.06309722127168
 31
0.0
  0
TEXT
  5
EFA
  8
DIM
  6
CONTINUOUS
 10
458.1178584149514
 20
412.20547819388293
 30
0.0
 40
3.0
  1
18
  7
ROMANSS
 72
     1
 11
460.26071555780868
 21
413.70547819388298
 31
0.0
 73
     2
  0
SOLID
  5
EFB
  8
DIM
  6
CONTINUOUS
 10
454.26071555780862
 20
411.20547819388293
 30
0.0
 11
454.26071555780862
 21
410.20547819388293
 31
0.0
 12
451.26071555780862
 22
410.70547819388293
 32
0.0
 13
451.26071555780862
 23
410.70547819388293
 33
0.0
  0
SOLID
  5
EFC
  8
DIM
  6
CONTINUOUS
 10
466.26071555780862
 20
411.20547819388293
 30
0.0
 11
466.26071555780862
 21
410.20547819388293
 31
0.0
 12
469.26071555780868
 22
410.70547819388293
 32
0.0
 13
469.26071555780868
 23
410.70547819388293
 33
0.0
  0
LINE
  5
EFD
  8
DIM
  6
CONTINUOUS
 10
466.26071555780862
 20
410.70547819388293
 30
0.0
 11
454.26071555780862
 21
410.70547819388293
 31
0.0
  0
LINE
  5
EFE
  8
DIM
  6
CONTINUOUS
 10
451.26071555780862
 20
393.20547819388298
 30
0.0
 11
451.26071555780862
 21
411.70547819388293
 31
0.0
  0
LINE
  5
EFF
  8
DIM
  6
CONTINUOUS
 10
469.26071555780868
 20
394.70547819388293
 30
0.0
 11
469.26071555780868
 21
411.70547819388293
 31
0.0
  0
TEXT
  5
F00
  8
DIM
  6
CONTINUOUS
 10
454.83924104380208
 20
404.20547819388293
 30
0.0
 40
3.0
  1
%%c16h6
  7
ROMANSS
 72
     1
 11
461.0535267580878
 21
405.70547819388298
 31
0.0
 73
     2
  0
LINE
  5
F01
  8
DIM
  6
CONTINUOUS
 10
469.26071555780868
 20
402.70547819388293
 30
0.0
 11
453.26071555780862
 21
402.70547819388293
 31
0.0
  0
SOLID
  5
F02
  8
DIM
  6
CONTINUOUS
 10
456.26071555780851
 20
403.20547819388293
 30
0.0
 11
456.26071555780851
 21
402.20547819388293
 31
0.0
 12
453.26071555780862
 22
402.70547819388293
 32
0.0
 13
453.26071555780862
 23
402.70547819388293
 33
0.0
  0
SOLID
  5
F03
  8
DIM
  6
CONTINUOUS
 10
466.26071555780868
 20
403.20547819388293
 30
0.0
 11
466.26071555780868
 21
402.20547819388293
 31
0.0
 12
469.26071555780868
 22
402.70547819388293
 32
0.0
 13
469.26071555780868
 23
402.70547819388293
 33
0.0
  0
LINE
  5
F04
  8
DIM
  6
CONTINUOUS
 10
453.26071555780862
 20
394.70547819388293
 30
0.0
 11
453.26071555780862
 21
403.70547819388293
 31
0.0
  0
LINE
  5
F05
  8
DIM
  6
CONTINUOUS
 10
469.26071555780868
 20
394.70547819388293
 30
0.0
 11
469.26071555780868
 21
403.70547819388293
 31
0.0
  0
TEXT
  5
F06
  8
DIM
  6
CONTINUOUS
 10
441.76071555780862
 20
497.93809722127168
 30
0.0
 40
3.0
  1
5
 50
90.0
  7
ROMANSS
 72
     1
 11
440.26071555780862
 21
498.93809722127168
 31
0.0
 73
     2
  0
LINE
  5
F07
  8
DIM
  6
CONTINUOUS
 10
443.26071555780862
 20
486.06309722127179
 30
0.0
 11
443.26071555780862
 21
491.06309722127168
 31
0.0
  0
SOLID
  5
F08
  8
DIM
  6
CONTINUOUS
 10
442.76071555780862
 20
494.06309722127168
 30
0.0
 11
443.76071555780862
 21
494.06309722127168
 31
0.0
 12
443.26071555780862
 22
491.06309722127168
 32
0.0
 13
443.26071555780862
 23
491.06309722127168
 33
0.0
  0
SOLID
  5
F09
  8
DIM
  6
CONTINUOUS
 10
442.76071555780862
 20
483.06309722127179
 30
0.0
 11
443.76071555780862
 21
483.06309722127179
 31
0.0
 12
443.26071555780862
 22
486.06309722127179
 32
0.0
 13
443.26071555780862
 23
486.06309722127179
 33
0.0
  0
LINE
  5
F0A
  8
DIM
  6
CONTINUOUS
 10
443.26071555780862
 20
497.06309722127168
 30
0.0
 11
443.26071555780862
 21
499.81309722127168
 31
0.0
  0
LINE
  5
F0B
  8
DIM
  6
CONTINUOUS
 10
443.26071555780862
 20
494.06309722127168
 30
0.0
 11
443.26071555780862
 21
497.06309722127168
 31
0.0
  0
LINE
  5
F0C
  8
DIM
  6
CONTINUOUS
 10
443.26071555780862
 20
483.06309722127179
 30
0.0
 11
443.26071555780862
 21
480.06309722127179
 31
0.0
  0
LINE
  5
F0D
  8
DIM
  6
CONTINUOUS
 10
450.26071555780862
 20
491.06309722127168
 30
0.0
 11
442.26071555780862
 21
491.06309722127168
 31
0.0
  0
LINE
  5
F0E
  8
DIM
  6
CONTINUOUS
 10
450.26071555780862
 20
486.06309722127179
 30
0.0
 11
442.26071555780862
 21
486.06309722127179
 31
0.0
  0
CIRCLE
  5
F0F
  8
0
  6
CONTINUOUS
 10
461.26071555780862
 20
488.56309722127168
 30
0.0
 40
12.49999999999997
  0
TEXT
  5
F10
  8
DIM
  6
CONTINUOUS
 10
407.76071555780851
 20
377.27690676531148
 30
0.0
 40
3.0
  1
30
 50
90.0
  7
ROMANSS
 72
     1
 11
406.26071555780862
 21
379.70547819388293
 31
0.0
 73
     2
  0
SOLID
  5
F11
  8
DIM
  6
CONTINUOUS
 10
408.76071555780862
 20
391.70547819388298
 30
0.0
 11
409.76071555780862
 21
391.70547819388298
 31
0.0
 12
409.26071555780862
 22
394.70547819388293
 32
0.0
 13
409.26071555780862
 23
394.70547819388293
 33
0.0
  0
LINE
  5
F12
  8
DIM
  6
CONTINUOUS
 10
453.26071555780862
 20
394.70547819388293
 30
0.0
 11
408.26071555780862
 21
394.70547819388293
 31
0.0
  0
TEXT
  5
F13
  8
DIM
  6
CONTINUOUS
 10
415.76071555780862
 20
377.27690676531148
 30
0.0
 40
3.0
  1
25
 50
90.0
  7
ROMANSS
 72
     1
 11
414.26071555780862
 21
379.70547819388293
 31
0.0
 73
     2
  0
SOLID
  5
F14
  8
DIM
  6
CONTINUOUS
 10
416.76071555780862
 20
389.20547819388298
 30
0.0
 11
417.76071555780862
 21
389.20547819388298
 31
0.0
 12
417.26071555780862
 22
392.20547819388293
 32
0.0
 13
417.26071555780862
 23
392.20547819388293
 33
0.0
  0
LINE
  5
F15
  8
DIM
  6
CONTINUOUS
 10
417.26071555780862
 20
370.20547819388298
 30
0.0
 11
417.26071555780862
 21
389.20547819388298
 31
0.0
  0
LINE
  5
F16
  8
DIM
  6
CONTINUOUS
 10
450.26071555780862
 20
392.20547819388293
 30
0.0
 11
416.26071555780851
 21
392.20547819388293
 31
0.0
  0
TEXT
  5
F17
  8
DIM
  6
CONTINUOUS
 10
410.52851242762711
 20
529.77745438848115
 30
0.0
 40
3.0
  1
90%%p5%%d
 50
45.000000000000007
  7
ROMANSS
 72
     1
 11
414.01353870633221
 21
535.38380101074586
 31
0.0
 73
     2
  0
SOLID
  5
F18
  8
DIM
  6
CONTINUOUS
 10
398.20735567404188
 20
491.55047534776628
 30
0.0
 11
397.207633627218
 21
491.5740513757209
 31
0.0
 12
397.63676656676591
 22
488.56309722127168
 32
0.0
 13
397.63676656676591
 23
488.56309722127168
 33
0.0
  0
LINE
  5
F19
  8
DIM
  6
CONTINUOUS
 10
422.76071555780862
 20
488.56309722127168
 30
0.0
 11
396.63676656676591
 21
488.56309722127168
 31
0.0
  0
TEXT
  5
F1A
  8
DIM
  6
CONTINUOUS
 10
458.83214412923718
 20
535.56309722127162
 30
0.0
 40
3.0
  1
60
  7
ROMANSS
 72
     1
 11
461.26071555780862
 21
537.06309722127151
 31
0.0
 73
     2
  0
SOLID
  5
F1B
  8
DIM
  6
CONTINUOUS
 10
434.26071555780862
 20
534.56309722127162
 30
0.0
 11
434.26071555780862
 21
533.56309722127162
 31
0.0
 12
431.26071555780862
 22
534.06309722127162
 32
0.0
 13
431.26071555780862
 23
534.06309722127162
 33
0.0
  0
LINE
  5
F1C
  8
DIM
  6
CONTINUOUS
 10
431.26071555780862
 20
525.56309722127162
 30
0.0
 11
431.26071555780862
 21
535.06309722127162
 31
0.0
  0
LINE
  5
F1D
  8
0
  6
CONTINUOUS
 10
451.26071555780862
 20
392.20547819388293
 30
0.0
 11
453.26071555780862
 21
392.20547819388293
 31
0.0
  0
LINE
  5
F1E
  8
CENTER
  6
CENTER
 10
431.26071555780862
 20
464.56309722127168
 30
0.0
 11
431.26071555780862
 21
452.56309722127168
 31
0.0
  0
CIRCLE
  5
F1F
  8
0
  6
CONTINUOUS
 10
431.26071555780862
 20
458.56309722127168
 30
0.0
 40
2.5
  0
ARC
  5
F20
  8
0
  6
CONTINUOUS
 62
     2
 10
431.26071555780862
 20
458.56309722127168
 30
0.0
 40
3.0
 50
72.528507680586145
 51
21.640324594293851
  0
CIRCLE
  5
F21
  8
0
  6
CONTINUOUS
 10
431.26071555780862
 20
518.56309722127173
 30
0.0
 40
2.5
  0
ARC
  5
F22
  8
0
  6
CONTINUOUS
 62
     2
 10
431.26071555780862
 20
518.56309722127173
 30
0.0
 40
3.0
 50
72.528507680586472
 51
21.64032459429486
  0
LINE
  5
F23
  8
CENTER
  6
CENTER
 10
431.26071555780862
 20
524.56309722127151
 30
0.0
 11
431.26071555780862
 21
512.56309722127173
 31
0.0
  0
LINE
  5
F24
  8
CENTER
  6
CENTER
 10
425.26071555780862
 20
458.56309722127179
 30
0.0
 11
437.26071555780862
 21
458.56309722127168
 31
0.0
  0
LINE
  5
F25
  8
CENTER
  6
CENTER
 10
425.26071555780862
 20
518.56309722127173
 30
0.0
 11
437.26071555780862
 21
518.56309722127173
 31
0.0
  0
LINE
  5
F26
  8
0
 10
423.76071555780862
 20
526.06309722127162
 30
0.0
 11
423.76071555780862
 21
433.06309722127168
 31
0.0
  0
CIRCLE
  5
F27
  8
0
  6
CONTINUOUS
 10
461.26071555780862
 20
488.56309722127168
 30
0.0
 40
2.0499999999999989
  0
ARC
  5
F28
  8
0
  6
CONTINUOUS
 62
     2
 10
461.26071555780862
 20
488.56309722127168
 30
0.0
 40
2.5
 50
159.98154856581121
 51
113.96364146022989
  0
LINE
  5
F29
  8
0
 10
451.26071555780868
 20
486.06309722127179
 30
0.0
 11
453.6613734810233
 21
486.06309722127179
 31
0.0
  0
LINE
  5
F2A
  8
0
 10
451.26071555780862
 20
491.06309722127168
 30
0.0
 11
453.6613734810233
 21
491.06309722127168
 31
0.0
  0
LINE
  5
F2B
  8
0
 10
451.26071555780862
 20
491.06309722127168
 30
0.0
 11
451.26071555780862
 21
486.06309722127168
 31
0.0
  0
CIRCLE
  5
F2C
  8
0
  6
CONTINUOUS
 10
461.26071555780862
 20
488.56309722127168
 30
0.0
 40
6.9999999999999707
  0
CIRCLE
  5
F2D
  8
0
  6
CONTINUOUS
 10
461.26071555780862
 20
488.56309722127168
 30
0.0
 40
7.9999999999999707
  0
LINE
  5
F2E
  8
CENTER
  6
CENTER
 10
461.26071555780862
 20
529.06309722127162
 30
0.0
 11
461.26071555780862
 21
430.06309722127168
 31
0.0
  0
LINE
  5
F2F
  8
0
  6
CONTINUOUS
 10
468.26071555780868
 20
394.70547819388293
 30
0.0
 11
469.26071555780868
 21
393.70547819388293
 31
0.0
  0
LINE
  5
F30
  8
0
  6
CONTINUOUS
 10
454.26071555780862
 20
394.70547819388293
 30
0.0
 11
453.26071555780862
 21
393.70547819388293
 31
0.0
  0
LINE
  5
F31
  8
0
  6
CONTINUOUS
 10
453.26071555780862
 20
393.70547819388293
 30
0.0
 11
469.26071555780862
 21
393.70547819388293
 31
0.0
  0
LINE
  5
F32
  8
0
  6
CONTINUOUS
 10
454.26071555780862
 20
394.70547819388293
 30
0.0
 11
468.26071555780868
 21
394.70547819388293
 31
0.0
  0
SOLID
  5
F33
  8
DIM
  6
CONTINUOUS
 10
458.27333743131402
 20
551.61645710503842
 30
0.0
 11
458.24976140335929
 21
552.6161791518623
 31
0.0
 12
461.26071555780862
 22
552.18704621231439
 32
0.0
 13
461.26071555780862
 23
552.18704621231439
 33
0.0
  0
LINE
  5
F34
  8
DIM
  6
CONTINUOUS
 10
461.26071555780862
 20
539.43155641111832
 30
0.0
 11
461.26071555780862
 21
553.18704621231439
 31
0.0
  0
LINE
  5
F35
  8
0
  6
CONTINUOUS
 10
503.06787491115819
 20
514.56309722127162
 30
0.0
 11
503.76071555780862
 21
513.36309722127078
 31
0.0
  0
LINE
  5
F36
  8
0
  6
CONTINUOUS
 10
503.76071555780862
 20
511.06309722127168
 30
0.0
 11
505.5607155578079
 21
511.06309722127168
 31
0.0
  0
LINE
  5
F37
  8
0
  6
CONTINUOUS
 10
499.45355620445912
 20
514.56309722127185
 30
0.0
 11
498.76071555780862
 21
513.36309722127112
 31
0.0
  0
LINE
  5
F38
  8
0
  6
CONTINUOUS
 10
499.45355620445912
 20
514.56309722127162
 30
0.0
 11
503.06787491115819
 21
514.56309722127162
 31
0.0
  0
LINE
  5
F39
  8
0
  6
CONTINUOUS
 10
499.44871555780873
 20
511.06309722127168
 30
0.0
 11
503.07271555780858
 21
511.06309722127168
 31
0.0
  0
TEXT
  5
F3A
  8
DIM
  6
CONTINUOUS
 10
529.11441852835367
 20
505.8848888786336
 30
0.0
 40
3.0
  1
M5x15L
  7
ROMANSS
 11
529.11441852835367
 21
507.38488887863349
 31
0.0
 73
     2
  0
LINE
  5
F3B
  8
DIM
  6
CONTINUOUS
 10
527.81437052373053
 20
504.38488887863349
 30
0.0
 11
543.23941852835378
 21
504.38488887863349
 31
0.0
  0
TEXT
  5
F3C
  8
DIM
  6
CONTINUOUS
 10
508.45650119307879
 20
541.07613119332416
 30
0.0
 40
3.0
  1
2x4-M6x15L
  7
ROMANSS
 11
508.45650119307879
 21
542.57613119332416
 31
0.0
 73
     2
  0
LINE
  5
F3D
  8
DIM
  6
CONTINUOUS
 10
508.33194819235518
 20
539.57613119332427
 30
0.0
 11
533.08150119307879
 21
539.57613119332427
 31
0.0
  0
LINE
  5
F3E
  8
DIM
  6
CONTINUOUS
 10
494.9672029671126
 20
523.27969865292471
 30
0.0
 11
508.33194819235518
 21
539.57613119332427
 31
0.0
  0
SOLID
  5
F3F
  8
DIM
  6
CONTINUOUS
 10
495.35381742967161
 20
522.96263516190095
 30
0.0
 11
494.5805885045537
 21
523.59676214394869
 31
0.0
 12
493.06482202096919
 22
520.96001187757111
 32
0.0
 13
493.06482202096919
 23
520.96001187757111
 33
0.0
  0
SOLID
  5
F40
  8
DIM
  6
CONTINUOUS
 10
488.26071555780862
 20
534.56309722127162
 30
0.0
 11
488.26071555780862
 21
533.56309722127162
 31
0.0
 12
491.26071555780851
 22
534.06309722127162
 32
0.0
 13
491.26071555780851
 23
534.06309722127162
 33
0.0
  0
LINE
  5
F41
  8
DIM
  6
CONTINUOUS
 10
491.26071555780851
 20
525.56309722127162
 30
0.0
 11
491.26071555780851
 21
535.06309722127162
 31
0.0
  0
LINE
  5
F42
  8
CENTER
  6
CENTER
 10
485.26071555780862
 20
518.56309722127173
 30
0.0
 11
497.26071555780862
 21
518.56309722127173
 31
0.0
  0
LINE
  5
F43
  8
CENTER
  6
CENTER
 10
485.26071555780862
 20
458.56309722127168
 30
0.0
 11
497.26071555780862
 21
458.56309722127168
 31
0.0
  0
LINE
  5
F44
  8
CENTER
  6
CENTER
 10
491.26071555780851
 20
464.56309722127168
 30
0.0
 11
491.26071555780851
 21
452.56309722127168
 31
0.0
  0
CIRCLE
  5
F45
  8
0
  6
CONTINUOUS
 10
491.26071555780851
 20
518.56309722127173
 30
0.0
 40
2.5
  0
ARC
  5
F46
  8
0
  6
CONTINUOUS
 62
     2
 10
491.26071555780851
 20
518.56309722127173
 30
0.0
 40
3.0
 50
162.5285076805875
 51
111.6403245942938
  0
CIRCLE
  5
F47
  8
0
  6
CONTINUOUS
 10
491.26071555780851
 20
458.56309722127168
 30
0.0
 40
2.5
  0
ARC
  5
F48
  8
0
  6
CONTINUOUS
 62
     2
 10
491.26071555780851
 20
458.56309722127168
 30
0.0
 40
3.0
 50
72.528507680586145
 51
21.640324594293851
  0
LINE
  5
F49
  8
CENTER
  6
CENTER
 10
491.26071555780851
 20
524.56309722127151
 30
0.0
 11
491.26071555780851
 21
512.56309722127173
 31
0.0
  0
LINE
  5
F4A
  8
0
 10
498.76071555780862
 20
526.06309722127162
 30
0.0
 11
498.76071555780862
 21
433.06309722127168
 31
0.0
  0
TEXT
  5
F4B
  8
DIM
  6
CONTINUOUS
 10
646.89232633651352
 20
371.58150832254938
 30
0.0
 40
3.0
  1
2x4-M6x15L
  7
ROMANSS
 72
     2
 11
674.32089776508496
 21
373.08150832254938
 31
0.0
 73
     2
  0
LINE
  5
F4C
  8
DIM
  6
CONTINUOUS
 10
675.08120420804653
 20
370.08150832254938
 30
0.0
 11
649.69589776508485
 21
370.08150832254938
 31
0.0
  0
TEXT
  5
F4D
  8
DIM
  6
CONTINUOUS
 10
549.58660761182978
 20
489.34864307368059
 30
0.0
 40
3.0
  1
60
 50
90.0
  7
ROMANSS
 72
     1
 11
548.08660761182989
 21
491.77721450225198
 31
0.0
 73
     2
  0
SOLID
  5
F4E
  8
DIM
  6
CONTINUOUS
 10
550.58660761182989
 20
515.56309722127173
 30
0.0
 11
551.58660761182989
 21
515.56309722127173
 31
0.0
 12
551.08660761182989
 22
518.56309722127173
 32
0.0
 13
551.08660761182989
 23
518.56309722127173
 33
0.0
  0
SOLID
  5
F4F
  8
DIM
  6
CONTINUOUS
 10
550.58660761182989
 20
461.56309722127168
 30
0.0
 11
551.58660761182989
 21
461.56309722127168
 31
0.0
 12
551.08660761182989
 22
458.56309722127168
 32
0.0
 13
551.08660761182989
 23
458.56309722127168
 33
0.0
  0
LINE
  5
F50
  8
DIM
  6
CONTINUOUS
 10
551.08660761182989
 20
461.56309722127168
 30
0.0
 11
551.08660761182989
 21
515.56309722127173
 31
0.0
  0
LINE
  5
F51
  8
CENTER
  6
CENTER
 10
569.26071555780868
 20
430.0202878190463
 30
0.0
 11
569.26071555780868
 21
448.40833016127738
 31
0.0
  0
LINE
  5
F52
  8
HIDDEN
  6
HIDDEN
 10
586.76071555780857
 20
477.06309722127168
 30
0.0
 11
586.76071555780857
 21
483.06309722127168
 31
0.0
  0
LINE
  5
F53
  8
HIDDEN
  6
HIDDEN
 10
574.76071555780857
 20
482.46309722127171
 30
0.0
 11
573.37507491175336
 21
480.06309722127168
 31
0.0
  0
LINE
  5
F54
  8
HIDDEN
  6
HIDDEN
 10
574.76071555780857
 20
477.6630972212717
 30
0.0
 11
574.76071555780857
 21
482.46309722127171
 31
0.0
  0
LINE
  5
F55
  8
HIDDEN
  6
HIDDEN
 10
574.76071555780857
 20
477.6630972212717
 30
0.0
 11
573.37507491175336
 21
480.06309722127168
 31
0.0
  0
LINE
  5
F56
  8
HIDDEN
  6
HIDDEN
 10
577.76071555780868
 20
477.06309722127168
 30
0.0
 11
577.76071555780868
 21
483.06309722127168
 31
0.0
  0
LINE
  5
F57
  8
HIDDEN
  6
HIDDEN
 10
586.76071555780857
 20
477.6630972212717
 30
0.0
 11
574.76071555780857
 21
477.6630972212717
 31
0.0
  0
LINE
  5
F58
  8
HIDDEN
  6
HIDDEN
 10
586.76071555780857
 20
482.46309722127171
 30
0.0
 11
574.76071555780857
 21
482.46309722127171
 31
0.0
  0
LINE
  5
F59
  8
HIDDEN
  6
HIDDEN
 10
592.76071555780857
 20
477.06309722127168
 30
0.0
 11
577.76071555780868
 21
477.06309722127168
 31
0.0
  0
LINE
  5
F5A
  8
HIDDEN
  6
HIDDEN
 10
592.76071555780857
 20
483.06309722127168
 30
0.0
 11
577.76071555780868
 21
483.06309722127168
 31
0.0
  0
LINE
  5
F5B
  8
HIDDEN
  6
HIDDEN
 10
586.76071555780857
 20
439.06309722127168
 30
0.0
 11
586.76071555780857
 21
445.06309722127168
 31
0.0
  0
LINE
  5
F5C
  8
HIDDEN
  6
HIDDEN
 10
577.76071555780868
 20
439.06309722127168
 30
0.0
 11
577.76071555780868
 21
445.06309722127168
 31
0.0
  0
LINE
  5
F5D
  8
HIDDEN
  6
HIDDEN
 10
574.76071555780857
 20
444.46309722127171
 30
0.0
 11
573.37507491175336
 21
442.06309722127168
 31
0.0
  0
LINE
  5
F5E
  8
HIDDEN
  6
HIDDEN
 10
574.76071555780857
 20
439.66309722127158
 30
0.0
 11
573.37507491175336
 21
442.06309722127168
 31
0.0
  0
LINE
  5
F5F
  8
HIDDEN
  6
HIDDEN
 10
574.76071555780857
 20
439.66309722127158
 30
0.0
 11
574.76071555780857
 21
444.46309722127171
 31
0.0
  0
LINE
  5
F60
  8
HIDDEN
  6
HIDDEN
 10
586.76071555780857
 20
444.46309722127171
 30
0.0
 11
574.76071555780857
 21
444.46309722127171
 31
0.0
  0
LINE
  5
F61
  8
HIDDEN
  6
HIDDEN
 10
586.76071555780857
 20
439.66309722127158
 30
0.0
 11
574.76071555780857
 21
439.66309722127158
 31
0.0
  0
LINE
  5
F62
  8
HIDDEN
  6
HIDDEN
 10
592.76071555780857
 20
445.06309722127168
 30
0.0
 11
577.76071555780868
 21
445.06309722127168
 31
0.0
  0
LINE
  5
F63
  8
HIDDEN
  6
HIDDEN
 10
592.76071555780857
 20
439.06309722127168
 30
0.0
 11
577.76071555780868
 21
439.06309722127168
 31
0.0
  0
LINE
  5
F64
  8
0
 10
592.76071555780857
 20
478.56309722127168
 30
0.0
 11
595.76071555780857
 21
478.56309722127168
 31
0.0
  0
ARC
  5
F65
  8
0
 10
595.76071555780857
 20
477.56309722127168
 30
0.0
 40
1.0
 50
0.0
 51
90.0
  0
LINE
  5
F66
  8
CENTER
  6
CENTER
 10
577.76071555780868
 20
430.46122559292172
 30
0.0
 11
577.76071555780868
 21
448.43376574861247
 31
0.0
  0
LINE
  5
F67
  8
0
 10
562.76071555780857
 20
487.56309722127168
 30
0.0
 11
592.76071555780857
 21
487.06309722127168
 31
0.0
  0
LINE
  5
F68
  8
CENTER
  6
CENTER
 10
595.84826566586003
 20
480.06309722127168
 30
0.0
 11
561.76071555780857
 21
480.06309722127168
 31
0.0
  0
LINE
  5
F69
  8
0
 10
592.76071555780857
 20
443.56309722127168
 30
0.0
 11
595.76071555780857
 21
443.56309722127168
 31
0.0
  0
ARC
  5
F6A
  8
0
 10
595.76071555780857
 20
444.56309722127168
 30
0.0
 40
1.0
 50
270.0
 51
0.0
  0
LINE
  5
F6B
  8
0
 10
562.76071555780857
 20
434.56309722127168
 30
0.0
 11
592.76071555780857
 21
435.06309722127168
 31
0.0
  0
LINE
  5
F6C
  8
CENTER
  6
CENTER
 10
595.18384569611703
 20
442.06309722127168
 30
0.0
 11
561.76071555780857
 21
442.06309722127168
 31
0.0
  0
LINE
  5
F6D
  8
0
 10
596.76071555780857
 20
477.56309722127168
 30
0.0
 11
596.76071555780857
 21
444.56309722127168
 31
0.0
  0
LINE
  5
F6E
  8
0
 10
592.76071555780857
 20
487.06309722127168
 30
0.0
 11
592.76071555780857
 21
435.06309722127168
 31
0.0
  0
LINE
  5
F6F
  8
0
 10
562.76071555780857
 20
487.56309722127168
 30
0.0
 11
562.76071555780857
 21
434.56309722127168
 31
0.0
  0
SOLID
  5
F70
  8
DIM
  6
CONTINUOUS
 10
789.12079384892616
 20
391.70547819388298
 30
0.0
 11
790.12079384892616
 21
391.70547819388298
 31
0.0
 12
789.62079384892616
 22
394.70547819388293
 32
0.0
 13
789.62079384892616
 23
394.70547819388293
 33
0.0
  0
LINE
  5
F71
  8
DIM
  6
CONTINUOUS
 10
744.1207938489265
 20
394.70547819388293
 30
0.0
 11
790.62079384892616
 21
394.70547819388293
 31
0.0
  0
TEXT
  5
F72
  8
DIM
  6
CONTINUOUS
 10
780.12079384892638
 20
369.73569066922067
 30
0.0
 40
3.0
  1
8
 50
90.0
  7
ROMANSS
 72
     1
 11
778.6207938489265
 21
370.73569066922067
 31
0.0
 73
     2
  0
LINE
  5
F73
  8
0
  6
CONTINUOUS
 10
743.1207938489265
 20
394.70547819388293
 30
0.0
 11
744.1207938489265
 21
393.70547819388293
 31
0.0
  0
LINE
  5
F74
  8
0
  6
CONTINUOUS
 10
729.12079384892638
 20
394.70547819388293
 30
0.0
 11
728.1207938489265
 21
393.70547819388293
 31
0.0
  0
LINE
  5
F75
  8
0
  6
CONTINUOUS
 10
728.1207938489265
 20
393.70547819388293
 30
0.0
 11
744.1207938489265
 21
393.70547819388293
 31
0.0
  0
LINE
  5
F76
  8
0
  6
CONTINUOUS
 10
729.12079384892638
 20
394.70547819388293
 30
0.0
 11
743.1207938489265
 21
394.70547819388293
 31
0.0
  0
CIRCLE
  5
F77
  8
0
  6
CONTINUOUS
 10
194.90063726669069
 20
342.20547819388293
 30
0.0
 40
2.5
  0
ARC
  5
F78
  8
0
  6
CONTINUOUS
 62
     2
 10
194.90063726669069
 20
342.20547819388293
 30
0.0
 40
3.0000000000000031
 50
165.00000000000551
 51
104.9999999999944
  0
CIRCLE
  5
F79
  8
0
  6
CONTINUOUS
 10
232.90063726669081
 20
342.20547819388293
 30
0.0
 40
2.5
  0
ARC
  5
F7A
  8
0
  6
CONTINUOUS
 62
     2
 10
232.90063726669081
 20
342.20547819388293
 30
0.0
 40
3.0000000000000031
 50
165.00000000000551
 51
104.9999999999944
  0
CIRCLE
  5
F7B
  8
0
  6
CONTINUOUS
 10
194.90063726669069
 20
304.20547819388293
 30
0.0
 40
2.5
  0
ARC
  5
F7C
  8
0
  6
CONTINUOUS
 62
     2
 10
194.90063726669069
 20
304.20547819388293
 30
0.0
 40
3.0000000000000031
 50
165.00000000000551
 51
104.9999999999944
  0
CIRCLE
  5
F7D
  8
0
  6
CONTINUOUS
 10
232.90063726669081
 20
304.20547819388293
 30
0.0
 40
2.5
  0
ARC
  5
F7E
  8
0
  6
CONTINUOUS
 62
     2
 10
232.90063726669081
 20
304.20547819388293
 30
0.0
 40
3.0000000000000031
 50
165.00000000000551
 51
104.9999999999944
  0
CIRCLE
  5
F7F
  8
0
  6
CONTINUOUS
 10
689.6207938489265
 20
342.20547819388293
 30
0.0
 40
2.5
  0
ARC
  5
F80
  8
0
  6
CONTINUOUS
 62
     2
 10
689.6207938489265
 20
342.20547819388293
 30
0.0
 40
3.0000000000000031
 50
75.000000000005556
 51
14.999999999994451
  0
CIRCLE
  5
F81
  8
0
  6
CONTINUOUS
 10
727.6207938489265
 20
342.20547819388293
 30
0.0
 40
2.5
  0
ARC
  5
F82
  8
0
  6
CONTINUOUS
 62
     2
 10
727.6207938489265
 20
342.20547819388293
 30
0.0
 40
3.0000000000000031
 50
75.000000000005556
 51
14.999999999994451
  0
CIRCLE
  5
F83
  8
0
  6
CONTINUOUS
 10
727.6207938489265
 20
304.20547819388293
 30
0.0
 40
2.5
  0
ARC
  5
F84
  8
0
  6
CONTINUOUS
 62
     2
 10
727.6207938489265
 20
304.20547819388293
 30
0.0
 40
3.0000000000000031
 50
75.000000000005556
 51
14.999999999994451
  0
CIRCLE
  5
F85
  8
0
  6
CONTINUOUS
 10
689.6207938489265
 20
304.20547819388293
 30
0.0
 40
2.5
  0
ARC
  5
F86
  8
0
  6
CONTINUOUS
 62
     2
 10
689.6207938489265
 20
304.20547819388293
 30
0.0
 40
3.0000000000000031
 50
75.000000000005556
 51
14.999999999994451
  0
LINE
  5
F87
  8
CENTER
  6
CENTER
 10
353.26071555780851
 20
430.0202878190463
 30
0.0
 11
353.26071555780851
 21
448.40833016127738
 31
0.0
  0
LINE
  5
F88
  8
HIDDEN
  6
HIDDEN
 10
335.76071555780851
 20
477.06309722127168
 30
0.0
 11
335.76071555780851
 21
483.06309722127168
 31
0.0
  0
LINE
  5
F89
  8
HIDDEN
  6
HIDDEN
 10
347.76071555780851
 20
482.46309722127171
 30
0.0
 11
349.14635620386372
 21
480.06309722127168
 31
0.0
  0
LINE
  5
F8A
  8
HIDDEN
  6
HIDDEN
 10
347.76071555780851
 20
477.6630972212717
 30
0.0
 11
347.76071555780851
 21
482.46309722127171
 31
0.0
  0
LINE
  5
F8B
  8
HIDDEN
  6
HIDDEN
 10
347.76071555780851
 20
477.6630972212717
 30
0.0
 11
349.14635620386372
 21
480.06309722127168
 31
0.0
  0
LINE
  5
F8C
  8
HIDDEN
  6
HIDDEN
 10
344.76071555780851
 20
477.06309722127168
 30
0.0
 11
344.76071555780851
 21
483.06309722127168
 31
0.0
  0
LINE
  5
F8D
  8
HIDDEN
  6
HIDDEN
 10
335.76071555780851
 20
477.6630972212717
 30
0.0
 11
347.76071555780851
 21
477.6630972212717
 31
0.0
  0
LINE
  5
F8E
  8
HIDDEN
  6
HIDDEN
 10
335.76071555780851
 20
482.46309722127171
 30
0.0
 11
347.76071555780851
 21
482.46309722127171
 31
0.0
  0
LINE
  5
F8F
  8
HIDDEN
  6
HIDDEN
 10
329.76071555780851
 20
477.06309722127168
 30
0.0
 11
344.76071555780851
 21
477.06309722127168
 31
0.0
  0
LINE
  5
F90
  8
HIDDEN
  6
HIDDEN
 10
329.76071555780851
 20
483.06309722127168
 30
0.0
 11
344.76071555780851
 21
483.06309722127168
 31
0.0
  0
LINE
  5
F91
  8
HIDDEN
  6
HIDDEN
 10
335.76071555780851
 20
439.06309722127168
 30
0.0
 11
335.76071555780851
 21
445.06309722127168
 31
0.0
  0
LINE
  5
F92
  8
HIDDEN
  6
HIDDEN
 10
344.76071555780851
 20
439.06309722127168
 30
0.0
 11
344.76071555780851
 21
445.06309722127168
 31
0.0
  0
LINE
  5
F93
  8
HIDDEN
  6
HIDDEN
 10
347.76071555780851
 20
444.46309722127171
 30
0.0
 11
349.14635620386372
 21
442.06309722127168
 31
0.0
  0
LINE
  5
F94
  8
HIDDEN
  6
HIDDEN
 10
347.76071555780851
 20
439.66309722127158
 30
0.0
 11
349.14635620386372
 21
442.06309722127168
 31
0.0
  0
LINE
  5
F95
  8
HIDDEN
  6
HIDDEN
 10
347.76071555780851
 20
439.66309722127158
 30
0.0
 11
347.76071555780851
 21
444.46309722127171
 31
0.0
  0
LINE
  5
F96
  8
HIDDEN
  6
HIDDEN
 10
335.76071555780851
 20
444.46309722127171
 30
0.0
 11
347.76071555780851
 21
444.46309722127171
 31
0.0
  0
LINE
  5
F97
  8
HIDDEN
  6
HIDDEN
 10
335.76071555780851
 20
439.66309722127158
 30
0.0
 11
347.76071555780851
 21
439.66309722127158
 31
0.0
  0
LINE
  5
F98
  8
HIDDEN
  6
HIDDEN
 10
329.76071555780851
 20
445.06309722127168
 30
0.0
 11
344.76071555780851
 21
445.06309722127168
 31
0.0
  0
LINE
  5
F99
  8
HIDDEN
  6
HIDDEN
 10
329.76071555780851
 20
439.06309722127168
 30
0.0
 11
344.76071555780851
 21
439.06309722127168
 31
0.0
  0
LINE
  5
F9A
  8
CENTER
  6
CENTER
 10
344.76071555780851
 20
430.46122559292172
 30
0.0
 11
344.76071555780851
 21
448.43376574861247
 31
0.0
  0
LINE
  5
F9B
  8
CENTER
  6
CENTER
 10
326.67316544975722
 20
480.06309722127168
 30
0.0
 11
360.76071555780851
 21
480.06309722127168
 31
0.0
  0
LINE
  5
F9C
  8
CENTER
  6
CENTER
 10
327.33758541950021
 20
442.06309722127168
 30
0.0
 11
360.76071555780851
 21
442.06309722127168
 31
0.0
  0
LINE
  5
F9D
  8
0
 10
592.76071555780857
 20
179.06554446481209
 30
0.0
 11
595.76071555780857
 21
179.06554446481209
 31
0.0
  0
LINE
  5
F9E
  8
HIDDEN
  6
HIDDEN
 10
335.76071555780851
 20
339.20547819388298
 30
0.0
 11
335.76071555780851
 21
345.20547819388298
 31
0.0
  0
LINE
  5
F9F
  8
HIDDEN
  6
HIDDEN
 10
347.7607155578084
 20
344.6054781938829
 30
0.0
 11
349.14635620386372
 21
342.20547819388293
 31
0.0
  0
LINE
  5
FA0
  8
HIDDEN
  6
HIDDEN
 10
347.7607155578084
 20
339.805478193883
 30
0.0
 11
347.7607155578084
 21
344.6054781938829
 31
0.0
  0
LINE
  5
FA1
  8
HIDDEN
  6
HIDDEN
 10
347.7607155578084
 20
339.805478193883
 30
0.0
 11
349.14635620386372
 21
342.20547819388293
 31
0.0
  0
LINE
  5
FA2
  8
HIDDEN
  6
HIDDEN
 10
344.76071555780851
 20
339.20547819388298
 30
0.0
 11
344.76071555780851
 21
345.20547819388298
 31
0.0
  0
LINE
  5
FA3
  8
HIDDEN
  6
HIDDEN
 10
335.76071555780851
 20
339.805478193883
 30
0.0
 11
347.7607155578084
 21
339.805478193883
 31
0.0
  0
LINE
  5
FA4
  8
HIDDEN
  6
HIDDEN
 10
335.76071555780851
 20
344.6054781938829
 30
0.0
 11
347.7607155578084
 21
344.6054781938829
 31
0.0
  0
LINE
  5
FA5
  8
HIDDEN
  6
HIDDEN
 10
329.76071555780851
 20
339.20547819388298
 30
0.0
 11
344.76071555780851
 21
339.20547819388298
 31
0.0
  0
LINE
  5
FA6
  8
HIDDEN
  6
HIDDEN
 10
329.76071555780851
 20
345.20547819388298
 30
0.0
 11
344.76071555780851
 21
345.20547819388298
 31
0.0
  0
LINE
  5
FA7
  8
HIDDEN
  6
HIDDEN
 10
335.76071555780851
 20
301.20547819388293
 30
0.0
 11
335.76071555780851
 21
307.20547819388293
 31
0.0
  0
LINE
  5
FA8
  8
HIDDEN
  6
HIDDEN
 10
344.76071555780851
 20
301.20547819388293
 30
0.0
 11
344.76071555780851
 21
307.20547819388293
 31
0.0
  0
LINE
  5
FA9
  8
HIDDEN
  6
HIDDEN
 10
347.7607155578084
 20
306.6054781938829
 30
0.0
 11
349.14635620386372
 21
304.20547819388293
 31
0.0
  0
LINE
  5
FAA
  8
HIDDEN
  6
HIDDEN
 10
347.7607155578084
 20
301.80547819388289
 30
0.0
 11
349.14635620386372
 21
304.20547819388293
 31
0.0
  0
LINE
  5
FAB
  8
HIDDEN
  6
HIDDEN
 10
347.7607155578084
 20
301.80547819388289
 30
0.0
 11
347.7607155578084
 21
306.6054781938829
 31
0.0
  0
LINE
  5
FAC
  8
HIDDEN
  6
HIDDEN
 10
335.76071555780851
 20
306.6054781938829
 30
0.0
 11
347.7607155578084
 21
306.6054781938829
 31
0.0
  0
LINE
  5
FAD
  8
HIDDEN
  6
HIDDEN
 10
335.76071555780851
 20
301.80547819388289
 30
0.0
 11
347.7607155578084
 21
301.80547819388289
 31
0.0
  0
LINE
  5
FAE
  8
HIDDEN
  6
HIDDEN
 10
329.76071555780851
 20
307.20547819388293
 30
0.0
 11
344.76071555780851
 21
307.20547819388293
 31
0.0
  0
LINE
  5
FAF
  8
HIDDEN
  6
HIDDEN
 10
329.76071555780851
 20
301.20547819388293
 30
0.0
 11
344.76071555780851
 21
301.20547819388293
 31
0.0
  0
LINE
  5
FB0
  8
CENTER
  6
CENTER
 10
326.67316544975711
 20
342.20547819388293
 30
0.0
 11
360.76071555780851
 21
342.20547819388293
 31
0.0
  0
LINE
  5
FB1
  8
CENTER
  6
CENTER
 10
327.3375854195001
 20
304.20547819388293
 30
0.0
 11
360.76071555780851
 21
304.20547819388293
 31
0.0
  0
LINE
  5
FB2
  8
HIDDEN
  6
HIDDEN
 10
335.76071555780851
 20
177.56554446481221
 30
0.0
 11
335.76071555780851
 21
183.56554446481221
 31
0.0
  0
LINE
  5
FB3
  8
HIDDEN
  6
HIDDEN
 10
347.76071555780851
 20
182.9655444648121
 30
0.0
 11
349.14635620386372
 21
180.56554446481221
 31
0.0
  0
LINE
  5
FB4
  8
HIDDEN
  6
HIDDEN
 10
347.76071555780851
 20
178.1655444648122
 30
0.0
 11
347.76071555780851
 21
182.9655444648121
 31
0.0
  0
LINE
  5
FB5
  8
HIDDEN
  6
HIDDEN
 10
347.76071555780851
 20
178.1655444648122
 30
0.0
 11
349.14635620386372
 21
180.56554446481221
 31
0.0
  0
LINE
  5
FB6
  8
HIDDEN
  6
HIDDEN
 10
344.76071555780851
 20
177.56554446481221
 30
0.0
 11
344.76071555780851
 21
183.56554446481221
 31
0.0
  0
LINE
  5
FB7
  8
HIDDEN
  6
HIDDEN
 10
335.76071555780851
 20
178.1655444648122
 30
0.0
 11
347.76071555780851
 21
178.1655444648122
 31
0.0
  0
LINE
  5
FB8
  8
HIDDEN
  6
HIDDEN
 10
335.76071555780851
 20
182.9655444648121
 30
0.0
 11
347.76071555780851
 21
182.9655444648121
 31
0.0
  0
LINE
  5
FB9
  8
HIDDEN
  6
HIDDEN
 10
329.76071555780851
 20
177.56554446481221
 30
0.0
 11
344.76071555780851
 21
177.56554446481221
 31
0.0
  0
LINE
  5
FBA
  8
HIDDEN
  6
HIDDEN
 10
329.76071555780851
 20
183.56554446481221
 30
0.0
 11
344.76071555780851
 21
183.56554446481221
 31
0.0
  0
LINE
  5
FBB
  8
HIDDEN
  6
HIDDEN
 10
335.76071555780851
 20
139.56554446481221
 30
0.0
 11
335.76071555780851
 21
145.56554446481221
 31
0.0
  0
LINE
  5
FBC
  8
HIDDEN
  6
HIDDEN
 10
344.76071555780851
 20
139.56554446481221
 30
0.0
 11
344.76071555780851
 21
145.56554446481221
 31
0.0
  0
LINE
  5
FBD
  8
HIDDEN
  6
HIDDEN
 10
347.76071555780851
 20
144.9655444648121
 30
0.0
 11
349.14635620386372
 21
142.56554446481209
 31
0.0
  0
LINE
  5
FBE
  8
HIDDEN
  6
HIDDEN
 10
347.76071555780851
 20
140.16554446481209
 30
0.0
 11
349.14635620386372
 21
142.56554446481209
 31
0.0
  0
LINE
  5
FBF
  8
HIDDEN
  6
HIDDEN
 10
347.76071555780851
 20
140.16554446481209
 30
0.0
 11
347.76071555780851
 21
144.9655444648121
 31
0.0
  0
LINE
  5
FC0
  8
HIDDEN
  6
HIDDEN
 10
335.76071555780851
 20
144.9655444648121
 30
0.0
 11
347.76071555780851
 21
144.9655444648121
 31
0.0
  0
LINE
  5
FC1
  8
HIDDEN
  6
HIDDEN
 10
335.76071555780851
 20
140.16554446481209
 30
0.0
 11
347.76071555780851
 21
140.16554446481209
 31
0.0
  0
LINE
  5
FC2
  8
HIDDEN
  6
HIDDEN
 10
329.76071555780851
 20
145.56554446481221
 30
0.0
 11
344.76071555780851
 21
145.56554446481221
 31
0.0
  0
LINE
  5
FC3
  8
HIDDEN
  6
HIDDEN
 10
329.76071555780851
 20
139.56554446481221
 30
0.0
 11
344.76071555780851
 21
139.56554446481221
 31
0.0
  0
LINE
  5
FC4
  8
CENTER
  6
CENTER
 10
326.67316544975722
 20
180.56554446481221
 30
0.0
 11
360.76071555780851
 21
180.56554446481221
 31
0.0
  0
LINE
  5
FC5
  8
CENTER
  6
CENTER
 10
327.33758541950021
 20
142.56554446481209
 30
0.0
 11
360.76071555780851
 21
142.56554446481209
 31
0.0
  0
LINE
  5
FC6
  8
CENTER
  6
CENTER
 10
353.26071555780851
 20
192.60835386703761
 30
0.0
 11
353.26071555780851
 21
174.22031152480639
 31
0.0
  0
LINE
  5
FC7
  8
CENTER
  6
CENTER
 10
344.76071555780851
 20
192.1674160931621
 30
0.0
 11
344.76071555780851
 21
174.19487593747129
 31
0.0
  0
LINE
  5
FC8
  8
HIDDEN
  6
HIDDEN
 10
586.76071555780857
 20
339.20547819388298
 30
0.0
 11
586.76071555780857
 21
345.20547819388298
 31
0.0
  0
LINE
  5
FC9
  8
HIDDEN
  6
HIDDEN
 10
574.76071555780857
 20
344.6054781938829
 30
0.0
 11
573.37507491175336
 21
342.20547819388293
 31
0.0
  0
LINE
  5
FCA
  8
HIDDEN
  6
HIDDEN
 10
574.76071555780857
 20
339.805478193883
 30
0.0
 11
574.76071555780857
 21
344.6054781938829
 31
0.0
  0
LINE
  5
FCB
  8
HIDDEN
  6
HIDDEN
 10
574.76071555780857
 20
339.805478193883
 30
0.0
 11
573.37507491175336
 21
342.20547819388293
 31
0.0
  0
LINE
  5
FCC
  8
HIDDEN
  6
HIDDEN
 10
577.76071555780868
 20
339.20547819388298
 30
0.0
 11
577.76071555780868
 21
345.20547819388298
 31
0.0
  0
LINE
  5
FCD
  8
HIDDEN
  6
HIDDEN
 10
586.76071555780857
 20
339.805478193883
 30
0.0
 11
574.76071555780857
 21
339.805478193883
 31
0.0
  0
LINE
  5
FCE
  8
HIDDEN
  6
HIDDEN
 10
586.76071555780857
 20
344.6054781938829
 30
0.0
 11
574.76071555780857
 21
344.6054781938829
 31
0.0
  0
LINE
  5
FCF
  8
HIDDEN
  6
HIDDEN
 10
592.76071555780857
 20
339.20547819388298
 30
0.0
 11
577.76071555780868
 21
339.20547819388298
 31
0.0
  0
LINE
  5
FD0
  8
HIDDEN
  6
HIDDEN
 10
592.76071555780857
 20
345.20547819388298
 30
0.0
 11
577.76071555780868
 21
345.20547819388298
 31
0.0
  0
LINE
  5
FD1
  8
HIDDEN
  6
HIDDEN
 10
586.76071555780857
 20
301.20547819388293
 30
0.0
 11
586.76071555780857
 21
307.20547819388293
 31
0.0
  0
LINE
  5
FD2
  8
HIDDEN
  6
HIDDEN
 10
577.76071555780868
 20
301.20547819388293
 30
0.0
 11
577.76071555780868
 21
307.20547819388293
 31
0.0
  0
LINE
  5
FD3
  8
HIDDEN
  6
HIDDEN
 10
574.76071555780857
 20
306.6054781938829
 30
0.0
 11
573.37507491175336
 21
304.20547819388293
 31
0.0
  0
LINE
  5
FD4
  8
HIDDEN
  6
HIDDEN
 10
574.76071555780857
 20
301.80547819388289
 30
0.0
 11
573.37507491175336
 21
304.20547819388293
 31
0.0
  0
LINE
  5
FD5
  8
HIDDEN
  6
HIDDEN
 10
574.76071555780857
 20
301.80547819388289
 30
0.0
 11
574.76071555780857
 21
306.6054781938829
 31
0.0
  0
LINE
  5
FD6
  8
HIDDEN
  6
HIDDEN
 10
586.76071555780857
 20
306.6054781938829
 30
0.0
 11
574.76071555780857
 21
306.6054781938829
 31
0.0
  0
LINE
  5
FD7
  8
HIDDEN
  6
HIDDEN
 10
586.76071555780857
 20
301.80547819388289
 30
0.0
 11
574.76071555780857
 21
301.80547819388289
 31
0.0
  0
LINE
  5
FD8
  8
HIDDEN
  6
HIDDEN
 10
592.76071555780857
 20
307.20547819388293
 30
0.0
 11
577.76071555780868
 21
307.20547819388293
 31
0.0
  0
LINE
  5
FD9
  8
HIDDEN
  6
HIDDEN
 10
592.76071555780857
 20
301.20547819388293
 30
0.0
 11
577.76071555780868
 21
301.20547819388293
 31
0.0
  0
LINE
  5
FDA
  8
CENTER
  6
CENTER
 10
595.84826566586003
 20
342.20547819388293
 30
0.0
 11
561.76071555780857
 21
342.20547819388293
 31
0.0
  0
LINE
  5
FDB
  8
CENTER
  6
CENTER
 10
595.18384569611703
 20
304.20547819388293
 30
0.0
 11
561.76071555780857
 21
304.20547819388293
 31
0.0
  0
LINE
  5
FDC
  8
HIDDEN
  6
HIDDEN
 10
586.76071555780857
 20
177.56554446481221
 30
0.0
 11
586.76071555780857
 21
183.56554446481221
 31
0.0
  0
LINE
  5
FDD
  8
HIDDEN
  6
HIDDEN
 10
574.76071555780857
 20
182.9655444648121
 30
0.0
 11
573.37507491175336
 21
180.56554446481221
 31
0.0
  0
LINE
  5
FDE
  8
HIDDEN
  6
HIDDEN
 10
574.76071555780857
 20
178.1655444648122
 30
0.0
 11
574.76071555780857
 21
182.9655444648121
 31
0.0
  0
LINE
  5
FDF
  8
HIDDEN
  6
HIDDEN
 10
574.76071555780857
 20
178.1655444648122
 30
0.0
 11
573.37507491175336
 21
180.56554446481221
 31
0.0
  0
LINE
  5
FE0
  8
HIDDEN
  6
HIDDEN
 10
577.76071555780868
 20
177.56554446481221
 30
0.0
 11
577.76071555780868
 21
183.56554446481221
 31
0.0
  0
LINE
  5
FE1
  8
HIDDEN
  6
HIDDEN
 10
586.76071555780857
 20
178.1655444648122
 30
0.0
 11
574.76071555780857
 21
178.1655444648122
 31
0.0
  0
LINE
  5
FE2
  8
HIDDEN
  6
HIDDEN
 10
586.76071555780857
 20
182.9655444648121
 30
0.0
 11
574.76071555780857
 21
182.9655444648121
 31
0.0
  0
LINE
  5
FE3
  8
HIDDEN
  6
HIDDEN
 10
592.76071555780857
 20
177.56554446481221
 30
0.0
 11
577.76071555780868
 21
177.56554446481221
 31
0.0
  0
LINE
  5
FE4
  8
HIDDEN
  6
HIDDEN
 10
592.76071555780857
 20
183.56554446481221
 30
0.0
 11
577.76071555780868
 21
183.56554446481221
 31
0.0
  0
LINE
  5
FE5
  8
HIDDEN
  6
HIDDEN
 10
586.76071555780857
 20
139.56554446481221
 30
0.0
 11
586.76071555780857
 21
145.56554446481221
 31
0.0
  0
LINE
  5
FE6
  8
HIDDEN
  6
HIDDEN
 10
577.76071555780868
 20
139.56554446481221
 30
0.0
 11
577.76071555780868
 21
145.56554446481221
 31
0.0
  0
LINE
  5
FE7
  8
HIDDEN
  6
HIDDEN
 10
574.76071555780857
 20
144.9655444648121
 30
0.0
 11
573.37507491175336
 21
142.56554446481209
 31
0.0
  0
LINE
  5
FE8
  8
HIDDEN
  6
HIDDEN
 10
574.76071555780857
 20
140.16554446481209
 30
0.0
 11
573.37507491175336
 21
142.56554446481209
 31
0.0
  0
LINE
  5
FE9
  8
HIDDEN
  6
HIDDEN
 10
574.76071555780857
 20
140.16554446481209
 30
0.0
 11
574.76071555780857
 21
144.9655444648121
 31
0.0
  0
LINE
  5
FEA
  8
HIDDEN
  6
HIDDEN
 10
586.76071555780857
 20
144.9655444648121
 30
0.0
 11
574.76071555780857
 21
144.9655444648121
 31
0.0
  0
LINE
  5
FEB
  8
HIDDEN
  6
HIDDEN
 10
586.76071555780857
 20
140.16554446481209
 30
0.0
 11
574.76071555780857
 21
140.16554446481209
 31
0.0
  0
LINE
  5
FEC
  8
HIDDEN
  6
HIDDEN
 10
592.76071555780857
 20
145.56554446481221
 30
0.0
 11
577.76071555780868
 21
145.56554446481221
 31
0.0
  0
LINE
  5
FED
  8
HIDDEN
  6
HIDDEN
 10
592.76071555780857
 20
139.56554446481221
 30
0.0
 11
577.76071555780868
 21
139.56554446481221
 31
0.0
  0
LINE
  5
FEE
  8
CENTER
  6
CENTER
 10
595.84826566586003
 20
180.56554446481221
 30
0.0
 11
561.76071555780857
 21
180.56554446481221
 31
0.0
  0
LINE
  5
FEF
  8
CENTER
  6
CENTER
 10
595.18384569611703
 20
142.56554446481209
 30
0.0
 11
561.76071555780857
 21
142.56554446481209
 31
0.0
  0
LINE
  5
FF0
  8
CENTER
  6
CENTER
 10
569.26071555780868
 20
192.60835386703761
 30
0.0
 11
569.26071555780868
 21
174.22031152480639
 31
0.0
  0
LINE
  5
FF1
  8
CENTER
  6
CENTER
 10
577.76071555780868
 20
192.1674160931621
 30
0.0
 11
577.76071555780868
 21
174.19487593747129
 31
0.0
  0
CIRCLE
  5
FF2
  8
0
  6
CONTINUOUS
 10
461.26071555780862
 20
518.56309722127173
 30
0.0
 40
4.25
  0
CIRCLE
  5
FF3
  8
0
  6
CONTINUOUS
 10
461.26071555780862
 20
518.56309722127173
 30
0.0
 40
3.9035796766743651
  0
POLYLINE
  5
FF4
  8
0
  6
CONTINUOUS
 66
     1
 10
0.0
 20
0.0
 30
0.0
 70
     1
  0
VERTEX
  5
153A
  8
0
  6
CONTINUOUS
 10
460.10601501942858
 20
520.56309722127173
 30
0.0
  0
VERTEX
  5
153B
  8
0
  6
CONTINUOUS
 10
458.95131448105047
 20
518.56309722127173
 30
0.0
  0
VERTEX
  5
153C
  8
0
  6
CONTINUOUS
 10
460.10601501942858
 20
516.56309722127173
 30
0.0
  0
VERTEX
  5
153D
  8
0
  6
CONTINUOUS
 10
462.41541609618861
 20
516.56309722127173
 30
0.0
  0
VERTEX
  5
153E
  8
0
  6
CONTINUOUS
 10
463.57011663456672
 20
518.56309722127173
 30
0.0
  0
VERTEX
  5
153F
  8
0
  6
CONTINUOUS
 10
462.41541609618861
 20
520.56309722127173
 30
0.0
  0
SEQEND
  5
1540
  8
0
  6
CONTINUOUS
  0
CIRCLE
  5
FFC
  8
0
  6
CONTINUOUS
 10
461.26071555780862
 20
458.56309722127168
 30
0.0
 40
4.25
  0
CIRCLE
  5
FFD
  8
0
  6
CONTINUOUS
 10
461.26071555780862
 20
458.56309722127168
 30
0.0
 40
3.9035796766743651
  0
POLYLINE
  5
FFE
  8
0
  6
CONTINUOUS
 66
     1
 10
0.0
 20
0.0
 30
0.0
 70
     1
  0
VERTEX
  5
1541
  8
0
  6
CONTINUOUS
 10
460.10601501942858
 20
460.56309722127168
 30
0.0
  0
VERTEX
  5
1542
  8
0
  6
CONTINUOUS
 10
458.95131448105047
 20
458.56309722127168
 30
0.0
  0
VERTEX
  5
1543
  8
0
  6
CONTINUOUS
 10
460.10601501942858
 20
456.56309722127168
 30
0.0
  0
VERTEX
  5
1544
  8
0
  6
CONTINUOUS
 10
462.41541609618861
 20
456.56309722127168
 30
0.0
  0
VERTEX
  5
1545
  8
0
  6
CONTINUOUS
 10
463.57011663456672
 20
458.56309722127168
 30
0.0
  0
VERTEX
  5
1546
  8
0
  6
CONTINUOUS
 10
462.41541609618861
 20
460.56309722127168
 30
0.0
  0
SEQEND
  5
1547
  8
0
  6
CONTINUOUS
  0
CIRCLE
  5
1006
  8
0
  6
CONTINUOUS
 10
431.26071555780862
 20
488.56309722127168
 30
0.0
 40
4.25
  0
CIRCLE
  5
1007
  8
0
  6
CONTINUOUS
 10
431.26071555780862
 20
488.56309722127168
 30
0.0
 40
3.9035796766743651
  0
POLYLINE
  5
1008
  8
0
  6
CONTINUOUS
 66
     1
 10
0.0
 20
0.0
 30
0.0
 70
     1
  0
VERTEX
  5
1548
  8
0
  6
CONTINUOUS
 10
430.10601501942858
 20
490.56309722127168
 30
0.0
  0
VERTEX
  5
1549
  8
0
  6
CONTINUOUS
 10
428.95131448105047
 20
488.56309722127168
 30
0.0
  0
VERTEX
  5
154A
  8
0
  6
CONTINUOUS
 10
430.10601501942858
 20
486.56309722127168
 30
0.0
  0
VERTEX
  5
154B
  8
0
  6
CONTINUOUS
 10
432.41541609618861
 20
486.56309722127168
 30
0.0
  0
VERTEX
  5
154C
  8
0
  6
CONTINUOUS
 10
433.57011663456677
 20
488.56309722127168
 30
0.0
  0
VERTEX
  5
154D
  8
0
  6
CONTINUOUS
 10
432.41541609618861
 20
490.56309722127168
 30
0.0
  0
SEQEND
  5
154E
  8
0
  6
CONTINUOUS
  0
CIRCLE
  5
1010
  8
0
  6
CONTINUOUS
 10
491.26071555780851
 20
488.56309722127168
 30
0.0
 40
4.25
  0
CIRCLE
  5
1011
  8
0
  6
CONTINUOUS
 10
491.26071555780851
 20
488.56309722127168
 30
0.0
 40
3.9035796766743651
  0
POLYLINE
  5
1012
  8
0
  6
CONTINUOUS
 66
     1
 10
0.0
 20
0.0
 30
0.0
 70
     1
  0
VERTEX
  5
154F
  8
0
  6
CONTINUOUS
 10
490.10601501942858
 20
490.56309722127168
 30
0.0
  0
VERTEX
  5
1550
  8
0
  6
CONTINUOUS
 10
488.95131448105042
 20
488.56309722127168
 30
0.0
  0
VERTEX
  5
1551
  8
0
  6
CONTINUOUS
 10
490.10601501942858
 20
486.56309722127168
 30
0.0
  0
VERTEX
  5
1552
  8
0
  6
CONTINUOUS
 10
492.41541609618861
 20
486.56309722127168
 30
0.0
  0
VERTEX
  5
1553
  8
0
  6
CONTINUOUS
 10
493.57011663456672
 20
488.56309722127168
 30
0.0
  0
VERTEX
  5
1554
  8
0
  6
CONTINUOUS
 10
492.41541609618861
 20
490.56309722127168
 30
0.0
  0
SEQEND
  5
1555
  8
0
  6
CONTINUOUS
  0
CIRCLE
  5
101A
  8
0
  6
CONTINUOUS
 10
461.26071555780862
 20
104.06554446481211
 30
0.0
 40
4.25
  0
CIRCLE
  5
101B
  8
0
  6
CONTINUOUS
 10
461.26071555780862
 20
104.06554446481211
 30
0.0
 40
3.9035796766743651
  0
POLYLINE
  5
101C
  8
0
  6
CONTINUOUS
 66
     1
 10
0.0
 20
0.0
 30
0.0
 70
     1
  0
VERTEX
  5
1556
  8
0
  6
CONTINUOUS
 10
460.10601501942858
 20
102.06554446481211
 30
0.0
  0
VERTEX
  5
1557
  8
0
  6
CONTINUOUS
 10
458.95131448105047
 20
104.06554446481211
 30
0.0
  0
VERTEX
  5
1558
  8
0
  6
CONTINUOUS
 10
460.10601501942858
 20
106.06554446481211
 30
0.0
  0
VERTEX
  5
1559
  8
0
  6
CONTINUOUS
 10
462.41541609618861
 20
106.06554446481211
 30
0.0
  0
VERTEX
  5
155A
  8
0
  6
CONTINUOUS
 10
463.57011663456672
 20
104.06554446481211
 30
0.0
  0
VERTEX
  5
155B
  8
0
  6
CONTINUOUS
 10
462.41541609618861
 20
102.06554446481211
 30
0.0
  0
SEQEND
  5
155C
  8
0
  6
CONTINUOUS
  0
CIRCLE
  5
1024
  8
0
  6
CONTINUOUS
 10
431.26071555780862
 20
134.06554446481221
 30
0.0
 40
4.25
  0
CIRCLE
  5
1025
  8
0
  6
CONTINUOUS
 10
431.26071555780862
 20
134.06554446481221
 30
0.0
 40
3.9035796766743651
  0
POLYLINE
  5
1026
  8
0
  6
CONTINUOUS
 66
     1
 10
0.0
 20
0.0
 30
0.0
 70
     1
  0
VERTEX
  5
155D
  8
0
  6
CONTINUOUS
 10
430.10601501942858
 20
132.06554446481209
 30
0.0
  0
VERTEX
  5
155E
  8
0
  6
CONTINUOUS
 10
428.95131448105047
 20
134.06554446481209
 30
0.0
  0
VERTEX
  5
155F
  8
0
  6
CONTINUOUS
 10
430.10601501942858
 20
136.06554446481209
 30
0.0
  0
VERTEX
  5
1560
  8
0
  6
CONTINUOUS
 10
432.41541609618861
 20
136.06554446481209
 30
0.0
  0
VERTEX
  5
1561
  8
0
  6
CONTINUOUS
 10
433.57011663456677
 20
134.06554446481209
 30
0.0
  0
VERTEX
  5
1562
  8
0
  6
CONTINUOUS
 10
432.41541609618861
 20
132.06554446481209
 30
0.0
  0
SEQEND
  5
1563
  8
0
  6
CONTINUOUS
  0
CIRCLE
  5
102E
  8
0
  6
CONTINUOUS
 10
461.26071555780862
 20
164.06554446481221
 30
0.0
 40
4.25
  0
CIRCLE
  5
102F
  8
0
  6
CONTINUOUS
 10
461.26071555780862
 20
164.06554446481221
 30
0.0
 40
3.9035796766743651
  0
POLYLINE
  5
1030
  8
0
  6
CONTINUOUS
 66
     1
 10
0.0
 20
0.0
 30
0.0
 70
     1
  0
VERTEX
  5
1564
  8
0
  6
CONTINUOUS
 10
460.10601501942858
 20
162.06554446481209
 30
0.0
  0
VERTEX
  5
1565
  8
0
  6
CONTINUOUS
 10
458.95131448105047
 20
164.06554446481209
 30
0.0
  0
VERTEX
  5
1566
  8
0
  6
CONTINUOUS
 10
460.10601501942858
 20
166.06554446481209
 30
0.0
  0
VERTEX
  5
1567
  8
0
  6
CONTINUOUS
 10
462.41541609618861
 20
166.06554446481209
 30
0.0
  0
VERTEX
  5
1568
  8
0
  6
CONTINUOUS
 10
463.57011663456672
 20
164.06554446481209
 30
0.0
  0
VERTEX
  5
1569
  8
0
  6
CONTINUOUS
 10
462.41541609618861
 20
162.06554446481209
 30
0.0
  0
SEQEND
  5
156A
  8
0
  6
CONTINUOUS
  0
CIRCLE
  5
1038
  8
0
  6
CONTINUOUS
 10
491.26071555780851
 20
134.06554446481221
 30
0.0
 40
4.25
  0
CIRCLE
  5
1039
  8
0
  6
CONTINUOUS
 10
491.26071555780851
 20
134.06554446481221
 30
0.0
 40
3.9035796766743651
  0
POLYLINE
  5
103A
  8
0
  6
CONTINUOUS
 66
     1
 10
0.0
 20
0.0
 30
0.0
 70
     1
  0
VERTEX
  5
156B
  8
0
  6
CONTINUOUS
 10
490.10601501942858
 20
132.06554446481209
 30
0.0
  0
VERTEX
  5
156C
  8
0
  6
CONTINUOUS
 10
488.95131448105042
 20
134.06554446481209
 30
0.0
  0
VERTEX
  5
156D
  8
0
  6
CONTINUOUS
 10
490.10601501942858
 20
136.06554446481209
 30
0.0
  0
VERTEX
  5
156E
  8
0
  6
CONTINUOUS
 10
492.41541609618861
 20
136.06554446481209
 30
0.0
  0
VERTEX
  5
156F
  8
0
  6
CONTINUOUS
 10
493.57011663456672
 20
134.06554446481209
 30
0.0
  0
VERTEX
  5
1570
  8
0
  6
CONTINUOUS
 10
492.41541609618861
 20
132.06554446481209
 30
0.0
  0
SEQEND
  5
1571
  8
0
  6
CONTINUOUS
  0
TEXT
  5
1042
  8
DIM
  6
CONTINUOUS
 10
441.76071555780862
 20
143.44054446481201
 30
0.0
 40
3.0
  1
5
 50
90.0
  7
ROMANSS
 72
     1
 11
440.26071555780868
 21
144.44054446481201
 31
0.0
 73
     2
  0
LINE
  5
1043
  8
DIM
  6
CONTINUOUS
 10
443.26071555780868
 20
131.56554446481221
 30
0.0
 11
443.26071555780868
 21
136.56554446481209
 31
0.0
  0
SOLID
  5
1044
  8
DIM
  6
CONTINUOUS
 10
442.76071555780862
 20
139.56554446481201
 30
0.0
 11
443.76071555780868
 21
139.56554446481201
 31
0.0
 12
443.26071555780868
 22
136.56554446481209
 32
0.0
 13
443.26071555780868
 23
136.56554446481209
 33
0.0
  0
SOLID
  5
1045
  8
DIM
  6
CONTINUOUS
 10
442.76071555780862
 20
128.56554446481221
 30
0.0
 11
443.76071555780868
 21
128.56554446481221
 31
0.0
 12
443.26071555780868
 22
131.56554446481221
 32
0.0
 13
443.26071555780868
 23
131.56554446481221
 33
0.0
  0
LINE
  5
1046
  8
DIM
  6
CONTINUOUS
 10
443.26071555780868
 20
142.56554446481201
 30
0.0
 11
443.26071555780868
 21
145.31554446481201
 31
0.0
  0
LINE
  5
1047
  8
DIM
  6
CONTINUOUS
 10
443.26071555780868
 20
139.56554446481201
 30
0.0
 11
443.26071555780868
 21
142.56554446481201
 31
0.0
  0
LINE
  5
1048
  8
DIM
  6
CONTINUOUS
 10
443.26071555780868
 20
128.56554446481221
 30
0.0
 11
443.26071555780868
 21
125.56554446481221
 31
0.0
  0
LINE
  5
1049
  8
DIM
  6
CONTINUOUS
 10
450.26071555780862
 20
136.56554446481209
 30
0.0
 11
442.26071555780862
 21
136.56554446481209
 31
0.0
  0
LINE
  5
104A
  8
DIM
  6
CONTINUOUS
 10
450.26071555780862
 20
131.56554446481221
 30
0.0
 11
442.26071555780862
 21
131.56554446481221
 31
0.0
  0
CIRCLE
  5
104B
  8
0
  6
CONTINUOUS
 10
461.26071555780862
 20
134.06554446481201
 30
0.0
 40
12.49999999999997
  0
CIRCLE
  5
104C
  8
0
  6
CONTINUOUS
 10
461.26071555780862
 20
134.06554446481201
 30
0.0
 40
2.0499999999999989
  0
ARC
  5
104D
  8
0
  6
CONTINUOUS
 62
     2
 10
461.26071555780862
 20
134.06554446481201
 30
0.0
 40
2.5
 50
159.98154856581121
 51
113.96364146022989
  0
LINE
  5
104E
  8
0
 10
451.26071555780868
 20
131.56554446481221
 30
0.0
 11
453.6613734810233
 21
131.56554446481221
 31
0.0
  0
LINE
  5
104F
  8
0
 10
451.26071555780868
 20
136.56554446481209
 30
0.0
 11
453.6613734810233
 21
136.56554446481209
 31
0.0
  0
LINE
  5
1050
  8
0
 10
451.26071555780868
 20
136.56554446481209
 30
0.0
 11
451.26071555780868
 21
131.56554446481209
 31
0.0
  0
CIRCLE
  5
1051
  8
0
  6
CONTINUOUS
 10
461.26071555780862
 20
134.06554446481201
 30
0.0
 40
6.9999999999999707
  0
CIRCLE
  5
1052
  8
0
  6
CONTINUOUS
 10
461.26071555780862
 20
134.06554446481201
 30
0.0
 40
7.9999999999999707
  0
LINE
  5
1053
  8
DIM
  6
CONTINUOUS
 10
466.54648921482487
 20
132.5708022660549
 30
0.0
 11
527.81437052373064
 21
118.24375280745031
 31
0.0
  0
SOLID
  5
1054
  8
DIM
  6
CONTINUOUS
 10
466.66033921793229
 20
133.0576679321193
 30
0.0
 11
466.43263921171763
 21
132.08393659999021
 31
0.0
 12
463.62529521843788
 22
133.25390228469911
 32
0.0
 13
463.62529521843788
 23
133.25390228469911
 33
0.0
  0
TEXT
  5
1055
  8
DIM
  6
CONTINUOUS
 10
529.11441852835378
 20
119.74375280745031
 30
0.0
 40
3.0
  1
M5x15L
  7
ROMANSS
 11
529.11441852835378
 21
121.24375280745031
 31
0.0
 73
     2
  0
LINE
  5
1056
  8
DIM
  6
CONTINUOUS
 10
527.81437052373064
 20
118.24375280745031
 30
0.0
 11
543.23941852835389
 21
118.24375280745031
 31
0.0
  0
ARC
  5
1057
  8
0
  6
CONTINUOUS
 10
186.40063726669081
 20
276.70547819388298
 30
0.0
 40
2.5
 50
0.0
 51
180.0
  0
LINE
  5
1058
  8
0
 10
178.40063726669081
 20
252.7054781938829
 30
0.0
 11
178.40063726669081
 21
281.70547819388293
 31
0.0
  0
LINE
  5
1059
  8
0
 10
194.40063726669081
 20
252.7054781938829
 30
0.0
 11
194.40063726669081
 21
281.70547819388293
 31
0.0
  0
LINE
  5
105A
  8
0
 10
196.40063726669081
 20
281.70547819388293
 30
0.0
 11
196.40063726669081
 21
282.70547819388298
 31
0.0
  0
LINE
  5
105B
  8
0
 10
176.40063726669081
 20
281.70547819388293
 30
0.0
 11
176.40063726669081
 21
282.70547819388298
 31
0.0
  0
LINE
  5
105C
  8
0
  6
CONTINUOUS
 10
196.40063726669081
 20
281.70547819388293
 30
0.0
 11
176.40063726669081
 21
281.70547819388293
 31
0.0
  0
ARC
  5
105D
  8
0
  6
CONTINUOUS
 10
186.40063726669081
 20
256.70547819388293
 30
0.0
 40
2.5
 50
180.0
 51
0.0
  0
LINE
  5
105E
  8
0
 10
183.90063726669081
 20
256.70547819388293
 30
0.0
 11
183.90063726669081
 21
276.70547819388298
 31
0.0
  0
LINE
  5
105F
  8
0
 10
188.90063726669081
 20
256.70547819388293
 30
0.0
 11
188.90063726669081
 21
276.70547819388298
 31
0.0
  0
LINE
  5
1060
  8
0
  6
CONTINUOUS
 10
193.40063726669081
 20
251.70547819388301
 30
0.0
 11
179.40063726669081
 21
251.70547819388301
 31
0.0
  0
LINE
  5
1061
  8
0
  6
CONTINUOUS
 10
194.40063726669081
 20
252.7054781938829
 30
0.0
 11
178.40063726669081
 21
252.7054781938829
 31
0.0
  0
LINE
  5
1062
  8
0
  6
CONTINUOUS
 10
193.40063726669081
 20
251.70547819388301
 30
0.0
 11
194.40063726669081
 21
252.7054781938829
 31
0.0
  0
LINE
  5
1063
  8
0
  6
CONTINUOUS
 10
179.40063726669081
 20
251.70547819388301
 30
0.0
 11
178.40063726669081
 21
252.7054781938829
 31
0.0
  0
LINE
  5
1064
  8
0
 10
728.1207938489265
 20
252.7054781938829
 30
0.0
 11
728.1207938489265
 21
281.70547819388293
 31
0.0
  0
LINE
  5
1065
  8
0
 10
744.1207938489265
 20
252.7054781938829
 30
0.0
 11
744.1207938489265
 21
281.70547819388293
 31
0.0
  0
LINE
  5
1066
  8
0
  6
CONTINUOUS
 10
726.12079384892638
 20
281.70547819388293
 30
0.0
 11
746.12079384892638
 21
281.70547819388293
 31
0.0
  0
LINE
  5
1067
  8
0
 10
746.12079384892638
 20
281.70547819388293
 30
0.0
 11
746.12079384892638
 21
282.70547819388298
 31
0.0
  0
LINE
  5
1068
  8
0
 10
726.12079384892638
 20
281.70547819388293
 30
0.0
 11
726.12079384892638
 21
282.70547819388298
 31
0.0
  0
SOLID
  5
1069
  8
DIM
  6
CONTINUOUS
 10
789.12079384892616
 20
254.7054781938829
 30
0.0
 11
790.12079384892616
 21
254.7054781938829
 31
0.0
 12
789.62079384892616
 22
251.70547819388301
 32
0.0
 13
789.62079384892616
 23
251.70547819388301
 33
0.0
  0
LINE
  5
106A
  8
DIM
  6
CONTINUOUS
 10
744.1207938489265
 20
251.70547819388301
 30
0.0
 11
790.62079384892616
 21
251.70547819388301
 31
0.0
  0
LINE
  5
106B
  8
0
  6
CONTINUOUS
 10
743.1207938489265
 20
251.70547819388301
 30
0.0
 11
744.1207938489265
 21
252.7054781938829
 31
0.0
  0
LINE
  5
106C
  8
0
  6
CONTINUOUS
 10
729.12079384892638
 20
251.70547819388301
 30
0.0
 11
728.1207938489265
 21
252.7054781938829
 31
0.0
  0
LINE
  5
106D
  8
0
  6
CONTINUOUS
 10
728.1207938489265
 20
252.7054781938829
 30
0.0
 11
744.1207938489265
 21
252.7054781938829
 31
0.0
  0
LINE
  5
106E
  8
0
  6
CONTINUOUS
 10
729.12079384892638
 20
251.70547819388301
 30
0.0
 11
743.1207938489265
 21
251.70547819388301
 31
0.0
  0
LINE
  5
106F
  8
0
 10
451.26071555780862
 20
254.2054781938829
 30
0.0
 11
451.26071555780862
 21
279.20547819388281
 31
0.0
  0
LINE
  5
1070
  8
0
 10
453.26071555780862
 20
252.70547819388281
 30
0.0
 11
453.26071555780862
 21
281.70547819388281
 31
0.0
  0
LINE
  5
1071
  8
0
 10
469.26071555780868
 20
252.70547819388281
 30
0.0
 11
469.26071555780862
 21
281.70547819388281
 31
0.0
  0
LINE
  5
1072
  8
0
 10
473.76071555780862
 20
281.70547819388281
 30
0.0
 11
473.76071555780862
 21
282.70547819388281
 31
0.0
  0
LINE
  5
1073
  8
0
 10
448.76071555780862
 20
281.70547819388281
 30
0.0
 11
448.76071555780862
 21
282.70547819388281
 31
0.0
  0
LINE
  5
1074
  8
0
  6
CONTINUOUS
 10
451.26071555780862
 20
279.20547819388281
 30
0.0
 11
453.26071555780862
 21
279.20547819388281
 31
0.0
  0
LINE
  5
1075
  8
0
  6
CONTINUOUS
 10
448.76071555780862
 20
281.70547819388281
 30
0.0
 11
473.76071555780862
 21
281.70547819388281
 31
0.0
  0
LINE
  5
1076
  8
0
  6
CONTINUOUS
 10
451.26071555780862
 20
254.20547819388281
 30
0.0
 11
453.26071555780862
 21
254.20547819388281
 31
0.0
  0
LINE
  5
1077
  8
0
  6
CONTINUOUS
 10
468.26071555780868
 20
251.70547819388281
 30
0.0
 11
469.26071555780868
 21
252.70547819388281
 31
0.0
  0
LINE
  5
1078
  8
0
  6
CONTINUOUS
 10
454.26071555780862
 20
251.70547819388281
 30
0.0
 11
453.26071555780862
 21
252.70547819388281
 31
0.0
  0
LINE
  5
1079
  8
0
  6
CONTINUOUS
 10
453.26071555780862
 20
252.70547819388281
 30
0.0
 11
469.26071555780862
 21
252.70547819388281
 31
0.0
  0
LINE
  5
107A
  8
0
  6
CONTINUOUS
 10
454.26071555780862
 20
251.70547819388281
 30
0.0
 11
468.26071555780868
 21
251.70547819388281
 31
0.0
  0
SOLID
  5
107B
  8
DIM
  6
CONTINUOUS
 10
408.76071555780862
 20
278.70547819388281
 30
0.0
 11
409.76071555780862
 21
278.70547819388281
 31
0.0
 12
409.26071555780862
 22
281.70547819388281
 32
0.0
 13
409.26071555780862
 23
281.70547819388281
 33
0.0
  0
LINE
  5
107C
  8
DIM
  6
CONTINUOUS
 10
409.26071555780862
 20
254.70547819388281
 30
0.0
 11
409.26071555780862
 21
289.68932088137052
 31
0.0
  0
SOLID
  5
107D
  8
DIM
  6
CONTINUOUS
 10
416.76071555780862
 20
276.20547819388281
 30
0.0
 11
417.76071555780862
 21
276.20547819388281
 31
0.0
 12
417.26071555780862
 22
279.20547819388281
 32
0.0
 13
417.26071555780862
 23
279.20547819388281
 33
0.0
  0
LINE
  5
107E
  8
DIM
  6
CONTINUOUS
 10
425.31914772036907
 20
282.70547819388281
 30
0.0
 11
408.26071555780862
 21
282.70547819388281
 31
0.0
  0
SOLID
  5
107F
  8
DIM
  6
CONTINUOUS
 10
408.76071555780862
 20
285.70547819388281
 30
0.0
 11
409.76071555780862
 21
285.70547819388281
 31
0.0
 12
409.26071555780862
 22
282.70547819388281
 32
0.0
 13
409.26071555780862
 23
282.70547819388281
 33
0.0
  0
LINE
  5
1080
  8
DIM
  6
CONTINUOUS
 10
447.76071555780862
 20
281.70547819388281
 30
0.0
 11
408.26071555780862
 21
281.70547819388281
 31
0.0
  0
LINE
  5
1081
  8
DIM
  6
CONTINUOUS
 10
450.26071555780862
 20
279.20547819388281
 30
0.0
 11
416.26071555780851
 21
279.20547819388281
 31
0.0
  0
SOLID
  5
1082
  8
DIM
  6
CONTINUOUS
 10
454.26071555780862
 20
235.20547819388281
 30
0.0
 11
454.26071555780862
 21
236.20547819388281
 31
0.0
 12
451.26071555780862
 22
235.70547819388281
 32
0.0
 13
451.26071555780862
 23
235.70547819388281
 33
0.0
  0
SOLID
  5
1083
  8
DIM
  6
CONTINUOUS
 10
466.26071555780862
 20
235.20547819388281
 30
0.0
 11
466.26071555780862
 21
236.20547819388281
 31
0.0
 12
469.26071555780868
 22
235.70547819388281
 32
0.0
 13
469.26071555780868
 23
235.70547819388281
 33
0.0
  0
LINE
  5
1084
  8
DIM
  6
CONTINUOUS
 10
466.26071555780862
 20
235.70547819388281
 30
0.0
 11
454.26071555780862
 21
235.70547819388281
 31
0.0
  0
LINE
  5
1085
  8
DIM
  6
CONTINUOUS
 10
451.26071555780862
 20
253.20547819388281
 30
0.0
 11
451.26071555780862
 21
234.70547819388281
 31
0.0
  0
LINE
  5
1086
  8
DIM
  6
CONTINUOUS
 10
469.26071555780868
 20
251.70547819388281
 30
0.0
 11
469.26071555780868
 21
234.70547819388281
 31
0.0
  0
LINE
  5
1087
  8
DIM
  6
CONTINUOUS
 10
469.26071555780868
 20
243.70547819388281
 30
0.0
 11
453.26071555780862
 21
243.70547819388281
 31
0.0
  0
SOLID
  5
1088
  8
DIM
  6
CONTINUOUS
 10
456.26071555780851
 20
243.20547819388281
 30
0.0
 11
456.26071555780851
 21
244.20547819388281
 31
0.0
 12
453.26071555780862
 22
243.70547819388281
 32
0.0
 13
453.26071555780862
 23
243.70547819388281
 33
0.0
  0
SOLID
  5
1089
  8
DIM
  6
CONTINUOUS
 10
466.26071555780868
 20
243.20547819388281
 30
0.0
 11
466.26071555780868
 21
244.20547819388281
 31
0.0
 12
469.26071555780868
 22
243.70547819388281
 32
0.0
 13
469.26071555780868
 23
243.70547819388281
 33
0.0
  0
LINE
  5
108A
  8
DIM
  6
CONTINUOUS
 10
453.26071555780862
 20
251.70547819388281
 30
0.0
 11
453.26071555780862
 21
242.70547819388281
 31
0.0
  0
SOLID
  5
108B
  8
DIM
  6
CONTINUOUS
 10
408.76071555780862
 20
254.70547819388281
 30
0.0
 11
409.76071555780862
 21
254.70547819388281
 31
0.0
 12
409.26071555780862
 22
251.70547819388281
 32
0.0
 13
409.26071555780862
 23
251.70547819388281
 33
0.0
  0
LINE
  5
108C
  8
DIM
  6
CONTINUOUS
 10
453.26071555780862
 20
251.70547819388281
 30
0.0
 11
408.26071555780862
 21
251.70547819388281
 31
0.0
  0
SOLID
  5
108D
  8
DIM
  6
CONTINUOUS
 10
416.76071555780862
 20
257.20547819388281
 30
0.0
 11
417.76071555780862
 21
257.20547819388281
 31
0.0
 12
417.26071555780862
 22
254.20547819388281
 32
0.0
 13
417.26071555780862
 23
254.20547819388281
 33
0.0
  0
LINE
  5
108E
  8
DIM
  6
CONTINUOUS
 10
417.26071555780862
 20
276.20547819388281
 30
0.0
 11
417.26071555780862
 21
257.20547819388281
 31
0.0
  0
LINE
  5
108F
  8
DIM
  6
CONTINUOUS
 10
450.26071555780862
 20
254.20547819388281
 30
0.0
 11
416.26071555780851
 21
254.20547819388281
 31
0.0
  0
TEXT
  5
1090
  8
DIM
  6
CONTINUOUS
 10
454.83924104380208
 20
245.20547819388281
 30
0.0
 40
3.0
  1
%%c16h6
  7
ROMANSS
 72
     1
 11
461.0535267580878
 21
246.70547819388281
 31
0.0
 73
     2
  0
TEXT
  5
1091
  8
DIM
  6
CONTINUOUS
 10
458.1178584149514
 20
237.20547819388281
 30
0.0
 40
3.0
  1
18
  7
ROMANSS
 72
     1
 11
460.26071555780868
 21
238.70547819388281
 31
0.0
 73
     2
  0
TEXT
  5
1092
  8
DIM
  6
CONTINUOUS
 10
407.76071555780851
 20
265.21075318635059
 30
0.0
 40
3.0
  1
30
 50
90.0
  7
ROMANSS
 72
     1
 11
406.26071555780862
 21
267.63932461492209
 31
0.0
 73
     2
  0
TEXT
  5
1093
  8
DIM
  6
CONTINUOUS
 10
415.76071555780862
 20
263.8283320569812
 30
0.0
 40
3.0
  1
25
 50
90.0
  7
ROMANSS
 72
     1
 11
414.26071555780862
 21
266.25690348555258
 31
0.0
 73
     2
  0
TEXT
  5
1094
  8
DIM
  6
CONTINUOUS
 10
407.76071555780851
 20
287.03804997833862
 30
0.0
 40
3.0
  1
1
 50
90.0
  7
ROMANSS
 72
     1
 11
406.26071555780862
 21
287.3951928354814
 31
0.0
 73
     2
  0
ARC
  5
10A1
  8
DIM
  6
CONTINUOUS
 10
461.26071555780862
 20
488.56309722127168
 30
0.0
 40
63.623948991042731
 50
90.0
 51
177.29813586581719
  0
LINE
  5
10A3
  8
0
 62
     4
 10
130.0
 20
77.0
 30
0.0
 11
810.0
 21
77.0
 31
0.0
  0
TEXT
  5
10A7
  8
LOGO
 62
     6
 10
644.39231862439169
 20
7.8593813373746046
 30
0.0
 40
12.6427611751652
  1
作動角度
 41
0.9
  7
CHINESET
 72
     4
 11
667.14928873968915
 21
13.786194124173869
 31
0.0
  0
LINE
  5
10A8
  8
LOGO
 62
     6
 10
699.79671962092664
 20
-9.9189830792607836
 30
0.0
 11
634.50185785845167
 21
-9.9189830792608831
 31
0.0
  0
LINE
  5
10A9
  8
LOGO
 62
     6
 10
699.79671962092664
 20
24.84861015244352
 30
0.0
 11
634.50185785845167
 21
24.84861015244352
 31
0.0
  0
TEXT
  5
10AA
  8
LOGO
  6
CONTINUOUS
 62
     6
 10
637.3484945410853
 20
-4.6511659229420559
 30
0.0
 40
7.9017257344782541
  1
Rotary angle
 41
0.8
  7
CHINESET
 72
     4
 11
667.14928873968915
 21
-2.0172573447826352
 31
0.0
  0
TEXT
  5
10AB
  8
LOGO
  6
CONTINUOUS
 62
     7
 10
655.83100771375155
 20
45.213884926609609
 30
0.0
 40
15.803451468956499
  1
90
  7
CHINESET
 72
     1
 11
668.62427795052599
 21
53.115610661087871
 31
0.0
 73
     2
  0
LINE
  5
10AC
  8
LOGO
 62
     6
 10
693.47533903334386
 20
67.5179291186261
 30
0.0
 11
640.82323844603434
 21
67.5179291186261
 31
0.0
  0
LINE
  5
10AD
  8
LOGO
 62
     6
 10
693.47533903334386
 20
39.071716474504349
 30
0.0
 11
640.82323844603434
 21
39.071716474504377
 31
0.0
  0
LINE
  5
10AE
  8
LOGO
 62
     1
 10
810.0
 20
77.0
 30
0.0
 11
130.0
 21
77.0
 31
0.0
  0
LINE
  5
10AF
  8
LOGO
 62
     1
 10
810.0
 20
-17.820708813739039
 30
0.0
 11
130.0
 21
-17.820708813739039
 31
0.0
  0
LINE
  5
10B0
  8
LOGO
  6
CONTINUOUS
 62
     6
 10
310.28681074076161
 20
51.799813131741423
 30
0.0
 11
327.54627964618231
 21
54.079583111397213
 31
0.0
  0
LINE
  5
10B1
  8
LOGO
  6
CONTINUOUS
 62
     6
 10
310.28681074076161
 20
45.348326018021758
 30
0.0
 11
327.54627964618231
 21
43.068556038365941
 31
0.0
  0
LINE
  5
10B2
  8
LOGO
 62
     1
 10
338.60555939022578
 20
58.035858237252206
 30
0.0
 11
199.53518646340859
 21
58.035858237252206
 31
0.0
  0
LINE
  5
10B3
  8
LOGO
 62
     1
 10
338.60555939022578
 20
39.071716474504377
 30
0.0
 11
199.53518646340859
 21
39.071716474504377
 31
0.0
  0
TEXT
  5
10B4
  8
LOGO
 62
     6
 10
289.61642330417118
 20
62.776893677939142
 30
0.0
 40
9.4820708813739039
  1
1 : 1
  7
CHINESET
 72
     1
 11
306.32292914278241
 21
67.5179291186261
 31
0.0
 73
     2
  0
TEXT
  5
10B5
  8
LOGO
 62
     6
 10
289.61642330417118
 20
24.848610152443531
 30
0.0
 40
9.4820708813739039
  1
m/m
  7
CHINESET
 72
     1
 11
306.32292914278241
 21
29.589645593130481
 31
0.0
 73
     2
  0
LINE
  5
10B6
  8
LOGO
 62
     1
 10
338.60555939022578
 20
20.10757471175668
 30
0.0
 11
129.9999999999998
 21
20.10757471175668
 31
0.0
  0
TEXT
  5
10B7
  8
LOGO
  6
CONTINUOUS
 62
     5
 10
133.10364189576521
 20
0.8066763357935116
 30
0.0
 40
14.22310632206085
  1
金器工業股份有限公司
 41
0.8
  7
LOGO
  0
TEXT
  5
10B8
  8
LOGO
  6
CONTINUOUS
 62
     5
 10
137.17628169042419
 20
-13.41921659997187
 30
0.0
 40
9.4820708813739039
  1
MINDMAN INDUSTRIAL CO.,LTD
 41
0.85
  7
CHINESET
  0
SOLID
  5
10B9
  8
LOGO
 62
     5
 10
139.8378007150892
 20
35.870167885531039
 30
0.0
 11
143.93759935465519
 21
35.870167885529682
 31
0.0
 12
161.0436557473291
 22
74.747568777969448
 32
0.0
 13
165.1434543868946
 23
74.747568777966762
 33
0.0
  0
SOLID
  5
10BA
  8
LOGO
 62
     5
 10
145.63406775723681
 20
35.870167885531039
 30
0.0
 11
149.7338663968024
 21
35.870167885531039
 31
0.0
 12
165.1434543868946
 22
71.637376706572965
 32
0.0
 13
161.0436557473291
 23
56.60478169482964
 33
0.0
  0
SOLID
  5
10BB
  8
LOGO
 62
     2
 10
143.93759935465519
 20
35.870167885529682
 30
0.0
 11
145.63406775723681
 21
35.870167885531039
 31
0.0
 12
165.1434543868946
 22
74.747568777966762
 32
0.0
 13
166.839922789475
 23
74.747568777966762
 33
0.0
  0
SOLID
  5
10BC
  8
LOGO
 62
     5
 10
144.05457721340409
 20
28.801549541451219
 30
0.0
 11
145.46830088221861
 21
28.801549541451219
 31
0.0
 12
144.05457721340409
 22
21.732931197372729
 32
0.0
 13
145.46830088221861
 23
21.732931197372729
 33
0.0
  0
SOLID
  5
10BD
  8
LOGO
 62
     5
 10
133.26481810208489
 20
21.732931197372729
 30
0.0
 11
134.67854177090231
 21
21.732931197372729
 31
0.0
 12
138.65969765774361
 22
28.801549541451219
 32
0.0
 13
140.0734213265585
 23
28.801549541451219
 33
0.0
  0
SOLID
  5
10BE
  8
LOGO
 62
     5
 10
138.65969765774361
 20
28.801549541451219
 30
0.0
 11
140.0734213265585
 21
28.801549541451219
 31
0.0
 12
138.65969765774361
 22
21.732931197372729
 32
0.0
 13
140.0734213265585
 23
21.732931197372729
 33
0.0
  0
SOLID
  5
10BF
  8
LOGO
 62
     5
 10
138.65969765774361
 20
21.732931197372729
 30
0.0
 11
140.0734213265585
 21
21.732931197372729
 31
0.0
 12
144.05457721340409
 22
28.801549541451219
 32
0.0
 13
145.46830088221861
 23
28.801549541451219
 33
0.0
  0
LINE
  5
10C0
  8
LOGO
 62
     1
 10
130.0
 20
-17.820708813739039
 30
0.0
 11
130.0
 21
77.0
 31
0.0
  0
TEXT
  5
10C1
  8
LOGO
 62
     6
 10
207.35366187318431
 20
62.781560051404391
 30
0.0
 40
9.4820708813739039
  1
比例 Scale:
 41
0.9
  7
CHINESET
 72
     4
 11
237.46346998890419
 21
67.5179291186261
 31
0.0
  0
TEXT
  5
10C2
  8
LOGO
 62
     6
 10
210.66815361430741
 20
43.946132423406198
 30
0.0
 40
9.4820708813739039
  1
投影 View:
 41
0.9
  7
CHINESET
 72
     4
 11
237.46346998890419
 21
48.553787355878278
 31
0.0
  0
TEXT
  5
10C3
  8
LOGO
 62
     6
 10
211.595195365656
 20
24.848610152443531
 30
0.0
 40
9.4820708813739039
  1
單位 Unit:
 41
0.9
  7
CHINESET
 72
     4
 11
237.46346998890419
 21
29.589645593130481
 31
0.0
  0
POLYLINE
  5
10C4
  8
LOGO
 62
     5
 66
     1
 10
0.0
 20
0.0
 30
0.0
 70
     1
 40
1.4159892516185031
 41
1.4159892516185031
  0
VERTEX
  5
1572
  8
LOGO
 62
     5
 10
178.47514407869721
 20
25.267240369411279
 30
0.0
 42
1.0
  0
VERTEX
  5
1573
  8
LOGO
 62
     5
 10
184.13910108517109
 20
25.267240369411279
 30
0.0
 42
1.0
  0
SEQEND
  5
1574
  8
LOGO
 62
     5
  0
LINE
  5
10C5
  8
LOGO
 62
     5
 10
192.14557646127881
 20
21.732931197372729
 30
0.0
 11
192.14557646127881
 21
25.97410220381926
 31
0.0
  0
SOLID
  5
10C6
  8
LOGO
 62
     5
 10
183.42756671279429
 20
28.801549541451219
 30
0.0
 11
184.8412903816091
 21
28.801549541451219
 31
0.0
 12
183.42756671279429
 22
21.732931197372729
 32
0.0
 13
184.8412903816091
 23
21.732931197372729
 33
0.0
  0
SOLID
  5
10C7
  8
LOGO
 62
     5
 10
186.4906817860149
 20
21.732931197372729
 30
0.0
 11
187.9044054548321
 21
21.732931197372729
 31
0.0
 12
186.4906817860149
 22
28.801549541451219
 32
0.0
 13
187.9044054548321
 23
28.801549541451219
 33
0.0
  0
SOLID
  5
10C8
  8
LOGO
 62
     5
 10
190.7318527924642
 20
25.97410220381926
 30
0.0
 11
192.14557646127881
 21
25.974102203819061
 31
0.0
 12
190.7318527924642
 22
21.732931197372729
 32
0.0
 13
192.14557646127881
 23
21.732931197372729
 33
0.0
  0
SOLID
  5
10C9
  8
LOGO
 62
     5
 10
163.16409987818699
 20
30.922135044675819
 30
0.0
 11
164.57782354700149
 21
30.922135044675819
 31
0.0
 12
163.16409987818699
 22
21.732931197372729
 32
0.0
 13
164.57782354700149
 23
21.732931197372729
 33
0.0
  0
SOLID
  5
10CA
  8
LOGO
 62
     5
 10
166.2272149514115
 20
28.801549541451219
 30
0.0
 11
167.64093862022619
 21
28.801549541451219
 31
0.0
 12
166.2272149514115
 22
21.732931197372729
 32
0.0
 13
167.64093862022619
 23
21.732931197372729
 33
0.0
  0
SOLID
  5
10CB
  8
LOGO
 62
     5
 10
170.46838595785809
 20
25.97410220381926
 30
0.0
 11
171.88210962667279
 21
25.97410220381926
 31
0.0
 12
170.46838595785809
 22
21.732931197372729
 32
0.0
 13
171.88210962667279
 23
21.732931197372729
 33
0.0
  0
SOLID
  5
10CC
  8
LOGO
 62
     5
 10
174.70955696430491
 20
25.97410220381926
 30
0.0
 11
176.12328063311941
 21
25.97410220381926
 31
0.0
 12
174.70955696430491
 22
21.732931197370029
 32
0.0
 13
176.12328063311941
 23
21.732931197370029
 33
0.0
  0
LINE
  5
10CD
  8
LOGO
 62
     1
 10
199.53518646340859
 20
20.10757471175657
 30
0.0
 11
199.53518646340859
 21
77.0
 31
0.0
  0
SOLID
  5
10CE
  8
LOGO
 62
     5
 10
150.20491912325221
 20
28.801549541451219
 30
0.0
 11
151.61864279206671
 21
28.801549541451219
 31
0.0
 12
150.20491912325221
 22
21.732931197372729
 32
0.0
 13
151.61864279206671
 23
21.732931197372729
 33
0.0
  0
SOLID
  5
10CF
  8
LOGO
 62
     5
 10
154.4460901296984
 20
25.97410220381926
 30
0.0
 11
155.85981379851569
 21
25.97410220381926
 31
0.0
 12
154.4460901296984
 22
21.732931197372729
 32
0.0
 13
155.85981379851569
 23
21.732931197372729
 33
0.0
  0
SOLID
  5
10D0
  8
LOGO
 62
     5
 10
147.1418040500273
 20
28.801549541451219
 30
0.0
 11
148.55552771884601
 21
28.801549541451219
 31
0.0
 12
147.1418040500273
 22
21.732931197370029
 32
0.0
 13
148.55552771884601
 23
21.732931197372729
 33
0.0
  0
POLYLINE
  5
10D1
  8
LOGO
 62
     5
 66
     1
 10
0.0
 20
0.0
 30
0.0
 70
     1
 40
1.4159892516185031
 41
1.4159892516185031
  0
VERTEX
  5
1575
  8
LOGO
 62
     5
 10
158.21167724409111
 20
25.267240369411279
 30
0.0
 42
1.0
  0
VERTEX
  5
1576
  8
LOGO
 62
     5
 10
163.87563425056521
 20
25.267240369411279
 30
0.0
 42
1.0
  0
SEQEND
  5
1577
  8
LOGO
 62
     5
  0
POLYLINE
  5
10D2
  8
LOGO
 62
     5
 66
     1
 10
0.0
 20
0.0
 30
0.0
 40
1.4159892516185031
 41
1.4159892516185031
  0
VERTEX
  5
1578
  8
LOGO
 62
     5
 10
191.44211300107611
 20
25.974102203819271
 30
0.0
 42
1.0
  0
VERTEX
  5
1579
  8
LOGO
 62
     5
 10
187.1941452462205
 20
25.974102203819271
 30
0.0
 42
1.0
  0
SEQEND
  5
157A
  8
LOGO
 62
     5
  0
SOLID
  5
10D3
  8
LOGO
 62
     5
 10
188.0457778217131
 20
35.870167885529682
 30
0.0
 11
192.14557646127881
 21
35.870167885529682
 31
0.0
 12
188.0457778217131
 22
74.747568777966762
 32
0.0
 13
192.14557646127881
 23
74.747568777969448
 33
0.0
  0
SOLID
  5
10D4
  8
LOGO
 62
     5
 10
166.839922789475
 20
74.747568777966762
 30
0.0
 11
170.93972142904039
 21
74.747568777969448
 31
0.0
 12
166.839922789475
 22
38.980359956924843
 32
0.0
 13
170.93972142904039
 23
54.012954968668168
 33
0.0
  0
SOLID
  5
10D5
  8
LOGO
 62
     5
 10
166.839922789475
 20
38.980359956924843
 30
0.0
 11
170.93972142904039
 21
54.012954968668168
 31
0.0
 12
186.34930941913279
 22
74.747568777969448
 32
0.0
 13
182.24951077956689
 23
74.747568777969448
 33
0.0
  0
SOLID
  5
10D6
  8
LOGO
 62
     5
 10
186.34930941913279
 20
71.637376706572965
 30
0.0
 11
182.24951077956689
 21
56.60478169482964
 31
0.0
 12
186.34930941913279
 22
35.870167885529682
 32
0.0
 13
182.24951077956689
 23
35.870167885529682
 33
0.0
  0
SOLID
  5
10D7
  8
LOGO
 62
     2
 10
186.34930941913279
 20
74.747568777969448
 30
0.0
 11
188.0457778217131
 21
74.747568777966762
 31
0.0
 12
186.34930941913279
 22
35.870167885529682
 32
0.0
 13
188.0457778217131
 23
35.870167885529682
 33
0.0
  0
SOLID
  5
10D8
  8
LOGO
 62
     5
 10
161.0436557473291
 20
35.870167885531039
 30
0.0
 11
165.1434543868946
 21
35.870167885531039
 31
0.0
 12
161.0436557473291
 22
56.60478169482964
 32
0.0
 13
165.1434543868946
 23
71.637376706572965
 33
0.0
  0
SOLID
  5
10D9
  8
LOGO
 62
     2
 10
165.1434543868946
 20
74.747568777966762
 30
0.0
 11
166.839922789475
 21
74.747568777966762
 31
0.0
 12
165.1434543868946
 22
35.870167885531039
 32
0.0
 13
166.839922789475
 23
35.870167885531039
 33
0.0
  0
SOLID
  5
10DA
  8
LOGO
 62
     5
 10
166.839922789475
 20
35.870167885531039
 30
0.0
 11
170.93972142904039
 21
35.870167885531039
 31
0.0
 12
186.34930941913279
 22
71.637376706572965
 32
0.0
 13
182.24951077956689
 23
56.60478169482964
 33
0.0
  0
SOLID
  5
10DB
  8
LOGO
 62
     2
 10
165.1434543868946
 20
35.870167885531039
 30
0.0
 11
166.839922789475
 21
35.870167885531039
 31
0.0
 12
186.34930941913279
 22
74.747568777969448
 32
0.0
 13
188.0457778217131
 23
74.747568777966762
 33
0.0
  0
POLYLINE
  5
10DC
  8
LOGO
 62
     5
 66
     1
 10
0.0
 20
0.0
 30
0.0
 40
1.4159892516185031
 41
1.4159892516185031
  0
VERTEX
  5
157B
  8
LOGO
 62
     5
 10
171.17864616647
 20
25.974102203819271
 30
0.0
 42
1.0
  0
VERTEX
  5
157C
  8
LOGO
 62
     5
 10
166.93067841161439
 20
25.974102203819271
 30
0.0
 42
1.0
  0
SEQEND
  5
157D
  8
LOGO
 62
     5
  0
POLYLINE
  5
10DD
  8
LOGO
 62
     5
 66
     1
 10
0.0
 20
0.0
 30
0.0
 40
1.4159892516185031
 41
1.4159892516185031
  0
VERTEX
  5
157E
  8
LOGO
 62
     5
 10
155.15635033831069
 20
25.974102203819271
 30
0.0
 42
1.0
  0
VERTEX
  5
157F
  8
LOGO
 62
     5
 10
150.90838258345499
 20
25.974102203819271
 30
0.0
 42
1.0
  0
SEQEND
  5
1580
  8
LOGO
 62
     5
  0
SOLID
  5
10DE
  8
LOGO
 62
     5
 10
147.1418040500273
 20
29.791156109621731
 30
0.0
 11
148.55552771884601
 21
29.791156109621731
 31
0.0
 12
147.1418040500273
 22
30.922135044675819
 32
0.0
 13
148.55552771884601
 23
30.922135044675819
 33
0.0
  0
POLYLINE
  5
10DF
  8
LOGO
 62
     5
 66
     1
 10
0.0
 20
0.0
 30
0.0
 70
     1
  0
VERTEX
  5
1581
  8
LOGO
 62
     5
 10
179.1865370787109
 20
25.267240369411962
 30
0.0
 42
1.0000000573306349
  0
VERTEX
  5
1582
  8
LOGO
 62
     5
 10
183.42770808515931
 20
25.267240369411962
 30
0.0
 42
1.0000000573306349
  0
SEQEND
  5
1583
  8
LOGO
 62
     5
  0
CIRCLE
  5
10E0
  8
LOGO
 62
     5
 10
181.307122581935
 20
25.267240369411962
 30
0.0
 40
2.1205855032238698
  0
POLYLINE
  5
10E1
  8
LOGO
 62
     5
 66
     1
 10
0.0
 20
0.0
 30
0.0
 40
1.4159892516185031
 41
1.4159892516185031
  0
VERTEX
  5
1584
  8
LOGO
 62
     5
 10
175.41981717291659
 20
25.974102203819271
 30
0.0
 42
1.0
  0
VERTEX
  5
1585
  8
LOGO
 62
     5
 10
171.17184941806099
 20
25.974102203819271
 30
0.0
 42
1.0
  0
SEQEND
  5
1586
  8
LOGO
 62
     5
  0
LINE
  5
10E2
  8
LOGO
 62
     1
 10
275.3917535143998
 20
20.10757471175657
 30
0.0
 11
275.3917535143998
 21
77.0
 31
0.0
  0
CIRCLE
  5
10E3
  8
LOGO
  6
CONTINUOUS
 62
     6
 10
292.94899374994162
 20
48.574069574881563
 30
0.0
 40
5.5055135365156369
  0
CIRCLE
  5
10E4
  8
LOGO
  6
CONTINUOUS
 62
     6
 10
292.94899374994162
 20
48.574069574881563
 30
0.0
 40
3.2257435568598249
  0
LINE
  5
10E5
  8
LOGO
 62
     6
 10
310.28681074076189
 20
45.348326018021737
 30
0.0
 11
310.28681074076161
 21
51.799813131741431
 31
0.0
  0
TEXT
  5
10E6
  8
LOGO
  6
CONTINUOUS
 62
     6
 10
491.90461337141443
 20
-5.9681202120216632
 30
0.0
 40
7.9017257344782541
  1
Model
  7
CHINESET
 72
     4
 11
506.9555195323253
 21
-2.0172573447825348
 31
0.0
  0
TEXT
  5
10E7
  8
LOGO
  6
CONTINUOUS
 62
     7
 10
477.9825251725718
 20
45.393097062086973
 30
0.0
 40
15.803451468956499
  1
MRTH
  7
CHINESET
 72
     1
 11
506.9555195323253
 21
53.294822796565228
 31
0.0
 73
     2
  0
LINE
  5
10E8
  8
LOGO
 62
     6
 10
544.88380305782096
 20
67.5179291186261
 30
0.0
 11
469.02723600682981
 21
67.5179291186261
 31
0.0
  0
LINE
  5
10E9
  8
LOGO
 62
     6
 10
544.88380305782096
 20
39.071716474504377
 30
0.0
 11
469.02723600682981
 21
39.071716474504377
 31
0.0
  0
LINE
  5
10EA
  8
LOGO
 62
     6
 10
538.56242247023818
 20
24.84861015244352
 30
0.0
 11
475.34861659441231
 21
24.84861015244352
 31
0.0
  0
LINE
  5
10EB
  8
LOGO
 62
     6
 10
538.56242247023818
 20
-9.918983079260812
 30
0.0
 11
475.34861659441231
 21
-9.9189830792608831
 31
0.0
  0
TEXT
  5
10EC
  8
LOGO
 62
     7
 10
346.36709790882179
 20
53.259050998465433
 30
0.0
 40
18.964141762747801
  1
訂購代號:
  7
CHINESET
  0
TEXT
  5
10ED
  8
LOGO
 62
     7
 10
344.09888200261611
 20
35.460660980936069
 30
0.0
 40
12.6427611751652
  1
Order example:
 41
0.8
  7
CHINESET
  0
LINE
  5
10EE
  8
LOGO
 62
     1
 10
338.60555939022578
 20
-17.820708813739039
 30
0.0
 11
338.60555939022578
 21
77.0
 31
0.0
  0
LINE
  5
10EF
  8
LOGO
 62
     6
 10
327.54627964618231
 20
43.068556038365941
 30
0.0
 11
327.54627964618231
 21
54.079583111397213
 31
0.0
  0
LINE
  5
10F0
  8
LOGO
 62
     6
 10
475.34861659441231
 20
24.84861015244352
 30
0.0
 11
475.34861659441231
 21
-9.9189830792608831
 31
0.0
  0
LINE
  5
10F1
  8
LOGO
 62
     6
 10
469.02723600682981
 20
67.5179291186261
 30
0.0
 11
469.02723600682981
 21
39.071716474504377
 31
0.0
  0
TEXT
  5
10F2
  8
LOGO
  6
CONTINUOUS
 62
     7
 10
581.75087997826597
 20
45.213884926609801
 30
0.0
 40
15.803451468956499
  1
40
  7
CHINESET
 72
     1
 11
594.54415021504042
 21
53.115610661088049
 31
0.0
 73
     2
  0
LINE
  5
10F3
  8
LOGO
 62
     6
 10
618.44224082412416
 20
-9.9189830792606131
 30
0.0
 11
567.69608118428278
 21
-9.9189830792606983
 31
0.0
  0
LINE
  5
10F4
  8
LOGO
 62
     6
 10
618.44224082412416
 20
39.071716474504569
 30
0.0
 11
567.69608118428278
 21
39.071716474504569
 31
0.0
  0
LINE
  5
10F5
  8
LOGO
 62
     6
 10
618.44224082412416
 20
24.84861015244369
 30
0.0
 11
567.69608118428278
 21
24.84861015244369
 31
0.0
  0
LINE
  5
10F6
  8
LOGO
 62
     6
 10
618.44224082412416
 20
67.517929118626455
 30
0.0
 11
567.69608118428278
 21
67.517929118626256
 31
0.0
  0
LINE
  5
10F7
  8
LOGO
 62
     6
 10
567.69608118428278
 20
24.84861015244369
 30
0.0
 11
567.69608118428278
 21
-9.9189830792606131
 31
0.0
  0
LINE
  5
10F8
  8
LOGO
 62
     6
 10
538.56242247023852
 20
24.84861015244352
 30
0.0
 11
538.56242247023852
 21
-9.9189830792607836
 31
0.0
  0
TEXT
  5
10F9
  8
LOGO
 62
     6
 10
494.31275835716019
 20
7.7883487635148789
 30
0.0
 40
12.6427611751652
  1
型式
  7
CHINESET
 72
     4
 11
506.9555195323253
 21
13.78619412417396
 31
0.0
  0
LINE
  5
10FA
  8
LOGO
 62
     6
 10
506.9555195323253
 20
39.071716474504377
 30
0.0
 11
506.9555195323253
 21
24.84861015244352
 31
0.0
  0
LINE
  5
10FB
  8
LOGO
 62
     6
 10
567.69608118428278
 20
67.517929118626256
 30
0.0
 11
567.69608118428278
 21
39.071716474504569
 31
0.0
  0
LINE
  5
10FC
  8
LOGO
 62
     6
 10
544.88380305782096
 20
67.5179291186261
 30
0.0
 11
544.88380305782096
 21
39.071716474504377
 31
0.0
  0
LINE
  5
10FD
  8
LOGO
  6
CONTINUOUS
 62
     7
 10
550.21593849720875
 20
53.194061815815708
 30
0.0
 11
562.77674804467517
 21
53.194061815815708
 31
0.0
  0
LINE
  5
10FE
  8
LOGO
 62
     6
 10
634.50185785845167
 20
24.84861015244352
 30
0.0
 11
634.50185785845167
 21
-9.9189830792608831
 31
0.0
  0
LINE
  5
10FF
  8
LOGO
 62
     6
 10
618.44224082412416
 20
24.84861015244369
 30
0.0
 11
618.44224082412416
 21
-9.9189830792605278
 31
0.0
  0
TEXT
  5
1100
  8
LOGO
  6
CONTINUOUS
 62
     6
 10
583.28607199961141
 20
-5.9681202120215628
 30
0.0
 40
7.9017257344782541
  1
Bore
 41
0.8
  7
CHINESET
 72
     4
 11
593.06916100420347
 21
-2.0172573447824358
 31
0.0
  0
TEXT
  5
1101
  8
LOGO
 62
     6
 10
580.97952063045182
 20
7.4648135365914552
 30
0.0
 40
12.6427611751652
  1
內徑
 41
0.9
  7
CHINESET
 72
     4
 11
593.06916100420347
 21
13.78619412417406
 31
0.0
  0
LINE
  5
1102
  8
LOGO
  6
CONTINUOUS
 62
     7
 10
623.34309575896032
 20
53.194061815815871
 30
0.0
 11
635.90390530642685
 21
53.194061815815871
 31
0.0
  0
LINE
  5
1103
  8
LOGO
 62
     6
 10
618.44224082412416
 20
67.517929118626455
 30
0.0
 11
618.44224082412416
 21
39.071716474504569
 31
0.0
  0
LINE
  5
1104
  8
LOGO
 62
     6
 10
593.06916027539739
 20
39.071716474504569
 30
0.0
 11
593.06916027539739
 21
24.84861015244369
 31
0.0
  0
LINE
  5
1105
  8
LOGO
 62
     6
 10
640.82323844603445
 20
67.5179291186261
 30
0.0
 11
640.82323844603434
 21
39.071716474504377
 31
0.0
  0
LINE
  5
1106
  8
LOGO
 62
     6
 10
667.81869424530566
 20
39.071716474504377
 30
0.0
 11
667.81869424530566
 21
24.84861015244352
 31
0.0
  0
TEXT
  5
1107
  8
LOGO
 62
     6
 10
733.28580217217518
 20
8.0092237742032371
 30
0.0
 40
12.6427611751652
  1
雙心轉軸
 41
0.9
  7
CHINESET
 72
     4
 11
756.16129817348974
 21
13.78619412417415
 31
0.0
  0
LINE
  5
1108
  8
LOGO
 62
     6
 10
802.38639372018747
 20
-9.9189830792605278
 30
0.0
 11
709.93620262679178
 21
-9.9189830792606131
 31
0.0
  0
LINE
  5
1109
  8
LOGO
 62
     6
 10
802.38639372018747
 20
24.84861015244369
 30
0.0
 11
709.93620262679178
 21
24.84861015244369
 31
0.0
  0
TEXT
  5
110A
  8
LOGO
  6
CONTINUOUS
 62
     6
 10
725.00592242040409
 20
-4.651165922941785
 30
0.0
 40
7.9017257344782541
  1
End rod type
 41
0.8
  7
CHINESET
 72
     4
 11
756.16129817348974
 21
-2.0172573447823652
 31
0.0
  0
LINE
  5
110B
  8
LOGO
 62
     6
 10
709.93620262679178
 20
24.84861015244369
 30
0.0
 11
709.93620262679178
 21
-9.9189830792606131
 31
0.0
  0
LINE
  5
110C
  8
LOGO
 62
     6
 10
699.79671962092664
 20
24.84861015244352
 30
0.0
 11
699.79671962092664
 21
-10.050079959371701
 31
0.0
  0
LINE
  5
110D
  8
LOGO
 62
     6
 10
693.47533903334386
 20
67.5179291186261
 30
0.0
 11
693.47533903334386
 21
39.071716474504349
 31
0.0
  0
LINE
  5
110E
  8
LOGO
  6
CONTINUOUS
 62
     7
 10
699.07492141262355
 20
53.194061815815708
 30
0.0
 11
711.63573096009009
 21
53.194061815815708
 31
0.0
  0
TEXT
  5
110F
  8
LOGO
  6
CONTINUOUS
 62
     7
 10
725.82223355119743
 20
45.213884926609609
 30
0.0
 40
15.803451468956499
  1
D
  7
CHINESET
 72
     1
 11
731.0900507075163
 21
53.115610661087871
 31
0.0
 73
     2
  0
LINE
  5
1110
  8
LOGO
 62
     6
 10
745.09272187282397
 20
67.517929118626256
 30
0.0
 11
745.09272187282397
 21
39.071716474504377
 31
0.0
  0
LINE
  5
1111
  8
LOGO
 62
     6
 10
716.3112190791195
 20
67.517929118626256
 30
0.0
 11
716.3112190791195
 21
39.071716474504377
 31
0.0
  0
LINE
  5
1112
  8
LOGO
 62
     6
 10
745.09272187282397
 20
39.071716474504377
 30
0.0
 11
716.3112190791195
 21
39.071716474504377
 31
0.0
  0
LINE
  5
1113
  8
LOGO
 62
     6
 10
730.70197047597139
 20
39.071716474504377
 30
0.0
 11
730.70197047597139
 21
24.84861015244369
 31
0.0
  0
LINE
  5
1114
  8
LOGO
 62
     6
 10
745.09272187282397
 20
67.517929118626256
 30
0.0
 11
716.3112190791195
 21
67.517929118626256
 31
0.0
  0
LINE
  5
1115
  8
LOGO
 62
     6
 10
802.38639372018747
 20
24.84861015244369
 30
0.0
 11
802.38639372018747
 21
-9.9189830792605278
 31
0.0
  0
LINE
  5
1116
  8
LOGO
 62
     1
 10
810.0
 20
-17.820708813739039
 30
0.0
 11
810.0
 21
77.0
 31
0.0
  0
ENDSEC
  0
EOF
