  0
SECTION
  2
HEADER
  9
$ACADVER
  1
AC1009
  9
$INSBASE
 10
0.0
 20
0.0
 30
0.0
  9
$EXTMIN
 10
226.91931455363419
 20
52.269289126001922
 30
-0.0015258207003583
  9
$EXTMAX
 10
1107.0065944686139
 20
765.0439471810173
 30
0.0000000349246037
  9
$LIMMIN
 10
0.0
 20
0.0
  9
$LIMMAX
 10
1188.0
 20
840.0
  9
$ORTHOMODE
 70
     0
  9
$REGENMODE
 70
     1
  9
$FILLMODE
 70
     1
  9
$QTEXTMODE
 70
     0
  9
$MIRRTEXT
 70
     1
  9
$DRAGMODE
 70
     2
  9
$LTSCALE
 40
1.0
  9
$OSMODE
 70
    39
  9
$ATTMODE
 70
     1
  9
$TEXTSIZE
 40
3.0
  9
$TRACEWID
 40
0.05
  9
$TEXTSTYLE
  7
ITALICT
  9
$CLAYER
  8
0
  9
$CELTYPE
  6
CONTINUOUS
  9
$CECOLOR
 62
   256
  9
$DIMSCALE
 40
1.0
  9
$DIMASZ
 40
3.0
  9
$DIMEXO
 40
1.0
  9
$DIMDLI
 40
1.4824161510814720E+016
  9
$DIMRND
 40
0.0
  9
$DIMDLE
 40
0.0
  9
$DIMEXE
 40
1.0
  9
$DIMTP
 40
0.15
  9
$DIMTM
 40
-0.1
  9
$DIMTXT
 40
3.0
  9
$DIMCEN
 40
2.0
  9
$DIMTSZ
 40
0.0
  9
$DIMTOL
 70
     0
  9
$DIMLIM
 70
     0
  9
$DIMTIH
 70
     0
  9
$DIMTOH
 70
     0
  9
$DIMSE1
 70
     0
  9
$DIMSE2
 70
     0
  9
$DIMTAD
 70
     1
  9
$DIMZIN
 70
     0
  9
$DIMBLK
  1

  9
$DIMASO
 70
     0
  9
$DIMSHO
 70
     0
  9
$DIMPOST
  1

  9
$DIMAPOST
  1

  9
$DIMALT
 70
     0
  9
$DIMALTD
 70
     2
  9
$DIMALTF
 40
25.399999999999999
  9
$DIMLFAC
 40
1.0
  9
$DIMTOFL
 70
     1
  9
$DIMTVP
 40
1.0
  9
$DIMTIX
 70
     0
  9
$DIMSOXD
 70
     0
  9
$DIMSAH
 70
     0
  9
$DIMBLK1
  1

  9
$DIMBLK2
  1

  9
$DIMSTYLE
  2
STANDARD
  9
$DIMCLRD
 70
     0
  9
$DIMCLRE
 70
     0
  9
$DIMCLRT
 70
     0
  9
$DIMTFAC
 40
1.0
  9
$DIMGAP
 40
0.09
  9
$LUNITS
 70
     2
  9
$LUPREC
 70
     2
  9
$SKETCHINC
 40
0.1
  9
$FILLETRAD
 40
0.75
  9
$AUNITS
 70
     0
  9
$AUPREC
 70
     2
  9
$MENU
  1
ACAD
  9
$ELEVATION
 40
0.0
  9
$PELEVATION
 40
0.0
  9
$THICKNESS
 40
0.0
  9
$LIMCHECK
 70
     0
  9
$BLIPMODE
 70
     0
  9
$CHAMFERA
 40
0.0
  9
$CHAMFERB
 40
0.0
  9
$SKPOLY
 70
     1
  9
$TDCREATE
 40
2450580.7034460641
  9
$TDUPDATE
 40
2451939.4126686919
  9
$TDINDWG
 40
0.0945596181
  9
$TDUSRTIMER
 40
0.0945596181
  9
$USRTIMER
 70
     1
  9
$ANGBASE
 50
0.0
  9
$ANGDIR
 70
     0
  9
$PDMODE
 70
     0
  9
$PDSIZE
 40
0.0
  9
$PLINEWID
 40
0.0
  9
$COORDS
 70
     2
  9
$SPLFRAME
 70
     0
  9
$SPLINETYPE
 70
     6
  9
$SPLINESEGS
 70
     8
  9
$ATTDIA
 70
     0
  9
$ATTREQ
 70
     1
  9
$HANDLING
 70
 12289
  9
$HANDSEED
  5
14CA
  9
$SURFTAB1
 70
     6
  9
$SURFTAB2
 70
     6
  9
$SURFTYPE
 70
     6
  9
$SURFU
 70
     6
  9
$SURFV
 70
     6
  9
$UCSNAME
  2

  9
$UCSORG
 10
0.0
 20
0.0
 30
0.0
  9
$UCSXDIR
 10
1.0
 20
0.0
 30
0.0
  9
$UCSYDIR
 10
0.0
 20
1.0
 30
0.0
  9
$PUCSNAME
  2

  9
$PUCSORG
 10
0.0
 20
0.0
 30
0.0
  9
$PUCSXDIR
 10
1.0
 20
0.0
 30
0.0
  9
$PUCSYDIR
 10
0.0
 20
1.0
 30
0.0
  9
$USERI1
 70
     0
  9
$USERI2
 70
-31485
  9
$USERI3
 70
     0
  9
$USERI4
 70
     0
  9
$USERI5
 70
     0
  9
$USERR1
 40
0.0
  9
$USERR2
 40
0.0
  9
$USERR3
 40
0.0
  9
$USERR4
 40
0.0
  9
$USERR5
 40
0.0
  9
$WORLDVIEW
 70
     1
  9
$SHADEDGE
 70
     3
  9
$SHADEDIF
 70
    70
  9
$TILEMODE
 70
     1
  9
$MAXACTVP
 70
    64
  9
$PLIMCHECK
 70
     0
  9
$PEXTMIN
 10
1.0000000000000000E+020
 20
1.0000000000000000E+020
 30
1.0000000000000000E+020
  9
$PEXTMAX
 10
-1.0000000000000000E+020
 20
-1.0000000000000000E+020
 30
-1.0000000000000000E+020
  9
$PLIMMIN
 10
0.0
 20
0.0
  9
$PLIMMAX
 10
12.0
 20
9.0
  9
$UNITMODE
 70
     0
  9
$VISRETAIN
 70
     1
  9
$PLINEGEN
 70
     0
  9
$PSLTSCALE
 70
     0
  0
ENDSEC
  0
SECTION
  2
TABLES
  0
TABLE
  2
VPORT
 70
     2
  0
VPORT
  2
*ACTIVE
 70
     0
 10
0.0
 20
0.0
 11
1.0
 21
1.0
 12
666.96295451112417
 22
408.65661815350961
 13
0.0
 23
0.0
 14
1.0
 24
1.0
 15
0.0
 25
0.0
 16
0.0
 26
0.0
 36
1.0
 17
0.0
 27
0.0
 37
0.0
 40
720.63614325415165
 41
1.7274401473296499
 42
1.0
 43
0.0
 44
0.0
 50
0.0
 51
0.0
 71
     0
 72
   100
 73
     1
 74
     1
 75
     0
 76
     0
 77
     0
 78
     0
  0
ENDTAB
  0
TABLE
  2
LTYPE
 70
     3
  0
LTYPE
  2
CONTINUOUS
 70
     0
  3
Solid line
 72
    65
 73
     0
 40
0.0
  0
LTYPE
  2
CENTER
 70
     0
  3
_______________ _ _______________ _ ___________
 72
    65
 73
     4
 40
18.0
 49
15.0
 49
-1.0
 49
1.0
 49
-1.0
  0
LTYPE
  2
HIDDEN
 70
     0
  3
___ ___ ___ ___ ___ ___ ___ ___ ___ ___ 
 72
    65
 73
     2
 40
4.0
 49
3.0
 49
-1.0
  0
ENDTAB
  0
TABLE
  2
LAYER
 70
     5
  0
LAYER
  2
0
 70
     0
 62
     7
  6
CONTINUOUS
  0
LAYER
  2
DIM
 70
     0
 62
     5
  6
CONTINUOUS
  0
LAYER
  2
HIDDEN
 70
     0
 62
     6
  6
HIDDEN
  0
LAYER
  2
CENTER
 70
     0
 62
     1
  6
CENTER
  0
LAYER
  2
LOGO
 70
     0
 62
     7
  6
CONTINUOUS
  0
ENDTAB
  0
TABLE
  2
STYLE
 70
     8
  0
STYLE
  2
STANDARD
 70
     0
 40
0.0
 41
1.0
 50
0.0
 71
     0
 42
3.0
  3
txt
  4

  0
STYLE
  2
ITALICT
 70
     0
 40
0.0
 41
1.0
 50
0.0
 71
     0
 42
3.0
  3
ITALICT.SHX
  4

  0
STYLE
  2
ROMANSS
 70
     0
 40
0.0
 41
1.0
 50
0.0
 71
     0
 42
3.0
  3
ROMANSS.SHX
  4
LMP
  0
STYLE
  2
CHINESET
 70
     0
 40
0.0
 41
1.0
 50
0.0
 71
     0
 42
4.0
  3
C:\r13\com\fonts\simplex.shx
  4
C:\r13\com\fonts\chineset.shx
  0
STYLE
  2
LOGO
 70
     0
 40
0.0
 41
1.0
 50
0.0
 71
     0
 42
5.0
  3
txt
  4

  0
ENDTAB
  0
TABLE
  2
VIEW
 70
     0
  0
ENDTAB
  0
TABLE
  2
UCS
 70
     0
  0
ENDTAB
  0
TABLE
  2
APPID
 70
     2
  0
APPID
  2
ACAD
 70
     0
  0
APPID
  2
TCAD
 70
     0
  0
ENDTAB
  0
TABLE
  2
DIMSTYLE
 70
     1
  0
DIMSTYLE
  2
STANDARD
 70
     0
  3

  4

  5

  6

  7

 40
1.0
 41
0.18
 42
0.0625
 43
0.38
 44
0.18
 45
0.0
 46
0.0
 47
0.0
 48
0.0
140
0.18
141
0.09
142
0.0
143
25.399999999999999
144
1.0
145
0.0
146
1.0
147
0.09
 71
     0
 72
     0
 73
     1
 74
     1
 75
     0
 76
     0
 77
     0
 78
     0
170
     0
171
     2
172
     0
173
     0
174
     0
175
     0
176
     0
177
     0
178
     0
  0
ENDTAB
  0
ENDSEC
  0
SECTION
  2
BLOCKS
  0
BLOCK
  8
0
  2
$MODEL_SPACE
 70
     0
 10
0.0
 20
0.0
 30
0.0
  3
$MODEL_SPACE
  1

  0
ENDBLK
  5
3F
  8
0
  0
BLOCK
 67
     1
  8
0
  2
$PAPER_SPACE
 70
     0
 10
0.0
 20
0.0
 30
0.0
  3
$PAPER_SPACE
  1

  0
ENDBLK
  5
3D
 67
     1
  8
0
  0
ENDSEC
  0
SECTION
  2
ENTITIES
  0
LINE
  5
B29
  8
0
 62
     4
 10
227.0
 20
175.0
 30
0.0
 11
227.0
 21
765.00000000000023
 31
0.0
  0
LINE
  5
B2B
  8
0
 62
     4
 10
1107.0
 20
175.0
 30
0.0
 11
227.0
 21
175.0
 31
0.0
  0
LINE
  5
B2E
  8
0
 62
     4
 10
227.0
 20
765.00000000000023
 30
0.0
 11
1107.0
 21
764.99999999999977
 31
0.0
  0
LINE
  5
B2F
  8
0
 62
     4
 10
1107.0
 20
764.99999999999977
 30
0.0
 11
1107.0
 21
175.0
 31
0.0
  0
LINE
  5
B30
  8
CENTER
  6
CENTER
 10
713.85170847932113
 20
448.40848435947657
 30
0.0
 11
683.85170847932113
 21
448.40848435947657
 31
0.0
  0
LINE
  5
B31
  8
CENTER
  6
CENTER
 10
480.85170847932091
 20
263.56269280771841
 30
0.0
 11
873.85170847932125
 21
263.56269280771841
 31
0.0
  0
LINE
  5
B32
  8
CENTER
  6
CENTER
 10
629.35170847932113
 20
233.56269280771841
 30
0.0
 11
725.35170847932113
 21
233.56269280771841
 31
0.0
  0
LINE
  5
B33
  8
0
 10
632.35170847932102
 20
191.06269280771829
 30
0.0
 11
722.35170847932113
 21
191.06269280771829
 31
0.0
  0
LINE
  5
B34
  8
0
 10
632.35170847932113
 20
301.06269280771841
 30
0.0
 11
722.35170847932113
 21
301.06269280771841
 31
0.0
  0
CIRCLE
  5
B35
  8
0
  6
CONTINUOUS
 10
677.35170847932113
 20
233.56269280771841
 30
0.0
 40
41.0
  0
CIRCLE
  5
B36
  8
0
  6
CONTINUOUS
 10
677.35170847932113
 20
233.56269280771841
 30
0.0
 40
40.0
  0
CIRCLE
  5
B37
  8
CENTER
  6
CENTER
 10
677.35170847932113
 20
233.56269280771841
 30
0.0
 40
33.5
  0
ARC
  5
B38
  8
0
  6
CONTINUOUS
 10
677.35170847932113
 20
678.10338403307105
 30
0.0
 40
15.00000000000005
 50
195.4660099534203
 51
164.53399004657959
  0
CIRCLE
  5
B39
  8
CENTER
  6
CENTER
 10
677.35170847932113
 20
678.10338403307105
 30
0.0
 40
33.5
  0
LINE
  5
B3A
  8
DIM
  6
CONTINUOUS
 10
684.10351580446923
 20
679.88470853310901
 30
0.0
 11
745.69844525046767
 21
701.59306404487745
 31
0.0
  0
LINE
  5
B3B
  8
DIM
  6
CONTINUOUS
 10
686.35170847932079
 20
574.40848435947669
 30
0.0
 11
665.35170847932079
 21
574.40848435947669
 31
0.0
  0
LINE
  5
B3C
  8
DIM
  6
CONTINUOUS
 10
686.35170847932079
 20
566.40848435947669
 30
0.0
 11
668.35170847932091
 21
566.40848435947669
 31
0.0
  0
ARC
  5
B3D
  8
DIM
  6
CONTINUOUS
 10
677.35170847932113
 20
678.10338403307105
 30
0.0
 40
67.695411205231821
 50
0.0
 51
180.0
  0
LINE
  5
B3E
  8
DIM
  6
CONTINUOUS
 10
645.35170847932113
 20
728.60338403307128
 30
0.0
 11
709.35170847932113
 21
728.60338403307128
 31
0.0
  0
LINE
  5
B3F
  8
DIM
  6
CONTINUOUS
 10
474.9949824626043
 20
337.40848435947652
 30
0.0
 11
879.32772820754894
 21
337.40848435947652
 31
0.0
  0
LINE
  5
B40
  8
DIM
  6
CONTINUOUS
 10
635.35170847932113
 20
345.40848435947657
 30
0.0
 11
719.35170847932113
 21
345.40848435947657
 31
0.0
  0
LINE
  5
B41
  8
DIM
  6
CONTINUOUS
 10
639.35170847932113
 20
353.40848435947657
 30
0.0
 11
715.35170847932113
 21
353.40848435947657
 31
0.0
  0
CIRCLE
  5
B42
  8
0
  6
CONTINUOUS
 10
677.35170847932113
 20
678.10338403307105
 30
0.0
 40
40.0
  0
CIRCLE
  5
B43
  8
0
  6
CONTINUOUS
 10
677.35170847932113
 20
678.10338403307105
 30
0.0
 40
41.0
  0
LINE
  5
B44
  8
0
 10
632.35170847932113
 20
610.60338403307105
 30
0.0
 11
722.35170847932113
 21
610.60338403307105
 31
0.0
  0
LINE
  5
B45
  8
0
 10
632.35170847932102
 20
720.60338403307128
 30
0.0
 11
722.35170847932113
 21
720.60338403307128
 31
0.0
  0
LINE
  5
B46
  8
CENTER
  6
CENTER
 10
629.35170847932113
 20
678.10338403307105
 30
0.0
 11
725.35170847932113
 21
678.10338403307105
 31
0.0
  0
CIRCLE
  5
B47
  8
0
  6
CONTINUOUS
 10
677.35170847932113
 20
678.10338403307105
 30
0.0
 40
11.00000000000005
  0
CIRCLE
  5
B48
  8
0
  6
CONTINUOUS
 10
677.35170847932113
 20
678.10338403307105
 30
0.0
 40
12.00000000000005
  0
LINE
  5
B49
  8
0
  6
CONTINUOUS
 10
636.35170847932113
 20
421.40848435947657
 30
0.0
 11
718.35170847932113
 21
421.40848435947657
 31
0.0
  0
LINE
  5
B4A
  8
0
  6
CONTINUOUS
 10
636.35170847932113
 20
514.40848435947657
 30
0.0
 11
718.35170847932113
 21
514.40848435947657
 31
0.0
  0
LINE
  5
B4B
  8
0
  6
CONTINUOUS
 10
662.35170847932102
 20
516.40848435947669
 30
0.0
 11
692.35170847932102
 21
516.40848435947669
 31
0.0
  0
LINE
  5
B4C
  8
0
  6
CONTINUOUS
 10
665.35170847932079
 20
557.40848435947669
 30
0.0
 11
689.35170847932091
 21
557.40848435947669
 31
0.0
  0
LINE
  5
B4D
  8
0
  6
CONTINUOUS
 10
666.35170847932091
 20
558.40848435947669
 30
0.0
 11
688.35170847932091
 21
558.40848435947669
 31
0.0
  0
LINE
  5
B4E
  8
0
  6
CONTINUOUS
 10
637.35170847932113
 20
420.40848435947657
 30
0.0
 11
717.35170847932113
 21
420.40848435947657
 31
0.0
  0
LINE
  5
B4F
  8
0
  6
CONTINUOUS
 10
637.35170847932113
 20
515.40848435947657
 30
0.0
 11
717.35170847932113
 21
515.40848435947657
 31
0.0
  0
LINE
  5
B50
  8
0
  6
CONTINUOUS
 10
632.35170847932113
 20
430.40848435947657
 30
0.0
 11
722.35170847932113
 21
430.40848435947657
 31
0.0
  0
LINE
  5
B51
  8
0
  6
CONTINUOUS
 10
632.35170847932102
 20
505.40848435947657
 30
0.0
 11
722.35170847932113
 21
505.40848435947657
 31
0.0
  0
LINE
  5
B52
  8
CENTER
  6
CENTER
 10
480.85170847932091
 20
648.10338403307105
 30
0.0
 11
873.85170847932125
 21
648.10338403307105
 31
0.0
  0
LINE
  5
B53
  8
CENTER
  6
CENTER
 10
480.85170847932091
 20
467.90848435947657
 30
0.0
 11
872.85170847932079
 21
467.90848435947657
 31
0.0
  0
LINE
  5
B54
  8
CENTER
  6
CENTER
 10
375.0961194078954
 20
508.40848435947652
 30
0.0
 11
375.0961194078954
 21
427.40848435947652
 31
0.0
  0
CIRCLE
  5
B55
  8
0
 10
375.0961194078954
 20
467.90848435947652
 30
0.0
 40
22.999999999999979
  0
CIRCLE
  5
B56
  8
0
 10
375.0961194078954
 20
467.90848435947652
 30
0.0
 40
22.499999999999979
  0
LINE
  5
B57
  8
0
 10
409.5961194078954
 20
465.40848435947652
 30
0.0
 11
409.5961194078954
 21
449.58005177596851
 31
0.0
  0
LINE
  5
B58
  8
0
 10
412.09611940789551
 20
495.90848435947652
 30
0.0
 11
412.09611940789551
 21
439.9084843594764
 31
0.0
  0
LINE
  5
B59
  8
0
 10
340.5961194078954
 20
465.40848435947629
 30
0.0
 11
340.5961194078954
 21
449.58005177596851
 31
0.0
  0
LINE
  5
B5A
  8
0
 10
337.5961194078954
 20
495.90848435947652
 30
0.0
 11
337.5961194078954
 21
439.9084843594764
 31
0.0
  0
LINE
  5
B5B
  8
0
 10
338.0961194078954
 20
495.90848435947652
 30
0.0
 11
338.0961194078954
 21
439.9084843594764
 31
0.0
  0
LINE
  5
B5C
  8
0
 10
412.5961194078954
 20
505.40848435947657
 30
0.0
 11
412.5961194078954
 21
430.4084843594764
 31
0.0
  0
LINE
  5
B5D
  8
0
 10
302.59611940789529
 20
505.40848435947657
 30
0.0
 11
302.5961194078954
 21
430.4084843594764
 31
0.0
  0
LINE
  5
B5E
  8
CENTER
  6
CENTER
 10
345.09611940789551
 20
562.84869363801795
 30
0.0
 11
345.0961194078954
 21
372.53181874898178
 31
0.0
  0
CIRCLE
  5
B5F
  8
0
  6
CONTINUOUS
 10
677.35170847932102
 20
467.90848435947657
 30
0.0
 40
4.0
  0
LINE
  5
B60
  8
0
 10
483.85170847932102
 20
446.40848435947669
 30
0.0
 11
483.85170847932102
 21
489.40848435947669
 31
0.0
  0
LINE
  5
B61
  8
0
 10
488.85170847932108
 20
430.90848435947657
 30
0.0
 11
488.85170847932102
 21
504.90848435947669
 31
0.0
  0
LINE
  5
B62
  8
0
 10
520.85170847932113
 20
430.40848435947657
 30
0.0
 11
520.85170847932102
 21
505.40848435947657
 31
0.0
  0
LINE
  5
B63
  8
0
 10
520.85170847932113
 20
432.90848435947657
 30
0.0
 11
520.85170847932113
 21
502.90848435947657
 31
0.0
  0
ARC
  5
B64
  8
0
 62
     2
 10
504.85170847932102
 20
460.90848435947657
 30
0.0
 40
8.25
 50
77.924803836954695
 51
18.66239316544431
  0
CIRCLE
  5
B65
  8
0
 10
504.85170847932102
 20
460.90848435947657
 30
0.0
 40
11.5
  0
CIRCLE
  5
B66
  8
0
 10
504.85170847932102
 20
460.90848435947657
 30
0.0
 40
8.4999999999999574
  0
CIRCLE
  5
B67
  8
0
 10
504.85170847932102
 20
460.9084843594764
 30
0.0
 40
6.5
  0
CIRCLE
  5
B68
  8
0
 10
504.85170847932102
 20
460.90848435947657
 30
0.0
 40
7.5
  0
LINE
  5
B69
  8
CENTER
  6
CENTER
 10
504.85170847932108
 20
473.40848435947669
 30
0.0
 11
504.85170847932102
 21
448.40848435947669
 31
0.0
  0
LINE
  5
B6A
  8
0
 10
632.35170847932102
 20
505.40848435947657
 30
0.0
 11
632.35170847932113
 21
430.40848435947657
 31
0.0
  0
LINE
  5
B6B
  8
CENTER
  6
CENTER
 10
677.35170847932102
 20
561.40848435947657
 30
0.0
 11
677.35170847932113
 21
417.40848435947657
 31
0.0
  0
ARC
  5
B6C
  8
0
 10
386.59611940789551
 20
446.2751767066926
 30
0.0
 40
1.5
 50
117.99456173225229
 51
180.0
  0
ARC
  5
B6D
  8
0
 10
386.59611940789551
 20
434.90848435947652
 30
0.0
 40
1.5
 50
180.0
 51
270.0
  0
LINE
  5
B6E
  8
0
  6
CONTINUOUS
 10
385.0961194078954
 20
420.4084843594764
 30
0.0
 11
386.0961194078954
 21
421.4084843594764
 31
0.0
  0
LINE
  5
B6F
  8
0
 10
377.59611940789551
 20
433.40848435947652
 30
0.0
 11
393.4245519914034
 21
433.40848435947652
 31
0.0
  0
LINE
  5
B70
  8
0
 10
403.0961194078954
 20
430.90848435947652
 30
0.0
 11
347.0961194078954
 21
430.90848435947652
 31
0.0
  0
LINE
  5
B71
  8
0
  6
CONTINUOUS
 10
386.0961194078954
 20
421.4084843594764
 30
0.0
 11
304.0961194078954
 21
421.4084843594764
 31
0.0
  0
LINE
  5
B72
  8
0
  6
CONTINUOUS
 10
412.5961194078954
 20
430.40848435947652
 30
0.0
 11
302.59611940789529
 21
430.40848435947652
 31
0.0
  0
LINE
  5
B73
  8
0
  6
CONTINUOUS
 10
385.0961194078954
 20
420.4084843594764
 30
0.0
 11
305.0961194078954
 21
420.4084843594764
 31
0.0
  0
LINE
  5
B74
  8
CENTER
  6
CENTER
 10
310.0961194078954
 20
428.12830299669389
 30
0.0
 11
310.0961194078954
 21
442.12830299669389
 31
0.0
  0
LINE
  5
B75
  8
0
 10
304.0961194078954
 20
421.4084843594764
 30
0.0
 11
304.0961194078954
 21
430.40848435947652
 31
0.0
  0
LINE
  5
B76
  8
0
  6
CONTINUOUS
 10
305.0961194078954
 20
420.4084843594764
 30
0.0
 11
304.0961194078954
 21
421.4084843594764
 31
0.0
  0
ARC
  5
B77
  8
0
 10
352.43276092532841
 20
449.1342131734354
 30
0.0
 40
1.5
 50
239.4775121859314
 51
315.0
  0
LINE
  5
B78
  8
0
 10
342.0961194078954
 20
457.90848435947629
 30
0.0
 11
353.46281175511149
 21
457.90848435947629
 31
0.0
  0
LINE
  5
B79
  8
CENTER
  6
CENTER
 10
354.3461194078954
 20
439.65848435947652
 30
0.0
 11
339.3461194078954
 21
439.65848435947652
 31
0.0
  0
CIRCLE
  5
B7A
  8
0
 10
346.8461194078954
 20
439.65848435947652
 30
0.0
 40
6.5
  0
LINE
  5
B7B
  8
CENTER
  6
CENTER
 10
346.8461194078954
 20
447.15848435947652
 30
0.0
 11
346.8461194078954
 21
432.15848435947652
 31
0.0
  0
ARC
  5
B7C
  8
0
  6
CONTINUOUS
 62
     2
 10
346.8461194078954
 20
439.65848435947652
 30
0.0
 40
4.0
 50
165.54611884332431
 51
122.22581883937571
  0
CIRCLE
  5
B7D
  8
0
  6
CONTINUOUS
 10
346.8461194078954
 20
439.65848435947652
 30
0.0
 40
3.399999999999999
  0
POLYLINE
  5
B7E
  8
0
  6
CONTINUOUS
 66
     1
 10
0.0
 20
0.0
 30
0.0
 70
     1
  0
VERTEX
  5
140E
  8
0
  6
CONTINUOUS
 10
349.15552048465389
 20
443.65848435947652
 30
0.0
  0
VERTEX
  5
140F
  8
0
  6
CONTINUOUS
 10
351.46492156141238
 20
439.65848435947652
 30
0.0
  0
VERTEX
  5
1410
  8
0
  6
CONTINUOUS
 10
349.15552048465389
 20
435.65848435947652
 30
0.0
  0
VERTEX
  5
1411
  8
0
  6
CONTINUOUS
 10
344.53671833113691
 20
435.65848435947652
 30
0.0
  0
VERTEX
  5
1412
  8
0
  6
CONTINUOUS
 10
342.22731725437842
 20
439.65848435947652
 30
0.0
  0
VERTEX
  5
1413
  8
0
  6
CONTINUOUS
 10
344.53671833113691
 20
443.65848435947652
 30
0.0
  0
SEQEND
  5
1414
  8
0
  6
CONTINUOUS
  0
ARC
  5
B86
  8
0
 10
347.0961194078954
 20
439.9084843594764
 30
0.0
 40
9.5
 50
180.0
 51
270.0
  0
ARC
  5
B87
  8
0
 10
347.0961194078954
 20
439.9084843594764
 30
0.0
 40
9.0
 50
180.0
 51
270.0
  0
ARC
  5
B88
  8
0
 10
346.8461194078954
 20
439.65848435947652
 30
0.0
 40
9.5
 50
59.477512185930138
 51
115.58300197739329
  0
ARC
  5
B89
  8
0
 10
342.0961194078954
 20
449.58005177596851
 30
0.0
 40
1.5
 50
180.0
 51
295.58300197742682
  0
ARC
  5
B8A
  8
0
 10
342.0961194078954
 20
456.4084843594764
 30
0.0
 40
1.5
 50
90.0
 51
180.0
  0
LINE
  5
B8B
  8
0
 10
365.0961194078954
 20
434.90848435947652
 30
0.0
 11
365.0961194078954
 21
446.2751767066926
 31
0.0
  0
ARC
  5
B8C
  8
0
 10
346.8461194078954
 20
439.65848435947652
 30
0.0
 40
9.5
 50
334.41699802262252
 51
30.52248781407032
  0
LINE
  5
B8D
  8
0
 10
376.09611940789551
 20
434.90848435947652
 30
0.0
 11
376.09611940789551
 21
443.5363691455687
 31
0.0
  0
LINE
  5
B8E
  8
0
 10
385.09611940789551
 20
434.90848435947652
 30
0.0
 11
385.09611940789551
 21
446.2751767066926
 31
0.0
  0
LINE
  5
B8F
  8
0
 10
374.0961194078954
 20
434.90848435947652
 30
0.0
 11
374.0961194078954
 21
443.5363691455687
 31
0.0
  0
LINE
  5
B90
  8
CENTER
  6
CENTER
 10
380.0961194078954
 20
428.12830299669378
 30
0.0
 11
380.0961194078954
 21
442.12830299669378
 31
0.0
  0
LINE
  5
B91
  8
0
 10
372.5961194078954
 20
433.40848435947652
 30
0.0
 11
356.76768682438751
 21
433.40848435947652
 31
0.0
  0
ARC
  5
B92
  8
0
 10
356.76768682438751
 20
434.90848435947652
 30
0.0
 40
1.5
 50
154.41699802259049
 51
270.0
  0
ARC
  5
B93
  8
0
 10
363.5961194078954
 20
434.90848435947652
 30
0.0
 40
1.5
 50
270.0
 51
0.0
  0
ARC
  5
B94
  8
0
 10
377.59611940789551
 20
434.90848435947652
 30
0.0
 40
1.5
 50
180.0
 51
270.0
  0
ARC
  5
B95
  8
0
 10
372.5961194078954
 20
434.90848435947652
 30
0.0
 40
1.5
 50
270.0
 51
0.0
  0
ARC
  5
B96
  8
0
 10
355.93693809280938
 20
452.63839034091649
 30
0.0
 40
1.5
 50
315.0
 51
38.555259660229609
  0
ARC
  5
B97
  8
0
 10
359.82602538933543
 20
448.74930304439062
 30
0.0
 40
1.5
 50
51.444740339770391
 51
135.0
  0
LINE
  5
B98
  8
0
 10
356.99759826458939
 20
451.5777301691366
 30
0.0
 11
353.49342109710818
 21
448.07355300165563
 31
0.0
  0
LINE
  5
B99
  8
0
 10
358.7653652175556
 20
449.8099632161705
 30
0.0
 11
355.2611880500744
 21
446.3057860486893
 31
0.0
  0
ARC
  5
B9A
  8
0
 10
356.3218482218544
 20
445.24512587690941
 30
0.0
 40
1.5
 50
135.0
 51
210.52248781406999
  0
ARC
  5
B9B
  8
0
 10
363.5961194078954
 20
446.2751767066926
 30
0.0
 40
1.5
 50
0.0
 51
62.005438267747621
  0
ARC
  5
B9C
  8
0
 10
353.46281175511149
 20
456.4084843594764
 30
0.0
 40
1.5
 50
27.994561732252372
 51
90.0
  0
ARC
  5
B9D
  8
0
 10
377.59611940789551
 20
443.5363691455687
 30
0.0
 40
1.5
 50
95.856701909919025
 51
180.0
  0
ARC
  5
B9E
  8
0
 10
372.5961194078954
 20
443.5363691455687
 30
0.0
 40
1.5
 50
0.0
 51
84.143298090080961
  0
LINE
  5
B9F
  8
CENTER
  6
CENTER
 10
677.35170847932113
 20
188.06269280771829
 30
0.0
 11
677.35170847932113
 21
304.06269280771841
 31
0.0
  0
LINE
  5
BA0
  8
0
 10
632.35170847932102
 20
191.06269280771829
 30
0.0
 11
632.35170847932113
 21
301.06269280771841
 31
0.0
  0
LINE
  5
BA1
  8
CENTER
  6
CENTER
 10
649.42099062245245
 20
205.6319749508497
 30
0.0
 11
657.90627199669086
 21
214.11725632508819
 31
0.0
  0
LINE
  5
BA2
  8
CENTER
  6
CENTER
 10
635.35170847932113
 20
198.56269280771841
 30
0.0
 11
649.35170847932113
 21
198.56269280771841
 31
0.0
  0
LINE
  5
BA3
  8
CENTER
  6
CENTER
 10
642.35170847932113
 20
191.56269280771841
 30
0.0
 11
642.35170847932113
 21
205.56269280771841
 31
0.0
  0
ARC
  5
BA4
  8
0
  6
CONTINUOUS
 62
     2
 10
642.35170847932113
 20
198.56269280771841
 30
0.0
 40
4.0
 50
335.22857957427379
 51
294.32248297488059
  0
CIRCLE
  5
BA5
  8
0
  6
CONTINUOUS
 10
642.35170847932113
 20
198.56269280771841
 30
0.0
 40
3.399999999999999
  0
LINE
  5
BA6
  8
0
 10
632.35170847932091
 20
228.56269280771841
 30
0.0
 11
520.85170847932113
 21
228.56269280771841
 31
0.0
  0
LINE
  5
BA7
  8
0
 10
632.35170847932113
 20
298.56269280771829
 30
0.0
 11
520.85170847932113
 21
298.56269280771829
 31
0.0
  0
LINE
  5
BA8
  8
0
 10
632.35170847932113
 20
282.35280226629169
 30
0.0
 11
520.85170847932113
 21
282.35280226629169
 31
0.0
  0
LINE
  5
BA9
  8
0
 10
632.35170847932113
 20
244.7725833491449
 30
0.0
 11
520.85170847932113
 21
244.7725833491449
 31
0.0
  0
LINE
  5
BAA
  8
0
 10
632.35170847932113
 20
449.11837490090318
 30
0.0
 11
520.85170847932113
 21
449.11837490090318
 31
0.0
  0
LINE
  5
BAB
  8
0
 10
632.35170847932113
 20
432.90848435947669
 30
0.0
 11
520.85170847932113
 21
432.90848435947669
 31
0.0
  0
LINE
  5
BAC
  8
0
 10
520.85170847932113
 20
226.06269280771829
 30
0.0
 11
520.85170847932102
 21
301.06269280771829
 31
0.0
  0
LINE
  5
BAD
  8
0
 10
488.85170847932108
 20
226.56269280771829
 30
0.0
 11
488.85170847932102
 21
300.56269280771829
 31
0.0
  0
LINE
  5
BAE
  8
0
 10
520.85170847932102
 20
226.06269280771829
 30
0.0
 11
488.85170847932102
 21
226.56269280771829
 31
0.0
  0
LINE
  5
BAF
  8
0
 10
483.85170847932102
 20
242.06269280771841
 30
0.0
 11
483.85170847932102
 21
285.06269280771841
 31
0.0
  0
ARC
  5
BB0
  8
0
 10
484.85170847932091
 20
242.06269280771841
 30
0.0
 40
1.0
 50
180.0
 51
270.0
  0
LINE
  5
BB1
  8
0
 10
488.85170847932108
 20
241.06269280771841
 30
0.0
 11
484.85170847932091
 21
241.06269280771841
 31
0.0
  0
ARC
  5
BB2
  8
0
 10
484.85170847932091
 20
285.06269280771841
 30
0.0
 40
1.0
 50
90.0
 51
180.0
  0
LINE
  5
BB3
  8
0
 10
488.85170847932102
 20
286.06269280771841
 30
0.0
 11
484.85170847932091
 21
286.06269280771841
 31
0.0
  0
LINE
  5
BB4
  8
0
 10
520.85170847932113
 20
228.56269280771829
 30
0.0
 11
520.85170847932113
 21
298.56269280771829
 31
0.0
  0
LINE
  5
BB5
  8
0
 10
520.85170847932102
 20
301.06269280771829
 30
0.0
 11
488.85170847932102
 21
300.56269280771829
 31
0.0
  0
SOLID
  5
BB6
  8
DIM
  6
CONTINUOUS
 10
491.85170847932108
 20
337.90848435947652
 30
0.0
 11
491.85170847932108
 21
336.90848435947657
 31
0.0
 12
488.85170847932102
 22
337.40848435947652
 32
0.0
 13
488.85170847932102
 23
337.40848435947652
 33
0.0
  0
LINE
  5
BB7
  8
0
 10
520.85170847932102
 20
430.40848435947657
 30
0.0
 11
488.85170847932102
 21
430.90848435947657
 31
0.0
  0
LINE
  5
BB8
  8
DIM
  6
CONTINUOUS
 10
483.85170847932108
 20
444.33076143528677
 30
0.0
 11
483.85170847932108
 21
335.51893875943421
 31
0.0
  0
LINE
  5
BB9
  8
DIM
  6
CONTINUOUS
 10
488.85170847932108
 20
429.90848435947657
 30
0.0
 11
488.85170847932102
 21
335.75830570412921
 31
0.0
  0
TEXT
  5
BBA
  8
DIM
  6
CONTINUOUS
 10
476.63083984878023
 20
338.90848435947657
 30
0.0
 40
3.0
  1
5
  7
ROMANSS
 72
     1
 11
477.63083984878023
 21
340.40848435947652
 31
0.0
 73
     2
  0
SOLID
  5
BBC
  8
DIM
  6
CONTINUOUS
 10
480.85170847932091
 20
337.90848435947652
 30
0.0
 11
480.85170847932091
 21
336.90848435947657
 31
0.0
 12
483.85170847932102
 22
337.40848435947652
 32
0.0
 13
483.85170847932102
 23
337.40848435947652
 33
0.0
  0
LINE
  5
BBD
  8
CENTER
  6
CENTER
 10
401.45909957959611
 20
448.40848435947657
 30
0.0
 11
423.5961194078954
 21
448.40848435947657
 31
0.0
  0
LINE
  5
BBE
  8
0
  6
CONTINUOUS
 10
417.5961194078954
 20
443.40848435947657
 30
0.0
 11
419.0961194078954
 21
443.40848435947657
 31
0.0
  0
LINE
  5
BBF
  8
0
  6
CONTINUOUS
 10
417.5961194078954
 20
453.40848435947657
 30
0.0
 11
419.0961194078954
 21
453.40848435947657
 31
0.0
  0
LINE
  5
BC0
  8
0
  6
CONTINUOUS
 62
     2
 10
417.5961194078954
 20
444.40848435947657
 30
0.0
 11
420.09611940789551
 21
444.40848435947657
 31
0.0
  0
LINE
  5
BC1
  8
0
  6
CONTINUOUS
 62
     2
 10
417.5961194078954
 20
452.40848435947657
 30
0.0
 11
420.09611940789551
 21
452.40848435947657
 31
0.0
  0
ARC
  5
BC2
  8
0
  6
CONTINUOUS
 10
422.7683416301233
 20
444.15848435947669
 30
0.0
 40
10.19983357405331
 50
155.3752531507763
 51
204.62474684922361
  0
ARC
  5
BC3
  8
0
  6
CONTINUOUS
 10
407.42389718566739
 20
444.15848435947657
 30
0.0
 40
10.19983357405331
 50
335.37525315077369
 51
24.624746849226248
  0
LINE
  5
BC4
  8
0
  6
CONTINUOUS
 10
417.5961194078954
 20
439.90848435947657
 30
0.0
 11
417.5961194078954
 21
456.90848435947657
 31
0.0
  0
ARC
  5
BC5
  8
0
 10
403.3461194078954
 20
439.65848435947652
 30
0.0
 40
9.5
 50
149.47751218592961
 51
205.58300197738259
  0
LINE
  5
BC6
  8
CENTER
  6
CENTER
 10
403.3461194078954
 20
447.15848435947652
 30
0.0
 11
403.3461194078954
 21
432.15848435947652
 31
0.0
  0
CIRCLE
  5
BC7
  8
0
 10
403.3461194078954
 20
439.65848435947652
 30
0.0
 40
6.5
  0
ARC
  5
BC8
  8
0
  6
CONTINUOUS
 62
     2
 10
403.3461194078954
 20
439.65848435947652
 30
0.0
 40
4.0
 50
165.54611884332431
 51
122.22581883937571
  0
CIRCLE
  5
BC9
  8
0
  6
CONTINUOUS
 10
403.3461194078954
 20
439.65848435947652
 30
0.0
 40
3.399999999999999
  0
POLYLINE
  5
BCA
  8
0
  6
CONTINUOUS
 66
     1
 10
0.0
 20
0.0
 30
0.0
 70
     1
  0
VERTEX
  5
1415
  8
0
  6
CONTINUOUS
 10
405.65552048465389
 20
443.65848435947652
 30
0.0
  0
VERTEX
  5
1416
  8
0
  6
CONTINUOUS
 10
407.96492156141238
 20
439.65848435947652
 30
0.0
  0
VERTEX
  5
1417
  8
0
  6
CONTINUOUS
 10
405.65552048465389
 20
435.65848435947652
 30
0.0
  0
VERTEX
  5
1418
  8
0
  6
CONTINUOUS
 10
401.03671833113702
 20
435.65848435947652
 30
0.0
  0
VERTEX
  5
1419
  8
0
  6
CONTINUOUS
 10
398.72731725437842
 20
439.65848435947652
 30
0.0
  0
VERTEX
  5
141A
  8
0
  6
CONTINUOUS
 10
401.03671833113702
 20
443.65848435947652
 30
0.0
  0
SEQEND
  5
141B
  8
0
  6
CONTINUOUS
  0
LINE
  5
BD2
  8
CENTER
  6
CENTER
 10
410.8461194078954
 20
439.65848435947652
 30
0.0
 11
395.8461194078954
 21
439.65848435947652
 31
0.0
  0
LINE
  5
BD3
  8
0
 10
386.0961194078954
 20
421.4084843594764
 30
0.0
 11
386.0961194078954
 21
430.40848435947652
 31
0.0
  0
ARC
  5
BD4
  8
0
 10
393.4245519914034
 20
434.90848435947652
 30
0.0
 40
1.5
 50
270.0
 51
25.583001977414259
  0
ARC
  5
BD5
  8
0
 10
403.0961194078954
 20
439.9084843594764
 30
0.0
 40
9.5
 50
270.0
 51
0.0
  0
ARC
  5
BD6
  8
0
 10
403.0961194078954
 20
439.9084843594764
 30
0.0
 40
9.0
 50
270.0
 51
0.0
  0
LINE
  5
BD7
  8
0
  6
CONTINUOUS
 10
417.5961194078954
 20
439.90848435947657
 30
0.0
 11
412.59611940789551
 21
439.90848435947657
 31
0.0
  0
LINE
  5
BD8
  8
CENTER
  6
CENTER
 10
415.78741349123533
 20
460.90848435947657
 30
0.0
 11
392.12275607013788
 21
460.90848435947657
 31
0.0
  0
ARC
  5
BD9
  8
0
 10
403.3461194078954
 20
439.65848435947652
 30
0.0
 40
9.5
 50
64.416998022611963
 51
120.52248781407
  0
ARC
  5
BDA
  8
0
 10
394.2553007229813
 20
452.6383903409166
 30
0.0
 40
1.5
 50
141.44474033977031
 51
225.0
  0
LINE
  5
BDB
  8
0
 10
393.19464055120147
 20
451.5777301691366
 30
0.0
 11
396.69881771868262
 21
448.07355300165563
 31
0.0
  0
LINE
  5
BDC
  8
0
 10
391.4268735982352
 20
449.8099632161705
 30
0.0
 11
394.93105076571629
 21
446.3057860486893
 31
0.0
  0
ARC
  5
BDD
  8
0
 10
390.36621342645537
 20
448.74930304439062
 30
0.0
 40
1.5
 50
45.0
 51
128.55525966023259
  0
ARC
  5
BDE
  8
0
 10
397.75947789046239
 20
449.13421317343551
 30
0.0
 40
1.5
 50
225.0
 51
300.52248781406939
  0
ARC
  5
BDF
  8
0
 10
393.87039059393658
 20
445.24512587690941
 30
0.0
 40
1.5
 50
329.47751218592941
 51
45.0
  0
ARC
  5
BE0
  8
0
  6
CONTINUOUS
 10
422.7683416301233
 20
452.65848435947669
 30
0.0
 40
10.19983357405331
 50
155.3752531507763
 51
204.62474684922361
  0
ARC
  5
BE1
  8
0
  6
CONTINUOUS
 10
407.42389718566739
 20
452.65848435947657
 30
0.0
 40
10.19983357405331
 50
335.37525315077369
 51
24.624746849225819
  0
ARC
  5
BE2
  8
0
 10
408.0961194078954
 20
449.58005177596851
 30
0.0
 40
1.5
 50
244.4169980225808
 51
0.0
  0
LINE
  5
BE3
  8
0
  6
CONTINUOUS
 10
410.5961194078954
 20
448.40848435947657
 30
0.0
 11
416.69611940789571
 21
448.40848435947657
 31
0.0
  0
LINE
  5
BE4
  8
0
  6
CONTINUOUS
 10
410.5961194078954
 20
448.40848435947657
 30
0.0
 11
416.69611940789571
 21
448.40848435947657
 31
0.0
  0
LINE
  5
BE5
  8
0
  6
CONTINUOUS
 10
417.5961194078954
 20
456.90848435947657
 30
0.0
 11
412.59611940789551
 21
456.90848435947657
 31
0.0
  0
LINE
  5
BE6
  8
0
  6
CONTINUOUS
 10
419.0961194078954
 20
453.40848435947657
 30
0.0
 11
420.5961194078954
 21
451.90848435947657
 31
0.0
  0
LINE
  5
BE7
  8
0
  6
CONTINUOUS
 10
419.0961194078954
 20
443.40848435947657
 30
0.0
 11
419.0961194078954
 21
453.40848435947657
 31
0.0
  0
LINE
  5
BE8
  8
0
  6
CONTINUOUS
 10
420.5961194078954
 20
444.90848435947657
 30
0.0
 11
420.5961194078954
 21
451.90848435947657
 31
0.0
  0
LINE
  5
BE9
  8
0
  6
CONTINUOUS
 10
419.0961194078954
 20
443.40848435947657
 30
0.0
 11
420.5961194078954
 21
444.90848435947657
 31
0.0
  0
LINE
  5
BEA
  8
0
 10
488.85170847932108
 20
445.40848435947669
 30
0.0
 11
485.85170847932102
 21
445.40848435947669
 31
0.0
  0
ARC
  5
BEB
  8
0
 10
485.74051726647542
 20
447.68610193378561
 30
0.0
 40
2.2803300858899109
 50
214.074988904782
 51
272.79490874106079
  0
LINE
  5
BEC
  8
CENTER
  6
CENTER
 10
517.35170847932102
 20
460.90848435947657
 30
0.0
 11
492.35170847932102
 21
460.90848435947669
 31
0.0
  0
LINE
  5
BED
  8
CENTER
  6
CENTER
 10
655.85170847932113
 20
288.23632487302018
 30
0.0
 11
655.85170847932113
 21
312.83113327857029
 31
0.0
  0
CIRCLE
  5
BEE
  8
0
  6
CONTINUOUS
 10
653.66363130957166
 20
209.8746156379691
 30
0.0
 40
2.5
  0
ARC
  5
BEF
  8
0
  6
CONTINUOUS
 62
     2
 10
653.66363130957166
 20
209.8746156379691
 30
0.0
 40
3.0
 50
206.96359889101501
 51
149.15498767399501
  0
LINE
  5
BF0
  8
CENTER
  6
CENTER
 10
635.35170847932113
 20
268.56269280771841
 30
0.0
 11
649.35170847932113
 21
268.56269280771841
 31
0.0
  0
LINE
  5
BF1
  8
CENTER
  6
CENTER
 10
642.35170847932113
 20
261.56269280771841
 30
0.0
 11
642.35170847932113
 21
275.56269280771841
 31
0.0
  0
ARC
  5
BF2
  8
0
  6
CONTINUOUS
 62
     2
 10
642.35170847932113
 20
268.56269280771841
 30
0.0
 40
4.0
 50
335.22857957427448
 51
294.32248297488059
  0
CIRCLE
  5
BF3
  8
0
  6
CONTINUOUS
 10
642.35170847932113
 20
268.56269280771841
 30
0.0
 40
3.399999999999999
  0
LINE
  5
BF4
  8
DIM
  6
CONTINUOUS
 10
632.35170847932113
 20
429.40848435947657
 30
0.0
 11
632.35170847932113
 21
344.01286155719492
 31
0.0
  0
LINE
  5
BF5
  8
DIM
  6
CONTINUOUS
 10
636.35170847932113
 20
420.40848435947657
 30
0.0
 11
636.35170847932102
 21
351.78391435533831
 31
0.0
  0
LINE
  5
BF6
  8
0
  6
CONTINUOUS
 10
659.35170847931875
 20
309.06269280771841
 30
0.0
 11
652.35170847931875
 21
309.06269280771841
 31
0.0
  0
ARC
  5
BF7
  8
0
  6
CONTINUOUS
 10
655.8577482701736
 20
291.06269402368758
 30
0.0
 40
14.999999999999989
 50
90.023070302298393
 51
109.4956922330535
  0
LINE
  5
BF8
  8
0
  6
CONTINUOUS
 10
664.10170847931886
 20
306.06269280771841
 30
0.0
 11
647.60170847931875
 21
306.06269280771841
 31
0.0
  0
LINE
  5
BF9
  8
0
  6
CONTINUOUS
 10
660.85170847931875
 20
307.56269280771841
 30
0.0
 11
650.85170847931875
 21
307.56269280771841
 31
0.0
  0
ARC
  5
BFA
  8
0
  6
CONTINUOUS
 10
655.85774827011835
 20
316.06269159174929
 30
0.0
 40
14.999999999999989
 50
250.50430776694591
 51
269.97692969770111
  0
LINE
  5
BFB
  8
0
  6
CONTINUOUS
 62
     2
 10
651.85170847931875
 20
306.06269280771841
 30
0.0
 11
651.85170847931875
 21
308.56269280771841
 31
0.0
  0
LINE
  5
BFC
  8
0
  6
CONTINUOUS
 10
646.05170847931947
 20
305.16777363912689
 30
0.0
 11
647.60170847931886
 21
306.06269280771841
 31
0.0
  0
ARC
  5
BFD
  8
0
  6
CONTINUOUS
 10
648.54524926582144
 20
302.54091472432827
 30
0.0
 40
3.5220472269320542
 50
49.090720066529649
 51
119.2051441578367
  0
LINE
  5
BFE
  8
0
  6
CONTINUOUS
 10
650.85170847931875
 20
306.06269280771841
 30
0.0
 11
650.85170847931875
 21
307.56269280771841
 31
0.0
  0
ARC
  5
BFF
  8
0
  6
CONTINUOUS
 10
648.54524926576596
 20
304.58447089110842
 30
0.0
 40
3.5220472269320542
 50
240.79485584216269
 51
310.90927993347032
  0
LINE
  5
C00
  8
0
  6
CONTINUOUS
 10
646.05170847926422
 20
301.95761197630992
 30
0.0
 11
647.60170847926338
 21
301.06269280771841
 31
0.0
  0
LINE
  5
C01
  8
0
  6
CONTINUOUS
 10
646.05170847931947
 20
301.95761197627797
 30
0.0
 11
646.05170847931947
 21
305.16777363912689
 31
0.0
  0
LINE
  5
C02
  8
0
  6
CONTINUOUS
 10
650.85170847931875
 20
301.92269280769932
 30
0.0
 11
650.85170847931875
 21
305.20269280771782
 31
0.0
  0
LINE
  5
C03
  8
0
  6
CONTINUOUS
 10
650.85170847931875
 20
307.56269280771841
 30
0.0
 11
652.35170847931875
 21
309.06269280771841
 31
0.0
  0
SOLID
  5
C04
  8
DIM
  6
CONTINUOUS
 10
639.35170847932113
 20
353.90848435947657
 30
0.0
 11
639.35170847932113
 21
352.90848435947657
 31
0.0
 12
636.35170847932113
 22
353.40848435947657
 32
0.0
 13
636.35170847932113
 23
353.40848435947657
 33
0.0
  0
SOLID
  5
C05
  8
DIM
  6
CONTINUOUS
 10
635.35170847932113
 20
345.90848435947657
 30
0.0
 11
635.35170847932113
 21
344.90848435947657
 31
0.0
 12
632.35170847932113
 22
345.40848435947657
 32
0.0
 13
632.35170847932113
 23
345.40848435947657
 33
0.0
  0
ARC
  5
C06
  8
0
  6
CONTINUOUS
 10
663.15816769281628
 20
302.54091472432827
 30
0.0
 40
3.5220472269320542
 50
60.794855842163209
 51
130.90927993347029
  0
ARC
  5
C07
  8
0
  6
CONTINUOUS
 10
663.15816769276091
 20
304.58447089110842
 30
0.0
 40
3.5220472269320542
 50
229.0907200665296
 51
299.2051441578372
  0
LINE
  5
C08
  8
0
  6
CONTINUOUS
 62
     2
 10
659.85170847931875
 20
306.06269280771841
 30
0.0
 11
659.85170847931875
 21
308.56269280771841
 31
0.0
  0
LINE
  5
C09
  8
0
  6
CONTINUOUS
 10
660.85170847931875
 20
306.06269280771841
 30
0.0
 11
660.85170847931875
 21
307.56269280771841
 31
0.0
  0
LINE
  5
C0A
  8
0
  6
CONTINUOUS
 10
660.85170847931875
 20
307.56269280771841
 30
0.0
 11
659.35170847931875
 21
309.06269280771841
 31
0.0
  0
LINE
  5
C0B
  8
0
  6
CONTINUOUS
 10
660.85170847931875
 20
301.9226928077386
 30
0.0
 11
660.85170847931875
 21
305.20269280771782
 31
0.0
  0
ARC
  5
C0C
  8
0
  6
CONTINUOUS
 10
655.84566868846366
 20
291.06269402368758
 30
0.0
 40
14.999999999999989
 50
70.504307766945473
 51
89.976929697700726
  0
ARC
  5
C0D
  8
0
  6
CONTINUOUS
 10
655.84566868840852
 20
316.06269159174929
 30
0.0
 40
14.999999999999989
 50
270.02307030229878
 51
289.49569223305389
  0
LINE
  5
C0E
  8
0
  6
CONTINUOUS
 10
665.65170847931813
 20
305.16777363912689
 30
0.0
 11
664.10170847931886
 21
306.06269280771841
 31
0.0
  0
LINE
  5
C0F
  8
0
  6
CONTINUOUS
 10
665.65170847926277
 20
301.95761197630992
 30
0.0
 11
664.10170847926338
 21
301.06269280771841
 31
0.0
  0
LINE
  5
C10
  8
0
  6
CONTINUOUS
 10
665.65170847931813
 20
301.95761197634192
 30
0.0
 11
665.65170847931813
 21
305.16777363912689
 31
0.0
  0
TEXT
  5
C11
  8
DIM
  6
CONTINUOUS
 10
674.92313705074957
 20
346.90848435947657
 30
0.0
 40
3.0
  1
90
  7
ROMANSS
 72
     1
 11
677.35170847932113
 21
348.40848435947657
 31
0.0
 73
     2
  0
TEXT
  5
C12
  8
DIM
  6
CONTINUOUS
 10
673.49456562217824
 20
338.90848435947657
 30
0.0
 40
3.0
  1
377
  7
ROMANSS
 72
     1
 11
677.35170847932113
 21
340.40848435947652
 31
0.0
 73
     2
  0
TEXT
  5
C13
  8
DIM
  6
CONTINUOUS
 10
673.56599419360668
 20
354.90848435947657
 30
0.0
 40
3.0
  1
%%c82
  7
ROMANSS
 72
     1
 11
677.35170847932113
 21
356.40848435947657
 31
0.0
 73
     2
  0
POLYLINE
  5
C14
  8
0
  6
CONTINUOUS
 66
     1
 10
0.0
 20
0.0
 30
0.0
 70
     1
  0
VERTEX
  5
141C
  8
0
  6
CONTINUOUS
 10
650.95170847932138
 20
456.8955333165643
 30
0.0
  0
VERTEX
  5
141D
  8
0
  6
CONTINUOUS
 10
646.05170847932175
 20
448.40848435947657
 30
0.0
  0
VERTEX
  5
141E
  8
0
  6
CONTINUOUS
 10
650.95170847932138
 20
439.92143540238902
 30
0.0
  0
VERTEX
  5
141F
  8
0
  6
CONTINUOUS
 10
660.75170847932065
 20
439.92143540238902
 30
0.0
  0
VERTEX
  5
1420
  8
0
  6
CONTINUOUS
 10
665.6517084793204
 20
448.40848435947657
 30
0.0
  0
VERTEX
  5
1421
  8
0
  6
CONTINUOUS
 10
660.75170847932065
 20
456.8955333165643
 30
0.0
  0
SEQEND
  5
1422
  8
0
  6
CONTINUOUS
  0
CIRCLE
  5
C1C
  8
0
  6
CONTINUOUS
 10
655.85170847932113
 20
448.40848435947657
 30
0.0
 40
8.25
  0
POLYLINE
  5
C1D
  8
0
  6
CONTINUOUS
 66
     1
 10
0.0
 20
0.0
 30
0.0
 70
     1
  0
VERTEX
  5
1423
  8
0
  6
CONTINUOUS
 10
654.40833280634706
 20
450.90848435947669
 30
0.0
  0
VERTEX
  5
1424
  8
0
  6
CONTINUOUS
 10
652.96495713337288
 20
448.40848435947657
 30
0.0
  0
VERTEX
  5
1425
  8
0
  6
CONTINUOUS
 10
654.40833280634706
 20
445.90848435947669
 30
0.0
  0
VERTEX
  5
1426
  8
0
  6
CONTINUOUS
 10
657.2950841522952
 20
445.90848435947669
 30
0.0
  0
VERTEX
  5
1427
  8
0
  6
CONTINUOUS
 10
658.73845982526916
 20
448.40848435947657
 30
0.0
  0
VERTEX
  5
1428
  8
0
  6
CONTINUOUS
 10
657.2950841522952
 20
450.90848435947669
 30
0.0
  0
SEQEND
  5
1429
  8
0
  6
CONTINUOUS
  0
ARC
  5
C25
  8
0
  6
CONTINUOUS
 62
     2
 10
655.85170847932113
 20
448.40848435947657
 30
0.0
 40
4.25
 50
69.487813016515403
 51
22.414620147484769
  0
CIRCLE
  5
C26
  8
0
  6
CONTINUOUS
 10
655.85170847932113
 20
448.40848435947657
 30
0.0
 40
5.0
  0
LINE
  5
C27
  8
CENTER
  6
CENTER
 10
640.85170847932113
 20
448.40848435947657
 30
0.0
 11
670.85170847932113
 21
448.40848435947657
 31
0.0
  0
LINE
  5
C28
  8
CENTER
  6
CENTER
 10
642.35170847932113
 20
428.128302996694
 30
0.0
 11
642.35170847932113
 21
446.2613400215339
 31
0.0
  0
LINE
  5
C29
  8
0
  6
CONTINUOUS
 10
636.35170847932113
 20
421.40848435947657
 30
0.0
 11
637.35170847932113
 21
420.40848435947657
 31
0.0
  0
LINE
  5
C2A
  8
0
 10
636.35170847932113
 20
430.40848435947657
 30
0.0
 11
636.35170847932113
 21
421.40848435947657
 31
0.0
  0
LINE
  5
C2B
  8
CENTER
  6
CENTER
 10
655.85170847932113
 20
463.40848435947669
 30
0.0
 11
655.85170847932113
 21
433.40848435947669
 31
0.0
  0
LINE
  5
C2C
  8
0
  6
CONTINUOUS
 10
385.0961194078954
 20
515.40848435947657
 30
0.0
 11
386.0961194078954
 21
514.40848435947657
 31
0.0
  0
ARC
  5
C2D
  8
0
 10
386.59611940789551
 20
500.90848435947652
 30
0.0
 40
1.5
 50
90.0
 51
180.0
  0
ARC
  5
C2E
  8
0
 10
386.59611940789551
 20
489.54179201226037
 30
0.0
 40
1.5
 50
180.0
 51
242.00543826774759
  0
LINE
  5
C2F
  8
0
 10
377.59611940789551
 20
502.4084843594764
 30
0.0
 11
393.4245519914034
 21
502.4084843594764
 31
0.0
  0
LINE
  5
C30
  8
CENTER
  6
CENTER
 10
415.59611940789563
 20
467.90848435947657
 30
0.0
 11
299.5961194078954
 21
467.90848435947652
 31
0.0
  0
LINE
  5
C31
  8
0
 10
403.0961194078954
 20
504.90848435947652
 30
0.0
 11
347.0961194078954
 21
504.90848435947652
 31
0.0
  0
LINE
  5
C32
  8
0
  6
CONTINUOUS
 10
386.0961194078954
 20
514.40848435947657
 30
0.0
 11
304.0961194078954
 21
514.40848435947657
 31
0.0
  0
LINE
  5
C33
  8
0
  6
CONTINUOUS
 10
412.5961194078954
 20
505.40848435947657
 30
0.0
 11
302.59611940789529
 21
505.40848435947657
 31
0.0
  0
LINE
  5
C34
  8
0
 10
333.09611940789551
 20
557.40848435947669
 30
0.0
 11
333.0961194078954
 21
516.40848435947669
 31
0.0
  0
LINE
  5
C35
  8
0
 10
357.09611940789551
 20
557.40848435947669
 30
0.0
 11
357.09611940789551
 21
516.40848435947669
 31
0.0
  0
LINE
  5
C36
  8
0
  6
CONTINUOUS
 10
385.0961194078954
 20
515.40848435947657
 30
0.0
 11
305.0961194078954
 21
515.40848435947657
 31
0.0
  0
LINE
  5
C37
  8
0
 10
304.0961194078954
 20
514.40848435947657
 30
0.0
 11
304.0961194078954
 21
505.40848435947657
 31
0.0
  0
LINE
  5
C38
  8
CENTER
  6
CENTER
 10
310.0961194078954
 20
507.6886657222592
 30
0.0
 11
310.0961194078954
 21
493.68866572225932
 31
0.0
  0
LINE
  5
C39
  8
0
  6
CONTINUOUS
 10
305.0961194078954
 20
515.40848435947657
 30
0.0
 11
304.0961194078954
 21
514.40848435947657
 31
0.0
  0
ARC
  5
C3A
  8
0
 10
352.43276092532818
 20
486.68275554551741
 30
0.0
 40
1.5
 50
45.0
 51
120.5224878140705
  0
LINE
  5
C3B
  8
CENTER
  6
CENTER
 10
354.3461194078954
 20
496.1584843594764
 30
0.0
 11
339.3461194078954
 21
496.1584843594764
 31
0.0
  0
CIRCLE
  5
C3C
  8
0
 10
346.8461194078954
 20
496.1584843594764
 30
0.0
 40
6.5
  0
ARC
  5
C3D
  8
0
 10
350.72400419398758
 20
465.40848435947629
 30
0.0
 40
1.5
 50
5.8567019099191491
 51
90.0
  0
ARC
  5
C3E
  8
0
 10
350.72400419398758
 20
470.40848435947652
 30
0.0
 40
1.5
 50
270.0
 51
354.1432980900808
  0
LINE
  5
C3F
  8
0
 10
342.0961194078954
 20
477.90848435947652
 30
0.0
 11
353.46281175511149
 21
477.90848435947652
 31
0.0
  0
ARC
  5
C40
  8
0
 10
346.8461194078954
 20
496.1584843594764
 30
0.0
 40
9.5
 50
244.41699802261189
 51
300.52248781407019
  0
ARC
  5
C41
  8
0
 10
342.0961194078954
 20
486.23691694298441
 30
0.0
 40
1.5
 50
64.416998022577985
 51
180.0
  0
LINE
  5
C42
  8
0
 10
340.5961194078954
 20
470.40848435947652
 30
0.0
 11
340.5961194078954
 21
486.23691694298441
 31
0.0
  0
LINE
  5
C43
  8
0
 10
342.0961194078954
 20
466.9084843594764
 30
0.0
 11
350.72400419398758
 21
466.9084843594764
 31
0.0
  0
LINE
  5
C44
  8
0
 10
342.0961194078954
 20
468.9084843594764
 30
0.0
 11
350.72400419398758
 21
468.9084843594764
 31
0.0
  0
ARC
  5
C45
  8
0
 10
342.0961194078954
 20
465.40848435947629
 30
0.0
 40
1.5
 50
90.0
 51
180.0
  0
ARC
  5
C46
  8
0
 10
342.0961194078954
 20
470.40848435947652
 30
0.0
 40
1.5
 50
180.0
 51
270.0
  0
ARC
  5
C47
  8
0
 10
342.0961194078954
 20
479.40848435947652
 30
0.0
 40
1.5
 50
180.0
 51
270.0
  0
ARC
  5
C48
  8
0
 10
347.0961194078954
 20
495.90848435947652
 30
0.0
 40
9.5
 50
90.0
 51
180.0
  0
ARC
  5
C49
  8
0
 10
347.0961194078954
 20
495.90848435947652
 30
0.0
 40
9.0
 50
90.0
 51
180.0
  0
LINE
  5
C4A
  8
CENTER
  6
CENTER
 10
346.8461194078954
 20
503.65848435947652
 30
0.0
 11
346.8461194078954
 21
488.65848435947652
 31
0.0
  0
ARC
  5
C4B
  8
0
  6
CONTINUOUS
 62
     2
 10
346.8461194078954
 20
496.1584843594764
 30
0.0
 40
4.0
 50
165.54611884332431
 51
122.22581883937571
  0
CIRCLE
  5
C4C
  8
0
  6
CONTINUOUS
 10
346.8461194078954
 20
496.1584843594764
 30
0.0
 40
3.399999999999999
  0
POLYLINE
  5
C4D
  8
0
  6
CONTINUOUS
 66
     1
 10
0.0
 20
0.0
 30
0.0
 70
     1
  0
VERTEX
  5
142A
  8
0
  6
CONTINUOUS
 10
349.15552048465389
 20
500.1584843594764
 30
0.0
  0
VERTEX
  5
142B
  8
0
  6
CONTINUOUS
 10
351.46492156141238
 20
496.1584843594764
 30
0.0
  0
VERTEX
  5
142C
  8
0
  6
CONTINUOUS
 10
349.15552048465389
 20
492.1584843594764
 30
0.0
  0
VERTEX
  5
142D
  8
0
  6
CONTINUOUS
 10
344.53671833113691
 20
492.1584843594764
 30
0.0
  0
VERTEX
  5
142E
  8
0
  6
CONTINUOUS
 10
342.22731725437842
 20
496.1584843594764
 30
0.0
  0
VERTEX
  5
142F
  8
0
  6
CONTINUOUS
 10
344.53671833113691
 20
500.1584843594764
 30
0.0
  0
SEQEND
  5
1430
  8
0
  6
CONTINUOUS
  0
LINE
  5
C55
  8
0
 10
358.7653652175556
 20
486.00700550278259
 30
0.0
 11
355.2611880500744
 21
489.51118267026368
 31
0.0
  0
LINE
  5
C56
  8
0
 10
356.99759826458921
 20
484.23923854981632
 30
0.0
 11
353.49342109710818
 21
487.74341571729741
 31
0.0
  0
ARC
  5
C57
  8
0
 10
359.82602538933543
 20
487.06766567456242
 30
0.0
 40
1.5
 50
225.0
 51
308.55525966022958
  0
ARC
  5
C58
  8
0
 10
355.93693809280938
 20
483.17857837803638
 30
0.0
 40
1.5
 50
321.44474033977031
 51
45.0
  0
ARC
  5
C59
  8
0
 10
353.46281175511149
 20
479.40848435947652
 30
0.0
 40
1.5
 50
270.0
 51
332.00543826774759
  0
LINE
  5
C5A
  8
0
 10
372.5961194078954
 20
502.4084843594764
 30
0.0
 11
356.76768682438751
 21
502.4084843594764
 31
0.0
  0
LINE
  5
C5B
  8
0
 10
365.0961194078954
 20
500.90848435947652
 30
0.0
 11
365.0961194078954
 21
489.54179201226037
 31
0.0
  0
ARC
  5
C5C
  8
0
 10
346.8461194078954
 20
496.1584843594764
 30
0.0
 40
9.5
 50
329.47751218592958
 51
25.583001977382661
  0
ARC
  5
C5D
  8
0
 10
356.3218482218544
 20
490.57184284204351
 30
0.0
 40
1.5
 50
149.4775121859299
 51
225.0
  0
ARC
  5
C5E
  8
0
 10
363.5961194078954
 20
489.54179201226037
 30
0.0
 40
1.5
 50
297.99456173225229
 51
0.0
  0
ARC
  5
C5F
  8
0
 10
356.76768682438751
 20
500.90848435947652
 30
0.0
 40
1.5
 50
90.0
 51
205.5830019774171
  0
ARC
  5
C60
  8
0
 10
363.5961194078954
 20
500.90848435947652
 30
0.0
 40
1.5
 50
0.0
 51
90.0
  0
LINE
  5
C61
  8
0
 10
374.0961194078954
 20
500.90848435947652
 30
0.0
 11
374.0961194078954
 21
492.28059957338428
 31
0.0
  0
LINE
  5
C62
  8
0
 10
376.09611940789551
 20
500.90848435947652
 30
0.0
 11
376.09611940789551
 21
492.28059957338428
 31
0.0
  0
LINE
  5
C63
  8
CENTER
  6
CENTER
 10
380.0961194078954
 20
507.6886657222592
 30
0.0
 11
380.0961194078954
 21
493.68866572225932
 31
0.0
  0
LINE
  5
C64
  8
0
 10
385.09611940789551
 20
500.90848435947652
 30
0.0
 11
385.09611940789551
 21
489.54179201226037
 31
0.0
  0
ARC
  5
C65
  8
0
 10
377.59611940789551
 20
492.28059957338428
 30
0.0
 40
1.5
 50
180.0
 51
264.14329809008092
  0
ARC
  5
C66
  8
0
 10
372.5961194078954
 20
492.28059957338428
 30
0.0
 40
1.5
 50
275.85670190991902
 51
0.0
  0
ARC
  5
C67
  8
0
 10
377.59611940789551
 20
500.90848435947652
 30
0.0
 40
1.5
 50
90.0
 51
180.0
  0
ARC
  5
C68
  8
0
 10
372.5961194078954
 20
500.90848435947652
 30
0.0
 40
1.5
 50
0.0
 51
90.0
  0
LINE
  5
C69
  8
0
  6
CONTINUOUS
 10
360.0961194078954
 20
516.40848435947646
 30
0.0
 11
330.0961194078954
 21
516.40848435947669
 31
0.0
  0
LINE
  5
C6A
  8
0
 10
341.09611940789551
 20
551.40848435947657
 30
0.0
 11
341.09611940789551
 21
523.40848435947657
 31
0.0
  0
LINE
  5
C6B
  8
0
 10
349.09611940789551
 20
551.40848435947657
 30
0.0
 11
349.09611940789551
 21
523.40848435947657
 31
0.0
  0
LINE
  5
C6C
  8
0
 10
330.0961194078954
 20
516.40848435947669
 30
0.0
 11
330.0961194078954
 21
515.40848435947657
 31
0.0
  0
ARC
  5
C6D
  8
0
  6
CONTINUOUS
 10
345.09611940789551
 20
523.40848435947657
 30
0.0
 40
4.0
 50
180.0
 51
0.0
  0
ARC
  5
C6E
  8
0
  6
CONTINUOUS
 10
345.09611940789551
 20
551.40848435947657
 30
0.0
 40
4.0
 50
0.0
 51
180.0
  0
LINE
  5
C6F
  8
0
 10
360.0961194078954
 20
516.40848435947669
 30
0.0
 11
360.09611940789551
 21
515.40848435947657
 31
0.0
  0
LINE
  5
C70
  8
0
  6
CONTINUOUS
 10
357.09611940789551
 20
557.40848435947669
 30
0.0
 11
333.09611940789551
 21
557.40848435947669
 31
0.0
  0
LINE
  5
C71
  8
0
  6
CONTINUOUS
 10
356.09611940789551
 20
558.40848435947669
 30
0.0
 11
334.09611940789551
 21
558.40848435947669
 31
0.0
  0
LINE
  5
C72
  8
0
  6
CONTINUOUS
 10
334.09611940789551
 20
558.40848435947669
 30
0.0
 11
333.09611940789551
 21
557.40848435947669
 31
0.0
  0
LINE
  5
C73
  8
0
  6
CONTINUOUS
 10
356.09611940789551
 20
558.40848435947669
 30
0.0
 11
357.09611940789551
 21
557.40848435947669
 31
0.0
  0
LINE
  5
C74
  8
0
 10
488.85170847932108
 20
685.10338403307117
 30
0.0
 11
488.85170847932102
 21
611.10338403307117
 31
0.0
  0
LINE
  5
C75
  8
0
 10
483.85170847932102
 20
669.60338403307105
 30
0.0
 11
483.85170847932102
 21
626.60338403307105
 31
0.0
  0
LINE
  5
C76
  8
0
 10
520.85170847932113
 20
685.60338403307117
 30
0.0
 11
520.85170847932102
 21
610.60338403307117
 31
0.0
  0
LINE
  5
C77
  8
0
 10
520.85170847932113
 20
683.10338403307128
 30
0.0
 11
520.85170847932113
 21
613.10338403307117
 31
0.0
  0
LINE
  5
C78
  8
0
 10
632.35170847932102
 20
720.60338403307128
 30
0.0
 11
632.35170847932113
 21
610.60338403307105
 31
0.0
  0
LINE
  5
C79
  8
CENTER
  6
CENTER
 10
677.35170847932113
 20
723.60338403307117
 30
0.0
 11
677.35170847932113
 21
607.60338403307105
 31
0.0
  0
LINE
  5
C7A
  8
0
 10
632.35170847932113
 20
666.89349349164456
 30
0.0
 11
520.85170847932113
 21
666.89349349164456
 31
0.0
  0
LINE
  5
C7B
  8
0
 10
632.35170847932113
 20
629.31327457449777
 30
0.0
 11
520.85170847932113
 21
629.31327457449777
 31
0.0
  0
LINE
  5
C7C
  8
0
 10
632.35170847932113
 20
613.10338403307117
 30
0.0
 11
520.85170847932113
 21
613.10338403307117
 31
0.0
  0
LINE
  5
C7D
  8
0
 10
632.35170847932113
 20
502.90848435947657
 30
0.0
 11
520.85170847932113
 21
502.90848435947657
 31
0.0
  0
LINE
  5
C7E
  8
0
 10
632.35170847932113
 20
486.69859381805003
 30
0.0
 11
520.85170847932113
 21
486.69859381805003
 31
0.0
  0
LINE
  5
C7F
  8
0
 10
520.85170847932102
 20
505.40848435947657
 30
0.0
 11
488.85170847932102
 21
504.90848435947669
 31
0.0
  0
LINE
  5
C80
  8
0
 10
386.0961194078954
 20
514.40848435947657
 30
0.0
 11
386.0961194078954
 21
505.40848435947657
 31
0.0
  0
LINE
  5
C81
  8
0
 10
391.4268735982352
 20
486.00700550278259
 30
0.0
 11
394.93105076571629
 21
489.51118267026368
 31
0.0
  0
LINE
  5
C82
  8
0
 10
393.50765960169258
 20
484.55225760030709
 30
0.0
 11
396.69881771868262
 21
487.74341571729741
 31
0.0
  0
ARC
  5
C83
  8
0
 10
408.09611940789551
 20
486.23691694298441
 30
0.0
 40
1.5
 50
0.0
 51
115.5830019773997
  0
ARC
  5
C84
  8
0
 10
403.3461194078954
 20
496.1584843594764
 30
0.0
 40
9.5
 50
239.47751218592961
 51
295.58300197739902
  0
LINE
  5
C85
  8
CENTER
  6
CENTER
 10
415.6508413396636
 20
476.90848435947657
 30
0.0
 11
392.12275607013788
 21
476.90848435947657
 31
0.0
  0
LINE
  5
C86
  8
0
 10
408.0961194078954
 20
466.90848435947652
 30
0.0
 11
399.46823462180322
 21
466.90848435947652
 31
0.0
  0
LINE
  5
C87
  8
0
 10
408.09611940789551
 20
468.9084843594764
 30
0.0
 11
399.91546669987707
 21
468.9084843594764
 31
0.0
  0
LINE
  5
C88
  8
0
 10
408.0961194078954
 20
473.40848435947657
 30
0.0
 11
398.94459944331902
 21
473.40848435947657
 31
0.0
  0
ARC
  5
C89
  8
0
 10
399.46823462180322
 20
465.40848435947652
 30
0.0
 40
1.5
 50
90.0
 51
174.14329809008089
  0
ARC
  5
C8A
  8
0
 10
399.91546669987707
 20
470.90848435947652
 30
0.0
 40
2.0
 50
186.89210257934661
 51
270.0
  0
ARC
  5
C8B
  8
0
 10
398.94459944331902
 20
475.40848435947657
 30
0.0
 40
2.0
 50
197.45760312372269
 51
270.0
  0
ARC
  5
C8C
  8
0
 10
394.92187316406569
 20
483.13804403793409
 30
0.0
 40
2.0
 50
134.99999999999881
 51
217.53040768358301
  0
ARC
  5
C8D
  8
0
 10
390.36621342645537
 20
487.06766567456242
 30
0.0
 40
1.5
 50
231.44474033976729
 51
315.0
  0
LINE
  5
C8E
  8
0
 10
409.59611940789551
 20
486.23691694298441
 30
0.0
 11
409.59611940789551
 21
470.40848435947652
 31
0.0
  0
ARC
  5
C8F
  8
0
 10
408.09611940789551
 20
470.40848435947652
 30
0.0
 40
1.5
 50
270.0
 51
0.0
  0
ARC
  5
C90
  8
0
 10
408.0961194078954
 20
465.40848435947652
 30
0.0
 40
1.5
 50
0.0
 51
90.0
  0
ARC
  5
C91
  8
0
 10
408.0961194078954
 20
474.90848435947657
 30
0.0
 40
1.5
 50
270.0
 51
0.0
  0
LINE
  5
C92
  8
CENTER
  6
CENTER
 10
410.8461194078954
 20
496.1584843594764
 30
0.0
 11
395.8461194078954
 21
496.1584843594764
 31
0.0
  0
CIRCLE
  5
C93
  8
0
 10
403.3461194078954
 20
496.1584843594764
 30
0.0
 40
6.5
  0
ARC
  5
C94
  8
0
  6
CONTINUOUS
 62
     2
 10
403.3461194078954
 20
496.1584843594764
 30
0.0
 40
4.0
 50
165.54611884332431
 51
122.22581883937571
  0
CIRCLE
  5
C95
  8
0
  6
CONTINUOUS
 10
403.3461194078954
 20
496.1584843594764
 30
0.0
 40
3.399999999999999
  0
POLYLINE
  5
C96
  8
0
  6
CONTINUOUS
 66
     1
 10
0.0
 20
0.0
 30
0.0
 70
     1
  0
VERTEX
  5
1431
  8
0
  6
CONTINUOUS
 10
405.65552048465389
 20
500.1584843594764
 30
0.0
  0
VERTEX
  5
1432
  8
0
  6
CONTINUOUS
 10
407.96492156141238
 20
496.1584843594764
 30
0.0
  0
VERTEX
  5
1433
  8
0
  6
CONTINUOUS
 10
405.65552048465389
 20
492.1584843594764
 30
0.0
  0
VERTEX
  5
1434
  8
0
  6
CONTINUOUS
 10
401.03671833113702
 20
492.1584843594764
 30
0.0
  0
VERTEX
  5
1435
  8
0
  6
CONTINUOUS
 10
398.72731725437842
 20
496.1584843594764
 30
0.0
  0
VERTEX
  5
1436
  8
0
  6
CONTINUOUS
 10
401.03671833113702
 20
500.1584843594764
 30
0.0
  0
SEQEND
  5
1437
  8
0
  6
CONTINUOUS
  0
ARC
  5
C9E
  8
0
 10
403.3461194078954
 20
496.1584843594764
 30
0.0
 40
9.5
 50
154.41699802261189
 51
210.5224878140703
  0
ARC
  5
C9F
  8
0
 10
397.75947789046239
 20
486.68275554551758
 30
0.0
 40
1.5
 50
59.477512185929427
 51
135.00000000000151
  0
ARC
  5
CA0
  8
0
 10
393.87039059393658
 20
490.57184284204351
 30
0.0
 40
1.5
 50
315.0
 51
30.522487814070569
  0
ARC
  5
CA1
  8
0
 10
393.4245519914034
 20
500.90848435947652
 30
0.0
 40
1.5
 50
334.4169980225779
 51
90.0
  0
ARC
  5
CA2
  8
0
 10
403.0961194078954
 20
495.90848435947652
 30
0.0
 40
9.5
 50
0.0
 51
90.0
  0
ARC
  5
CA3
  8
0
 10
403.0961194078954
 20
495.90848435947652
 30
0.0
 40
9.0
 50
0.0
 51
90.0
  0
LINE
  5
CA4
  8
CENTER
  6
CENTER
 10
403.3461194078954
 20
503.65848435947652
 30
0.0
 11
403.3461194078954
 21
488.65848435947652
 31
0.0
  0
LINE
  5
CA5
  8
0
 10
412.59611940789551
 20
492.90848435947652
 30
0.0
 11
412.09611940789551
 21
492.90848435947652
 31
0.0
  0
ARC
  5
CA6
  8
0
 10
485.74051726647542
 20
488.13086678516783
 30
0.0
 40
2.2803300858899109
 50
87.205091258939149
 51
145.92501109521791
  0
LINE
  5
CA7
  8
0
 10
488.85170847932102
 20
490.40848435947669
 30
0.0
 11
485.85170847932102
 21
490.40848435947669
 31
0.0
  0
ARC
  5
CA8
  8
0
  6
CONTINUOUS
 10
513.85170847932102
 20
476.90848435947657
 30
0.0
 40
3.5
 50
158.2132107017386
 51
201.78678929826131
  0
ARC
  5
CA9
  8
0
  6
CONTINUOUS
 10
513.85170847932102
 20
476.90848435947657
 30
0.0
 40
3.5
 50
338.21321070173769
 51
21.786789298262239
  0
LINE
  5
CAA
  8
CENTER
  6
CENTER
 10
513.85170847932102
 20
483.40848435947657
 30
0.0
 11
513.85170847932102
 21
470.40848435947657
 31
0.0
  0
CIRCLE
  5
CAB
  8
0
  6
CONTINUOUS
 10
513.85170847932102
 20
476.90848435947657
 30
0.0
 40
2.5
  0
CIRCLE
  5
CAC
  8
0
 10
513.85170847932102
 20
476.90848435947657
 30
0.0
 40
5.0
  0
CIRCLE
  5
CAD
  8
0
 10
513.85170847932102
 20
476.90848435947657
 30
0.0
 40
5.2999999999999989
  0
POLYLINE
  5
CAE
  8
0
  6
CONTINUOUS
 66
     1
 10
0.0
 20
0.0
 30
0.0
 70
     1
  0
VERTEX
  5
1438
  8
0
  6
CONTINUOUS
 10
514.71773388310544
 20
475.40848435947657
 30
0.0
  0
VERTEX
  5
1439
  8
0
  6
CONTINUOUS
 10
515.58375928688974
 20
476.90848435947657
 30
0.0
  0
VERTEX
  5
143A
  8
0
  6
CONTINUOUS
 10
514.71773388310544
 20
478.40848435947657
 30
0.0
  0
VERTEX
  5
143B
  8
0
  6
CONTINUOUS
 10
512.9856830755366
 20
478.40848435947657
 30
0.0
  0
VERTEX
  5
143C
  8
0
  6
CONTINUOUS
 10
512.11965767175218
 20
476.90848435947657
 30
0.0
  0
VERTEX
  5
143D
  8
0
  6
CONTINUOUS
 10
512.9856830755366
 20
475.40848435947657
 30
0.0
  0
SEQEND
  5
143E
  8
0
  6
CONTINUOUS
  0
LINE
  5
CB6
  8
0
  6
CONTINUOUS
 10
510.60170847932102
 20
475.60944625379989
 30
0.0
 11
509.29328649441737
 21
474.85402846860222
 31
0.0
  0
LINE
  5
CB7
  8
0
  6
CONTINUOUS
 10
511.10170847932102
 20
474.74342085001553
 30
0.0
 11
509.79328649441737
 21
473.9880030648178
 31
0.0
  0
LINE
  5
CB8
  8
0
  6
CONTINUOUS
 10
513.35170847932102
 20
471.93354717394351
 30
0.0
 11
513.35170847932102
 21
473.44438274433878
 31
0.0
  0
ARC
  5
CB9
  8
0
  6
CONTINUOUS
 10
513.85170847932102
 20
476.90848435947657
 30
0.0
 40
3.5
 50
218.21321070173829
 51
261.78678929826179
  0
LINE
  5
CBA
  8
0
  6
CONTINUOUS
 10
514.35170847932091
 20
471.93354717394351
 30
0.0
 11
514.35170847932091
 21
473.44438274433878
 31
0.0
  0
LINE
  5
CBB
  8
0
  6
CONTINUOUS
 10
517.10170847932102
 20
475.60944625379989
 30
0.0
 11
518.41013046422438
 21
474.85402846860222
 31
0.0
  0
ARC
  5
CBC
  8
0
  6
CONTINUOUS
 10
513.85170847932102
 20
476.90848435947657
 30
0.0
 40
3.5
 50
278.21321070173809
 51
321.78678929826242
  0
LINE
  5
CBD
  8
0
  6
CONTINUOUS
 10
516.60170847932091
 20
474.74342085001553
 30
0.0
 11
517.91013046422449
 21
473.9880030648178
 31
0.0
  0
LINE
  5
CBE
  8
CENTER
  6
CENTER
 10
520.35170847932125
 20
476.90848435947657
 30
0.0
 11
507.35170847932108
 21
476.90848435947657
 31
0.0
  0
LINE
  5
CBF
  8
0
  6
CONTINUOUS
 10
509.29328649441737
 20
478.96294025035098
 30
0.0
 11
510.60170847932102
 21
478.20752246515332
 31
0.0
  0
LINE
  5
CC0
  8
0
  6
CONTINUOUS
 10
509.79328649441737
 20
479.8289656541354
 30
0.0
 11
511.10170847932102
 21
479.07354786893768
 31
0.0
  0
LINE
  5
CC1
  8
0
  6
CONTINUOUS
 10
513.35170847932102
 20
480.37258597461442
 30
0.0
 11
513.35170847932102
 21
481.8834215450097
 31
0.0
  0
ARC
  5
CC2
  8
0
  6
CONTINUOUS
 10
513.85170847932102
 20
476.90848435947657
 30
0.0
 40
3.5
 50
98.213210701738234
 51
141.7867892982616
  0
ARC
  5
CC3
  8
0
  6
CONTINUOUS
 10
513.85170847932102
 20
476.90848435947657
 30
0.0
 40
3.5
 50
38.213210701738312
 51
81.786789298261766
  0
LINE
  5
CC4
  8
0
  6
CONTINUOUS
 10
517.91013046422449
 20
479.8289656541354
 30
0.0
 11
516.60170847932091
 21
479.07354786893768
 31
0.0
  0
LINE
  5
CC5
  8
0
  6
CONTINUOUS
 10
514.35170847932091
 20
480.37258597461442
 30
0.0
 11
514.35170847932091
 21
481.8834215450097
 31
0.0
  0
LINE
  5
CC6
  8
0
  6
CONTINUOUS
 10
518.41013046422438
 20
478.96294025035098
 30
0.0
 11
517.10170847932102
 21
478.20752246515332
 31
0.0
  0
LINE
  5
CC7
  8
HIDDEN
  6
HIDDEN
 10
488.85170847932108
 20
615.85338403307117
 30
0.0
 11
506.85170847932108
 21
615.85338403307117
 31
0.0
  0
LINE
  5
CC8
  8
HIDDEN
  6
HIDDEN
 10
488.85170847932102
 20
623.85338403307117
 30
0.0
 11
506.85170847932108
 21
623.85338403307117
 31
0.0
  0
LINE
  5
CC9
  8
0
 10
520.85170847932102
 20
610.60338403307117
 30
0.0
 11
488.85170847932102
 21
611.10338403307117
 31
0.0
  0
LINE
  5
CCA
  8
CENTER
  6
CENTER
 10
520.85170847932113
 20
619.85338403307105
 30
0.0
 11
485.85170847932102
 21
619.85338403307105
 31
0.0
  0
LINE
  5
CCB
  8
0
 10
488.85170847932102
 20
625.60338403307105
 30
0.0
 11
484.85170847932091
 21
625.60338403307105
 31
0.0
  0
ARC
  5
CCC
  8
0
 10
484.85170847932091
 20
626.60338403307105
 30
0.0
 40
1.0
 50
180.0
 51
270.0
  0
LINE
  5
CCD
  8
HIDDEN
  6
HIDDEN
 10
494.85170847932108
 20
615.85338403307117
 30
0.0
 11
494.85170847932108
 21
623.85338403307117
 31
0.0
  0
LINE
  5
CCE
  8
HIDDEN
  6
HIDDEN
 10
509.85170847932108
 20
623.25338403307114
 30
0.0
 11
511.81469939456582
 21
619.85338403307117
 31
0.0
  0
LINE
  5
CCF
  8
HIDDEN
  6
HIDDEN
 10
509.85170847932108
 20
616.45338403307119
 30
0.0
 11
509.85170847932108
 21
623.25338403307114
 31
0.0
  0
LINE
  5
CD0
  8
HIDDEN
  6
HIDDEN
 10
506.85170847932108
 20
615.85338403307117
 30
0.0
 11
506.85170847932108
 21
623.85338403307117
 31
0.0
  0
LINE
  5
CD1
  8
CENTER
  6
CENTER
 10
504.85170847932119
 20
607.84905334961365
 30
0.0
 11
504.85170847932108
 21
627.62347785337715
 31
0.0
  0
LINE
  5
CD2
  8
HIDDEN
  6
HIDDEN
 10
494.85170847932108
 20
616.45338403307119
 30
0.0
 11
509.85170847932108
 21
616.45338403307119
 31
0.0
  0
LINE
  5
CD3
  8
CENTER
  6
CENTER
 10
513.85170847932102
 20
608.07091514228273
 30
0.0
 11
513.85170847932113
 21
627.81589419726834
 31
0.0
  0
LINE
  5
CD4
  8
HIDDEN
  6
HIDDEN
 10
509.85170847932108
 20
616.45338403307119
 30
0.0
 11
511.81469939456582
 21
619.85338403307117
 31
0.0
  0
LINE
  5
CD5
  8
HIDDEN
  6
HIDDEN
 10
494.85170847932108
 20
623.25338403307114
 30
0.0
 11
509.85170847932108
 21
623.25338403307114
 31
0.0
  0
LINE
  5
CD6
  8
DIM
  6
CONTINUOUS
 10
662.35170847932091
 20
556.40848435947657
 30
0.0
 11
662.35170847932091
 21
575.40848435947669
 31
0.0
  0
SOLID
  5
CD7
  8
DIM
  6
CONTINUOUS
 10
615.85170847932102
 20
555.40848435947657
 30
0.0
 11
616.85170847932102
 21
555.40848435947657
 31
0.0
 12
616.35170847932102
 22
558.40848435947669
 32
0.0
 13
616.35170847932102
 23
558.40848435947669
 33
0.0
  0
LINE
  5
CD8
  8
0
 10
665.35170847932079
 20
557.40848435947669
 30
0.0
 11
665.35170847932079
 21
516.40848435947669
 31
0.0
  0
LINE
  5
CD9
  8
DIM
  6
CONTINUOUS
 10
636.35823510690454
 20
515.40848435947657
 30
0.0
 11
615.35170847932079
 21
515.40848435947657
 31
0.0
  0
LINE
  5
CDA
  8
DIM
  6
CONTINUOUS
 10
661.35170847932102
 20
516.40848435947669
 30
0.0
 11
615.35170847932102
 21
516.40848435947669
 31
0.0
  0
TEXT
  5
CDB
  8
DIM
  6
CONTINUOUS
 10
622.85170847932102
 20
535.05134150233368
 30
0.0
 40
3.0
  1
36
 50
90.0
  7
ROMANSS
 72
     1
 11
621.35170847932102
 21
537.40848435947669
 31
0.0
 73
     2
  0
LINE
  5
CDC
  8
DIM
  6
CONTINUOUS
 10
616.35170847932102
 20
555.40848435947657
 30
0.0
 11
616.35170847932102
 21
508.34930729563638
 31
0.0
  0
TEXT
  5
CDD
  8
DIM
  6
CONTINUOUS
 10
614.85170847932102
 20
509.56969536901391
 30
0.0
 40
3.0
  1
1
 50
90.0
  7
ROMANSS
 72
     1
 11
613.35170847932102
 21
509.92683822615669
 31
0.0
 73
     2
  0
SOLID
  5
CDE
  8
DIM
  6
CONTINUOUS
 10
615.85170847932091
 20
512.40848435947669
 30
0.0
 11
616.85170847932091
 21
512.40848435947669
 31
0.0
 12
616.35170847932091
 22
515.40848435947657
 32
0.0
 13
616.35170847932091
 23
515.40848435947657
 33
0.0
  0
SOLID
  5
CDF
  8
DIM
  6
CONTINUOUS
 10
615.85170847932102
 20
519.40848435947657
 30
0.0
 11
616.85170847932102
 21
519.40848435947657
 31
0.0
 12
616.35170847932102
 22
516.40848435947669
 32
0.0
 13
616.35170847932102
 23
516.40848435947669
 33
0.0
  0
TEXT
  5
CE0
  8
DIM
  6
CONTINUOUS
 10
614.85170847932102
 20
534.97991293090524
 30
0.0
 40
3.0
  1
42
 50
90.0
  7
ROMANSS
 72
     1
 11
613.35170847932102
 21
537.40848435947669
 31
0.0
 73
     2
  0
LINE
  5
CE1
  8
0
 10
636.35170847932113
 20
514.40848435947657
 30
0.0
 11
636.35170847932113
 21
505.40848435947657
 31
0.0
  0
LINE
  5
CE2
  8
CENTER
  6
CENTER
 10
642.35170847932113
 20
507.6886657222592
 30
0.0
 11
642.35170847932113
 21
490.0051159090375
 31
0.0
  0
POLYLINE
  5
CE3
  8
0
  6
CONTINUOUS
 66
     1
 10
0.0
 20
0.0
 30
0.0
 70
     1
 40
1.0
 41
1.0
  0
VERTEX
  5
143F
  8
0
  6
CONTINUOUS
 10
677.85170847932102
 20
467.90848435947657
 30
0.0
 42
1.0
  0
VERTEX
  5
1440
  8
0
  6
CONTINUOUS
 10
676.85170847932091
 20
467.90848435947657
 30
0.0
 42
1.0
  0
SEQEND
  5
1441
  8
0
  6
CONTINUOUS
  0
LINE
  5
CE7
  8
DIM
  6
CONTINUOUS
 10
661.35170847932079
 20
519.40848435947657
 30
0.0
 11
623.35170847932102
 21
519.40848435947657
 31
0.0
  0
LINE
  5
CE8
  8
DIM
  6
CONTINUOUS
 10
661.35170847932079
 20
555.40848435947657
 30
0.0
 11
623.35170847932102
 21
555.40848435947657
 31
0.0
  0
LINE
  5
CE9
  8
DIM
  6
CONTINUOUS
 10
624.35170847932102
 20
552.40848435947657
 30
0.0
 11
624.35170847932102
 21
522.40848435947657
 31
0.0
  0
LINE
  5
CEA
  8
0
  6
CONTINUOUS
 10
637.35170847932113
 20
515.40848435947657
 30
0.0
 11
636.35170847932113
 21
514.40848435947657
 31
0.0
  0
SOLID
  5
CEB
  8
DIM
  6
CONTINUOUS
 10
623.85170847932102
 20
522.40848435947657
 30
0.0
 11
624.85170847932102
 21
522.40848435947657
 31
0.0
 12
624.35170847932102
 22
519.40848435947657
 32
0.0
 13
624.35170847932102
 23
519.40848435947657
 33
0.0
  0
SOLID
  5
CEC
  8
DIM
  6
CONTINUOUS
 10
623.85170847932102
 20
552.40848435947657
 30
0.0
 11
624.85170847932102
 21
552.40848435947657
 31
0.0
 12
624.35170847932102
 22
555.40848435947657
 32
0.0
 13
624.35170847932102
 23
555.40848435947657
 33
0.0
  0
LINE
  5
CED
  8
0
 10
662.35170847932091
 20
555.40848435947657
 30
0.0
 11
662.35170847932091
 21
519.40848435947657
 31
0.0
  0
LINE
  5
CEE
  8
0
  6
CONTINUOUS
 10
662.35170847932091
 20
519.40848435947657
 30
0.0
 11
665.35170847932079
 21
519.40848435947657
 31
0.0
  0
LINE
  5
CEF
  8
0
 10
662.35170847932102
 20
516.40848435947669
 30
0.0
 11
662.35170847932091
 21
515.40848435947657
 31
0.0
  0
LINE
  5
CF0
  8
0
  6
CONTINUOUS
 10
662.35170847932091
 20
555.40848435947657
 30
0.0
 11
665.35170847932102
 21
555.40848435947657
 31
0.0
  0
LINE
  5
CF1
  8
DIM
  6
CONTINUOUS
 10
665.35170847932079
 20
558.40848435947669
 30
0.0
 11
615.35170847932102
 21
558.40848435947669
 31
0.0
  0
LINE
  5
CF2
  8
CENTER
  6
CENTER
 10
655.85170847932113
 20
623.42975196776933
 30
0.0
 11
655.85170847932113
 21
598.83494356221922
 31
0.0
  0
ARC
  5
CF3
  8
0
  6
CONTINUOUS
 10
655.85774827011835
 20
595.60338524904023
 30
0.0
 40
14.999999999999989
 50
90.023070302298805
 51
109.495692233054
  0
LINE
  5
CF4
  8
0
  6
CONTINUOUS
 10
659.35170847931875
 20
602.60338403307105
 30
0.0
 11
652.35170847931875
 21
602.60338403307105
 31
0.0
  0
ARC
  5
CF5
  8
0
  6
CONTINUOUS
 10
655.8577482701736
 20
620.60338281710176
 30
0.0
 40
14.999999999999989
 50
250.50430776694631
 51
269.97692969770151
  0
LINE
  5
CF6
  8
0
  6
CONTINUOUS
 10
664.10170847931886
 20
605.60338403307105
 30
0.0
 11
647.60170847931875
 21
605.60338403307105
 31
0.0
  0
LINE
  5
CF7
  8
0
  6
CONTINUOUS
 10
660.85170847931875
 20
604.10338403307105
 30
0.0
 11
650.85170847931875
 21
604.10338403307105
 31
0.0
  0
LINE
  5
CF8
  8
0
  6
CONTINUOUS
 10
646.05170847926422
 20
609.70846486447954
 30
0.0
 11
647.60170847926338
 21
610.60338403307105
 31
0.0
  0
ARC
  5
CF9
  8
0
  6
CONTINUOUS
 10
648.54524926576596
 20
607.08160594968103
 30
0.0
 40
3.5220472269320542
 50
49.090720066529038
 51
119.2051441578358
  0
LINE
  5
CFA
  8
0
  6
CONTINUOUS
 10
650.85170847931875
 20
604.10338403307105
 30
0.0
 11
652.35170847931875
 21
602.60338403307105
 31
0.0
  0
LINE
  5
CFB
  8
0
  6
CONTINUOUS
 10
650.85170847931875
 20
605.60338403307105
 30
0.0
 11
650.85170847931875
 21
604.10338403307105
 31
0.0
  0
ARC
  5
CFC
  8
0
  6
CONTINUOUS
 10
648.54524926582144
 20
609.12516211646118
 30
0.0
 40
3.5220472269320542
 50
240.79485584216391
 51
310.90927993346952
  0
LINE
  5
CFD
  8
0
  6
CONTINUOUS
 10
646.05170847931947
 20
606.49830320166245
 30
0.0
 11
647.60170847931886
 21
605.60338403307105
 31
0.0
  0
LINE
  5
CFE
  8
0
  6
CONTINUOUS
 10
646.05170847931947
 20
609.7084648645116
 30
0.0
 11
646.05170847931947
 21
606.49830320166245
 31
0.0
  0
LINE
  5
CFF
  8
0
  6
CONTINUOUS
 62
     2
 10
651.85170847931875
 20
605.60338403307105
 30
0.0
 11
651.85170847931875
 21
603.10338403307105
 31
0.0
  0
LINE
  5
D00
  8
0
  6
CONTINUOUS
 10
650.85170847931875
 20
609.74338403309025
 30
0.0
 11
650.85170847931875
 21
606.46338403307163
 31
0.0
  0
SOLID
  5
D01
  8
DIM
  6
CONTINUOUS
 10
668.35170847932091
 20
566.90848435947669
 30
0.0
 11
668.35170847932091
 21
565.90848435947669
 31
0.0
 12
665.35170847932079
 22
566.40848435947669
 32
0.0
 13
665.35170847932079
 23
566.40848435947669
 33
0.0
  0
LINE
  5
D02
  8
DIM
  6
CONTINUOUS
 10
665.35170847932079
 20
558.40848435947669
 30
0.0
 11
665.35170847932079
 21
567.40848435947669
 31
0.0
  0
LINE
  5
D03
  8
0
  6
CONTINUOUS
 10
666.35170847932091
 20
558.40848435947669
 30
0.0
 11
665.35170847932079
 21
557.40848435947669
 31
0.0
  0
SOLID
  5
D04
  8
DIM
  6
CONTINUOUS
 10
665.35170847932079
 20
574.90848435947669
 30
0.0
 11
665.35170847932079
 21
573.90848435947657
 31
0.0
 12
662.35170847932091
 22
574.40848435947669
 32
0.0
 13
662.35170847932091
 23
574.40848435947669
 33
0.0
  0
TEXT
  5
D05
  8
DIM
  6
CONTINUOUS
 10
670.85170847932091
 20
567.90848435947657
 30
0.0
 40
3.0
  1
%%c24h6
  7
ROMANSS
 72
     1
 11
677.35170847932079
 21
569.40848435947657
 31
0.0
 73
     2
  0
TEXT
  5
D06
  8
DIM
  6
CONTINUOUS
 10
673.42313705074935
 20
575.90848435947669
 30
0.0
 40
3.0
  1
27
  7
ROMANSS
 72
     1
 11
675.85170847932091
 21
577.40848435947657
 31
0.0
 73
     2
  0
ARC
  5
D07
  8
0
  6
CONTINUOUS
 10
663.15816769276091
 20
607.08160594968103
 30
0.0
 40
3.5220472269320542
 50
60.794855842164111
 51
130.90927993347091
  0
ARC
  5
D08
  8
0
  6
CONTINUOUS
 10
663.15816769281628
 20
609.12516211646118
 30
0.0
 40
3.5220472269320542
 50
229.09072006653039
 51
299.205144157836
  0
ARC
  5
D09
  8
0
  6
CONTINUOUS
 10
655.84566868840852
 20
595.60338524904023
 30
0.0
 40
14.999999999999989
 50
70.504307766945956
 51
89.976929697701195
  0
LINE
  5
D0A
  8
0
  6
CONTINUOUS
 10
660.85170847931875
 20
604.10338403307105
 30
0.0
 11
659.35170847931875
 21
602.60338403307105
 31
0.0
  0
LINE
  5
D0B
  8
0
  6
CONTINUOUS
 10
660.85170847931875
 20
605.60338403307105
 30
0.0
 11
660.85170847931875
 21
604.10338403307105
 31
0.0
  0
ARC
  5
D0C
  8
0
  6
CONTINUOUS
 10
655.84566868846366
 20
620.60338281710176
 30
0.0
 40
14.999999999999989
 50
270.02307030229929
 51
289.4956922330544
  0
LINE
  5
D0D
  8
0
  6
CONTINUOUS
 62
     2
 10
659.85170847931875
 20
605.60338403307105
 30
0.0
 11
659.85170847931875
 21
603.10338403307105
 31
0.0
  0
LINE
  5
D0E
  8
0
  6
CONTINUOUS
 10
660.85170847931875
 20
609.74338403305092
 30
0.0
 11
660.85170847931875
 21
606.46338403307163
 31
0.0
  0
LINE
  5
D0F
  8
0
  6
CONTINUOUS
 10
665.65170847926277
 20
609.70846486447954
 30
0.0
 11
664.10170847926338
 21
610.60338403307105
 31
0.0
  0
LINE
  5
D10
  8
0
  6
CONTINUOUS
 10
665.65170847931813
 20
606.49830320166245
 30
0.0
 11
664.10170847931886
 21
605.60338403307105
 31
0.0
  0
LINE
  5
D11
  8
0
  6
CONTINUOUS
 10
665.65170847931813
 20
609.70846486444771
 30
0.0
 11
665.65170847931813
 21
606.49830320166245
 31
0.0
  0
LINE
  5
D12
  8
CENTER
  6
CENTER
 10
642.35170847932113
 20
650.10338403307105
 30
0.0
 11
642.35170847932113
 21
636.10338403307105
 31
0.0
  0
CIRCLE
  5
D13
  8
0
  6
CONTINUOUS
 10
642.35170847932113
 20
643.10338403307105
 30
0.0
 40
3.399999999999999
  0
ARC
  5
D14
  8
0
  6
CONTINUOUS
 62
     2
 10
642.35170847932113
 20
643.10338403307105
 30
0.0
 40
4.0
 50
65.677517025119968
 51
24.771420425728412
  0
LINE
  5
D15
  8
CENTER
  6
CENTER
 10
635.35170847932113
 20
643.10338403307105
 30
0.0
 11
649.35170847932113
 21
643.10338403307105
 31
0.0
  0
LINE
  5
D16
  8
0
 10
632.35170847932091
 20
683.10338403307105
 30
0.0
 11
520.85170847932113
 21
683.10338403307105
 31
0.0
  0
LINE
  5
D17
  8
HIDDEN
  6
HIDDEN
 10
488.85170847932102
 20
672.35338403307105
 30
0.0
 11
506.85170847932108
 21
672.35338403307105
 31
0.0
  0
LINE
  5
D18
  8
HIDDEN
  6
HIDDEN
 10
488.85170847932108
 20
680.35338403307105
 30
0.0
 11
506.85170847932108
 21
680.35338403307105
 31
0.0
  0
LINE
  5
D19
  8
0
 10
520.85170847932102
 20
685.60338403307117
 30
0.0
 11
488.85170847932102
 21
685.10338403307117
 31
0.0
  0
LINE
  5
D1A
  8
CENTER
  6
CENTER
 10
520.85170847932113
 20
676.35338403307105
 30
0.0
 11
485.85170847932108
 21
676.35338403307105
 31
0.0
  0
ARC
  5
D1B
  8
0
 10
484.85170847932091
 20
669.60338403307105
 30
0.0
 40
1.0
 50
90.0
 51
180.0
  0
LINE
  5
D1C
  8
0
 10
488.85170847932108
 20
670.60338403307105
 30
0.0
 11
484.85170847932091
 21
670.60338403307105
 31
0.0
  0
LINE
  5
D1D
  8
HIDDEN
  6
HIDDEN
 10
494.85170847932108
 20
679.75338403307114
 30
0.0
 11
509.85170847932108
 21
679.75338403307114
 31
0.0
  0
LINE
  5
D1E
  8
HIDDEN
  6
HIDDEN
 10
494.85170847932108
 20
672.95338403307107
 30
0.0
 11
509.85170847932108
 21
672.95338403307107
 31
0.0
  0
LINE
  5
D1F
  8
HIDDEN
  6
HIDDEN
 10
494.85170847932108
 20
680.35338403307105
 30
0.0
 11
494.85170847932108
 21
672.35338403307105
 31
0.0
  0
LINE
  5
D20
  8
HIDDEN
  6
HIDDEN
 10
509.85170847932108
 20
672.95338403307107
 30
0.0
 11
511.81469939456582
 21
676.35338403307105
 31
0.0
  0
LINE
  5
D21
  8
HIDDEN
  6
HIDDEN
 10
506.85170847932108
 20
680.35338403307105
 30
0.0
 11
506.85170847932108
 21
672.35338403307105
 31
0.0
  0
LINE
  5
D22
  8
HIDDEN
  6
HIDDEN
 10
509.85170847932108
 20
679.75338403307114
 30
0.0
 11
509.85170847932108
 21
672.95338403307107
 31
0.0
  0
LINE
  5
D23
  8
HIDDEN
  6
HIDDEN
 10
509.85170847932108
 20
679.75338403307114
 30
0.0
 11
511.81469939456582
 21
676.35338403307105
 31
0.0
  0
LINE
  5
D24
  8
DIM
  6
CONTINUOUS
 10
628.35170847932113
 20
678.10338403307105
 30
0.0
 11
608.65629727408918
 21
678.10338403307105
 31
0.0
  0
SOLID
  5
D25
  8
DIM
  6
CONTINUOUS
 10
610.22264873900735
 20
681.09156843470782
 30
0.0
 11
609.22289425929171
 21
681.11372650972794
 31
0.0
 12
609.65629727408907
 22
678.10338403307105
 32
0.0
 13
609.65629727408907
 23
678.10338403307105
 33
0.0
  0
ARC
  5
D26
  8
0
  6
CONTINUOUS
 62
     2
 10
642.35170847932113
 20
713.10338403307105
 30
0.0
 40
4.0
 50
65.677517025119968
 51
24.771420425728412
  0
CIRCLE
  5
D27
  8
0
  6
CONTINUOUS
 10
642.35170847932113
 20
713.10338403307105
 30
0.0
 40
3.399999999999999
  0
LINE
  5
D28
  8
CENTER
  6
CENTER
 10
642.35170847932113
 20
720.10338403307105
 30
0.0
 11
642.35170847932113
 21
706.10338403307105
 31
0.0
  0
CIRCLE
  5
D29
  8
0
  6
CONTINUOUS
 10
653.66363130957166
 20
701.79146120282053
 30
0.0
 40
2.5
  0
ARC
  5
D2A
  8
0
  6
CONTINUOUS
 62
     2
 10
653.66363130957166
 20
701.79146120282053
 30
0.0
 40
3.0
 50
210.845012326004
 51
153.036401108983
  0
LINE
  5
D2B
  8
CENTER
  6
CENTER
 10
649.42099062245245
 20
706.03410188993985
 30
0.0
 11
657.90627199669086
 21
697.54882051570121
 31
0.0
  0
TEXT
  5
D2C
  8
DIM
  6
CONTINUOUS
 10
652.85170847932079
 20
686.23626401862634
 30
0.0
 40
3.0
  1
8
 50
90.0
  7
ROMANSS
 72
     1
 11
651.35170847932091
 21
687.23626401862634
 31
0.0
 73
     2
  0
LINE
  5
D2D
  8
CENTER
  6
CENTER
 10
635.35170847932113
 20
713.10338403307105
 30
0.0
 11
649.35170847932113
 21
713.10338403307105
 31
0.0
  0
LINE
  5
D2E
  8
DIM
  6
CONTINUOUS
 10
654.35170847932091
 20
669.716649553965
 30
0.0
 11
654.35170847932091
 21
689.1968876101871
 31
0.0
  0
LINE
  5
D2F
  8
0
 10
662.35170847932091
 20
682.10338403307105
 30
0.0
 11
662.35170847932091
 21
674.10338403307105
 31
0.0
  0
SOLID
  5
D30
  8
DIM
  6
CONTINUOUS
 10
653.85170847932091
 20
671.10338403307105
 30
0.0
 11
654.85170847932091
 21
671.10338403307105
 31
0.0
 12
654.35170847932091
 22
674.10338403307105
 32
0.0
 13
654.35170847932091
 23
674.10338403307105
 33
0.0
  0
LINE
  5
D31
  8
DIM
  6
CONTINUOUS
 10
661.35170847932079
 20
674.10338403307105
 30
0.0
 11
653.35170847932091
 21
674.10338403307105
 31
0.0
  0
LINE
  5
D32
  8
0
 10
662.35170847932091
 20
674.10338403307105
 30
0.0
 11
666.03799998033617
 21
674.10338403307105
 31
0.0
  0
SOLID
  5
D33
  8
DIM
  6
CONTINUOUS
 10
653.85170847932091
 20
685.10338403307105
 30
0.0
 11
654.85170847932091
 21
685.10338403307105
 31
0.0
 12
654.35170847932091
 22
682.10338403307105
 32
0.0
 13
654.35170847932091
 23
682.10338403307105
 33
0.0
  0
LINE
  5
D34
  8
DIM
  6
CONTINUOUS
 10
661.35170847932079
 20
682.10338403307105
 30
0.0
 11
653.35170847932091
 21
682.10338403307105
 31
0.0
  0
LINE
  5
D35
  8
0
 10
662.35170847932091
 20
682.10338403307105
 30
0.0
 11
666.03799998033617
 21
682.10338403307105
 31
0.0
  0
CIRCLE
  5
D36
  8
0
  6
CONTINUOUS
 10
677.35170847932113
 20
678.10338403307105
 30
0.0
 40
3.399999999999999
  0
ARC
  5
D37
  8
0
  6
CONTINUOUS
 62
     2
 10
677.35170847932113
 20
678.10338403307105
 30
0.0
 40
4.0
 50
155.67751702511779
 51
114.77142042572839
  0
SOLID
  5
D38
  8
DIM
  6
CONTINUOUS
 10
684.26971458721096
 20
679.41313885149748
 30
0.0
 11
683.93731702172715
 21
680.35627821472031
 31
0.0
 12
681.27409771480029
 22
678.88751583665794
 32
0.0
 13
681.27409771480029
 23
678.88751583665794
 33
0.0
  0
LINE
  5
D39
  8
DIM
  6
CONTINUOUS
 10
642.35170847932113
 20
721.10338403307105
 30
0.0
 11
642.35170847932113
 21
729.60338403307128
 31
0.0
  0
SOLID
  5
D3A
  8
DIM
  6
CONTINUOUS
 10
645.35170847932113
 20
729.10338403307128
 30
0.0
 11
645.35170847932113
 21
728.10338403307128
 31
0.0
 12
642.35170847932113
 22
728.60338403307128
 32
0.0
 13
642.35170847932113
 23
728.60338403307128
 33
0.0
  0
LINE
  5
D3B
  8
DIM
  6
CONTINUOUS
 10
677.35170847932113
 20
724.60338403307128
 30
0.0
 11
677.35170847932113
 21
727.87298629714496
 31
0.0
  0
TEXT
  5
D3C
  8
DIM
  6
CONTINUOUS
 10
674.92313705074957
 20
730.10338403307117
 30
0.0
 40
3.0
  1
70
  7
ROMANSS
 72
     1
 11
677.35170847932113
 21
731.60338403307117
 31
0.0
 73
     2
  0
TEXT
  5
D3D
  8
DIM
  6
CONTINUOUS
 10
924.60729755074658
 20
463.33705578804791
 30
0.0
 40
3.0
  1
56.5
 50
90.0
  7
ROMANSS
 72
     1
 11
923.10729755074658
 21
467.90848435947652
 31
0.0
 73
     2
  0
LINE
  5
D3E
  8
DIM
  6
CONTINUOUS
 10
926.10729755074647
 20
442.65848435947652
 30
0.0
 11
926.10729755074647
 21
493.15848435947652
 31
0.0
  0
LINE
  5
D3F
  8
DIM
  6
CONTINUOUS
 10
1068.107297550747
 20
377.4084843594764
 30
0.0
 11
1068.107297550747
 21
558.40848435947669
 31
0.0
  0
LINE
  5
D40
  8
DIM
  6
CONTINUOUS
 10
1060.1072975507459
 20
413.44125599840652
 30
0.0
 11
1060.1072975507459
 21
523.02011971941079
 31
0.0
  0
TEXT
  5
D41
  8
DIM
  6
CONTINUOUS
 10
877.35170847932102
 20
464.1227700737623
 30
0.0
 40
3.0
  1
%%c45
 50
90.0
  7
ROMANSS
 72
     1
 11
875.85170847932113
 21
467.90848435947657
 31
0.0
 73
     2
  0
LINE
  5
D42
  8
DIM
  6
CONTINUOUS
 10
878.85170847932113
 20
448.40848435947657
 30
0.0
 11
878.85170847932113
 21
487.40848435947657
 31
0.0
  0
LINE
  5
D43
  8
CENTER
  6
CENTER
 10
1009.607297550746
 20
562.84869363801795
 30
0.0
 11
1009.607297550746
 21
374.74992570499342
 31
0.0
  0
LINE
  5
D44
  8
0
 10
1052.1072975507459
 20
505.40848435947657
 30
0.0
 11
1052.1072975507459
 21
430.4084843594764
 31
0.0
  0
LINE
  5
D45
  8
0
 10
942.10729755074647
 20
505.40848435947657
 30
0.0
 11
942.10729755074647
 21
430.4084843594764
 31
0.0
  0
LINE
  5
D46
  8
0
 10
722.35170847932113
 20
505.40848435947657
 30
0.0
 11
722.35170847932113
 21
430.40848435947657
 31
0.0
  0
LINE
  5
D47
  8
0
 10
1016.607297550746
 20
495.90848435947652
 30
0.0
 11
1016.607297550746
 21
439.9084843594764
 31
0.0
  0
LINE
  5
D48
  8
0
 10
1017.107297550746
 20
495.90848435947652
 30
0.0
 11
1017.107297550746
 21
439.9084843594764
 31
0.0
  0
LINE
  5
D49
  8
0
 10
1014.107297550746
 20
465.40848435947629
 30
0.0
 11
1014.107297550746
 21
449.58005177596851
 31
0.0
  0
LINE
  5
D4A
  8
0
 10
942.60729755074658
 20
495.90848435947652
 30
0.0
 11
942.60729755074658
 21
439.9084843594764
 31
0.0
  0
LINE
  5
D4B
  8
0
 10
942.10729755074647
 20
495.90848435947652
 30
0.0
 11
942.10729755074647
 21
439.9084843594764
 31
0.0
  0
LINE
  5
D4C
  8
0
 10
945.10729755074658
 20
465.40848435947652
 30
0.0
 11
945.10729755074658
 21
449.58005177596851
 31
0.0
  0
CIRCLE
  5
D4D
  8
0
 10
979.60729755074647
 20
467.90848435947652
 30
0.0
 40
22.499999999999979
  0
CIRCLE
  5
D4E
  8
0
 10
979.60729755074647
 20
467.90848435947652
 30
0.0
 40
22.999999999999979
  0
LINE
  5
D4F
  8
CENTER
  6
CENTER
 10
840.85170847932125
 20
452.40848435947657
 30
0.0
 11
840.85170847932125
 21
465.40848435947657
 31
0.0
  0
LINE
  5
D50
  8
CENTER
  6
CENTER
 10
849.85170847932079
 20
462.40848435947657
 30
0.0
 11
849.85170847932125
 21
487.40848435947657
 31
0.0
  0
CIRCLE
  5
D51
  8
0
 10
849.85170847932125
 20
474.90848435947657
 30
0.0
 40
11.5
  0
LINE
  5
D52
  8
0
 10
833.85170847932079
 20
505.40848435947657
 30
0.0
 11
833.85170847932113
 21
430.40848435947657
 31
0.0
  0
LINE
  5
D53
  8
0
 10
870.85170847932113
 20
489.40848435947657
 30
0.0
 11
870.85170847932113
 21
446.40848435947657
 31
0.0
  0
LINE
  5
D54
  8
0
 10
865.85170847932079
 20
504.90848435947657
 30
0.0
 11
865.85170847932125
 21
430.90848435947657
 31
0.0
  0
LINE
  5
D55
  8
0
 10
833.85170847932079
 20
502.90848435947657
 30
0.0
 11
833.85170847932079
 21
432.90848435947669
 31
0.0
  0
LINE
  5
D56
  8
CENTER
  6
CENTER
 10
979.60729755074647
 20
508.40848435947652
 30
0.0
 11
979.60729755074647
 21
427.40848435947652
 31
0.0
  0
LINE
  5
D57
  8
DIM
  6
CONTINUOUS
 10
945.10729755074658
 20
361.40848435947709
 30
0.0
 11
1014.107297550746
 21
361.40848435947709
 31
0.0
  0
LINE
  5
D58
  8
DIM
  6
CONTINUOUS
 10
945.10729755074658
 20
353.40848435947709
 30
0.0
 11
1049.1072975507459
 21
353.40848435947709
 31
0.0
  0
LINE
  5
D59
  8
0
  6
CONTINUOUS
 10
942.10729755074647
 20
430.40848435947652
 30
0.0
 11
1052.1072975507459
 21
430.40848435947652
 31
0.0
  0
LINE
  5
D5A
  8
0
  6
CONTINUOUS
 10
968.60729755074658
 20
421.4084843594764
 30
0.0
 11
1050.6072975507459
 21
421.4084843594764
 31
0.0
  0
LINE
  5
D5B
  8
0
  6
CONTINUOUS
 10
969.60729755074647
 20
420.4084843594764
 30
0.0
 11
1049.6072975507459
 21
420.4084843594764
 31
0.0
  0
LINE
  5
D5C
  8
0
 10
982.10729755074647
 20
433.40848435947652
 30
0.0
 11
997.93573013425453
 21
433.40848435947652
 31
0.0
  0
LINE
  5
D5D
  8
0
 10
951.60729755074658
 20
430.90848435947652
 30
0.0
 11
1007.607297550746
 21
430.90848435947652
 31
0.0
  0
LINE
  5
D5E
  8
0
 10
722.35170847932113
 20
191.06269280771829
 30
0.0
 11
722.35170847932113
 21
301.06269280771841
 31
0.0
  0
LINE
  5
D5F
  8
CENTER
  6
CENTER
 10
705.35170847932113
 20
198.56269280771841
 30
0.0
 11
719.35170847932113
 21
198.56269280771841
 31
0.0
  0
LINE
  5
D60
  8
CENTER
  6
CENTER
 10
712.35170847932113
 20
191.56269280771841
 30
0.0
 11
712.35170847932113
 21
205.56269280771841
 31
0.0
  0
ARC
  5
D61
  8
0
  6
CONTINUOUS
 62
     2
 10
712.35170847932113
 20
198.56269280771841
 30
0.0
 40
4.0
 50
245.22857957427141
 51
204.3224829748799
  0
CIRCLE
  5
D62
  8
0
  6
CONTINUOUS
 10
712.35170847932113
 20
198.56269280771841
 30
0.0
 40
3.399999999999999
  0
LINE
  5
D63
  8
0
 10
722.35170847932113
 20
228.56269280771841
 30
0.0
 11
833.85170847932079
 21
228.56269280771841
 31
0.0
  0
LINE
  5
D64
  8
0
 10
722.35170847932113
 20
298.56269280771829
 30
0.0
 11
833.85170847932079
 21
298.56269280771829
 31
0.0
  0
LINE
  5
D65
  8
0
 10
722.35170847932113
 20
282.35280226629169
 30
0.0
 11
833.85170847932079
 21
282.35280226629169
 31
0.0
  0
LINE
  5
D66
  8
0
 10
722.35170847932113
 20
244.7725833491449
 30
0.0
 11
833.85170847932079
 21
244.7725833491449
 31
0.0
  0
LINE
  5
D67
  8
0
 10
722.35170847932113
 20
449.11837490090318
 30
0.0
 11
833.85170847932079
 21
449.11837490090318
 31
0.0
  0
LINE
  5
D68
  8
0
 10
722.35170847932113
 20
432.90848435947669
 30
0.0
 11
833.85170847932079
 21
432.90848435947669
 31
0.0
  0
LINE
  5
D69
  8
CENTER
  6
CENTER
 10
698.85170847932113
 20
288.23632487302018
 30
0.0
 11
698.85170847932113
 21
312.83113327857029
 31
0.0
  0
LINE
  5
D6A
  8
CENTER
  6
CENTER
 10
705.35170847932113
 20
268.56269280771841
 30
0.0
 11
719.35170847932113
 21
268.56269280771841
 31
0.0
  0
ARC
  5
D6B
  8
0
  6
CONTINUOUS
 62
     2
 10
701.03978564907038
 20
257.25076997746783
 30
0.0
 40
3.0
 50
206.96359889101501
 51
149.15498767399501
  0
CIRCLE
  5
D6C
  8
0
  6
CONTINUOUS
 10
701.03978564907038
 20
257.25076997746783
 30
0.0
 40
2.5
  0
LINE
  5
D6D
  8
CENTER
  6
CENTER
 10
696.79714496195095
 20
253.00812929034851
 30
0.0
 11
705.28242633618959
 21
261.49341066458697
 31
0.0
  0
LINE
  5
D6E
  8
CENTER
  6
CENTER
 10
712.35170847932113
 20
261.56269280771841
 30
0.0
 11
712.35170847932113
 21
275.56269280771841
 31
0.0
  0
ARC
  5
D6F
  8
0
  6
CONTINUOUS
 62
     2
 10
712.35170847932113
 20
268.56269280771841
 30
0.0
 40
4.0
 50
335.22857957427448
 51
294.32248297488059
  0
CIRCLE
  5
D70
  8
0
  6
CONTINUOUS
 10
712.35170847932113
 20
268.56269280771841
 30
0.0
 40
3.399999999999999
  0
LINE
  5
D71
  8
DIM
  6
CONTINUOUS
 10
722.35170847932113
 20
429.40848435947657
 30
0.0
 11
722.35170847932113
 21
343.9995738931255
 31
0.0
  0
LINE
  5
D72
  8
DIM
  6
CONTINUOUS
 10
718.35170847932113
 20
420.40848435947657
 30
0.0
 11
718.35170847932091
 21
351.84556611607218
 31
0.0
  0
ARC
  5
D73
  8
0
  6
CONTINUOUS
 10
698.84566868851232
 20
316.06269159174929
 30
0.0
 40
14.999999999999989
 50
270.02307030229878
 51
289.49569223305389
  0
LINE
  5
D74
  8
0
  6
CONTINUOUS
 10
703.85170847942254
 20
307.56269280771841
 30
0.0
 11
702.35170847942254
 21
309.06269280771841
 31
0.0
  0
ARC
  5
D75
  8
0
  6
CONTINUOUS
 10
698.84566868856757
 20
291.06269402368758
 30
0.0
 40
14.999999999999989
 50
70.50430776694644
 51
89.976929697701607
  0
LINE
  5
D76
  8
0
  6
CONTINUOUS
 10
703.85170847942254
 20
307.56269280771841
 30
0.0
 11
693.85170847942254
 21
307.56269280771841
 31
0.0
  0
LINE
  5
D77
  8
0
  6
CONTINUOUS
 10
707.10170847942254
 20
306.06269280771841
 30
0.0
 11
690.60170847942254
 21
306.06269280771841
 31
0.0
  0
LINE
  5
D78
  8
0
  6
CONTINUOUS
 10
693.85170847942254
 20
307.56269280771841
 30
0.0
 11
695.35170847942254
 21
309.06269280771841
 31
0.0
  0
ARC
  5
D79
  8
0
  6
CONTINUOUS
 10
698.85774827022215
 20
316.06269159174929
 30
0.0
 40
14.999999999999989
 50
250.50430776694591
 51
269.97692969770111
  0
ARC
  5
D7A
  8
0
  6
CONTINUOUS
 10
698.85774827027763
 20
291.06269402368758
 30
0.0
 40
14.999999999999989
 50
90.023070302299274
 51
109.4956922330545
  0
LINE
  5
D7B
  8
0
  6
CONTINUOUS
 10
693.85170847942265
 20
301.92269280769932
 30
0.0
 11
693.85170847942254
 21
305.20269280771782
 31
0.0
  0
LINE
  5
D7C
  8
0
  6
CONTINUOUS
 10
689.05170847942316
 20
301.95761197627797
 30
0.0
 11
689.05170847942316
 21
305.16777363912689
 31
0.0
  0
LINE
  5
D7D
  8
0
  6
CONTINUOUS
 10
689.05170847936802
 20
301.95761197630992
 30
0.0
 11
690.60170847936718
 21
301.06269280771841
 31
0.0
  0
ARC
  5
D7E
  8
0
  6
CONTINUOUS
 10
691.54524926586976
 20
304.58447089110842
 30
0.0
 40
3.5220472269320542
 50
240.7948558421632
 51
310.90927993347032
  0
LINE
  5
D7F
  8
0
  6
CONTINUOUS
 10
693.85170847942254
 20
306.06269280771841
 30
0.0
 11
693.85170847942254
 21
307.56269280771841
 31
0.0
  0
ARC
  5
D80
  8
0
  6
CONTINUOUS
 10
691.54524926592512
 20
302.54091472432827
 30
0.0
 40
3.5220472269320542
 50
49.090720066529649
 51
119.2051441578367
  0
LINE
  5
D81
  8
0
  6
CONTINUOUS
 10
689.05170847942316
 20
305.16777363912689
 30
0.0
 11
690.60170847942254
 21
306.06269280771841
 31
0.0
  0
LINE
  5
D82
  8
0
  6
CONTINUOUS
 62
     2
 10
694.85170847942254
 20
306.06269280771841
 30
0.0
 11
694.85170847942254
 21
308.56269280771841
 31
0.0
  0
LINE
  5
D83
  8
0
  6
CONTINUOUS
 10
702.35170847942254
 20
309.06269280771841
 30
0.0
 11
695.35170847942254
 21
309.06269280771841
 31
0.0
  0
LINE
  5
D84
  8
0
  6
CONTINUOUS
 10
708.65170847942181
 20
301.95761197634192
 30
0.0
 11
708.65170847942181
 21
305.16777363912689
 31
0.0
  0
LINE
  5
D85
  8
0
  6
CONTINUOUS
 10
708.65170847936656
 20
301.95761197630992
 30
0.0
 11
707.10170847936718
 21
301.06269280771841
 31
0.0
  0
LINE
  5
D86
  8
0
  6
CONTINUOUS
 10
708.65170847942181
 20
305.16777363912689
 30
0.0
 11
707.10170847942254
 21
306.06269280771841
 31
0.0
  0
LINE
  5
D87
  8
0
  6
CONTINUOUS
 10
703.85170847942265
 20
301.9226928077386
 30
0.0
 11
703.85170847942254
 21
305.20269280771782
 31
0.0
  0
LINE
  5
D88
  8
0
  6
CONTINUOUS
 10
703.85170847942254
 20
306.06269280771841
 30
0.0
 11
703.85170847942254
 21
307.56269280771841
 31
0.0
  0
LINE
  5
D89
  8
0
  6
CONTINUOUS
 62
     2
 10
702.85170847942254
 20
306.06269280771841
 30
0.0
 11
702.85170847942254
 21
308.56269280771841
 31
0.0
  0
ARC
  5
D8A
  8
0
  6
CONTINUOUS
 10
706.15816769286459
 20
304.58447089110842
 30
0.0
 40
3.5220472269320542
 50
229.0907200665296
 51
299.2051441578368
  0
ARC
  5
D8B
  8
0
  6
CONTINUOUS
 10
706.15816769291996
 20
302.54091472432827
 30
0.0
 40
3.5220472269320542
 50
60.794855842163209
 51
130.90927993347029
  0
SOLID
  5
D8C
  8
DIM
  6
CONTINUOUS
 10
715.35170847932113
 20
353.90848435947657
 30
0.0
 11
715.35170847932113
 21
352.90848435947657
 31
0.0
 12
718.35170847932113
 22
353.40848435947657
 32
0.0
 13
718.35170847932113
 23
353.40848435947657
 33
0.0
  0
SOLID
  5
D8D
  8
DIM
  6
CONTINUOUS
 10
719.35170847932113
 20
345.90848435947657
 30
0.0
 11
719.35170847932113
 21
344.90848435947657
 31
0.0
 12
722.35170847932113
 22
345.40848435947657
 32
0.0
 13
722.35170847932113
 23
345.40848435947657
 33
0.0
  0
POLYLINE
  5
D8E
  8
0
  6
CONTINUOUS
 66
     1
 10
0.0
 20
0.0
 30
0.0
 70
     1
  0
VERTEX
  5
1442
  8
0
  6
CONTINUOUS
 10
693.9517084793215
 20
456.8955333165643
 30
0.0
  0
VERTEX
  5
1443
  8
0
  6
CONTINUOUS
 10
689.05170847932175
 20
448.40848435947657
 30
0.0
  0
VERTEX
  5
1444
  8
0
  6
CONTINUOUS
 10
693.9517084793215
 20
439.92143540238902
 30
0.0
  0
VERTEX
  5
1445
  8
0
  6
CONTINUOUS
 10
703.75170847932077
 20
439.92143540238902
 30
0.0
  0
VERTEX
  5
1446
  8
0
  6
CONTINUOUS
 10
708.6517084793204
 20
448.40848435947657
 30
0.0
  0
VERTEX
  5
1447
  8
0
  6
CONTINUOUS
 10
703.75170847932077
 20
456.8955333165643
 30
0.0
  0
SEQEND
  5
1448
  8
0
  6
CONTINUOUS
  0
CIRCLE
  5
D96
  8
0
  6
CONTINUOUS
 10
698.85170847932113
 20
448.40848435947657
 30
0.0
 40
8.25
  0
LINE
  5
D97
  8
CENTER
  6
CENTER
 10
698.85170847932113
 20
463.40848435947669
 30
0.0
 11
698.85170847932113
 21
433.40848435947669
 31
0.0
  0
LINE
  5
D98
  8
CENTER
  6
CENTER
 10
712.35170847932091
 20
428.128302996694
 30
0.0
 11
712.35170847932113
 21
445.24366522944149
 31
0.0
  0
LINE
  5
D99
  8
0
 10
718.35170847932113
 20
430.40848435947657
 30
0.0
 11
718.35170847932113
 21
421.40848435947657
 31
0.0
  0
LINE
  5
D9A
  8
0
  6
CONTINUOUS
 10
718.35170847932113
 20
421.40848435947657
 30
0.0
 11
717.35170847932113
 21
420.40848435947657
 31
0.0
  0
CIRCLE
  5
D9B
  8
0
  6
CONTINUOUS
 10
698.85170847932113
 20
448.40848435947657
 30
0.0
 40
5.0
  0
ARC
  5
D9C
  8
0
  6
CONTINUOUS
 62
     2
 10
698.85170847932113
 20
448.40848435947657
 30
0.0
 40
4.25
 50
69.487813016515403
 51
22.414620147484769
  0
POLYLINE
  5
D9D
  8
0
  6
CONTINUOUS
 66
     1
 10
0.0
 20
0.0
 30
0.0
 70
     1
  0
VERTEX
  5
1449
  8
0
  6
CONTINUOUS
 10
697.40833280634695
 20
450.90848435947669
 30
0.0
  0
VERTEX
  5
144A
  8
0
  6
CONTINUOUS
 10
695.96495713337299
 20
448.40848435947657
 30
0.0
  0
VERTEX
  5
144B
  8
0
  6
CONTINUOUS
 10
697.40833280634695
 20
445.90848435947669
 30
0.0
  0
VERTEX
  5
144C
  8
0
  6
CONTINUOUS
 10
700.29508415229509
 20
445.90848435947669
 30
0.0
  0
VERTEX
  5
144D
  8
0
  6
CONTINUOUS
 10
701.73845982526916
 20
448.40848435947657
 30
0.0
  0
VERTEX
  5
144E
  8
0
  6
CONTINUOUS
 10
700.29508415229509
 20
450.90848435947669
 30
0.0
  0
SEQEND
  5
144F
  8
0
  6
CONTINUOUS
  0
LINE
  5
DA5
  8
0
 10
865.85170847932079
 20
226.56269280771829
 30
0.0
 11
865.85170847932125
 21
300.56269280771829
 31
0.0
  0
LINE
  5
DA6
  8
0
 10
833.85170847932079
 20
226.06269280771829
 30
0.0
 11
833.85170847932113
 21
301.06269280771829
 31
0.0
  0
LINE
  5
DA7
  8
0
 10
833.85170847932079
 20
228.56269280771829
 30
0.0
 11
833.85170847932079
 21
298.56269280771829
 31
0.0
  0
LINE
  5
DA8
  8
0
 10
870.85170847932113
 20
242.06269280771841
 30
0.0
 11
870.85170847932113
 21
285.06269280771841
 31
0.0
  0
LINE
  5
DA9
  8
0
 10
833.85170847932113
 20
226.06269280771829
 30
0.0
 11
865.85170847932125
 21
226.56269280771829
 31
0.0
  0
LINE
  5
DAA
  8
0
 10
865.85170847932079
 20
241.06269280771841
 30
0.0
 11
869.85170847932113
 21
241.06269280771841
 31
0.0
  0
ARC
  5
DAB
  8
0
 10
869.85170847932113
 20
242.06269280771841
 30
0.0
 40
1.0
 50
270.0
 51
0.0
  0
LINE
  5
DAC
  8
0
 10
865.85170847932125
 20
286.06269280771841
 30
0.0
 11
869.85170847932113
 21
286.06269280771841
 31
0.0
  0
ARC
  5
DAD
  8
0
 10
869.85170847932113
 20
285.06269280771841
 30
0.0
 40
1.0
 50
0.0
 51
90.0
  0
LINE
  5
DAE
  8
DIM
  6
CONTINUOUS
 10
870.85170847932113
 20
444.33076143528677
 30
0.0
 11
870.85170847932125
 21
335.73142625201172
 31
0.0
  0
LINE
  5
DAF
  8
DIM
  6
CONTINUOUS
 10
865.85170847932125
 20
429.90848435947657
 30
0.0
 11
865.85170847932102
 21
335.48350299668778
 31
0.0
  0
LINE
  5
DB0
  8
0
 10
833.85170847932113
 20
301.06269280771829
 30
0.0
 11
865.85170847932125
 21
300.56269280771829
 31
0.0
  0
SOLID
  5
DB1
  8
DIM
  6
CONTINUOUS
 10
862.85170847932113
 20
337.90848435947652
 30
0.0
 11
862.85170847932113
 21
336.90848435947657
 31
0.0
 12
865.85170847932125
 22
337.40848435947652
 32
0.0
 13
865.85170847932125
 23
337.40848435947652
 33
0.0
  0
SOLID
  5
DB2
  8
DIM
  6
CONTINUOUS
 10
873.85170847932125
 20
337.90848435947652
 30
0.0
 11
873.85170847932125
 21
336.90848435947657
 31
0.0
 12
870.85170847932113
 22
337.40848435947652
 32
0.0
 13
870.85170847932113
 23
337.40848435947652
 33
0.0
  0
TEXT
  5
DB3
  8
DIM
  6
CONTINUOUS
 10
876.22696019939849
 20
338.90848435947657
 30
0.0
 40
3.0
  1
5
  7
ROMANSS
 72
     1
 11
877.22696019939838
 21
340.40848435947652
 31
0.0
 73
     2
  0
LINE
  5
DB4
  8
0
 10
833.85170847932113
 20
430.40848435947657
 30
0.0
 11
865.85170847932125
 21
430.90848435947657
 31
0.0
  0
ARC
  5
DB5
  8
0
  6
CONTINUOUS
 10
840.85170847932125
 20
458.90848435947657
 30
0.0
 40
3.5
 50
38.213210701738312
 51
81.786789298261766
  0
ARC
  5
DB6
  8
0
  6
CONTINUOUS
 10
840.85170847932125
 20
458.90848435947657
 30
0.0
 40
3.5
 50
278.21321070173809
 51
321.78678929826162
  0
POLYLINE
  5
DB7
  8
0
  6
CONTINUOUS
 66
     1
 10
0.0
 20
0.0
 30
0.0
 70
     1
  0
VERTEX
  5
1450
  8
0
  6
CONTINUOUS
 10
839.9856830755366
 20
460.40848435947657
 30
0.0
  0
VERTEX
  5
1451
  8
0
  6
CONTINUOUS
 10
839.11965767175218
 20
458.90848435947657
 30
0.0
  0
VERTEX
  5
1452
  8
0
  6
CONTINUOUS
 10
839.9856830755366
 20
457.40848435947657
 30
0.0
  0
VERTEX
  5
1453
  8
0
  6
CONTINUOUS
 10
841.71773388310544
 20
457.40848435947657
 30
0.0
  0
VERTEX
  5
1454
  8
0
  6
CONTINUOUS
 10
842.58375928688997
 20
458.90848435947657
 30
0.0
  0
VERTEX
  5
1455
  8
0
  6
CONTINUOUS
 10
841.71773388310544
 20
460.40848435947657
 30
0.0
  0
SEQEND
  5
1456
  8
0
  6
CONTINUOUS
  0
CIRCLE
  5
DBF
  8
0
 10
840.85170847932125
 20
458.90848435947657
 30
0.0
 40
5.2999999999999989
  0
CIRCLE
  5
DC0
  8
0
 10
840.85170847932125
 20
458.90848435947657
 30
0.0
 40
5.0
  0
CIRCLE
  5
DC1
  8
0
  6
CONTINUOUS
 10
840.85170847932125
 20
458.90848435947657
 30
0.0
 40
2.5
  0
LINE
  5
DC2
  8
CENTER
  6
CENTER
 10
834.35170847932068
 20
458.90848435947657
 30
0.0
 11
847.35170847932091
 21
458.90848435947657
 31
0.0
  0
LINE
  5
DC3
  8
0
  6
CONTINUOUS
 10
840.35170847932113
 20
463.8834215450097
 30
0.0
 11
840.35170847932113
 21
462.37258597461431
 31
0.0
  0
LINE
  5
DC4
  8
0
  6
CONTINUOUS
 10
841.35170847932113
 20
463.8834215450097
 30
0.0
 11
841.35170847932113
 21
462.37258597461431
 31
0.0
  0
LINE
  5
DC5
  8
0
  6
CONTINUOUS
 10
840.35170847932113
 20
455.4443827443389
 30
0.0
 11
840.35170847932113
 21
453.93354717394362
 31
0.0
  0
LINE
  5
DC6
  8
0
  6
CONTINUOUS
 10
841.35170847932113
 20
455.4443827443389
 30
0.0
 11
841.35170847932113
 21
453.93354717394362
 31
0.0
  0
LINE
  5
DC7
  8
0
  6
CONTINUOUS
 10
838.10170847932102
 20
461.07354786893768
 30
0.0
 11
836.79328649441754
 21
461.8289656541354
 31
0.0
  0
ARC
  5
DC8
  8
0
  6
CONTINUOUS
 10
840.85170847932125
 20
458.90848435947657
 30
0.0
 40
3.5
 50
158.21321070173769
 51
201.78678929826219
  0
LINE
  5
DC9
  8
0
  6
CONTINUOUS
 10
837.60170847932113
 20
460.20752246515332
 30
0.0
 11
836.29328649441754
 21
460.96294025035093
 31
0.0
  0
LINE
  5
DCA
  8
0
  6
CONTINUOUS
 10
836.79328649441754
 20
455.9880030648178
 30
0.0
 11
838.10170847932102
 21
456.74342085001558
 31
0.0
  0
LINE
  5
DCB
  8
0
  6
CONTINUOUS
 10
836.29328649441754
 20
456.85402846860222
 30
0.0
 11
837.60170847932113
 21
457.60944625379989
 31
0.0
  0
ARC
  5
DCC
  8
0
  6
CONTINUOUS
 10
840.85170847932125
 20
458.90848435947657
 30
0.0
 40
3.5
 50
98.213210701738234
 51
141.78678929826239
  0
ARC
  5
DCD
  8
0
  6
CONTINUOUS
 10
840.85170847932125
 20
458.90848435947657
 30
0.0
 40
3.5
 50
218.21321070173829
 51
261.78678929826179
  0
ARC
  5
DCE
  8
0
  6
CONTINUOUS
 10
840.85170847932125
 20
458.90848435947657
 30
0.0
 40
3.5
 50
338.21321070173849
 51
21.786789298261379
  0
LINE
  5
DCF
  8
0
  6
CONTINUOUS
 10
843.60170847932125
 20
461.07354786893768
 30
0.0
 11
844.91013046422484
 21
461.8289656541354
 31
0.0
  0
LINE
  5
DD0
  8
0
  6
CONTINUOUS
 10
844.10170847932113
 20
460.20752246515332
 30
0.0
 11
845.41013046422472
 21
460.96294025035093
 31
0.0
  0
LINE
  5
DD1
  8
0
  6
CONTINUOUS
 10
844.91013046422484
 20
455.9880030648178
 30
0.0
 11
843.60170847932125
 21
456.74342085001558
 31
0.0
  0
LINE
  5
DD2
  8
0
  6
CONTINUOUS
 10
845.41013046422472
 20
456.85402846860222
 30
0.0
 11
844.10170847932113
 21
457.60944625379989
 31
0.0
  0
LINE
  5
DD3
  8
0
 10
865.85170847932125
 20
445.40848435947657
 30
0.0
 11
869.85170847932113
 21
445.40848435947652
 31
0.0
  0
LINE
  5
DD4
  8
DIM
  6
CONTINUOUS
 10
871.47619631655618
 20
445.40848435947657
 30
0.0
 11
879.85170847932113
 21
445.40848435947657
 31
0.0
  0
ARC
  5
DD5
  8
0
 10
869.85170847932113
 20
446.40848435947657
 30
0.0
 40
1.0
 50
270.0
 51
0.0
  0
SOLID
  5
DD6
  8
DIM
  6
CONTINUOUS
 10
878.35170847932125
 20
448.40848435947657
 30
0.0
 11
879.35170847932125
 21
448.40848435947657
 31
0.0
 12
878.85170847932113
 22
445.40848435947657
 32
0.0
 13
878.85170847932113
 23
445.40848435947657
 33
0.0
  0
LINE
  5
DD7
  8
DIM
  6
CONTINUOUS
 10
942.10729755074647
 20
428.66654609444771
 30
0.0
 11
942.10729755074647
 21
352.40848435947709
 31
0.0
  0
LINE
  5
DD8
  8
DIM
  6
CONTINUOUS
 10
979.60729755074669
 20
425.1615795847589
 30
0.0
 11
979.60729755074647
 21
368.4084843594772
 31
0.0
  0
SOLID
  5
DD9
  8
DIM
  6
CONTINUOUS
 10
945.10729755074658
 20
361.9084843594772
 30
0.0
 11
945.10729755074658
 21
360.90848435947709
 31
0.0
 12
942.10729755074647
 22
361.40848435947709
 32
0.0
 13
942.10729755074647
 23
361.40848435947709
 33
0.0
  0
SOLID
  5
DDA
  8
DIM
  6
CONTINUOUS
 10
945.10729755074658
 20
353.90848435947709
 30
0.0
 11
945.10729755074658
 21
352.90848435947709
 31
0.0
 12
942.10729755074647
 22
353.40848435947709
 32
0.0
 13
942.10729755074647
 23
353.40848435947709
 33
0.0
  0
POLYLINE
  5
DDB
  8
DIM
  6
CONTINUOUS
 66
     1
 10
0.0
 20
0.0
 30
0.0
 70
     1
  0
VERTEX
  5
1457
  8
DIM
  6
CONTINUOUS
 10
973.43443102846118
 20
365.44418217739201
 30
0.0
  0
VERTEX
  5
1458
  8
DIM
  6
CONTINUOUS
 10
973.43443102846118
 20
362.8001611172387
 30
0.0
  0
VERTEX
  5
1459
  8
DIM
  6
CONTINUOUS
 10
975.83980221236823
 20
362.8001611172387
 30
0.0
  0
VERTEX
  5
145A
  8
DIM
  6
CONTINUOUS
 10
975.83980221236823
 20
365.44418217739201
 30
0.0
  0
SEQEND
  5
145B
  8
DIM
  6
CONTINUOUS
  0
TEXT
  5
DE1
  8
DIM
  6
CONTINUOUS
 10
977.17872612217514
 20
362.9084843594772
 30
0.0
 40
3.0
  1
75
  7
ROMANSS
 72
     1
 11
979.60729755074647
 21
364.4084843594772
 31
0.0
 73
     2
  0
SOLID
  5
DE2
  8
DIM
  6
CONTINUOUS
 10
982.60729755074658
 20
369.90848435947709
 30
0.0
 11
982.60729755074658
 21
368.9084843594772
 31
0.0
 12
979.60729755074647
 22
369.40848435947709
 32
0.0
 13
979.60729755074647
 23
369.40848435947709
 33
0.0
  0
LINE
  5
DE3
  8
CENTER
  6
CENTER
 10
938.91600346740665
 20
458.90848435947657
 30
0.0
 11
962.58066088850421
 21
458.90848435947657
 31
0.0
  0
POLYLINE
  5
DE4
  8
0
  6
CONTINUOUS
 66
     1
 10
0.0
 20
0.0
 30
0.0
 70
     1
  0
VERTEX
  5
145C
  8
0
  6
CONTINUOUS
 10
949.0478964739882
 20
443.65848435947652
 30
0.0
  0
VERTEX
  5
145D
  8
0
  6
CONTINUOUS
 10
946.73849539722949
 20
439.65848435947652
 30
0.0
  0
VERTEX
  5
145E
  8
0
  6
CONTINUOUS
 10
949.0478964739882
 20
435.65848435947652
 30
0.0
  0
VERTEX
  5
145F
  8
0
  6
CONTINUOUS
 10
953.66669862750507
 20
435.65848435947652
 30
0.0
  0
VERTEX
  5
1460
  8
0
  6
CONTINUOUS
 10
955.97609970426345
 20
439.65848435947652
 30
0.0
  0
VERTEX
  5
1461
  8
0
  6
CONTINUOUS
 10
953.66669862750507
 20
443.65848435947652
 30
0.0
  0
SEQEND
  5
1462
  8
0
  6
CONTINUOUS
  0
CIRCLE
  5
DEC
  8
0
  6
CONTINUOUS
 10
951.35729755074658
 20
439.65848435947652
 30
0.0
 40
3.399999999999999
  0
ARC
  5
DED
  8
0
  6
CONTINUOUS
 62
     2
 10
951.35729755074658
 20
439.65848435947652
 30
0.0
 40
4.0
 50
57.77418116062497
 51
14.453881156675809
  0
CIRCLE
  5
DEE
  8
0
 10
951.35729755074658
 20
439.65848435947652
 30
0.0
 40
6.5
  0
LINE
  5
DEF
  8
0
 10
946.60729755074647
 20
462.40848435947652
 30
0.0
 11
955.7588175153229
 21
462.40848435947652
 31
0.0
  0
ARC
  5
DF0
  8
0
 10
951.35729755074658
 20
439.65848435947652
 30
0.0
 40
9.5
 50
59.477512185929669
 51
115.58300197738799
  0
LINE
  5
DF1
  8
CENTER
  6
CENTER
 10
943.85729755074647
 20
439.65848435947652
 30
0.0
 11
958.85729755074658
 21
439.65848435947652
 31
0.0
  0
ARC
  5
DF2
  8
0
  6
CONTINUOUS
 10
947.2795197729746
 20
444.15848435947657
 30
0.0
 40
10.19983357405331
 50
155.3752531507763
 51
204.62474684922361
  0
LINE
  5
DF3
  8
0
  6
CONTINUOUS
 10
937.10729755074658
 20
439.90848435947657
 30
0.0
 11
937.10729755074658
 21
456.90848435947657
 31
0.0
  0
ARC
  5
DF4
  8
0
  6
CONTINUOUS
 10
931.93507532851868
 20
444.15848435947669
 30
0.0
 40
10.19983357405331
 50
335.3752531507788
 51
24.624746849221388
  0
SOLID
  5
DF5
  8
DIM
  6
CONTINUOUS
 10
925.60729755074658
 20
442.65848435947652
 30
0.0
 11
926.60729755074658
 21
442.65848435947652
 31
0.0
 12
926.10729755074647
 22
439.65848435947652
 32
0.0
 13
926.10729755074647
 23
439.65848435947652
 33
0.0
  0
LINE
  5
DF6
  8
CENTER
  6
CENTER
 10
951.35729755074658
 20
447.15848435947652
 30
0.0
 11
951.35729755074658
 21
432.15848435947652
 31
0.0
  0
LINE
  5
DF7
  8
0
  6
CONTINUOUS
 10
937.10729755074658
 20
439.90848435947657
 30
0.0
 11
942.10729755074647
 21
439.90848435947657
 31
0.0
  0
LINE
  5
DF8
  8
DIM
  6
CONTINUOUS
 10
942.85729755074647
 20
439.65848435947652
 30
0.0
 11
924.66415092780494
 21
439.65848435947652
 31
0.0
  0
ARC
  5
DF9
  8
0
 10
951.60729755074658
 20
439.9084843594764
 30
0.0
 40
9.0
 50
180.0
 51
270.0
  0
ARC
  5
DFA
  8
0
 10
951.60729755074658
 20
439.9084843594764
 30
0.0
 40
9.5
 50
180.0
 51
270.0
  0
LINE
  5
DFB
  8
CENTER
  6
CENTER
 10
953.24431737904604
 20
448.40848435947657
 30
0.0
 11
931.10729755074658
 21
448.40848435947657
 31
0.0
  0
ARC
  5
DFC
  8
0
  6
CONTINUOUS
 10
947.2795197729746
 20
452.65848435947657
 30
0.0
 40
10.19983357405331
 50
155.3752531507763
 51
204.62474684922361
  0
LINE
  5
DFD
  8
0
  6
CONTINUOUS
 10
937.10729755074658
 20
456.90848435947657
 30
0.0
 11
942.10729755074647
 21
456.90848435947657
 31
0.0
  0
LINE
  5
DFE
  8
0
  6
CONTINUOUS
 10
935.60729755074658
 20
453.40848435947657
 30
0.0
 11
934.10729755074647
 21
451.90848435947657
 31
0.0
  0
LINE
  5
DFF
  8
0
  6
CONTINUOUS
 10
935.60729755074658
 20
443.40848435947657
 30
0.0
 11
935.60729755074658
 21
453.40848435947657
 31
0.0
  0
LINE
  5
E00
  8
0
  6
CONTINUOUS
 10
935.60729755074658
 20
443.40848435947657
 30
0.0
 11
934.10729755074647
 21
444.90848435947657
 31
0.0
  0
LINE
  5
E01
  8
0
  6
CONTINUOUS
 62
     2
 10
937.10729755074658
 20
444.40848435947657
 30
0.0
 11
934.60729755074658
 21
444.40848435947657
 31
0.0
  0
LINE
  5
E02
  8
0
  6
CONTINUOUS
 62
     2
 10
937.10729755074658
 20
452.40848435947657
 30
0.0
 11
934.60729755074658
 21
452.40848435947657
 31
0.0
  0
LINE
  5
E03
  8
0
  6
CONTINUOUS
 10
937.10729755074658
 20
443.40848435947657
 30
0.0
 11
935.60729755074658
 21
443.40848435947657
 31
0.0
  0
LINE
  5
E04
  8
0
  6
CONTINUOUS
 10
934.10729755074647
 20
444.90848435947657
 30
0.0
 11
934.10729755074647
 21
451.90848435947657
 31
0.0
  0
POLYLINE
  5
E05
  8
DIM
  6
CONTINUOUS
 66
     1
 10
0.0
 20
0.0
 30
0.0
 70
     1
  0
VERTEX
  5
1463
  8
DIM
  6
CONTINUOUS
 10
921.89721868500556
 20
462.52643514677811
 30
0.0
  0
VERTEX
  5
1464
  8
DIM
  6
CONTINUOUS
 10
921.89721868500556
 20
459.88241408662481
 30
0.0
  0
VERTEX
  5
1465
  8
DIM
  6
CONTINUOUS
 10
924.30258986891238
 20
459.88241408662481
 30
0.0
  0
VERTEX
  5
1466
  8
DIM
  6
CONTINUOUS
 10
924.30258986891238
 20
462.52643514677811
 30
0.0
  0
SEQEND
  5
1467
  8
DIM
  6
CONTINUOUS
  0
LINE
  5
E0B
  8
0
  6
CONTINUOUS
 10
937.10729755074658
 20
453.40848435947657
 30
0.0
 11
935.60729755074658
 21
453.40848435947657
 31
0.0
  0
ARC
  5
E0C
  8
0
  6
CONTINUOUS
 10
931.93507532851868
 20
452.65848435947669
 30
0.0
 40
10.19983357405331
 50
335.3752531507788
 51
24.624746849221388
  0
ARC
  5
E0D
  8
0
 10
946.60729755074647
 20
449.58005177596851
 30
0.0
 40
1.5
 50
180.0
 51
295.58300197742682
  0
LINE
  5
E0E
  8
0
 10
942.10729755074647
 20
442.90848435947652
 30
0.0
 11
942.60729755074658
 21
442.90848435947652
 31
0.0
  0
ARC
  5
E0F
  8
0
 10
946.60729755074647
 20
460.90848435947652
 30
0.0
 40
1.5
 50
90.0
 51
180.0
  0
LINE
  5
E10
  8
CENTER
  6
CENTER
 10
974.60729755074658
 20
428.12830299669378
 30
0.0
 11
974.60729755074658
 21
442.12830299669378
 31
0.0
  0
LINE
  5
E11
  8
0
 10
980.60729755074647
 20
434.90848435947652
 30
0.0
 11
980.60729755074647
 21
443.5363691455687
 31
0.0
  0
LINE
  5
E12
  8
0
 10
969.60729755074647
 20
434.90848435947652
 30
0.0
 11
969.60729755074647
 21
446.2751767066926
 31
0.0
  0
LINE
  5
E13
  8
0
 10
978.60729755074647
 20
434.90848435947652
 30
0.0
 11
978.60729755074647
 21
443.5363691455687
 31
0.0
  0
ARC
  5
E14
  8
0
 10
951.35729755074658
 20
439.65848435947652
 30
0.0
 40
9.5
 50
334.4169980226124
 51
30.522487814069859
  0
LINE
  5
E15
  8
0
 10
977.10729755074647
 20
433.40848435947652
 30
0.0
 11
961.27886496723875
 21
433.40848435947652
 31
0.0
  0
LINE
  5
E16
  8
0
 10
968.60729755074658
 20
421.4084843594764
 30
0.0
 11
968.60729755074658
 21
430.40848435947652
 31
0.0
  0
LINE
  5
E17
  8
0
  6
CONTINUOUS
 10
969.60729755074647
 20
420.4084843594764
 30
0.0
 11
968.60729755074658
 21
421.4084843594764
 31
0.0
  0
ARC
  5
E18
  8
0
 10
961.27886496723875
 20
434.90848435947652
 30
0.0
 40
1.5
 50
154.4169980225779
 51
270.0
  0
ARC
  5
E19
  8
0
 10
968.10729755074647
 20
434.90848435947652
 30
0.0
 40
1.5
 50
270.0
 51
0.0
  0
ARC
  5
E1A
  8
0
 10
977.10729755074647
 20
434.90848435947652
 30
0.0
 40
1.5
 50
270.0
 51
0.0
  0
ARC
  5
E1B
  8
0
 10
982.10729755074647
 20
434.90848435947652
 30
0.0
 40
1.5
 50
180.0
 51
270.0
  0
ARC
  5
E1C
  8
0
 10
960.44811623566068
 20
452.6383903409166
 30
0.0
 40
1.5
 50
314.99999999999841
 51
38.5552596602313
  0
LINE
  5
E1D
  8
0
 10
963.27654336040666
 20
449.8099632161705
 30
0.0
 11
959.7723661929258
 21
446.3057860486893
 31
0.0
  0
ARC
  5
E1E
  8
0
 10
960.83302636470557
 20
445.24512587690941
 30
0.0
 40
1.5
 50
134.99999999999841
 51
210.52248781406951
  0
ARC
  5
E1F
  8
0
 10
956.94393906817947
 20
449.13421317343551
 30
0.0
 40
1.5
 50
239.47751218593231
 51
314.99999999999841
  0
LINE
  5
E20
  8
0
 10
961.50877640744056
 20
451.5777301691366
 30
0.0
 11
958.00459923995925
 21
448.07355300165563
 31
0.0
  0
ARC
  5
E21
  8
0
 10
968.10729755074647
 20
446.2751767066926
 30
0.0
 40
1.5
 50
0.0
 51
62.005438267749533
  0
ARC
  5
E22
  8
0
 10
964.33720353218655
 20
448.74930304439062
 30
0.0
 40
1.5
 50
51.444740339770391
 51
134.99999999999841
  0
ARC
  5
E23
  8
0
 10
955.7588175153229
 20
460.40848435947652
 30
0.0
 40
2.0
 50
17.457603123720698
 51
90.0
  0
ARC
  5
E24
  8
0
 10
977.10729755074647
 20
443.5363691455687
 30
0.0
 40
1.5
 50
0.0
 51
84.143298090078574
  0
ARC
  5
E25
  8
0
 10
982.10729755074647
 20
443.5363691455687
 30
0.0
 40
1.5
 50
95.856701909921412
 51
180.0
  0
LINE
  5
E26
  8
DIM
  6
CONTINUOUS
 10
1050.6072975507459
 20
420.4084843594764
 30
0.0
 11
1061.161944066946
 21
420.4084843594764
 31
0.0
  0
LINE
  5
E27
  8
DIM
  6
CONTINUOUS
 10
1017.107297550746
 20
436.76524090523827
 30
0.0
 11
1017.107297550746
 21
371.01811902830389
 31
0.0
  0
LINE
  5
E28
  8
DIM
  6
CONTINUOUS
 10
1052.1072975507459
 20
428.60571708654362
 30
0.0
 11
1052.1072975507459
 21
352.40848435947709
 31
0.0
  0
LINE
  5
E29
  8
DIM
  6
CONTINUOUS
 10
979.60729755074647
 20
369.40848435947709
 30
0.0
 11
1049.1072975507459
 21
369.40848435947709
 31
0.0
  0
TEXT
  5
E2A
  8
DIM
  6
CONTINUOUS
 10
993.82158326503225
 20
354.90848435947709
 30
0.0
 40
3.0
  1
110
  7
ROMANSS
 72
     1
 11
997.10729755074658
 21
356.40848435947709
 31
0.0
 73
     2
  0
TEXT
  5
E2B
  8
DIM
  6
CONTINUOUS
 10
992.17872612217514
 20
370.9084843594772
 30
0.0
 40
3.0
  1
30
  7
ROMANSS
 72
     1
 11
994.60729755074647
 21
372.4084843594772
 31
0.0
 73
     2
  0
LINE
  5
E2C
  8
DIM
  6
CONTINUOUS
 10
1017.107297550746
 20
367.485559417199
 30
0.0
 11
1017.107297550746
 21
360.4084843594772
 31
0.0
  0
SOLID
  5
E2D
  8
DIM
  6
CONTINUOUS
 10
1014.107297550746
 20
361.9084843594772
 30
0.0
 11
1014.107297550746
 21
360.90848435947709
 31
0.0
 12
1017.107297550746
 22
361.40848435947709
 32
0.0
 13
1017.107297550746
 23
361.40848435947709
 33
0.0
  0
SOLID
  5
E2E
  8
DIM
  6
CONTINUOUS
 10
1012.607297550746
 20
369.90848435947709
 30
0.0
 11
1012.607297550746
 21
368.9084843594772
 31
0.0
 12
1009.607297550746
 22
369.40848435947709
 32
0.0
 13
1009.607297550746
 23
369.40848435947709
 33
0.0
  0
LINE
  5
E2F
  8
DIM
  6
CONTINUOUS
 10
1009.607297550746
 20
373.40848435947692
 30
0.0
 11
1009.607297550746
 21
368.4084843594772
 31
0.0
  0
SOLID
  5
E30
  8
DIM
  6
CONTINUOUS
 10
1006.607297550746
 20
369.90848435947709
 30
0.0
 11
1006.607297550746
 21
368.9084843594772
 31
0.0
 12
1009.607297550746
 22
369.40848435947709
 32
0.0
 13
1009.607297550746
 23
369.40848435947709
 33
0.0
  0
LINE
  5
E31
  8
DIM
  6
CONTINUOUS
 10
1009.607297550746
 20
373.40848435947692
 30
0.0
 11
1009.607297550746
 21
368.4084843594772
 31
0.0
  0
TEXT
  5
E32
  8
DIM
  6
CONTINUOUS
 10
1026.285868979317
 20
370.9084843594772
 30
0.0
 40
3.0
  1
42.5
  7
ROMANSS
 72
     1
 11
1030.8572975507459
 21
372.4084843594772
 31
0.0
 73
     2
  0
SOLID
  5
E33
  8
DIM
  6
CONTINUOUS
 10
1049.1072975507459
 20
353.90848435947709
 30
0.0
 11
1049.1072975507459
 21
352.90848435947709
 31
0.0
 12
1052.1072975507459
 22
353.40848435947709
 32
0.0
 13
1052.1072975507459
 23
353.40848435947709
 33
0.0
  0
SOLID
  5
E34
  8
DIM
  6
CONTINUOUS
 10
1049.1072975507459
 20
369.90848435947709
 30
0.0
 11
1049.1072975507459
 21
368.9084843594772
 31
0.0
 12
1052.1072975507459
 22
369.40848435947709
 32
0.0
 13
1052.1072975507459
 23
369.40848435947709
 33
0.0
  0
POLYLINE
  5
E35
  8
0
  6
CONTINUOUS
 66
     1
 10
0.0
 20
0.0
 30
0.0
 70
     1
  0
VERTEX
  5
1468
  8
0
  6
CONTINUOUS
 10
1005.547896473988
 20
443.65848435947652
 30
0.0
  0
VERTEX
  5
1469
  8
0
  6
CONTINUOUS
 10
1003.238495397229
 20
439.65848435947652
 30
0.0
  0
VERTEX
  5
146A
  8
0
  6
CONTINUOUS
 10
1005.547896473988
 20
435.65848435947652
 30
0.0
  0
VERTEX
  5
146B
  8
0
  6
CONTINUOUS
 10
1010.166698627505
 20
435.65848435947652
 30
0.0
  0
VERTEX
  5
146C
  8
0
  6
CONTINUOUS
 10
1012.476099704263
 20
439.65848435947652
 30
0.0
  0
VERTEX
  5
146D
  8
0
  6
CONTINUOUS
 10
1010.166698627505
 20
443.65848435947652
 30
0.0
  0
SEQEND
  5
146E
  8
0
  6
CONTINUOUS
  0
CIRCLE
  5
E3D
  8
0
  6
CONTINUOUS
 10
1007.857297550746
 20
439.65848435947652
 30
0.0
 40
3.399999999999999
  0
ARC
  5
E3E
  8
0
  6
CONTINUOUS
 62
     2
 10
1007.857297550746
 20
439.65848435947652
 30
0.0
 40
4.0
 50
57.77418116062497
 51
14.453881156675809
  0
CIRCLE
  5
E3F
  8
0
 10
1007.857297550746
 20
439.65848435947652
 30
0.0
 40
6.5
  0
ARC
  5
E40
  8
0
 10
1007.857297550746
 20
439.65848435947652
 30
0.0
 40
9.5
 50
149.4775121859295
 51
205.58300197738259
  0
LINE
  5
E41
  8
CENTER
  6
CENTER
 10
1007.857297550746
 20
447.15848435947652
 30
0.0
 11
1007.857297550746
 21
432.15848435947652
 31
0.0
  0
LINE
  5
E42
  8
0
 10
989.60729755074647
 20
434.90848435947652
 30
0.0
 11
989.60729755074647
 21
446.2751767066926
 31
0.0
  0
LINE
  5
E43
  8
CENTER
  6
CENTER
 10
1000.357297550746
 20
439.65848435947652
 30
0.0
 11
1015.357297550746
 21
439.65848435947652
 31
0.0
  0
ARC
  5
E44
  8
0
 10
991.10729755074647
 20
434.90848435947652
 30
0.0
 40
1.5
 50
180.0
 51
270.0
  0
ARC
  5
E45
  8
0
 10
997.93573013425453
 20
434.90848435947652
 30
0.0
 40
1.5
 50
270.0
 51
25.583001977414259
  0
ARC
  5
E46
  8
0
 10
1007.607297550746
 20
439.9084843594764
 30
0.0
 40
9.0
 50
270.0
 51
0.0
  0
ARC
  5
E47
  8
0
 10
1007.607297550746
 20
439.9084843594764
 30
0.0
 40
9.5
 50
270.0
 51
0.0
  0
LINE
  5
E48
  8
0
 10
1012.607297550746
 20
457.90848435947629
 30
0.0
 11
1001.24060520353
 21
457.90848435947629
 31
0.0
  0
ARC
  5
E49
  8
0
 10
1007.857297550746
 20
439.65848435947652
 30
0.0
 40
9.5
 50
64.416998022605981
 51
120.5224878140703
  0
ARC
  5
E4A
  8
0
 10
998.7664788658326
 20
452.63839034091649
 30
0.0
 40
1.5
 50
141.44474033976871
 51
225.00000000000151
  0
ARC
  5
E4B
  8
0
 10
994.8773915693065
 20
448.74930304439062
 30
0.0
 40
1.5
 50
45.000000000001521
 51
128.55525966022961
  0
ARC
  5
E4C
  8
0
 10
991.10729755074647
 20
446.2751767066926
 30
0.0
 40
1.5
 50
117.9945617322504
 51
180.0
  0
ARC
  5
E4D
  8
0
 10
1002.270656033313
 20
449.1342131734354
 30
0.0
 40
1.5
 50
225.00000000000151
 51
300.52248781406757
  0
ARC
  5
E4E
  8
0
 10
998.38156873678759
 20
445.24512587690941
 30
0.0
 40
1.5
 50
329.47751218593049
 51
45.000000000001521
  0
LINE
  5
E4F
  8
0
 10
995.93805174108627
 20
449.8099632161705
 30
0.0
 11
999.44222890856759
 21
446.3057860486893
 31
0.0
  0
LINE
  5
E50
  8
0
 10
997.7058186940526
 20
451.5777301691366
 30
0.0
 11
1001.209995861533
 21
448.07355300165563
 31
0.0
  0
ARC
  5
E51
  8
0
 10
1001.24060520353
 20
456.4084843594764
 30
0.0
 40
1.5
 50
90.0
 51
152.0054382677456
  0
ARC
  5
E52
  8
0
 10
1012.607297550746
 20
449.58005177596851
 30
0.0
 40
1.5
 50
244.4169980225731
 51
0.0
  0
ARC
  5
E53
  8
0
 10
1012.607297550746
 20
456.4084843594764
 30
0.0
 40
1.5
 50
0.0
 51
90.0
  0
LINE
  5
E54
  8
CENTER
  6
CENTER
 10
1044.6072975507459
 20
428.12830299669389
 30
0.0
 11
1044.6072975507459
 21
442.12830299669389
 31
0.0
  0
LINE
  5
E55
  8
0
 10
1050.6072975507459
 20
421.4084843594764
 30
0.0
 11
1050.6072975507459
 21
430.40848435947652
 31
0.0
  0
LINE
  5
E56
  8
0
  6
CONTINUOUS
 10
1049.6072975507459
 20
420.4084843594764
 30
0.0
 11
1050.6072975507459
 21
421.4084843594764
 31
0.0
  0
SOLID
  5
E57
  8
DIM
  6
CONTINUOUS
 10
1059.6072975507459
 20
417.4084843594764
 30
0.0
 11
1060.6072975507459
 21
417.4084843594764
 31
0.0
 12
1060.1072975507459
 22
420.4084843594764
 32
0.0
 13
1060.1072975507459
 23
420.4084843594764
 33
0.0
  0
TEXT
  5
E58
  8
DIM
  6
CONTINUOUS
 10
1058.6072975507459
 20
423.25772328463307
 30
0.0
 40
3.0
  1
10
 50
90.0
  7
ROMANSS
 72
     1
 11
1057.1072975507459
 21
425.40058042749018
 31
0.0
 73
     2
  0
LINE
  5
E59
  8
DIM
  6
CONTINUOUS
 10
1053.1072975507459
 20
430.4084843594764
 30
0.0
 11
1061.1072975507459
 21
430.4084843594764
 31
0.0
  0
SOLID
  5
E5A
  8
DIM
  6
CONTINUOUS
 10
1059.6072975507459
 20
433.4084843594764
 30
0.0
 11
1060.6072975507459
 21
433.4084843594764
 31
0.0
 12
1060.1072975507459
 22
430.4084843594764
 32
0.0
 13
1060.1072975507459
 23
430.4084843594764
 33
0.0
  0
LINE
  5
E5B
  8
0
  6
CONTINUOUS
 10
942.10729755074647
 20
505.40848435947657
 30
0.0
 11
1052.1072975507459
 21
505.40848435947657
 31
0.0
  0
LINE
  5
E5C
  8
0
  6
CONTINUOUS
 10
969.60729755074647
 20
515.40848435947657
 30
0.0
 11
1049.6072975507459
 21
515.40848435947657
 31
0.0
  0
LINE
  5
E5D
  8
0
  6
CONTINUOUS
 10
968.60729755074658
 20
514.40848435947657
 30
0.0
 11
1050.6072975507459
 21
514.40848435947657
 31
0.0
  0
LINE
  5
E5E
  8
0
 10
982.10729755074647
 20
502.4084843594764
 30
0.0
 11
997.93573013425453
 21
502.4084843594764
 31
0.0
  0
LINE
  5
E5F
  8
0
 10
951.60729755074658
 20
504.90848435947652
 30
0.0
 11
1007.607297550746
 21
504.90848435947652
 31
0.0
  0
LINE
  5
E60
  8
CENTER
  6
CENTER
 10
939.10729755074658
 20
467.90848435947657
 30
0.0
 11
1055.1072975507459
 21
467.90848435947652
 31
0.0
  0
LINE
  5
E61
  8
DIM
  6
CONTINUOUS
 10
771.81181948952042
 20
646.10338403307105
 30
0.0
 11
771.81181948952042
 21
710.10338403307105
 31
0.0
  0
LINE
  5
E62
  8
0
 10
722.35170847932113
 20
720.60338403307128
 30
0.0
 11
722.35170847932113
 21
610.60338403307105
 31
0.0
  0
LINE
  5
E63
  8
0
 10
833.85170847932079
 20
685.60338403307117
 30
0.0
 11
833.85170847932113
 21
610.60338403307117
 31
0.0
  0
LINE
  5
E64
  8
0
 10
870.85170847932113
 20
669.60338403307105
 30
0.0
 11
870.85170847932113
 21
626.60338403307105
 31
0.0
  0
LINE
  5
E65
  8
0
 10
865.85170847932079
 20
685.10338403307117
 30
0.0
 11
865.85170847932125
 21
611.10338403307117
 31
0.0
  0
LINE
  5
E66
  8
0
 10
833.85170847932079
 20
683.10338403307128
 30
0.0
 11
833.85170847932079
 21
613.10338403307117
 31
0.0
  0
LINE
  5
E67
  8
DIM
  6
CONTINUOUS
 10
720.35170847932113
 20
643.10338403307105
 30
0.0
 11
773.128762574544
 21
643.10338403307105
 31
0.0
  0
LINE
  5
E68
  8
0
 10
722.35170847932113
 20
666.89349349164456
 30
0.0
 11
833.85170847932079
 21
666.89349349164456
 31
0.0
  0
LINE
  5
E69
  8
0
 10
722.35170847932113
 20
629.31327457449777
 30
0.0
 11
833.85170847932079
 21
629.31327457449777
 31
0.0
  0
LINE
  5
E6A
  8
0
 10
722.35170847932113
 20
613.10338403307117
 30
0.0
 11
833.85170847932079
 21
613.10338403307117
 31
0.0
  0
LINE
  5
E6B
  8
0
 10
722.35170847932113
 20
486.69859381805003
 30
0.0
 11
833.85170847932079
 21
486.69859381805003
 31
0.0
  0
LINE
  5
E6C
  8
0
 10
722.35170847932113
 20
502.90848435947657
 30
0.0
 11
833.85170847932079
 21
502.90848435947657
 31
0.0
  0
LINE
  5
E6D
  8
0
 10
689.35170847932091
 20
557.40848435947669
 30
0.0
 11
689.35170847932091
 21
516.40848435947669
 31
0.0
  0
LINE
  5
E6E
  8
0
 10
718.35170847932113
 20
514.40848435947657
 30
0.0
 11
718.35170847932113
 21
505.40848435947657
 31
0.0
  0
LINE
  5
E6F
  8
CENTER
  6
CENTER
 10
712.35170847932113
 20
507.6886657222592
 30
0.0
 11
712.35170847932113
 21
489.67491635059969
 31
0.0
  0
LINE
  5
E70
  8
0
 10
692.35170847932102
 20
516.40848435947669
 30
0.0
 11
692.35170847932102
 21
515.40848435947657
 31
0.0
  0
LINE
  5
E71
  8
0
  6
CONTINUOUS
 10
717.35170847932113
 20
515.40848435947657
 30
0.0
 11
718.35170847932113
 21
514.40848435947657
 31
0.0
  0
LINE
  5
E72
  8
CENTER
  6
CENTER
 10
698.85170847932113
 20
623.42975196776933
 30
0.0
 11
698.85170847932113
 21
598.83494356221922
 31
0.0
  0
LINE
  5
E73
  8
DIM
  6
CONTINUOUS
 10
689.35170847932091
 20
558.40848435947669
 30
0.0
 11
689.35170847932091
 21
575.40848435947669
 31
0.0
  0
SOLID
  5
E74
  8
DIM
  6
CONTINUOUS
 10
686.35170847932079
 20
566.90848435947669
 30
0.0
 11
686.35170847932079
 21
565.90848435947669
 31
0.0
 12
689.35170847932091
 22
566.40848435947669
 32
0.0
 13
689.35170847932091
 23
566.40848435947669
 33
0.0
  0
LINE
  5
E75
  8
DIM
  6
CONTINUOUS
 10
689.35170847932091
 20
558.40848435947669
 30
0.0
 11
689.35170847932091
 21
567.40848435947669
 31
0.0
  0
LINE
  5
E76
  8
0
  6
CONTINUOUS
 10
688.35170847932091
 20
558.40848435947669
 30
0.0
 11
689.35170847932091
 21
557.40848435947669
 31
0.0
  0
SOLID
  5
E77
  8
DIM
  6
CONTINUOUS
 10
686.35170847932079
 20
574.90848435947669
 30
0.0
 11
686.35170847932079
 21
573.90848435947657
 31
0.0
 12
689.35170847932091
 22
574.40848435947669
 32
0.0
 13
689.35170847932091
 23
574.40848435947669
 33
0.0
  0
ARC
  5
E78
  8
0
  6
CONTINUOUS
 10
698.84566868856416
 20
595.60338524904023
 30
0.0
 40
14.999999999999989
 50
70.504307766946354
 51
89.976929697701607
  0
ARC
  5
E79
  8
0
  6
CONTINUOUS
 10
698.84566868861953
 20
620.60338281710176
 30
0.0
 40
14.999999999999989
 50
270.02307030229878
 51
289.49569223305389
  0
LINE
  5
E7A
  8
0
  6
CONTINUOUS
 10
703.8517084794745
 20
604.10338403307105
 30
0.0
 11
702.3517084794745
 21
602.60338403307105
 31
0.0
  0
LINE
  5
E7B
  8
0
  6
CONTINUOUS
 10
703.8517084794745
 20
604.10338403307105
 30
0.0
 11
693.85170847947427
 21
604.10338403307105
 31
0.0
  0
LINE
  5
E7C
  8
0
  6
CONTINUOUS
 10
707.10170847947438
 20
605.60338403307105
 30
0.0
 11
690.60170847947427
 21
605.60338403307105
 31
0.0
  0
LINE
  5
E7D
  8
0
  6
CONTINUOUS
 10
693.8517084794745
 20
604.10338403307105
 30
0.0
 11
695.3517084794745
 21
602.60338403307105
 31
0.0
  0
ARC
  5
E7E
  8
0
  6
CONTINUOUS
 10
698.85774827027421
 20
595.60338524904023
 30
0.0
 40
14.999999999999989
 50
90.023070302299274
 51
109.4956922330544
  0
ARC
  5
E7F
  8
0
  6
CONTINUOUS
 10
698.85774827032935
 20
620.60338281710176
 30
0.0
 40
14.999999999999989
 50
250.50430776694591
 51
269.97692969770111
  0
LINE
  5
E80
  8
0
  6
CONTINUOUS
 10
693.85170847947461
 20
609.74338403309002
 30
0.0
 11
693.8517084794745
 21
606.46338403307163
 31
0.0
  0
LINE
  5
E81
  8
0
  6
CONTINUOUS
 10
689.05170847947522
 20
609.7084648645116
 30
0.0
 11
689.05170847947522
 21
606.49830320166245
 31
0.0
  0
LINE
  5
E82
  8
0
  6
CONTINUOUS
 10
689.05170847941974
 20
609.70846486447954
 30
0.0
 11
690.60170847941913
 21
610.60338403307105
 31
0.0
  0
ARC
  5
E83
  8
0
  6
CONTINUOUS
 10
691.54524926592171
 20
607.08160594968103
 30
0.0
 40
3.5220472269320542
 50
49.090720066529038
 51
119.2051441578358
  0
LINE
  5
E84
  8
0
  6
CONTINUOUS
 10
693.8517084794745
 20
605.60338403307105
 30
0.0
 11
693.8517084794745
 21
604.10338403307105
 31
0.0
  0
ARC
  5
E85
  8
0
  6
CONTINUOUS
 10
691.54524926597696
 20
609.12516211646107
 30
0.0
 40
3.5220472269320542
 50
240.79485584216221
 51
310.90927993347088
  0
LINE
  5
E86
  8
0
  6
CONTINUOUS
 10
689.05170847947522
 20
606.49830320166245
 30
0.0
 11
690.60170847947438
 21
605.60338403307105
 31
0.0
  0
LINE
  5
E87
  8
0
  6
CONTINUOUS
 62
     2
 10
694.8517084794745
 20
605.60338403307105
 30
0.0
 11
694.8517084794745
 21
603.10338403307105
 31
0.0
  0
LINE
  5
E88
  8
0
  6
CONTINUOUS
 10
702.3517084794745
 20
602.60338403307105
 30
0.0
 11
695.35170847947438
 21
602.60338403307105
 31
0.0
  0
LINE
  5
E89
  8
0
  6
CONTINUOUS
 10
708.65170847947377
 20
609.70846486444736
 30
0.0
 11
708.65170847947377
 21
606.49830320166245
 31
0.0
  0
LINE
  5
E8A
  8
0
  6
CONTINUOUS
 10
708.65170847941829
 20
609.70846486447954
 30
0.0
 11
707.10170847941913
 21
610.60338403307105
 31
0.0
  0
LINE
  5
E8B
  8
0
  6
CONTINUOUS
 10
708.65170847947377
 20
606.49830320166245
 30
0.0
 11
707.10170847947438
 21
605.60338403307105
 31
0.0
  0
LINE
  5
E8C
  8
0
  6
CONTINUOUS
 10
703.85170847947461
 20
609.74338403305092
 30
0.0
 11
703.8517084794745
 21
606.46338403307163
 31
0.0
  0
LINE
  5
E8D
  8
0
  6
CONTINUOUS
 10
703.8517084794745
 20
605.60338403307105
 30
0.0
 11
703.8517084794745
 21
604.10338403307105
 31
0.0
  0
LINE
  5
E8E
  8
0
  6
CONTINUOUS
 62
     2
 10
702.8517084794745
 20
605.60338403307105
 30
0.0
 11
702.8517084794745
 21
603.10338403307105
 31
0.0
  0
ARC
  5
E8F
  8
0
  6
CONTINUOUS
 10
706.15816769291655
 20
607.08160594968103
 30
0.0
 40
3.5220472269320542
 50
60.794855842164111
 51
130.90927993347091
  0
ARC
  5
E90
  8
0
  6
CONTINUOUS
 10
706.15816769297192
 20
609.12516211646107
 30
0.0
 40
3.5220472269320542
 50
229.090720066529
 51
299.20514415783771
  0
LINE
  5
E91
  8
CENTER
  6
CENTER
 10
705.35170847932113
 20
643.10338403307105
 30
0.0
 11
719.35170847932113
 21
643.10338403307105
 31
0.0
  0
LINE
  5
E92
  8
CENTER
  6
CENTER
 10
712.35170847932113
 20
650.10338403307105
 30
0.0
 11
712.35170847932113
 21
636.10338403307105
 31
0.0
  0
CIRCLE
  5
E93
  8
0
  6
CONTINUOUS
 10
712.35170847932113
 20
643.10338403307105
 30
0.0
 40
3.399999999999999
  0
ARC
  5
E94
  8
0
  6
CONTINUOUS
 62
     2
 10
712.35170847932113
 20
643.10338403307105
 30
0.0
 40
4.0
 50
65.677517025119968
 51
24.771420425728412
  0
LINE
  5
E95
  8
CENTER
  6
CENTER
 10
696.79714496195095
 20
658.65794755044112
 30
0.0
 11
705.28242633618959
 21
650.17266617620248
 31
0.0
  0
CIRCLE
  5
E96
  8
0
  6
CONTINUOUS
 10
701.03978564907038
 20
654.41530686332169
 30
0.0
 40
2.5
  0
ARC
  5
E97
  8
0
  6
CONTINUOUS
 62
     2
 10
701.03978564907038
 20
654.41530686332169
 30
0.0
 40
3.0
 50
210.845012326004
 51
153.036401108983
  0
LINE
  5
E98
  8
DIM
  6
CONTINUOUS
 10
855.46073429575563
 20
483.78416904067461
 30
0.0
 11
877.09409892870565
 21
519.2475814156976
 31
0.0
  0
CIRCLE
  5
E99
  8
0
 10
849.85170847932125
 20
474.90848435947669
 30
0.0
 40
6.5
  0
CIRCLE
  5
E9A
  8
0
 10
849.85170847932125
 20
474.90848435947657
 30
0.0
 40
7.5
  0
ARC
  5
E9B
  8
0
 62
     2
 10
849.85170847932125
 20
474.90848435947657
 30
0.0
 40
8.25
 50
257.92480383695369
 51
198.6623931654444
  0
LINE
  5
E9C
  8
0
 10
833.85170847932113
 20
505.40848435947657
 30
0.0
 11
865.85170847932125
 21
504.90848435947657
 31
0.0
  0
LINE
  5
E9D
  8
CENTER
  6
CENTER
 10
837.35170847932125
 20
474.90848435947657
 30
0.0
 11
862.35170847932125
 21
474.90848435947657
 31
0.0
  0
CIRCLE
  5
E9E
  8
0
 10
849.85170847932125
 20
474.90848435947657
 30
0.0
 40
8.4999999999999574
  0
SOLID
  5
E9F
  8
DIM
  6
CONTINUOUS
 10
878.35170847932125
 20
487.40848435947657
 30
0.0
 11
879.35170847932125
 21
487.40848435947657
 31
0.0
 12
878.85170847932113
 22
490.40848435947657
 32
0.0
 13
878.85170847932113
 23
490.40848435947657
 33
0.0
  0
SOLID
  5
EA0
  8
DIM
  6
CONTINUOUS
 10
855.88758244544942
 20
483.52378344755738
 30
0.0
 11
855.03388614606183
 21
484.04455463379162
 31
0.0
 12
853.89842073705302
 22
481.22308014251149
 32
0.0
 13
853.89842073705302
 23
481.22308014251149
 33
0.0
  0
LINE
  5
EA1
  8
0
 10
865.85170847932079
 20
490.40848435947657
 30
0.0
 11
869.85170847932113
 21
490.40848435947657
 31
0.0
  0
LINE
  5
EA2
  8
DIM
  6
CONTINUOUS
 10
871.47619631655618
 20
490.40848435947657
 30
0.0
 11
879.85170847932113
 21
490.40848435947657
 31
0.0
  0
ARC
  5
EA3
  8
0
 10
869.85170847932113
 20
489.40848435947657
 30
0.0
 40
1.0
 50
0.0
 51
90.0
  0
TEXT
  5
EA4
  8
DIM
  6
CONTINUOUS
 10
860.09150717194893
 20
520.7475814156976
 30
0.0
 40
3.0
  1
2-G3/8
  7
ROMANSS
 11
860.09150717194893
 21
522.24758141569748
 31
0.0
 73
     2
  0
LINE
  5
EA5
  8
DIM
  6
CONTINUOUS
 10
859.55228649620256
 20
519.2475814156976
 30
0.0
 11
877.09409892870565
 21
519.2475814156976
 31
0.0
  0
LINE
  5
EA6
  8
DIM
  6
CONTINUOUS
 10
947.85325054167345
 20
502.21527151130641
 30
0.0
 11
933.66936039378561
 21
525.03044410045425
 31
0.0
  0
LINE
  5
EA7
  8
0
 10
968.60729755074658
 20
514.40848435947657
 30
0.0
 11
968.60729755074658
 21
505.40848435947657
 31
0.0
  0
LINE
  5
EA8
  8
CENTER
  6
CENTER
 10
939.05257561897838
 20
474.90848435947657
 30
0.0
 11
962.58066088850421
 21
474.90848435947657
 31
0.0
  0
POLYLINE
  5
EA9
  8
0
  6
CONTINUOUS
 66
     1
 10
0.0
 20
0.0
 30
0.0
 70
     1
  0
VERTEX
  5
146F
  8
0
  6
CONTINUOUS
 10
949.0478964739882
 20
500.1584843594764
 30
0.0
  0
VERTEX
  5
1470
  8
0
  6
CONTINUOUS
 10
946.73849539722949
 20
496.1584843594764
 30
0.0
  0
VERTEX
  5
1471
  8
0
  6
CONTINUOUS
 10
949.0478964739882
 20
492.1584843594764
 30
0.0
  0
VERTEX
  5
1472
  8
0
  6
CONTINUOUS
 10
953.66669862750507
 20
492.1584843594764
 30
0.0
  0
VERTEX
  5
1473
  8
0
  6
CONTINUOUS
 10
955.97609970426345
 20
496.1584843594764
 30
0.0
  0
VERTEX
  5
1474
  8
0
  6
CONTINUOUS
 10
953.66669862750507
 20
500.1584843594764
 30
0.0
  0
SEQEND
  5
1475
  8
0
  6
CONTINUOUS
  0
CIRCLE
  5
EB1
  8
0
  6
CONTINUOUS
 10
951.35729755074658
 20
496.1584843594764
 30
0.0
 40
3.399999999999999
  0
ARC
  5
EB2
  8
0
  6
CONTINUOUS
 62
     2
 10
951.35729755074658
 20
496.1584843594764
 30
0.0
 40
4.0
 50
57.77418116062497
 51
14.453881156675809
  0
CIRCLE
  5
EB3
  8
0
 10
951.35729755074658
 20
496.1584843594764
 30
0.0
 40
6.5
  0
ARC
  5
EB4
  8
0
 10
951.35729755074658
 20
496.1584843594764
 30
0.0
 40
9.5
 50
244.41699802260129
 51
300.52248781407019
  0
LINE
  5
EB5
  8
CENTER
  6
CENTER
 10
943.85729755074647
 20
496.1584843594764
 30
0.0
 11
958.85729755074658
 21
496.1584843594764
 31
0.0
  0
LINE
  5
EB6
  8
0
 10
946.60729755074647
 20
468.9084843594764
 30
0.0
 11
954.78795025876491
 21
468.9084843594764
 31
0.0
  0
LINE
  5
EB7
  8
0
 10
946.60729755074647
 20
466.90848435947652
 30
0.0
 11
955.23518233683876
 21
466.90848435947652
 31
0.0
  0
ARC
  5
EB8
  8
0
 10
946.60729755074647
 20
486.23691694298441
 30
0.0
 40
1.5
 50
64.416998022602257
 51
180.0
  0
LINE
  5
EB9
  8
0
 10
945.10729755074658
 20
486.23691694298441
 30
0.0
 11
945.10729755074658
 21
470.40848435947652
 31
0.0
  0
ARC
  5
EBA
  8
0
 10
946.60729755074647
 20
465.40848435947652
 30
0.0
 40
1.5
 50
90.0
 51
180.0
  0
ARC
  5
EBB
  8
0
 10
946.60729755074647
 20
470.40848435947652
 30
0.0
 40
1.5
 50
180.0
 51
270.0
  0
LINE
  5
EBC
  8
DIM
  6
CONTINUOUS
 10
942.85729755074647
 20
496.1584843594764
 30
0.0
 11
924.66415092780494
 21
496.1584843594764
 31
0.0
  0
SOLID
  5
EBD
  8
DIM
  6
CONTINUOUS
 10
925.60729755074658
 20
493.15848435947652
 30
0.0
 11
926.60729755074658
 21
493.15848435947652
 31
0.0
 12
926.10729755074647
 22
496.1584843594764
 32
0.0
 13
926.10729755074647
 23
496.1584843594764
 33
0.0
  0
LINE
  5
EBE
  8
CENTER
  6
CENTER
 10
951.35729755074658
 20
503.65848435947652
 30
0.0
 11
951.35729755074658
 21
488.65848435947652
 31
0.0
  0
ARC
  5
EBF
  8
0
 10
951.60729755074658
 20
495.90848435947652
 30
0.0
 40
9.0
 50
90.0
 51
180.0
  0
ARC
  5
EC0
  8
0
 10
951.60729755074658
 20
495.90848435947652
 30
0.0
 40
9.5
 50
90.0
 51
180.0
  0
LINE
  5
EC1
  8
0
 10
942.10729755074647
 20
492.90848435947652
 30
0.0
 11
942.60729755074658
 21
492.90848435947652
 31
0.0
  0
SOLID
  5
EC2
  8
DIM
  6
CONTINUOUS
 10
948.27788080697167
 20
502.4792585143818
 30
0.0
 11
947.42862027637534
 21
501.95128450823091
 31
0.0
 12
949.43717256012633
 22
499.6674899195171
 32
0.0
 13
949.43717256012633
 23
499.6674899195171
 33
0.0
  0
LINE
  5
EC3
  8
0
 10
961.19575735694957
 20
484.55225760030709
 30
0.0
 11
958.00459923995925
 21
487.74341571729741
 31
0.0
  0
LINE
  5
EC4
  8
0
 10
963.27654336040666
 20
486.00700550278259
 30
0.0
 11
959.7723661929258
 21
489.51118267026368
 31
0.0
  0
ARC
  5
EC5
  8
0
 10
954.78795025876491
 20
470.90848435947652
 30
0.0
 40
2.0
 50
270.0
 51
353.10789742065339
  0
ARC
  5
EC6
  8
0
 10
955.23518233683876
 20
465.40848435947652
 30
0.0
 40
1.5
 50
5.8567019099190381
 51
90.0
  0
ARC
  5
EC7
  8
0
 10
959.78154379457646
 20
483.13804403793409
 30
0.0
 40
2.0
 50
322.46959231641563
 51
45.0
  0
ARC
  5
EC8
  8
0
 10
964.33720353218655
 20
487.06766567456242
 30
0.0
 40
1.5
 50
225.00000000000151
 51
308.55525966022958
  0
LINE
  5
EC9
  8
0
 10
977.10729755074647
 20
502.4084843594764
 30
0.0
 11
961.27886496723875
 21
502.4084843594764
 31
0.0
  0
LINE
  5
ECA
  8
0
 10
969.60729755074647
 20
500.90848435947652
 30
0.0
 11
969.60729755074647
 21
489.54179201226037
 31
0.0
  0
ARC
  5
ECB
  8
0
 10
951.35729755074658
 20
496.1584843594764
 30
0.0
 40
9.5
 50
329.4775121859301
 51
25.583001977393081
  0
ARC
  5
ECC
  8
0
 10
960.83302636470557
 20
490.57184284204351
 30
0.0
 40
1.5
 50
149.47751218593049
 51
225.00000000000151
  0
ARC
  5
ECD
  8
0
 10
956.94393906817947
 20
486.68275554551758
 30
0.0
 40
1.5
 50
44.999999999995389
 51
120.5224878140676
  0
ARC
  5
ECE
  8
0
 10
968.10729755074647
 20
489.54179201226037
 30
0.0
 40
1.5
 50
297.99456173225042
 51
0.0
  0
ARC
  5
ECF
  8
0
 10
961.27886496723875
 20
500.90848435947652
 30
0.0
 40
1.5
 50
90.0
 51
205.58300197742781
  0
ARC
  5
ED0
  8
0
 10
968.10729755074647
 20
500.90848435947652
 30
0.0
 40
1.5
 50
0.0
 51
90.0
  0
LINE
  5
ED1
  8
CENTER
  6
CENTER
 10
974.60729755074658
 20
507.6886657222592
 30
0.0
 11
974.60729755074658
 21
493.68866572225932
 31
0.0
  0
LINE
  5
ED2
  8
0
 10
978.60729755074647
 20
500.90848435947652
 30
0.0
 11
978.60729755074647
 21
492.28059957338428
 31
0.0
  0
LINE
  5
ED3
  8
0
 10
980.60729755074647
 20
500.90848435947652
 30
0.0
 11
980.60729755074647
 21
492.28059957338428
 31
0.0
  0
ARC
  5
ED4
  8
0
 10
977.10729755074647
 20
492.28059957338428
 30
0.0
 40
1.5
 50
275.8567019099213
 51
0.0
  0
ARC
  5
ED5
  8
0
 10
982.10729755074647
 20
492.28059957338428
 30
0.0
 40
1.5
 50
180.0
 51
264.14329809007847
  0
ARC
  5
ED6
  8
0
 10
977.10729755074647
 20
500.90848435947652
 30
0.0
 40
1.5
 50
0.0
 51
90.0
  0
ARC
  5
ED7
  8
0
 10
982.10729755074647
 20
500.90848435947652
 30
0.0
 40
1.5
 50
90.0
 51
180.0
  0
TEXT
  5
ED8
  8
DIM
  6
CONTINUOUS
 10
932.13169351124577
 20
526.53044410045425
 30
0.0
 40
3.0
  1
2x4-M8x15L
  7
ROMANSS
 72
     2
 11
959.56026493981722
 21
528.03044410045425
 31
0.0
 73
     2
  0
LINE
  5
ED9
  8
DIM
  6
CONTINUOUS
 10
959.71081328874311
 20
525.03044410045425
 30
0.0
 11
933.66936039378561
 21
525.03044410045425
 31
0.0
  0
LINE
  5
EDA
  8
0
  6
CONTINUOUS
 10
969.60729755074647
 20
515.40848435947657
 30
0.0
 11
968.60729755074658
 21
514.40848435947657
 31
0.0
  0
LINE
  5
EDB
  8
0
 10
833.85170847932113
 20
610.60338403307117
 30
0.0
 11
865.85170847932125
 21
611.10338403307117
 31
0.0
  0
SOLID
  5
EDC
  8
DIM
  6
CONTINUOUS
 10
771.31181948952042
 20
646.10338403307105
 30
0.0
 11
772.31181948952042
 21
646.10338403307105
 31
0.0
 12
771.81181948952042
 22
643.10338403307105
 32
0.0
 13
771.81181948952042
 23
643.10338403307105
 33
0.0
  0
LINE
  5
EDD
  8
0
 10
865.85170847932125
 20
625.60338403307105
 30
0.0
 11
869.85170847932113
 21
625.60338403307105
 31
0.0
  0
ARC
  5
EDE
  8
0
 10
869.85170847932113
 20
626.60338403307105
 30
0.0
 40
1.0
 50
270.0
 51
0.0
  0
LINE
  5
EDF
  8
DIM
  6
CONTINUOUS
 10
720.35170847932113
 20
713.10338403307105
 30
0.0
 11
773.128762574544
 21
713.10338403307105
 31
0.0
  0
LINE
  5
EE0
  8
0
 10
722.35170847932113
 20
683.10338403307105
 30
0.0
 11
833.85170847932079
 21
683.10338403307105
 31
0.0
  0
LINE
  5
EE1
  8
DIM
  6
CONTINUOUS
 10
745.69844525046767
 20
701.59306404487745
 30
0.0
 11
765.07339496097438
 21
701.59306404487745
 31
0.0
  0
TEXT
  5
EE2
  8
DIM
  6
CONTINUOUS
 10
748.46840477668593
 20
703.09306404487745
 30
0.0
 40
3.0
  1
M8x15L
  7
ROMANSS
 11
748.46840477668593
 21
704.59306404487756
 31
0.0
 73
     2
  0
TEXT
  5
EE3
  8
DIM
  6
CONTINUOUS
 10
730.30890133057665
 20
730.64784820095383
 30
0.0
 40
3.0
  1
2x4-M8x15L
  7
ROMANSS
 11
730.30890133057665
 21
732.14784820095383
 31
0.0
 73
     2
  0
LINE
  5
EE4
  8
DIM
  6
CONTINUOUS
 10
730.21890133057673
 20
729.14784820095383
 30
0.0
 11
754.93390133057665
 21
729.14784820095383
 31
0.0
  0
CIRCLE
  5
EE5
  8
0
  6
CONTINUOUS
 10
712.35170847932113
 20
713.10338403307105
 30
0.0
 40
3.399999999999999
  0
ARC
  5
EE6
  8
0
  6
CONTINUOUS
 62
     2
 10
712.35170847932113
 20
713.10338403307105
 30
0.0
 40
4.0
 50
155.67751702511779
 51
114.77142042572839
  0
LINE
  5
EE7
  8
CENTER
  6
CENTER
 10
712.35170847932113
 20
720.10338403307105
 30
0.0
 11
712.35170847932113
 21
706.10338403307105
 31
0.0
  0
LINE
  5
EE8
  8
CENTER
  6
CENTER
 10
705.35170847932113
 20
713.10338403307105
 30
0.0
 11
719.35170847932113
 21
713.10338403307105
 31
0.0
  0
LINE
  5
EE9
  8
DIM
  6
CONTINUOUS
 10
726.35170847932113
 20
678.10338403307105
 30
0.0
 11
746.04711968455285
 21
678.10338403307105
 31
0.0
  0
SOLID
  5
EEA
  8
DIM
  6
CONTINUOUS
 10
744.48076821963491
 20
681.09156843470782
 30
0.0
 11
745.48052269935056
 21
681.11372650972794
 31
0.0
 12
745.04711968455285
 22
678.10338403307105
 32
0.0
 13
745.04711968455285
 23
678.10338403307105
 33
0.0
  0
LINE
  5
EEB
  8
DIM
  6
CONTINUOUS
 10
717.3726772203961
 20
717.95620713220683
 30
0.0
 11
727.21890133057673
 21
729.14784820095383
 31
0.0
  0
LINE
  5
EEC
  8
DIM
  6
CONTINUOUS
 10
712.35170847932113
 20
721.10338403307105
 30
0.0
 11
712.35170847932113
 21
729.60338403307128
 31
0.0
  0
SOLID
  5
EED
  8
DIM
  6
CONTINUOUS
 10
717.74807423377251
 20
717.62593893460371
 30
0.0
 11
716.99728020701968
 21
718.28647532980995
 31
0.0
 12
715.39106803477705
 22
715.70382505194812
 32
0.0
 13
715.39106803477705
 23
715.70382505194812
 33
0.0
  0
SOLID
  5
EEE
  8
DIM
  6
CONTINUOUS
 10
709.35170847932113
 20
729.10338403307128
 30
0.0
 11
709.35170847932113
 21
728.10338403307128
 31
0.0
 12
712.35170847932113
 22
728.60338403307128
 32
0.0
 13
712.35170847932113
 23
728.60338403307128
 33
0.0
  0
LINE
  5
EEF
  8
DIM
  6
CONTINUOUS
 10
727.21890133057673
 20
729.14784820095383
 30
0.0
 11
730.21890133057673
 21
729.14784820095383
 31
0.0
  0
LINE
  5
EF0
  8
0
 10
833.85170847932113
 20
685.60338403307117
 30
0.0
 11
865.85170847932125
 21
685.10338403307117
 31
0.0
  0
LINE
  5
EF1
  8
0
 10
865.85170847932079
 20
670.60338403307105
 30
0.0
 11
869.85170847932113
 21
670.60338403307105
 31
0.0
  0
TEXT
  5
EF2
  8
DIM
  6
CONTINUOUS
 10
770.31181948952042
 20
685.52137372498112
 30
0.0
 40
3.0
  1
70
 50
90.0
  7
ROMANSS
 72
     1
 11
768.81181948952042
 21
687.94994515355245
 31
0.0
 73
     2
  0
ARC
  5
EF3
  8
0
 10
869.85170847932113
 20
669.60338403307105
 30
0.0
 40
1.0
 50
0.0
 51
90.0
  0
SOLID
  5
EF4
  8
DIM
  6
CONTINUOUS
 10
771.31181948952042
 20
710.10338403307105
 30
0.0
 11
772.31181948952042
 21
710.10338403307105
 31
0.0
 12
771.81181948952042
 22
713.10338403307105
 32
0.0
 13
771.81181948952042
 23
713.10338403307105
 33
0.0
  0
SOLID
  5
EF5
  8
DIM
  6
CONTINUOUS
 10
1067.607297550747
 20
555.40848435947657
 30
0.0
 11
1068.607297550747
 21
555.40848435947657
 31
0.0
 12
1068.107297550747
 22
558.40848435947669
 32
0.0
 13
1068.107297550747
 23
558.40848435947669
 33
0.0
  0
LINE
  5
EF6
  8
0
 10
997.60729755074647
 20
557.40848435947669
 30
0.0
 11
997.60729755074647
 21
516.40848435947669
 31
0.0
  0
LINE
  5
EF7
  8
0
 10
1021.607297550746
 20
557.40848435947669
 30
0.0
 11
1021.607297550746
 21
516.40848435947669
 31
0.0
  0
LINE
  5
EF8
  8
DIM
  6
CONTINUOUS
 10
1050.6072975507459
 20
515.40848435947657
 30
0.0
 11
1061.1072975507459
 21
515.40848435947657
 31
0.0
  0
LINE
  5
EF9
  8
0
 10
1050.6072975507459
 20
514.40848435947657
 30
0.0
 11
1050.6072975507459
 21
505.40848435947657
 31
0.0
  0
ARC
  5
EFA
  8
0
 10
1012.607297550746
 20
486.23691694298441
 30
0.0
 40
1.5
 50
0.0
 51
115.5830019774171
  0
LINE
  5
EFB
  8
0
 10
997.70581869405282
 20
484.23923854981632
 30
0.0
 11
1001.209995861533
 21
487.74341571729741
 31
0.0
  0
LINE
  5
EFC
  8
0
 10
995.93805174108627
 20
486.00700550278259
 30
0.0
 11
999.44222890856759
 21
489.51118267026368
 31
0.0
  0
ARC
  5
EFD
  8
0
 10
1007.857297550746
 20
496.1584843594764
 30
0.0
 40
9.5
 50
239.47751218592961
 51
295.58300197738799
  0
LINE
  5
EFE
  8
0
 10
1012.607297550746
 20
477.90848435947652
 30
0.0
 11
1001.24060520353
 21
477.90848435947652
 31
0.0
  0
ARC
  5
EFF
  8
0
 10
1003.9794127646539
 20
470.40848435947652
 30
0.0
 40
1.5
 50
185.856701909919
 51
270.0
  0
ARC
  5
F00
  8
0
 10
1003.9794127646539
 20
465.40848435947629
 30
0.0
 40
1.5
 50
90.0
 51
174.14329809008089
  0
ARC
  5
F01
  8
0
 10
994.8773915693065
 20
487.06766567456242
 30
0.0
 40
1.5
 50
231.44474033977039
 51
314.99999999999841
  0
ARC
  5
F02
  8
0
 10
1001.24060520353
 20
479.40848435947652
 30
0.0
 40
1.5
 50
207.99456173225431
 51
270.0
  0
ARC
  5
F03
  8
0
 10
998.7664788658326
 20
483.17857837803638
 30
0.0
 40
1.5
 50
134.99999999999841
 51
218.5552596602312
  0
LINE
  5
F04
  8
0
 10
1014.107297550746
 20
470.40848435947652
 30
0.0
 11
1014.107297550746
 21
486.23691694298441
 31
0.0
  0
LINE
  5
F05
  8
0
 10
1012.607297550746
 20
468.9084843594764
 30
0.0
 11
1003.9794127646539
 21
468.9084843594764
 31
0.0
  0
LINE
  5
F06
  8
0
 10
1012.607297550746
 20
466.9084843594764
 30
0.0
 11
1003.9794127646539
 21
466.9084843594764
 31
0.0
  0
ARC
  5
F07
  8
0
 10
1012.607297550746
 20
470.40848435947652
 30
0.0
 40
1.5
 50
270.0
 51
0.0
  0
ARC
  5
F08
  8
0
 10
1012.607297550746
 20
465.40848435947629
 30
0.0
 40
1.5
 50
0.0
 51
90.0
  0
ARC
  5
F09
  8
0
 10
1012.607297550746
 20
479.40848435947652
 30
0.0
 40
1.5
 50
270.0
 51
0.0
  0
POLYLINE
  5
F0A
  8
0
  6
CONTINUOUS
 66
     1
 10
0.0
 20
0.0
 30
0.0
 70
     1
  0
VERTEX
  5
1476
  8
0
  6
CONTINUOUS
 10
1005.547896473988
 20
500.1584843594764
 30
0.0
  0
VERTEX
  5
1477
  8
0
  6
CONTINUOUS
 10
1003.238495397229
 20
496.1584843594764
 30
0.0
  0
VERTEX
  5
1478
  8
0
  6
CONTINUOUS
 10
1005.547896473988
 20
492.1584843594764
 30
0.0
  0
VERTEX
  5
1479
  8
0
  6
CONTINUOUS
 10
1010.166698627505
 20
492.1584843594764
 30
0.0
  0
VERTEX
  5
147A
  8
0
  6
CONTINUOUS
 10
1012.476099704263
 20
496.1584843594764
 30
0.0
  0
VERTEX
  5
147B
  8
0
  6
CONTINUOUS
 10
1010.166698627505
 20
500.1584843594764
 30
0.0
  0
SEQEND
  5
147C
  8
0
  6
CONTINUOUS
  0
CIRCLE
  5
F12
  8
0
 10
1007.857297550746
 20
496.1584843594764
 30
0.0
 40
6.5
  0
LINE
  5
F13
  8
CENTER
  6
CENTER
 10
1000.357297550746
 20
496.1584843594764
 30
0.0
 11
1015.357297550746
 21
496.1584843594764
 31
0.0
  0
ARC
  5
F14
  8
0
 10
1007.857297550746
 20
496.1584843594764
 30
0.0
 40
9.5
 50
154.41699802261181
 51
210.5224878140705
  0
LINE
  5
F15
  8
0
 10
989.60729755074647
 20
500.90848435947652
 30
0.0
 11
989.60729755074647
 21
489.54179201226037
 31
0.0
  0
ARC
  5
F16
  8
0
 10
991.10729755074647
 20
489.54179201226037
 30
0.0
 40
1.5
 50
180.0
 51
242.0054382677495
  0
ARC
  5
F17
  8
0
 10
998.38156873678759
 20
490.57184284204351
 30
0.0
 40
1.5
 50
314.99999999999841
 51
30.522487814069471
  0
ARC
  5
F18
  8
0
 10
1002.270656033313
 20
486.68275554551741
 30
0.0
 40
1.5
 50
59.47751218593239
 51
134.99999999999841
  0
ARC
  5
F19
  8
0
 10
991.10729755074647
 20
500.90848435947652
 30
0.0
 40
1.5
 50
90.0
 51
180.0
  0
ARC
  5
F1A
  8
0
 10
997.93573013425453
 20
500.90848435947652
 30
0.0
 40
1.5
 50
334.41699802257989
 51
90.0
  0
CIRCLE
  5
F1B
  8
0
  6
CONTINUOUS
 10
1007.857297550746
 20
496.1584843594764
 30
0.0
 40
3.399999999999999
  0
ARC
  5
F1C
  8
0
  6
CONTINUOUS
 62
     2
 10
1007.857297550746
 20
496.1584843594764
 30
0.0
 40
4.0
 50
57.77418116062497
 51
14.453881156675809
  0
LINE
  5
F1D
  8
CENTER
  6
CENTER
 10
1007.857297550746
 20
503.65848435947652
 30
0.0
 11
1007.857297550746
 21
488.65848435947652
 31
0.0
  0
ARC
  5
F1E
  8
0
 10
1007.607297550746
 20
495.90848435947652
 30
0.0
 40
9.0
 50
0.0
 51
90.0
  0
ARC
  5
F1F
  8
0
 10
1007.607297550746
 20
495.90848435947652
 30
0.0
 40
9.5
 50
0.0
 51
90.0
  0
LINE
  5
F20
  8
CENTER
  6
CENTER
 10
1044.6072975507459
 20
507.6886657222592
 30
0.0
 11
1044.6072975507459
 21
493.68866572225932
 31
0.0
  0
LINE
  5
F21
  8
0
  6
CONTINUOUS
 10
994.60729755074647
 20
516.40848435947646
 30
0.0
 11
1024.6072975507459
 21
516.40848435947669
 31
0.0
  0
LINE
  5
F22
  8
0
 10
994.60729755074647
 20
516.40848435947669
 30
0.0
 11
994.60729755074647
 21
515.40848435947657
 31
0.0
  0
LINE
  5
F23
  8
0
 10
1024.6072975507459
 20
516.40848435947669
 30
0.0
 11
1024.6072975507459
 21
515.40848435947657
 31
0.0
  0
LINE
  5
F24
  8
0
  6
CONTINUOUS
 10
1049.6072975507459
 20
515.40848435947657
 30
0.0
 11
1050.6072975507459
 21
514.40848435947657
 31
0.0
  0
TEXT
  5
F25
  8
DIM
  6
CONTINUOUS
 10
1058.6072975507459
 20
507.98784933286248
 30
0.0
 40
3.0
  1
10
 50
90.0
  7
ROMANSS
 72
     1
 11
1057.1072975507459
 21
510.13070647571971
 31
0.0
 73
     2
  0
TEXT
  5
F26
  8
DIM
  6
CONTINUOUS
 10
1066.607297550747
 20
464.70751295553981
 30
0.0
 40
3.0
  1
181
 50
90.0
  7
ROMANSS
 72
     1
 11
1065.107297550747
 21
467.6360843841112
 31
0.0
 73
     2
  0
TEXT
  5
F27
  8
DIM
  6
CONTINUOUS
 10
1058.6072975507459
 20
465.33707104239471
 30
0.0
 40
3.0
  1
75
 50
90.0
  7
ROMANSS
 72
     1
 11
1057.1072975507459
 21
467.7656424709661
 31
0.0
 73
     2
  0
LINE
  5
F28
  8
DIM
  6
CONTINUOUS
 10
1053.1072975507459
 20
505.40848435947657
 30
0.0
 11
1061.1072975507459
 21
505.40848435947657
 31
0.0
  0
SOLID
  5
F29
  8
DIM
  6
CONTINUOUS
 10
1059.6072975507459
 20
502.40848435947657
 30
0.0
 11
1060.6072975507459
 21
502.40848435947657
 31
0.0
 12
1060.1072975507459
 22
505.40848435947657
 32
0.0
 13
1060.1072975507459
 23
505.40848435947657
 33
0.0
  0
SOLID
  5
F2A
  8
DIM
  6
CONTINUOUS
 10
1059.6072975507459
 20
518.40848435947657
 30
0.0
 11
1060.6072975507459
 21
518.40848435947657
 31
0.0
 12
1060.1072975507459
 22
515.40848435947657
 32
0.0
 13
1060.1072975507459
 23
515.40848435947657
 33
0.0
  0
LINE
  5
F2B
  8
DIM
  6
CONTINUOUS
 10
1021.607297550746
 20
558.40848435947669
 30
0.0
 11
1069.107297550747
 21
558.40848435947669
 31
0.0
  0
LINE
  5
F2C
  8
0
  6
CONTINUOUS
 10
998.60729755074658
 20
558.40848435947669
 30
0.0
 11
1020.607297550746
 21
558.40848435947669
 31
0.0
  0
LINE
  5
F2D
  8
0
  6
CONTINUOUS
 10
997.60729755074647
 20
557.40848435947669
 30
0.0
 11
1021.607297550746
 21
557.40848435947669
 31
0.0
  0
LINE
  5
F2E
  8
0
  6
CONTINUOUS
 10
998.60729755074658
 20
558.40848435947669
 30
0.0
 11
997.60729755074647
 21
557.40848435947669
 31
0.0
  0
LINE
  5
F2F
  8
0
  6
CONTINUOUS
 10
1020.607297550746
 20
558.40848435947669
 30
0.0
 11
1021.607297550746
 21
557.40848435947669
 31
0.0
  0
TEXT
  5
F30
  8
DIM
  6
CONTINUOUS
 10
670.62888087374415
 20
747.75946887380326
 30
0.0
 40
3.0
  1
180%%p5%%d
  7
ROMANSS
 72
     1
 11
678.20030944517259
 21
749.25946887380337
 31
0.0
 73
     2
  0
LINE
  5
F33
  8
HIDDEN
  6
HIDDEN
 10
865.85170847932136
 20
615.85338403307117
 30
0.0
 11
847.85170847932136
 21
615.85338403307117
 31
0.0
  0
LINE
  5
F34
  8
HIDDEN
  6
HIDDEN
 10
865.85170847932147
 20
623.85338403307117
 30
0.0
 11
847.85170847932136
 21
623.85338403307117
 31
0.0
  0
LINE
  5
F35
  8
CENTER
  6
CENTER
 10
833.85170847932125
 20
619.85338403307105
 30
0.0
 11
868.85170847932147
 21
619.85338403307105
 31
0.0
  0
LINE
  5
F36
  8
HIDDEN
  6
HIDDEN
 10
859.85170847932125
 20
615.85338403307117
 30
0.0
 11
859.85170847932125
 21
623.85338403307117
 31
0.0
  0
LINE
  5
F37
  8
HIDDEN
  6
HIDDEN
 10
844.85170847932125
 20
623.25338403307114
 30
0.0
 11
842.8887175640765
 21
619.85338403307117
 31
0.0
  0
LINE
  5
F38
  8
HIDDEN
  6
HIDDEN
 10
844.85170847932125
 20
616.45338403307119
 30
0.0
 11
844.85170847932125
 21
623.25338403307114
 31
0.0
  0
LINE
  5
F39
  8
HIDDEN
  6
HIDDEN
 10
847.85170847932136
 20
615.85338403307117
 30
0.0
 11
847.85170847932136
 21
623.85338403307117
 31
0.0
  0
LINE
  5
F3A
  8
CENTER
  6
CENTER
 10
849.85170847932125
 20
607.84905334961365
 30
0.0
 11
849.85170847932125
 21
627.62347785337715
 31
0.0
  0
LINE
  5
F3B
  8
HIDDEN
  6
HIDDEN
 10
859.85170847932125
 20
616.45338403307119
 30
0.0
 11
844.85170847932125
 21
616.45338403307119
 31
0.0
  0
LINE
  5
F3C
  8
CENTER
  6
CENTER
 10
840.85170847932136
 20
608.07091514228273
 30
0.0
 11
840.85170847932136
 21
627.81589419726834
 31
0.0
  0
LINE
  5
F3D
  8
HIDDEN
  6
HIDDEN
 10
844.85170847932125
 20
616.45338403307119
 30
0.0
 11
842.8887175640765
 21
619.85338403307117
 31
0.0
  0
LINE
  5
F3E
  8
HIDDEN
  6
HIDDEN
 10
859.85170847932125
 20
623.25338403307114
 30
0.0
 11
844.85170847932125
 21
623.25338403307114
 31
0.0
  0
LINE
  5
F3F
  8
HIDDEN
  6
HIDDEN
 10
865.85170847932147
 20
672.35338403307105
 30
0.0
 11
847.85170847932136
 21
672.35338403307105
 31
0.0
  0
LINE
  5
F40
  8
HIDDEN
  6
HIDDEN
 10
865.85170847932136
 20
680.35338403307105
 30
0.0
 11
847.85170847932136
 21
680.35338403307105
 31
0.0
  0
LINE
  5
F41
  8
CENTER
  6
CENTER
 10
833.85170847932125
 20
676.35338403307105
 30
0.0
 11
868.85170847932125
 21
676.35338403307105
 31
0.0
  0
LINE
  5
F42
  8
HIDDEN
  6
HIDDEN
 10
859.85170847932125
 20
679.75338403307114
 30
0.0
 11
844.85170847932125
 21
679.75338403307114
 31
0.0
  0
LINE
  5
F43
  8
HIDDEN
  6
HIDDEN
 10
859.85170847932125
 20
672.95338403307107
 30
0.0
 11
844.85170847932125
 21
672.95338403307107
 31
0.0
  0
LINE
  5
F44
  8
HIDDEN
  6
HIDDEN
 10
859.85170847932125
 20
680.35338403307105
 30
0.0
 11
859.85170847932125
 21
672.35338403307105
 31
0.0
  0
LINE
  5
F45
  8
HIDDEN
  6
HIDDEN
 10
844.85170847932125
 20
672.95338403307107
 30
0.0
 11
842.8887175640765
 21
676.35338403307105
 31
0.0
  0
LINE
  5
F46
  8
HIDDEN
  6
HIDDEN
 10
847.85170847932136
 20
680.35338403307105
 30
0.0
 11
847.85170847932136
 21
672.35338403307105
 31
0.0
  0
LINE
  5
F47
  8
HIDDEN
  6
HIDDEN
 10
844.85170847932125
 20
679.75338403307114
 30
0.0
 11
844.85170847932125
 21
672.95338403307107
 31
0.0
  0
LINE
  5
F48
  8
HIDDEN
  6
HIDDEN
 10
844.85170847932125
 20
679.75338403307114
 30
0.0
 11
842.8887175640765
 21
676.35338403307105
 31
0.0
  0
LINE
  5
F49
  8
HIDDEN
  6
HIDDEN
 10
488.85170847932102
 20
435.6584843594768
 30
0.0
 11
506.85170847932102
 21
435.6584843594768
 31
0.0
  0
LINE
  5
F4A
  8
HIDDEN
  6
HIDDEN
 10
488.85170847932102
 20
443.6584843594768
 30
0.0
 11
506.85170847932102
 21
443.6584843594768
 31
0.0
  0
LINE
  5
F4B
  8
CENTER
  6
CENTER
 10
520.85170847932113
 20
439.65848435947652
 30
0.0
 11
485.85170847932091
 21
439.65848435947652
 31
0.0
  0
LINE
  5
F4C
  8
HIDDEN
  6
HIDDEN
 10
494.85170847932102
 20
435.6584843594768
 30
0.0
 11
494.85170847932102
 21
443.6584843594768
 31
0.0
  0
LINE
  5
F4D
  8
HIDDEN
  6
HIDDEN
 10
509.85170847932102
 20
443.05848435947672
 30
0.0
 11
511.81469939456582
 21
439.6584843594768
 31
0.0
  0
LINE
  5
F4E
  8
HIDDEN
  6
HIDDEN
 10
509.85170847932102
 20
436.25848435947671
 30
0.0
 11
509.85170847932102
 21
443.05848435947672
 31
0.0
  0
LINE
  5
F4F
  8
HIDDEN
  6
HIDDEN
 10
506.85170847932102
 20
435.6584843594768
 30
0.0
 11
506.85170847932102
 21
443.6584843594768
 31
0.0
  0
LINE
  5
F50
  8
HIDDEN
  6
HIDDEN
 10
494.85170847932102
 20
436.25848435947671
 30
0.0
 11
509.85170847932102
 21
436.25848435947671
 31
0.0
  0
LINE
  5
F51
  8
HIDDEN
  6
HIDDEN
 10
509.85170847932102
 20
436.25848435947671
 30
0.0
 11
511.81469939456582
 21
439.6584843594768
 31
0.0
  0
LINE
  5
F52
  8
HIDDEN
  6
HIDDEN
 10
494.85170847932102
 20
443.05848435947672
 30
0.0
 11
509.85170847932102
 21
443.05848435947672
 31
0.0
  0
LINE
  5
F53
  8
HIDDEN
  6
HIDDEN
 10
488.85170847932102
 20
492.15848435947652
 30
0.0
 11
506.85170847932102
 21
492.15848435947652
 31
0.0
  0
LINE
  5
F54
  8
HIDDEN
  6
HIDDEN
 10
488.85170847932102
 20
500.15848435947652
 30
0.0
 11
506.85170847932102
 21
500.15848435947652
 31
0.0
  0
LINE
  5
F55
  8
CENTER
  6
CENTER
 10
520.85170847932113
 20
496.15848435947652
 30
0.0
 11
485.85170847932102
 21
496.15848435947652
 31
0.0
  0
LINE
  5
F56
  8
HIDDEN
  6
HIDDEN
 10
494.85170847932102
 20
499.55848435947661
 30
0.0
 11
509.85170847932102
 21
499.55848435947661
 31
0.0
  0
LINE
  5
F57
  8
HIDDEN
  6
HIDDEN
 10
494.85170847932102
 20
492.7584843594766
 30
0.0
 11
509.85170847932102
 21
492.7584843594766
 31
0.0
  0
LINE
  5
F58
  8
HIDDEN
  6
HIDDEN
 10
494.85170847932102
 20
500.15848435947652
 30
0.0
 11
494.85170847932102
 21
492.15848435947652
 31
0.0
  0
LINE
  5
F59
  8
HIDDEN
  6
HIDDEN
 10
509.85170847932102
 20
492.7584843594766
 30
0.0
 11
511.81469939456582
 21
496.15848435947652
 31
0.0
  0
LINE
  5
F5A
  8
HIDDEN
  6
HIDDEN
 10
506.85170847932102
 20
500.15848435947652
 30
0.0
 11
506.85170847932102
 21
492.15848435947652
 31
0.0
  0
LINE
  5
F5B
  8
HIDDEN
  6
HIDDEN
 10
509.85170847932102
 20
499.55848435947661
 30
0.0
 11
509.85170847932102
 21
492.7584843594766
 31
0.0
  0
LINE
  5
F5C
  8
HIDDEN
  6
HIDDEN
 10
509.85170847932102
 20
499.55848435947661
 30
0.0
 11
511.81469939456582
 21
496.15848435947652
 31
0.0
  0
LINE
  5
F5D
  8
HIDDEN
  6
HIDDEN
 10
865.85170847932136
 20
435.6584843594768
 30
0.0
 11
847.85170847932136
 21
435.6584843594768
 31
0.0
  0
LINE
  5
F5E
  8
HIDDEN
  6
HIDDEN
 10
865.85170847932136
 20
443.6584843594768
 30
0.0
 11
847.85170847932136
 21
443.6584843594768
 31
0.0
  0
LINE
  5
F5F
  8
CENTER
  6
CENTER
 10
833.85170847932125
 20
439.65848435947652
 30
0.0
 11
868.85170847932125
 21
439.65848435947652
 31
0.0
  0
LINE
  5
F60
  8
HIDDEN
  6
HIDDEN
 10
859.85170847932125
 20
435.6584843594768
 30
0.0
 11
859.85170847932125
 21
443.6584843594768
 31
0.0
  0
LINE
  5
F61
  8
HIDDEN
  6
HIDDEN
 10
844.85170847932125
 20
443.05848435947672
 30
0.0
 11
842.8887175640765
 21
439.6584843594768
 31
0.0
  0
LINE
  5
F62
  8
HIDDEN
  6
HIDDEN
 10
844.85170847932125
 20
436.25848435947671
 30
0.0
 11
844.85170847932125
 21
443.05848435947672
 31
0.0
  0
LINE
  5
F63
  8
HIDDEN
  6
HIDDEN
 10
847.85170847932136
 20
435.6584843594768
 30
0.0
 11
847.85170847932136
 21
443.6584843594768
 31
0.0
  0
LINE
  5
F64
  8
HIDDEN
  6
HIDDEN
 10
859.85170847932125
 20
436.25848435947671
 30
0.0
 11
844.85170847932125
 21
436.25848435947671
 31
0.0
  0
LINE
  5
F65
  8
HIDDEN
  6
HIDDEN
 10
844.85170847932125
 20
436.25848435947671
 30
0.0
 11
842.8887175640765
 21
439.6584843594768
 31
0.0
  0
LINE
  5
F66
  8
HIDDEN
  6
HIDDEN
 10
859.85170847932125
 20
443.05848435947672
 30
0.0
 11
844.85170847932125
 21
443.05848435947672
 31
0.0
  0
LINE
  5
F67
  8
HIDDEN
  6
HIDDEN
 10
865.85170847932136
 20
492.15848435947652
 30
0.0
 11
847.85170847932136
 21
492.15848435947652
 31
0.0
  0
LINE
  5
F68
  8
HIDDEN
  6
HIDDEN
 10
865.85170847932136
 20
500.15848435947652
 30
0.0
 11
847.85170847932136
 21
500.15848435947652
 31
0.0
  0
LINE
  5
F69
  8
CENTER
  6
CENTER
 10
833.85170847932125
 20
496.15848435947652
 30
0.0
 11
868.85170847932125
 21
496.15848435947652
 31
0.0
  0
LINE
  5
F6A
  8
HIDDEN
  6
HIDDEN
 10
859.85170847932125
 20
499.55848435947661
 30
0.0
 11
844.85170847932125
 21
499.55848435947661
 31
0.0
  0
LINE
  5
F6B
  8
HIDDEN
  6
HIDDEN
 10
859.85170847932125
 20
492.7584843594766
 30
0.0
 11
844.85170847932125
 21
492.7584843594766
 31
0.0
  0
LINE
  5
F6C
  8
HIDDEN
  6
HIDDEN
 10
859.85170847932125
 20
500.15848435947652
 30
0.0
 11
859.85170847932125
 21
492.15848435947652
 31
0.0
  0
LINE
  5
F6D
  8
HIDDEN
  6
HIDDEN
 10
844.85170847932125
 20
492.7584843594766
 30
0.0
 11
842.8887175640765
 21
496.15848435947652
 31
0.0
  0
LINE
  5
F6E
  8
HIDDEN
  6
HIDDEN
 10
847.85170847932136
 20
500.15848435947652
 30
0.0
 11
847.85170847932136
 21
492.15848435947652
 31
0.0
  0
LINE
  5
F6F
  8
HIDDEN
  6
HIDDEN
 10
844.85170847932125
 20
499.55848435947661
 30
0.0
 11
844.85170847932125
 21
492.7584843594766
 31
0.0
  0
LINE
  5
F70
  8
HIDDEN
  6
HIDDEN
 10
844.85170847932125
 20
499.55848435947661
 30
0.0
 11
842.8887175640765
 21
496.15848435947652
 31
0.0
  0
LINE
  5
F71
  8
HIDDEN
  6
HIDDEN
 10
488.85170847932108
 20
231.31269280771849
 30
0.0
 11
506.85170847932108
 21
231.31269280771849
 31
0.0
  0
LINE
  5
F72
  8
HIDDEN
  6
HIDDEN
 10
488.85170847932102
 20
239.31269280771849
 30
0.0
 11
506.85170847932108
 21
239.31269280771849
 31
0.0
  0
LINE
  5
F73
  8
CENTER
  6
CENTER
 10
520.85170847932113
 20
235.31269280771829
 30
0.0
 11
485.85170847932102
 21
235.31269280771829
 31
0.0
  0
LINE
  5
F74
  8
HIDDEN
  6
HIDDEN
 10
494.85170847932108
 20
231.31269280771849
 30
0.0
 11
494.85170847932108
 21
239.31269280771849
 31
0.0
  0
LINE
  5
F75
  8
HIDDEN
  6
HIDDEN
 10
509.85170847932108
 20
238.71269280771841
 30
0.0
 11
511.81469939456582
 21
235.31269280771849
 31
0.0
  0
LINE
  5
F76
  8
HIDDEN
  6
HIDDEN
 10
509.85170847932108
 20
231.91269280771851
 30
0.0
 11
509.85170847932108
 21
238.71269280771841
 31
0.0
  0
LINE
  5
F77
  8
HIDDEN
  6
HIDDEN
 10
506.85170847932108
 20
231.31269280771849
 30
0.0
 11
506.85170847932108
 21
239.31269280771849
 31
0.0
  0
LINE
  5
F78
  8
HIDDEN
  6
HIDDEN
 10
494.85170847932108
 20
231.91269280771851
 30
0.0
 11
509.85170847932108
 21
231.91269280771851
 31
0.0
  0
LINE
  5
F79
  8
HIDDEN
  6
HIDDEN
 10
509.85170847932108
 20
231.91269280771851
 30
0.0
 11
511.81469939456582
 21
235.31269280771849
 31
0.0
  0
LINE
  5
F7A
  8
HIDDEN
  6
HIDDEN
 10
494.85170847932108
 20
238.71269280771841
 30
0.0
 11
509.85170847932108
 21
238.71269280771841
 31
0.0
  0
LINE
  5
F7B
  8
HIDDEN
  6
HIDDEN
 10
488.85170847932102
 20
287.81269280771829
 30
0.0
 11
506.85170847932108
 21
287.81269280771829
 31
0.0
  0
LINE
  5
F7C
  8
HIDDEN
  6
HIDDEN
 10
488.85170847932108
 20
295.81269280771829
 30
0.0
 11
506.85170847932108
 21
295.81269280771829
 31
0.0
  0
LINE
  5
F7D
  8
CENTER
  6
CENTER
 10
520.85170847932113
 20
291.81269280771829
 30
0.0
 11
485.85170847932108
 21
291.81269280771829
 31
0.0
  0
LINE
  5
F7E
  8
HIDDEN
  6
HIDDEN
 10
494.85170847932108
 20
295.21269280771838
 30
0.0
 11
509.85170847932108
 21
295.21269280771838
 31
0.0
  0
LINE
  5
F7F
  8
HIDDEN
  6
HIDDEN
 10
494.85170847932108
 20
288.41269280771849
 30
0.0
 11
509.85170847932108
 21
288.41269280771849
 31
0.0
  0
LINE
  5
F80
  8
HIDDEN
  6
HIDDEN
 10
494.85170847932108
 20
295.81269280771829
 30
0.0
 11
494.85170847932108
 21
287.81269280771829
 31
0.0
  0
LINE
  5
F81
  8
HIDDEN
  6
HIDDEN
 10
509.85170847932108
 20
288.41269280771849
 30
0.0
 11
511.81469939456582
 21
291.81269280771829
 31
0.0
  0
LINE
  5
F82
  8
HIDDEN
  6
HIDDEN
 10
506.85170847932108
 20
295.81269280771829
 30
0.0
 11
506.85170847932108
 21
287.81269280771829
 31
0.0
  0
LINE
  5
F83
  8
HIDDEN
  6
HIDDEN
 10
509.85170847932108
 20
295.21269280771838
 30
0.0
 11
509.85170847932108
 21
288.41269280771849
 31
0.0
  0
LINE
  5
F84
  8
HIDDEN
  6
HIDDEN
 10
509.85170847932108
 20
295.21269280771838
 30
0.0
 11
511.81469939456582
 21
291.81269280771829
 31
0.0
  0
LINE
  5
F85
  8
HIDDEN
  6
HIDDEN
 10
865.85170847932136
 20
231.31269280771849
 30
0.0
 11
847.85170847932136
 21
231.31269280771849
 31
0.0
  0
LINE
  5
F86
  8
HIDDEN
  6
HIDDEN
 10
865.85170847932147
 20
239.31269280771849
 30
0.0
 11
847.85170847932136
 21
239.31269280771849
 31
0.0
  0
LINE
  5
F87
  8
CENTER
  6
CENTER
 10
833.85170847932125
 20
235.31269280771829
 30
0.0
 11
868.85170847932147
 21
235.31269280771829
 31
0.0
  0
LINE
  5
F88
  8
HIDDEN
  6
HIDDEN
 10
859.85170847932125
 20
231.31269280771849
 30
0.0
 11
859.85170847932125
 21
239.31269280771849
 31
0.0
  0
LINE
  5
F89
  8
HIDDEN
  6
HIDDEN
 10
844.85170847932125
 20
238.71269280771841
 30
0.0
 11
842.8887175640765
 21
235.31269280771849
 31
0.0
  0
LINE
  5
F8A
  8
HIDDEN
  6
HIDDEN
 10
844.85170847932125
 20
231.91269280771851
 30
0.0
 11
844.85170847932125
 21
238.71269280771841
 31
0.0
  0
LINE
  5
F8B
  8
HIDDEN
  6
HIDDEN
 10
847.85170847932136
 20
231.31269280771849
 30
0.0
 11
847.85170847932136
 21
239.31269280771849
 31
0.0
  0
LINE
  5
F8C
  8
HIDDEN
  6
HIDDEN
 10
859.85170847932125
 20
231.91269280771851
 30
0.0
 11
844.85170847932125
 21
231.91269280771851
 31
0.0
  0
LINE
  5
F8D
  8
HIDDEN
  6
HIDDEN
 10
844.85170847932125
 20
231.91269280771851
 30
0.0
 11
842.8887175640765
 21
235.31269280771849
 31
0.0
  0
LINE
  5
F8E
  8
HIDDEN
  6
HIDDEN
 10
859.85170847932125
 20
238.71269280771841
 30
0.0
 11
844.85170847932125
 21
238.71269280771841
 31
0.0
  0
LINE
  5
F8F
  8
HIDDEN
  6
HIDDEN
 10
865.85170847932147
 20
287.81269280771829
 30
0.0
 11
847.85170847932136
 21
287.81269280771829
 31
0.0
  0
LINE
  5
F90
  8
HIDDEN
  6
HIDDEN
 10
865.85170847932136
 20
295.81269280771829
 30
0.0
 11
847.85170847932136
 21
295.81269280771829
 31
0.0
  0
LINE
  5
F91
  8
CENTER
  6
CENTER
 10
833.85170847932125
 20
291.81269280771829
 30
0.0
 11
868.85170847932125
 21
291.81269280771829
 31
0.0
  0
LINE
  5
F92
  8
HIDDEN
  6
HIDDEN
 10
859.85170847932125
 20
295.21269280771838
 30
0.0
 11
844.85170847932125
 21
295.21269280771838
 31
0.0
  0
LINE
  5
F93
  8
HIDDEN
  6
HIDDEN
 10
859.85170847932125
 20
288.41269280771849
 30
0.0
 11
844.85170847932125
 21
288.41269280771849
 31
0.0
  0
LINE
  5
F94
  8
HIDDEN
  6
HIDDEN
 10
859.85170847932125
 20
295.81269280771829
 30
0.0
 11
859.85170847932125
 21
287.81269280771829
 31
0.0
  0
LINE
  5
F95
  8
HIDDEN
  6
HIDDEN
 10
844.85170847932125
 20
288.41269280771849
 30
0.0
 11
842.8887175640765
 21
291.81269280771829
 31
0.0
  0
LINE
  5
F96
  8
HIDDEN
  6
HIDDEN
 10
847.85170847932136
 20
295.81269280771829
 30
0.0
 11
847.85170847932136
 21
287.81269280771829
 31
0.0
  0
LINE
  5
F97
  8
HIDDEN
  6
HIDDEN
 10
844.85170847932125
 20
295.21269280771838
 30
0.0
 11
844.85170847932125
 21
288.41269280771849
 31
0.0
  0
LINE
  5
F98
  8
HIDDEN
  6
HIDDEN
 10
844.85170847932125
 20
295.21269280771838
 30
0.0
 11
842.8887175640765
 21
291.81269280771829
 31
0.0
  0
LINE
  5
F99
  8
CENTER
  6
CENTER
 10
504.85170847932119
 20
303.8170234911758
 30
0.0
 11
504.85170847932108
 21
284.04259898741248
 31
0.0
  0
LINE
  5
F9A
  8
CENTER
  6
CENTER
 10
513.85170847932102
 20
303.59516169850679
 30
0.0
 11
513.85170847932113
 21
283.85018264352118
 31
0.0
  0
LINE
  5
F9B
  8
CENTER
  6
CENTER
 10
849.85170847932125
 20
303.8170234911758
 30
0.0
 11
849.85170847932125
 21
284.04259898741248
 31
0.0
  0
LINE
  5
F9C
  8
CENTER
  6
CENTER
 10
840.85170847932136
 20
303.59516169850679
 30
0.0
 11
840.85170847932136
 21
283.85018264352118
 31
0.0
  0
CIRCLE
  5
F9D
  8
0
  6
CONTINUOUS
 10
677.35170847932113
 20
644.60338403307105
 30
0.0
 40
5.0
  0
CIRCLE
  5
F9E
  8
0
  6
CONTINUOUS
 10
677.35170847932113
 20
644.60338403307105
 30
0.0
 40
4.5381062355658202
  0
POLYLINE
  5
F9F
  8
0
  6
CONTINUOUS
 66
     1
 10
0.0
 20
0.0
 30
0.0
 70
     1
  0
VERTEX
  5
147D
  8
0
  6
CONTINUOUS
 10
675.90833280634706
 20
647.10338403307105
 30
0.0
  0
VERTEX
  5
147E
  8
0
  6
CONTINUOUS
 10
674.46495713337299
 20
644.60338403307105
 30
0.0
  0
VERTEX
  5
147F
  8
0
  6
CONTINUOUS
 10
675.90833280634706
 20
642.10338403307105
 30
0.0
  0
VERTEX
  5
1480
  8
0
  6
CONTINUOUS
 10
678.7950841522952
 20
642.10338403307105
 30
0.0
  0
VERTEX
  5
1481
  8
0
  6
CONTINUOUS
 10
680.23845982526916
 20
644.60338403307105
 30
0.0
  0
VERTEX
  5
1482
  8
0
  6
CONTINUOUS
 10
678.7950841522952
 20
647.10338403307105
 30
0.0
  0
SEQEND
  5
1483
  8
0
  6
CONTINUOUS
  0
CIRCLE
  5
FA7
  8
0
  6
CONTINUOUS
 10
677.35170847932113
 20
711.60338403307105
 30
0.0
 40
5.0
  0
CIRCLE
  5
FA8
  8
0
  6
CONTINUOUS
 10
677.35170847932113
 20
711.60338403307105
 30
0.0
 40
4.5381062355658202
  0
POLYLINE
  5
FA9
  8
0
  6
CONTINUOUS
 66
     1
 10
0.0
 20
0.0
 30
0.0
 70
     1
  0
VERTEX
  5
1484
  8
0
  6
CONTINUOUS
 10
675.90833280634706
 20
714.10338403307105
 30
0.0
  0
VERTEX
  5
1485
  8
0
  6
CONTINUOUS
 10
674.46495713337299
 20
711.60338403307105
 30
0.0
  0
VERTEX
  5
1486
  8
0
  6
CONTINUOUS
 10
675.90833280634706
 20
709.10338403307105
 30
0.0
  0
VERTEX
  5
1487
  8
0
  6
CONTINUOUS
 10
678.7950841522952
 20
709.10338403307105
 30
0.0
  0
VERTEX
  5
1488
  8
0
  6
CONTINUOUS
 10
680.23845982526916
 20
711.60338403307105
 30
0.0
  0
VERTEX
  5
1489
  8
0
  6
CONTINUOUS
 10
678.7950841522952
 20
714.10338403307105
 30
0.0
  0
SEQEND
  5
148A
  8
0
  6
CONTINUOUS
  0
CIRCLE
  5
FB1
  8
0
  6
CONTINUOUS
 10
643.85170847932113
 20
678.10338403307105
 30
0.0
 40
5.0
  0
CIRCLE
  5
FB2
  8
0
  6
CONTINUOUS
 10
643.85170847932113
 20
678.10338403307105
 30
0.0
 40
4.5381062355658202
  0
POLYLINE
  5
FB3
  8
0
  6
CONTINUOUS
 66
     1
 10
0.0
 20
0.0
 30
0.0
 70
     1
  0
VERTEX
  5
148B
  8
0
  6
CONTINUOUS
 10
642.40833280634706
 20
680.60338403307105
 30
0.0
  0
VERTEX
  5
148C
  8
0
  6
CONTINUOUS
 10
640.96495713337299
 20
678.10338403307105
 30
0.0
  0
VERTEX
  5
148D
  8
0
  6
CONTINUOUS
 10
642.40833280634706
 20
675.60338403307105
 30
0.0
  0
VERTEX
  5
148E
  8
0
  6
CONTINUOUS
 10
645.2950841522952
 20
675.60338403307105
 30
0.0
  0
VERTEX
  5
148F
  8
0
  6
CONTINUOUS
 10
646.73845982526916
 20
678.10338403307105
 30
0.0
  0
VERTEX
  5
1490
  8
0
  6
CONTINUOUS
 10
645.2950841522952
 20
680.60338403307105
 30
0.0
  0
SEQEND
  5
1491
  8
0
  6
CONTINUOUS
  0
CIRCLE
  5
FBB
  8
0
  6
CONTINUOUS
 10
710.85170847932113
 20
678.10338403307105
 30
0.0
 40
5.0
  0
CIRCLE
  5
FBC
  8
0
  6
CONTINUOUS
 10
710.85170847932113
 20
678.10338403307105
 30
0.0
 40
4.5381062355658202
  0
POLYLINE
  5
FBD
  8
0
  6
CONTINUOUS
 66
     1
 10
0.0
 20
0.0
 30
0.0
 70
     1
  0
VERTEX
  5
1492
  8
0
  6
CONTINUOUS
 10
709.40833280634695
 20
680.60338403307105
 30
0.0
  0
VERTEX
  5
1493
  8
0
  6
CONTINUOUS
 10
707.96495713337299
 20
678.10338403307105
 30
0.0
  0
VERTEX
  5
1494
  8
0
  6
CONTINUOUS
 10
709.40833280634695
 20
675.60338403307105
 30
0.0
  0
VERTEX
  5
1495
  8
0
  6
CONTINUOUS
 10
712.2950841522952
 20
675.60338403307105
 30
0.0
  0
VERTEX
  5
1496
  8
0
  6
CONTINUOUS
 10
713.73845982526916
 20
678.10338403307105
 30
0.0
  0
VERTEX
  5
1497
  8
0
  6
CONTINUOUS
 10
712.2950841522952
 20
680.60338403307105
 30
0.0
  0
SEQEND
  5
1498
  8
0
  6
CONTINUOUS
  0
CIRCLE
  5
FC5
  8
0
  6
CONTINUOUS
 10
677.35170847932113
 20
200.06269280771841
 30
0.0
 40
5.0
  0
CIRCLE
  5
FC6
  8
0
  6
CONTINUOUS
 10
677.35170847932113
 20
200.06269280771841
 30
0.0
 40
4.5381062355658202
  0
POLYLINE
  5
FC7
  8
0
  6
CONTINUOUS
 66
     1
 10
0.0
 20
0.0
 30
0.0
 70
     1
  0
VERTEX
  5
1499
  8
0
  6
CONTINUOUS
 10
675.90833280634706
 20
197.56269280771841
 30
0.0
  0
VERTEX
  5
149A
  8
0
  6
CONTINUOUS
 10
674.46495713337299
 20
200.06269280771841
 30
0.0
  0
VERTEX
  5
149B
  8
0
  6
CONTINUOUS
 10
675.90833280634706
 20
202.56269280771841
 30
0.0
  0
VERTEX
  5
149C
  8
0
  6
CONTINUOUS
 10
678.7950841522952
 20
202.56269280771841
 30
0.0
  0
VERTEX
  5
149D
  8
0
  6
CONTINUOUS
 10
680.23845982526916
 20
200.06269280771841
 30
0.0
  0
VERTEX
  5
149E
  8
0
  6
CONTINUOUS
 10
678.7950841522952
 20
197.56269280771841
 30
0.0
  0
SEQEND
  5
149F
  8
0
  6
CONTINUOUS
  0
CIRCLE
  5
FCF
  8
0
  6
CONTINUOUS
 10
643.85170847932113
 20
233.56269280771841
 30
0.0
 40
5.0
  0
CIRCLE
  5
FD0
  8
0
  6
CONTINUOUS
 10
643.85170847932113
 20
233.56269280771841
 30
0.0
 40
4.5381062355658202
  0
POLYLINE
  5
FD1
  8
0
  6
CONTINUOUS
 66
     1
 10
0.0
 20
0.0
 30
0.0
 70
     1
  0
VERTEX
  5
14A0
  8
0
  6
CONTINUOUS
 10
642.40833280634706
 20
231.06269280771841
 30
0.0
  0
VERTEX
  5
14A1
  8
0
  6
CONTINUOUS
 10
640.96495713337299
 20
233.56269280771841
 30
0.0
  0
VERTEX
  5
14A2
  8
0
  6
CONTINUOUS
 10
642.40833280634706
 20
236.06269280771841
 30
0.0
  0
VERTEX
  5
14A3
  8
0
  6
CONTINUOUS
 10
645.2950841522952
 20
236.06269280771841
 30
0.0
  0
VERTEX
  5
14A4
  8
0
  6
CONTINUOUS
 10
646.73845982526916
 20
233.56269280771841
 30
0.0
  0
VERTEX
  5
14A5
  8
0
  6
CONTINUOUS
 10
645.2950841522952
 20
231.06269280771841
 30
0.0
  0
SEQEND
  5
14A6
  8
0
  6
CONTINUOUS
  0
CIRCLE
  5
FD9
  8
0
  6
CONTINUOUS
 10
677.35170847932113
 20
267.06269280771841
 30
0.0
 40
5.0
  0
CIRCLE
  5
FDA
  8
0
  6
CONTINUOUS
 10
677.35170847932113
 20
267.06269280771841
 30
0.0
 40
4.5381062355658202
  0
POLYLINE
  5
FDB
  8
0
  6
CONTINUOUS
 66
     1
 10
0.0
 20
0.0
 30
0.0
 70
     1
  0
VERTEX
  5
14A7
  8
0
  6
CONTINUOUS
 10
675.90833280634706
 20
264.56269280771841
 30
0.0
  0
VERTEX
  5
14A8
  8
0
  6
CONTINUOUS
 10
674.46495713337299
 20
267.06269280771841
 30
0.0
  0
VERTEX
  5
14A9
  8
0
  6
CONTINUOUS
 10
675.90833280634706
 20
269.56269280771841
 30
0.0
  0
VERTEX
  5
14AA
  8
0
  6
CONTINUOUS
 10
678.7950841522952
 20
269.56269280771841
 30
0.0
  0
VERTEX
  5
14AB
  8
0
  6
CONTINUOUS
 10
680.23845982526916
 20
267.06269280771841
 30
0.0
  0
VERTEX
  5
14AC
  8
0
  6
CONTINUOUS
 10
678.7950841522952
 20
264.56269280771841
 30
0.0
  0
SEQEND
  5
14AD
  8
0
  6
CONTINUOUS
  0
CIRCLE
  5
FE3
  8
0
  6
CONTINUOUS
 10
710.85170847932113
 20
233.56269280771841
 30
0.0
 40
5.0
  0
CIRCLE
  5
FE4
  8
0
  6
CONTINUOUS
 10
710.85170847932113
 20
233.56269280771841
 30
0.0
 40
4.5381062355658202
  0
POLYLINE
  5
FE5
  8
0
  6
CONTINUOUS
 66
     1
 10
0.0
 20
0.0
 30
0.0
 70
     1
  0
VERTEX
  5
14AE
  8
0
  6
CONTINUOUS
 10
709.40833280634695
 20
231.06269280771841
 30
0.0
  0
VERTEX
  5
14AF
  8
0
  6
CONTINUOUS
 10
707.96495713337299
 20
233.56269280771841
 30
0.0
  0
VERTEX
  5
14B0
  8
0
  6
CONTINUOUS
 10
709.40833280634695
 20
236.06269280771841
 30
0.0
  0
VERTEX
  5
14B1
  8
0
  6
CONTINUOUS
 10
712.2950841522952
 20
236.06269280771841
 30
0.0
  0
VERTEX
  5
14B2
  8
0
  6
CONTINUOUS
 10
713.73845982526916
 20
233.56269280771841
 30
0.0
  0
VERTEX
  5
14B3
  8
0
  6
CONTINUOUS
 10
712.2950841522952
 20
231.06269280771841
 30
0.0
  0
SEQEND
  5
14B4
  8
0
  6
CONTINUOUS
  0
LINE
  5
FED
  8
0
 10
333.09611940789551
 20
378.4084843594764
 30
0.0
 11
333.0961194078954
 21
419.40848435947629
 31
0.0
  0
LINE
  5
FEE
  8
0
 10
357.09611940789551
 20
378.4084843594764
 30
0.0
 11
357.09611940789551
 21
419.40848435947629
 31
0.0
  0
LINE
  5
FEF
  8
0
  6
CONTINUOUS
 10
360.0961194078954
 20
419.4084843594764
 30
0.0
 11
330.0961194078954
 21
419.40848435947629
 31
0.0
  0
LINE
  5
FF0
  8
0
 10
341.09611940789551
 20
384.4084843594764
 30
0.0
 11
341.09611940789551
 21
412.40848435947629
 31
0.0
  0
LINE
  5
FF1
  8
0
 10
349.09611940789551
 20
384.4084843594764
 30
0.0
 11
349.09611940789551
 21
412.40848435947629
 31
0.0
  0
LINE
  5
FF2
  8
0
 10
330.0961194078954
 20
419.40848435947629
 30
0.0
 11
330.0961194078954
 21
420.40848435947629
 31
0.0
  0
ARC
  5
FF3
  8
0
  6
CONTINUOUS
 10
345.09611940789551
 20
412.40848435947629
 30
0.0
 40
4.0
 50
0.0
 51
180.0
  0
ARC
  5
FF4
  8
0
  6
CONTINUOUS
 10
345.09611940789551
 20
384.4084843594764
 30
0.0
 40
4.0
 50
180.0
 51
0.0
  0
LINE
  5
FF5
  8
0
 10
360.0961194078954
 20
419.40848435947629
 30
0.0
 11
360.09611940789551
 21
420.40848435947618
 31
0.0
  0
LINE
  5
FF6
  8
0
  6
CONTINUOUS
 10
357.09611940789551
 20
378.4084843594764
 30
0.0
 11
333.09611940789551
 21
378.4084843594764
 31
0.0
  0
LINE
  5
FF7
  8
0
  6
CONTINUOUS
 10
356.09611940789551
 20
377.4084843594764
 30
0.0
 11
334.09611940789551
 21
377.4084843594764
 31
0.0
  0
LINE
  5
FF8
  8
0
  6
CONTINUOUS
 10
334.09611940789551
 20
377.4084843594764
 30
0.0
 11
333.09611940789551
 21
378.4084843594764
 31
0.0
  0
LINE
  5
FF9
  8
0
  6
CONTINUOUS
 10
356.09611940789551
 20
377.4084843594764
 30
0.0
 11
357.09611940789551
 21
378.4084843594764
 31
0.0
  0
SOLID
  5
FFA
  8
DIM
  6
CONTINUOUS
 10
1067.607297550747
 20
380.4084843594764
 30
0.0
 11
1068.607297550747
 21
380.4084843594764
 31
0.0
 12
1068.107297550747
 22
377.4084843594764
 32
0.0
 13
1068.107297550747
 23
377.4084843594764
 33
0.0
  0
LINE
  5
FFB
  8
0
 10
997.60729755074647
 20
378.4084843594764
 30
0.0
 11
997.60729755074647
 21
419.40848435947629
 31
0.0
  0
LINE
  5
FFC
  8
0
 10
1021.607297550746
 20
378.4084843594764
 30
0.0
 11
1021.607297550746
 21
419.40848435947629
 31
0.0
  0
LINE
  5
FFD
  8
0
  6
CONTINUOUS
 10
994.60729755074647
 20
419.4084843594764
 30
0.0
 11
1024.6072975507459
 21
419.40848435947629
 31
0.0
  0
LINE
  5
FFE
  8
0
 10
994.60729755074647
 20
419.40848435947629
 30
0.0
 11
994.60729755074647
 21
420.40848435947618
 31
0.0
  0
LINE
  5
FFF
  8
0
 10
1024.6072975507459
 20
419.40848435947629
 30
0.0
 11
1024.6072975507459
 21
420.40848435947629
 31
0.0
  0
LINE
  5
1000
  8
DIM
  6
CONTINUOUS
 10
1021.607297550746
 20
377.4084843594764
 30
0.0
 11
1069.107297550747
 21
377.4084843594764
 31
0.0
  0
LINE
  5
1001
  8
0
  6
CONTINUOUS
 10
998.60729755074658
 20
377.4084843594764
 30
0.0
 11
1020.607297550746
 21
377.4084843594764
 31
0.0
  0
LINE
  5
1002
  8
0
  6
CONTINUOUS
 10
997.60729755074647
 20
378.4084843594764
 30
0.0
 11
1021.607297550746
 21
378.4084843594764
 31
0.0
  0
LINE
  5
1003
  8
0
  6
CONTINUOUS
 10
998.60729755074658
 20
377.4084843594764
 30
0.0
 11
997.60729755074647
 21
378.4084843594764
 31
0.0
  0
LINE
  5
1004
  8
0
  6
CONTINUOUS
 10
1020.607297550746
 20
377.4084843594764
 30
0.0
 11
1021.607297550746
 21
378.4084843594764
 31
0.0
  0
ARC
  5
1005
  8
0
  6
CONTINUOUS
 10
677.35170847932113
 20
233.56269280771829
 30
0.0
 40
15.00000000000005
 50
195.4660099534203
 51
164.53399004657959
  0
CIRCLE
  5
1006
  8
0
  6
CONTINUOUS
 10
677.35170847932113
 20
233.56269280771829
 30
0.0
 40
11.00000000000005
  0
CIRCLE
  5
1007
  8
0
  6
CONTINUOUS
 10
677.35170847932113
 20
233.56269280771829
 30
0.0
 40
12.00000000000005
  0
TEXT
  5
1008
  8
DIM
  6
CONTINUOUS
 10
652.85170847932079
 20
241.69557279327361
 30
0.0
 40
3.0
  1
8
 50
90.0
  7
ROMANSS
 72
     1
 11
651.35170847932091
 21
242.6955727932737
 31
0.0
 73
     2
  0
LINE
  5
1009
  8
DIM
  6
CONTINUOUS
 10
654.35170847932091
 20
225.1759583286123
 30
0.0
 11
654.35170847932091
 21
244.6561963848344
 31
0.0
  0
LINE
  5
100A
  8
0
 10
662.35170847932091
 20
237.56269280771841
 30
0.0
 11
662.35170847932091
 21
229.56269280771829
 31
0.0
  0
SOLID
  5
100B
  8
DIM
  6
CONTINUOUS
 10
653.85170847932091
 20
226.56269280771841
 30
0.0
 11
654.85170847932091
 21
226.56269280771841
 31
0.0
 12
654.35170847932091
 22
229.56269280771829
 32
0.0
 13
654.35170847932091
 23
229.56269280771829
 33
0.0
  0
LINE
  5
100C
  8
DIM
  6
CONTINUOUS
 10
661.35170847932079
 20
229.56269280771829
 30
0.0
 11
653.35170847932091
 21
229.56269280771829
 31
0.0
  0
LINE
  5
100D
  8
0
 10
662.35170847932091
 20
229.56269280771829
 30
0.0
 11
666.03799998033617
 21
229.56269280771829
 31
0.0
  0
SOLID
  5
100E
  8
DIM
  6
CONTINUOUS
 10
653.85170847932091
 20
240.56269280771841
 30
0.0
 11
654.85170847932091
 21
240.56269280771841
 31
0.0
 12
654.35170847932091
 22
237.56269280771841
 32
0.0
 13
654.35170847932091
 23
237.56269280771841
 33
0.0
  0
LINE
  5
100F
  8
DIM
  6
CONTINUOUS
 10
661.35170847932079
 20
237.56269280771841
 30
0.0
 11
653.35170847932091
 21
237.56269280771841
 31
0.0
  0
LINE
  5
1010
  8
0
 10
662.35170847932091
 20
237.56269280771841
 30
0.0
 11
666.03799998033617
 21
237.56269280771841
 31
0.0
  0
CIRCLE
  5
1011
  8
0
  6
CONTINUOUS
 10
677.35170847932113
 20
233.56269280771829
 30
0.0
 40
3.399999999999999
  0
ARC
  5
1012
  8
0
  6
CONTINUOUS
 62
     2
 10
677.35170847932113
 20
233.56269280771829
 30
0.0
 40
4.0
 50
155.67751702511919
 51
114.77142042572839
  0
LINE
  5
1013
  8
DIM
  6
CONTINUOUS
 10
684.10351580446923
 20
231.78136830768051
 30
0.0
 11
745.69844525046767
 21
210.07301279591189
 31
0.0
  0
SOLID
  5
1014
  8
DIM
  6
CONTINUOUS
 10
684.26971458721096
 20
232.25293798929201
 30
0.0
 11
683.93731702172715
 21
231.30979862606921
 31
0.0
 12
681.27409771480029
 22
232.77856100413149
 32
0.0
 13
681.27409771480029
 23
232.77856100413149
 33
0.0
  0
LINE
  5
1015
  8
DIM
  6
CONTINUOUS
 10
745.6984452504679
 20
210.07301279591189
 30
0.0
 11
765.0733949609745
 21
210.07301279591189
 31
0.0
  0
TEXT
  5
1016
  8
DIM
  6
CONTINUOUS
 10
748.46840477668604
 20
211.57301279591189
 30
0.0
 40
3.0
  1
M8x15L
  7
ROMANSS
 11
748.46840477668604
 21
213.07301279591189
 31
0.0
 73
     2
  0
LINE
  5
1017
  8
DIM
  6
CONTINUOUS
 10
686.35170847932079
 20
361.40848435947669
 30
0.0
 11
665.35170847932079
 21
361.40848435947669
 31
0.0
  0
LINE
  5
1018
  8
DIM
  6
CONTINUOUS
 10
686.35170847932079
 20
369.40848435947669
 30
0.0
 11
668.35170847932091
 21
369.40848435947669
 31
0.0
  0
LINE
  5
1019
  8
0
  6
CONTINUOUS
 10
662.35170847932102
 20
419.40848435947669
 30
0.0
 11
692.35170847932102
 21
419.40848435947669
 31
0.0
  0
LINE
  5
101A
  8
0
  6
CONTINUOUS
 10
665.35170847932079
 20
378.40848435947657
 30
0.0
 11
689.35170847932091
 21
378.40848435947657
 31
0.0
  0
LINE
  5
101B
  8
0
  6
CONTINUOUS
 10
666.35170847932091
 20
377.40848435947669
 30
0.0
 11
688.35170847932091
 21
377.40848435947669
 31
0.0
  0
LINE
  5
101C
  8
DIM
  6
CONTINUOUS
 10
662.35170847932091
 20
379.40848435947669
 30
0.0
 11
662.35170847932091
 21
360.40848435947657
 31
0.0
  0
SOLID
  5
101D
  8
DIM
  6
CONTINUOUS
 10
615.85170847932102
 20
380.40848435947657
 30
0.0
 11
616.85170847932102
 21
380.40848435947657
 31
0.0
 12
616.35170847932102
 22
377.40848435947669
 32
0.0
 13
616.35170847932102
 23
377.40848435947669
 33
0.0
  0
LINE
  5
101E
  8
0
 10
665.35170847932079
 20
378.40848435947657
 30
0.0
 11
665.35170847932079
 21
419.40848435947669
 31
0.0
  0
LINE
  5
101F
  8
DIM
  6
CONTINUOUS
 10
636.35823510690454
 20
420.40848435947669
 30
0.0
 11
615.35170847932079
 21
420.40848435947669
 31
0.0
  0
LINE
  5
1020
  8
DIM
  6
CONTINUOUS
 10
661.35170847932102
 20
419.40848435947669
 30
0.0
 11
615.35170847932102
 21
419.40848435947669
 31
0.0
  0
LINE
  5
1021
  8
DIM
  6
CONTINUOUS
 10
616.35170847932102
 20
380.40848435947657
 30
0.0
 11
616.35170847932102
 21
427.46766142331688
 31
0.0
  0
SOLID
  5
1022
  8
DIM
  6
CONTINUOUS
 10
615.85170847932091
 20
423.40848435947669
 30
0.0
 11
616.85170847932091
 21
423.40848435947669
 31
0.0
 12
616.35170847932091
 22
420.40848435947669
 32
0.0
 13
616.35170847932091
 23
420.40848435947669
 33
0.0
  0
SOLID
  5
1023
  8
DIM
  6
CONTINUOUS
 10
615.85170847932102
 20
416.40848435947669
 30
0.0
 11
616.85170847932102
 21
416.40848435947669
 31
0.0
 12
616.35170847932102
 22
419.40848435947669
 32
0.0
 13
616.35170847932102
 23
419.40848435947669
 33
0.0
  0
LINE
  5
1024
  8
DIM
  6
CONTINUOUS
 10
661.35170847932079
 20
416.40848435947669
 30
0.0
 11
623.35170847932102
 21
416.40848435947669
 31
0.0
  0
LINE
  5
1025
  8
DIM
  6
CONTINUOUS
 10
661.35170847932079
 20
380.40848435947657
 30
0.0
 11
623.35170847932102
 21
380.40848435947657
 31
0.0
  0
LINE
  5
1026
  8
DIM
  6
CONTINUOUS
 10
624.35170847932102
 20
383.40848435947657
 30
0.0
 11
624.35170847932102
 21
413.40848435947669
 31
0.0
  0
SOLID
  5
1027
  8
DIM
  6
CONTINUOUS
 10
623.85170847932102
 20
413.40848435947669
 30
0.0
 11
624.85170847932102
 21
413.40848435947669
 31
0.0
 12
624.35170847932102
 22
416.40848435947669
 32
0.0
 13
624.35170847932102
 23
416.40848435947669
 33
0.0
  0
SOLID
  5
1028
  8
DIM
  6
CONTINUOUS
 10
623.85170847932102
 20
383.40848435947657
 30
0.0
 11
624.85170847932102
 21
383.40848435947657
 31
0.0
 12
624.35170847932102
 22
380.40848435947657
 32
0.0
 13
624.35170847932102
 23
380.40848435947657
 33
0.0
  0
LINE
  5
1029
  8
0
 10
662.35170847932091
 20
380.40848435947657
 30
0.0
 11
662.35170847932091
 21
416.40848435947669
 31
0.0
  0
LINE
  5
102A
  8
0
  6
CONTINUOUS
 10
662.35170847932091
 20
416.40848435947669
 30
0.0
 11
665.35170847932079
 21
416.40848435947669
 31
0.0
  0
LINE
  5
102B
  8
0
 10
662.35170847932102
 20
419.40848435947669
 30
0.0
 11
662.35170847932091
 21
420.40848435947669
 31
0.0
  0
LINE
  5
102C
  8
0
  6
CONTINUOUS
 10
662.35170847932091
 20
380.40848435947657
 30
0.0
 11
665.35170847932102
 21
380.40848435947657
 31
0.0
  0
LINE
  5
102D
  8
DIM
  6
CONTINUOUS
 10
665.35170847932079
 20
377.40848435947669
 30
0.0
 11
615.35170847932102
 21
377.40848435947669
 31
0.0
  0
SOLID
  5
102E
  8
DIM
  6
CONTINUOUS
 10
668.35170847932091
 20
368.90848435947657
 30
0.0
 11
668.35170847932091
 21
369.90848435947657
 31
0.0
 12
665.35170847932079
 22
369.40848435947669
 32
0.0
 13
665.35170847932079
 23
369.40848435947669
 33
0.0
  0
LINE
  5
102F
  8
DIM
  6
CONTINUOUS
 10
665.35170847932079
 20
377.40848435947669
 30
0.0
 11
665.35170847932079
 21
368.40848435947657
 31
0.0
  0
LINE
  5
1030
  8
0
  6
CONTINUOUS
 10
666.35170847932091
 20
377.40848435947669
 30
0.0
 11
665.35170847932079
 21
378.40848435947657
 31
0.0
  0
SOLID
  5
1031
  8
DIM
  6
CONTINUOUS
 10
665.35170847932079
 20
360.90848435947669
 30
0.0
 11
665.35170847932079
 21
361.90848435947657
 31
0.0
 12
662.35170847932091
 22
361.40848435947669
 32
0.0
 13
662.35170847932091
 23
361.40848435947669
 33
0.0
  0
LINE
  5
1032
  8
0
 10
689.35170847932091
 20
378.40848435947657
 30
0.0
 11
689.35170847932091
 21
419.40848435947669
 31
0.0
  0
LINE
  5
1033
  8
0
 10
692.35170847932102
 20
419.40848435947669
 30
0.0
 11
692.35170847932102
 21
420.40848435947669
 31
0.0
  0
LINE
  5
1034
  8
DIM
  6
CONTINUOUS
 10
689.35170847932091
 20
377.40848435947669
 30
0.0
 11
689.35170847932091
 21
360.40848435947657
 31
0.0
  0
SOLID
  5
1035
  8
DIM
  6
CONTINUOUS
 10
686.35170847932079
 20
368.90848435947657
 30
0.0
 11
686.35170847932079
 21
369.90848435947657
 31
0.0
 12
689.35170847932091
 22
369.40848435947669
 32
0.0
 13
689.35170847932091
 23
369.40848435947669
 33
0.0
  0
LINE
  5
1036
  8
DIM
  6
CONTINUOUS
 10
689.35170847932091
 20
377.40848435947669
 30
0.0
 11
689.35170847932091
 21
368.40848435947657
 31
0.0
  0
LINE
  5
1037
  8
0
  6
CONTINUOUS
 10
688.35170847932091
 20
377.40848435947669
 30
0.0
 11
689.35170847932091
 21
378.40848435947657
 31
0.0
  0
SOLID
  5
1038
  8
DIM
  6
CONTINUOUS
 10
686.35170847932079
 20
360.90848435947669
 30
0.0
 11
686.35170847932079
 21
361.90848435947657
 31
0.0
 12
689.35170847932091
 22
361.40848435947669
 32
0.0
 13
689.35170847932091
 23
361.40848435947669
 33
0.0
  0
TEXT
  5
1039
  8
DIM
  6
CONTINUOUS
 10
614.85170847932102
 20
424.38900276317298
 30
0.0
 40
3.0
  1
1
 50
90.0
  7
ROMANSS
 72
     1
 11
613.35170847932102
 21
424.74614562031581
 31
0.0
 73
     2
  0
TEXT
  5
103A
  8
DIM
  6
CONTINUOUS
 10
622.85170847932102
 20
395.91250141456231
 30
0.0
 40
3.0
  1
36
 50
90.0
  7
ROMANSS
 72
     1
 11
621.35170847932102
 21
398.26964427170509
 31
0.0
 73
     2
  0
TEXT
  5
103B
  8
DIM
  6
CONTINUOUS
 10
614.85170847932102
 20
395.8410728431337
 30
0.0
 40
3.0
  1
42
 50
90.0
  7
ROMANSS
 72
     1
 11
613.35170847932102
 21
398.26964427170509
 31
0.0
 73
     2
  0
TEXT
  5
103C
  8
DIM
  6
CONTINUOUS
 10
670.85170847932091
 20
370.90848435947657
 30
0.0
 40
3.0
  1
%%c24h6
  7
ROMANSS
 72
     1
 11
677.35170847932079
 21
372.40848435947657
 31
0.0
 73
     2
  0
TEXT
  5
103D
  8
DIM
  6
CONTINUOUS
 10
673.42313705074935
 20
362.90848435947669
 30
0.0
 40
3.0
  1
27
  7
ROMANSS
 72
     1
 11
675.85170847932091
 21
364.40848435947657
 31
0.0
 73
     2
  0
TEXT
  5
104E
  8
LOGO
 62
     6
 10
892.68417704333035
 20
85.523905260131855
 30
0.0
 40
16.361220344331429
  1
作動角度
 41
0.9
  7
CHINESET
 72
     4
 11
922.13437366312701
 21
93.193898278342672
 31
0.0
  0
LINE
  5
104F
  8
LOGO
 62
     6
 10
964.38399009766954
 20
62.516610132721347
 30
0.0
 11
879.88475722858448
 21
62.516610132721212
 31
0.0
  0
LINE
  5
1050
  8
LOGO
 62
     6
 10
964.38399009766954
 20
107.5099660796328
 30
0.0
 11
879.88475722858448
 21
107.5099660796328
 31
0.0
  0
TEXT
  5
1051
  8
LOGO
  6
CONTINUOUS
 62
     6
 10
883.56863999434563
 20
69.333785276192685
 30
0.0
 40
10.225762715207139
  1
Rotary angle
 41
0.8
  7
CHINESET
 72
     4
 11
922.13437366312701
 21
72.742372847928408
 31
0.0
  0
TEXT
  5
1052
  8
LOGO
  6
CONTINUOUS
 62
     7
 10
899.69612914626566
 20
133.86502755208301
 30
0.0
 40
20.451525430414289
  1
180
  7
CHINESET
 72
     1
 11
924.04318323009215
 21
144.0907902672902
 31
0.0
 73
     2
  0
LINE
  5
1053
  8
LOGO
 62
     6
 10
956.20337992550378
 20
162.72908474175139
 30
0.0
 11
888.06536740075023
 21
162.72908474175139
 31
0.0
  0
LINE
  5
1054
  8
LOGO
 62
     6
 10
956.20337992550378
 20
125.9163389670056
 30
0.0
 11
888.06536740075023
 21
125.9163389670057
 31
0.0
  0
LINE
  5
1055
  8
LOGO
 62
     1
 10
1107.0
 20
175.0
 30
0.0
 11
227.0
 21
175.0
 31
0.0
  0
LINE
  5
1056
  8
LOGO
 62
     1
 10
1107.0
 20
52.290847417514229
 30
0.0
 11
227.0
 21
52.290847417514229
 31
0.0
  0
LINE
  5
1057
  8
LOGO
  6
CONTINUOUS
 62
     6
 10
460.31234331157378
 20
142.3879934646065
 30
0.0
 11
482.64812660094179
 21
145.338284026514
 31
0.0
  0
LINE
  5
1058
  8
LOGO
  6
CONTINUOUS
 62
     6
 10
460.31234331157378
 20
134.03901014096931
 30
0.0
 11
482.64812660094179
 21
131.08871957906169
 31
0.0
  0
LINE
  5
1059
  8
LOGO
 62
     1
 10
496.96013568146873
 20
150.45816948350279
 30
0.0
 11
316.98671189382293
 21
150.45816948350279
 31
0.0
  0
LINE
  5
105A
  8
LOGO
 62
     1
 10
496.96013568146873
 20
125.9163389670057
 30
0.0
 11
316.98671189382293
 21
125.9163389670057
 31
0.0
  0
TEXT
  5
105B
  8
LOGO
 62
     6
 10
433.56243015833928
 20
156.5936271126271
 30
0.0
 40
12.27091525824858
  1
1 : 1
  7
CHINESET
 72
     1
 11
455.18261418477721
 21
162.72908474175139
 31
0.0
 73
     2
  0
TEXT
  5
105C
  8
LOGO
 62
     6
 10
433.56243015833928
 20
107.5099660796327
 30
0.0
 40
12.27091525824858
  1
m/m
  7
CHINESET
 72
     1
 11
455.18261418477721
 21
113.64542370875699
 31
0.0
 73
     2
  0
LINE
  5
105D
  8
LOGO
 62
     1
 10
496.96013568146873
 20
101.3745084505086
 30
0.0
 11
226.9999999999998
 21
101.3745084505086
 31
0.0
  0
TEXT
  5
105E
  8
LOGO
  6
CONTINUOUS
 62
     5
 10
231.0164777474609
 20
76.396875258085728
 30
0.0
 40
18.406372887372861
  1
金器工業股份有限公司
 41
0.8
  7
LOGO
  0
TEXT
  5
105F
  8
LOGO
  6
CONTINUOUS
 62
     5
 10
236.2869527758431
 20
57.986896164742291
 30
0.0
 40
12.27091525824858
  1
MINDMAN INDUSTRIAL CO.,LTD
 41
0.85
  7
CHINESET
  0
SOLID
  5
1060
  8
LOGO
 62
     5
 10
239.73127151364491
 20
121.773158440099
 30
0.0
 11
245.03689328249499
 21
121.77315844009721
 31
0.0
 12
267.17414273183761
 22
172.08508900678399
 32
0.0
 13
272.47976450068722
 23
172.08508900678049
 33
0.0
  0
SOLID
  5
1061
  8
LOGO
 62
     5
 10
247.23232297995361
 20
121.773158440099
 30
0.0
 11
252.5379447488032
 21
121.773158440099
 31
0.0
 12
272.47976450068722
 22
168.06013456144731
 32
0.0
 13
267.17414273183761
 23
148.60618807566189
 33
0.0
  0
SOLID
  5
1062
  8
LOGO
 62
     2
 10
245.03689328249499
 20
121.77315844009721
 30
0.0
 11
247.23232297995361
 21
121.773158440099
 31
0.0
 12
272.47976450068722
 22
172.08508900678049
 32
0.0
 13
274.67519419814408
 23
172.08508900678049
 33
0.0
  0
SOLID
  5
1063
  8
LOGO
 62
     5
 10
245.18827639381709
 20
112.62553470070161
 30
0.0
 11
247.01780114169469
 21
112.62553470070161
 31
0.0
 12
245.18827639381709
 22
103.4779109613058
 32
0.0
 13
247.01780114169469
 23
103.4779109613058
 33
0.0
  0
SOLID
  5
1064
  8
LOGO
 62
     5
 10
231.2250587203452
 20
103.4779109613058
 30
0.0
 11
233.05458346822661
 21
103.4779109613058
 31
0.0
 12
238.20666755708001
 22
112.62553470070161
 32
0.0
 13
240.03619230495809
 23
112.62553470070161
 33
0.0
  0
SOLID
  5
1065
  8
LOGO
 62
     5
 10
238.20666755708001
 20
112.62553470070161
 30
0.0
 11
240.03619230495809
 21
112.62553470070161
 31
0.0
 12
238.20666755708001
 22
103.4779109613058
 32
0.0
 13
240.03619230495809
 23
103.4779109613058
 33
0.0
  0
SOLID
  5
1066
  8
LOGO
 62
     5
 10
238.20666755708001
 20
103.4779109613058
 30
0.0
 11
240.03619230495809
 21
103.4779109613058
 31
0.0
 12
245.18827639381709
 22
112.62553470070161
 32
0.0
 13
247.01780114169469
 23
112.62553470070161
 33
0.0
  0
LINE
  5
1067
  8
LOGO
 62
     1
 10
227.0
 20
52.290847417514229
 30
0.0
 11
227.0
 21
175.0
 31
0.0
  0
TEXT
  5
1068
  8
LOGO
 62
     6
 10
327.1047388947091
 20
156.59966594887621
 30
0.0
 40
12.27091525824858
  1
比例 Scale:
 41
0.9
  7
CHINESET
 72
     4
 11
366.07037292681719
 21
162.72908474175139
 31
0.0
  0
TEXT
  5
1069
  8
LOGO
 62
     6
 10
331.3940811479273
 20
132.2244066655845
 30
0.0
 40
12.27091525824858
  1
投影 View:
 41
0.9
  7
CHINESET
 72
     4
 11
366.07037292681719
 21
138.18725422525421
 31
0.0
  0
TEXT
  5
106A
  8
LOGO
 62
     6
 10
332.59378223790782
 20
107.5099660796327
 30
0.0
 40
12.27091525824858
  1
單位 Unit:
 41
0.9
  7
CHINESET
 72
     4
 11
366.07037292681719
 21
113.64542370875699
 31
0.0
  0
POLYLINE
  5
106B
  8
LOGO
 62
     5
 66
     1
 10
0.0
 20
0.0
 30
0.0
 70
     1
 40
1.8324566785651211
 41
1.8324566785651211
  0
VERTEX
  5
14B5
  8
LOGO
 62
     5
 10
289.73253939596111
 20
108.05172283100281
 30
0.0
 42
1.0
  0
VERTEX
  5
14B6
  8
LOGO
 62
     5
 10
297.06236611022138
 20
108.05172283100281
 30
0.0
 42
1.0
  0
SEQEND
  5
14B7
  8
LOGO
 62
     5
  0
LINE
  5
106C
  8
LOGO
 62
     5
 10
307.42368718518429
 20
103.4779109613058
 30
0.0
 11
307.42368718518429
 21
108.9664852049426
 31
0.0
  0
SOLID
  5
106D
  8
LOGO
 62
     5
 10
296.14155692243969
 20
112.62553470070161
 30
0.0
 11
297.97108167031757
 21
112.62553470070161
 31
0.0
 12
296.14155692243969
 22
103.4779109613058
 32
0.0
 13
297.97108167031757
 23
103.4779109613058
 33
0.0
  0
SOLID
  5
106E
  8
LOGO
 62
     5
 10
300.10558819366639
 20
103.4779109613058
 30
0.0
 11
301.93511294154757
 21
103.4779109613058
 31
0.0
 12
300.10558819366639
 22
112.62553470070161
 32
0.0
 13
301.93511294154757
 23
112.62553470070161
 33
0.0
  0
SOLID
  5
106F
  8
LOGO
 62
     5
 10
305.59416243730669
 20
108.9664852049426
 30
0.0
 11
307.42368718518429
 21
108.9664852049423
 31
0.0
 12
305.59416243730669
 22
103.4779109613058
 32
0.0
 13
307.42368718518429
 23
103.4779109613058
 33
0.0
  0
SOLID
  5
1070
  8
LOGO
 62
     5
 10
269.91824690118318
 20
115.3698218225216
 30
0.0
 11
271.74777164906078
 21
115.3698218225216
 31
0.0
 12
269.91824690118318
 22
103.4779109613058
 32
0.0
 13
271.74777164906078
 23
103.4779109613058
 33
0.0
  0
SOLID
  5
1071
  8
LOGO
 62
     5
 10
273.88227817241489
 20
112.62553470070161
 30
0.0
 11
275.71180292029271
 21
112.62553470070161
 31
0.0
 12
273.88227817241489
 22
103.4779109613058
 32
0.0
 13
275.71180292029271
 23
103.4779109613058
 33
0.0
  0
SOLID
  5
1072
  8
LOGO
 62
     5
 10
279.37085241605172
 20
108.9664852049426
 30
0.0
 11
281.20037716392949
 21
108.9664852049426
 31
0.0
 12
279.37085241605172
 22
103.4779109613058
 32
0.0
 13
281.20037716392949
 23
103.4779109613058
 33
0.0
  0
SOLID
  5
1073
  8
LOGO
 62
     5
 10
284.85942665968872
 20
108.9664852049426
 30
0.0
 11
286.68895140756632
 21
108.9664852049426
 31
0.0
 12
284.85942665968872
 22
103.4779109613024
 32
0.0
 13
286.68895140756632
 23
103.4779109613024
 33
0.0
  0
LINE
  5
1074
  8
LOGO
 62
     1
 10
316.98671189382293
 20
101.3745084505085
 30
0.0
 11
316.98671189382293
 21
175.0
 31
0.0
  0
SOLID
  5
1075
  8
LOGO
 62
     5
 10
253.14754239479689
 20
112.62553470070161
 30
0.0
 11
254.97706714267451
 21
112.62553470070161
 31
0.0
 12
253.14754239479689
 22
103.4779109613058
 32
0.0
 13
254.97706714267451
 23
103.4779109613058
 33
0.0
  0
SOLID
  5
1076
  8
LOGO
 62
     5
 10
258.63611663843329
 20
108.9664852049426
 30
0.0
 11
260.46564138631442
 21
108.9664852049426
 31
0.0
 12
258.63611663843329
 22
103.4779109613058
 32
0.0
 13
260.46564138631442
 23
103.4779109613058
 33
0.0
  0
SOLID
  5
1077
  8
LOGO
 62
     5
 10
249.18351112356481
 20
112.62553470070161
 30
0.0
 11
251.01303587144781
 21
112.62553470070161
 31
0.0
 12
249.18351112356481
 22
103.4779109613024
 32
0.0
 13
251.01303587144781
 23
103.4779109613058
 33
0.0
  0
POLYLINE
  5
1078
  8
LOGO
 62
     5
 66
     1
 10
0.0
 20
0.0
 30
0.0
 70
     1
 40
1.8324566785651211
 41
1.8324566785651211
  0
VERTEX
  5
14B8
  8
LOGO
 62
     5
 10
263.50922937470608
 20
108.05172283100281
 30
0.0
 42
1.0
  0
VERTEX
  5
14B9
  8
LOGO
 62
     5
 10
270.83905608896669
 20
108.05172283100281
 30
0.0
 42
1.0
  0
SEQEND
  5
14BA
  8
LOGO
 62
     5
  0
POLYLINE
  5
1079
  8
LOGO
 62
     5
 66
     1
 10
0.0
 20
0.0
 30
0.0
 40
1.8324566785651211
 41
1.8324566785651211
  0
VERTEX
  5
14BB
  8
LOGO
 62
     5
 10
306.51332270727488
 20
108.9664852049426
 30
0.0
 42
1.0
  0
VERTEX
  5
14BC
  8
LOGO
 62
     5
 10
301.01595267157938
 20
108.9664852049426
 30
0.0
 42
1.0
  0
SEQEND
  5
14BD
  8
LOGO
 62
     5
  0
SOLID
  5
107A
  8
LOGO
 62
     5
 10
302.11806541633479
 20
121.77315844009721
 30
0.0
 11
307.42368718518429
 21
121.77315844009721
 31
0.0
 12
302.11806541633479
 22
172.08508900678049
 32
0.0
 13
307.42368718518429
 23
172.08508900678399
 33
0.0
  0
SOLID
  5
107B
  8
LOGO
 62
     5
 10
274.67519419814408
 20
172.08508900678049
 30
0.0
 11
279.98081596699348
 21
172.08508900678399
 31
0.0
 12
274.67519419814408
 22
125.7981128854321
 32
0.0
 13
279.98081596699348
 23
145.2520593712176
 33
0.0
  0
SOLID
  5
107C
  8
LOGO
 62
     5
 10
274.67519419814408
 20
125.7981128854321
 30
0.0
 11
279.98081596699348
 21
145.2520593712176
 31
0.0
 12
299.92263571887781
 22
172.08508900678399
 32
0.0
 13
294.61701395002768
 23
172.08508900678399
 33
0.0
  0
SOLID
  5
107D
  8
LOGO
 62
     5
 10
299.92263571887781
 20
168.06013456144731
 30
0.0
 11
294.61701395002768
 21
148.60618807566189
 31
0.0
 12
299.92263571887781
 22
121.77315844009721
 32
0.0
 13
294.61701395002768
 23
121.77315844009721
 33
0.0
  0
SOLID
  5
107E
  8
LOGO
 62
     2
 10
299.92263571887781
 20
172.08508900678399
 30
0.0
 11
302.11806541633479
 21
172.08508900678049
 31
0.0
 12
299.92263571887781
 22
121.77315844009721
 32
0.0
 13
302.11806541633479
 23
121.77315844009721
 33
0.0
  0
SOLID
  5
107F
  8
LOGO
 62
     5
 10
267.17414273183761
 20
121.773158440099
 30
0.0
 11
272.47976450068722
 21
121.773158440099
 31
0.0
 12
267.17414273183761
 22
148.60618807566189
 32
0.0
 13
272.47976450068722
 23
168.06013456144731
 33
0.0
  0
SOLID
  5
1080
  8
LOGO
 62
     2
 10
272.47976450068722
 20
172.08508900678049
 30
0.0
 11
274.67519419814408
 21
172.08508900678049
 31
0.0
 12
272.47976450068722
 22
121.773158440099
 32
0.0
 13
274.67519419814408
 23
121.773158440099
 33
0.0
  0
SOLID
  5
1081
  8
LOGO
 62
     5
 10
274.67519419814408
 20
121.773158440099
 30
0.0
 11
279.98081596699348
 21
121.773158440099
 31
0.0
 12
299.92263571887781
 22
168.06013456144731
 32
0.0
 13
294.61701395002768
 23
148.60618807566189
 33
0.0
  0
SOLID
  5
1082
  8
LOGO
 62
     2
 10
272.47976450068722
 20
121.773158440099
 30
0.0
 11
274.67519419814408
 21
121.773158440099
 31
0.0
 12
299.92263571887781
 22
172.08508900678399
 32
0.0
 13
302.11806541633479
 23
172.08508900678049
 33
0.0
  0
POLYLINE
  5
1083
  8
LOGO
 62
     5
 66
     1
 10
0.0
 20
0.0
 30
0.0
 40
1.8324566785651211
 41
1.8324566785651211
  0
VERTEX
  5
14BE
  8
LOGO
 62
     5
 10
280.29001268602002
 20
108.9664852049426
 30
0.0
 42
1.0
  0
VERTEX
  5
14BF
  8
LOGO
 62
     5
 10
274.79264265032441
 20
108.9664852049426
 30
0.0
 42
1.0
  0
SEQEND
  5
14C0
  8
LOGO
 62
     5
  0
POLYLINE
  5
1084
  8
LOGO
 62
     5
 66
     1
 10
0.0
 20
0.0
 30
0.0
 40
1.8324566785651211
 41
1.8324566785651211
  0
VERTEX
  5
14C1
  8
LOGO
 62
     5
 10
259.55527690840199
 20
108.9664852049426
 30
0.0
 42
1.0
  0
VERTEX
  5
14C2
  8
LOGO
 62
     5
 10
254.0579068727065
 20
108.9664852049426
 30
0.0
 42
1.0
  0
SEQEND
  5
14C3
  8
LOGO
 62
     5
  0
SOLID
  5
1085
  8
LOGO
 62
     5
 10
249.18351112356481
 20
113.9062020242163
 30
0.0
 11
251.01303587144781
 21
113.9062020242163
 31
0.0
 12
249.18351112356481
 22
115.3698218225216
 32
0.0
 13
251.01303587144781
 23
115.3698218225216
 33
0.0
  0
POLYLINE
  5
1086
  8
LOGO
 62
     5
 66
     1
 10
0.0
 20
0.0
 30
0.0
 70
     1
  0
VERTEX
  5
14C4
  8
LOGO
 62
     5
 10
290.65316563127283
 20
108.0517228310037
 30
0.0
 42
1.0000000573306349
  0
VERTEX
  5
14C5
  8
LOGO
 62
     5
 10
296.14173987491199
 20
108.0517228310037
 30
0.0
 42
1.0000000573306349
  0
SEQEND
  5
14C6
  8
LOGO
 62
     5
  0
CIRCLE
  5
1087
  8
LOGO
 62
     5
 10
293.3974527530923
 20
108.0517228310037
 30
0.0
 40
2.7442871218191258
  0
POLYLINE
  5
1088
  8
LOGO
 62
     5
 66
     1
 10
0.0
 20
0.0
 30
0.0
 40
1.8324566785651211
 41
1.8324566785651211
  0
VERTEX
  5
14C7
  8
LOGO
 62
     5
 10
285.77858692965668
 20
108.9664852049426
 30
0.0
 42
1.0
  0
VERTEX
  5
14C8
  8
LOGO
 62
     5
 10
280.28121689396119
 20
108.9664852049426
 30
0.0
 42
1.0
  0
SEQEND
  5
14C9
  8
LOGO
 62
     5
  0
LINE
  5
1089
  8
LOGO
 62
     1
 10
415.15403395981139
 20
101.3745084505085
 30
0.0
 11
415.15403395981139
 21
175.0
 31
0.0
  0
CIRCLE
  5
108A
  8
LOGO
  6
CONTINUOUS
 62
     6
 10
437.87516838227742
 20
138.2135018027879
 30
0.0
 40
7.1247822237261182
  0
CIRCLE
  5
108B
  8
LOGO
  6
CONTINUOUS
 62
     6
 10
437.87516838227742
 20
138.2135018027879
 30
0.0
 40
4.174491661818597
  0
LINE
  5
108C
  8
LOGO
 62
     6
 10
460.31234331157412
 20
134.03901014096931
 30
0.0
 11
460.31234331157378
 21
142.38799346460661
 31
0.0
  0
TEXT
  5
108D
  8
LOGO
  6
CONTINUOUS
 62
     6
 10
695.34714671594804
 20
67.629491490324909
 30
0.0
 40
10.225762715207139
  1
Model
  7
CHINESET
 72
     4
 11
714.82478998300917
 21
72.742372847928479
 31
0.0
  0
TEXT
  5
108E
  8
LOGO
  6
CONTINUOUS
 62
     7
 10
677.33032669391639
 20
134.09694913917139
 30
0.0
 40
20.451525430414289
  1
MRTH
  7
CHINESET
 72
     1
 11
714.82478998300917
 21
144.3227118543785
 31
0.0
 73
     2
  0
LINE
  5
108F
  8
LOGO
 62
     6
 10
763.90845101600337
 20
162.72908474175139
 30
0.0
 11
665.74112895001485
 21
162.72908474175139
 31
0.0
  0
LINE
  5
1090
  8
LOGO
 62
     6
 10
763.90845101600337
 20
125.9163389670057
 30
0.0
 11
665.74112895001485
 21
125.9163389670057
 31
0.0
  0
LINE
  5
1091
  8
LOGO
 62
     6
 10
755.72784084383773
 20
107.5099660796328
 30
0.0
 11
673.92173912218061
 21
107.5099660796328
 31
0.0
  0
LINE
  5
1092
  8
LOGO
 62
     6
 10
755.72784084383773
 20
62.516610132721347
 30
0.0
 11
673.92173912218061
 21
62.516610132721212
 31
0.0
  0
TEXT
  5
1093
  8
LOGO
 62
     7
 10
507.00447964671059
 20
144.27641893919051
 30
0.0
 40
24.541830516497161
  1
訂購代號:
  7
CHINESET
  0
TEXT
  5
1094
  8
LOGO
 62
     7
 10
504.06914141515028
 20
121.2432083282702
 30
0.0
 40
16.361220344331429
  1
Order example:
 41
0.8
  7
CHINESET
  0
LINE
  5
1095
  8
LOGO
 62
     1
 10
496.96013568146873
 20
52.290847417514229
 30
0.0
 11
496.96013568146873
 21
175.0
 31
0.0
  0
LINE
  5
1096
  8
LOGO
 62
     6
 10
482.64812660094179
 20
131.08871957906169
 30
0.0
 11
482.64812660094179
 21
145.338284026514
 31
0.0
  0
LINE
  5
1097
  8
LOGO
 62
     6
 10
673.92173912218061
 20
107.5099660796328
 30
0.0
 11
673.92173912218061
 21
62.516610132721212
 31
0.0
  0
LINE
  5
1098
  8
LOGO
 62
     6
 10
665.74112895001485
 20
162.72908474175139
 30
0.0
 11
665.74112895001485
 21
125.9163389670057
 31
0.0
  0
TEXT
  5
1099
  8
LOGO
  6
CONTINUOUS
 62
     7
 10
811.61878585422664
 20
133.86502755208321
 30
0.0
 40
20.451525430414289
  1
63
  7
CHINESET
 72
     1
 11
828.17478263122871
 21
144.0907902672904
 31
0.0
 73
     2
  0
LINE
  5
109A
  8
LOGO
 62
     6
 10
859.10172341945474
 20
62.516610132721553
 30
0.0
 11
793.43022270907193
 21
62.516610132721489
 31
0.0
  0
LINE
  5
109B
  8
LOGO
 62
     6
 10
859.10172341945474
 20
125.9163389670059
 30
0.0
 11
793.43022270907193
 21
125.9163389670059
 31
0.0
  0
LINE
  5
109C
  8
LOGO
 62
     6
 10
859.10172341945474
 20
107.509966079633
 30
0.0
 11
793.43022270907193
 21
107.509966079633
 31
0.0
  0
LINE
  5
109D
  8
LOGO
 62
     6
 10
859.10172341945474
 20
162.7290847417519
 30
0.0
 11
793.43022270907193
 21
162.72908474175159
 31
0.0
  0
LINE
  5
109E
  8
LOGO
 62
     6
 10
793.43022270907193
 20
107.509966079633
 30
0.0
 11
793.43022270907193
 21
62.516610132721553
 31
0.0
  0
LINE
  5
109F
  8
LOGO
 62
     6
 10
755.72784084383795
 20
107.5099660796328
 30
0.0
 11
755.72784084383795
 21
62.516610132721347
 31
0.0
  0
TEXT
  5
10A0
  8
LOGO
 62
     6
 10
698.46356963867788
 20
85.431980752784
 30
0.0
 40
16.361220344331429
  1
型式
  7
CHINESET
 72
     4
 11
714.82478998300917
 21
93.193898278342814
 31
0.0
  0
LINE
  5
10A1
  8
LOGO
 62
     6
 10
714.82478998300917
 20
125.9163389670057
 30
0.0
 11
714.82478998300917
 21
107.5099660796328
 31
0.0
  0
LINE
  5
10A2
  8
LOGO
 62
     6
 10
793.43022270907193
 20
162.72908474175159
 30
0.0
 11
793.43022270907193
 21
125.9163389670059
 31
0.0
  0
LINE
  5
10A3
  8
LOGO
 62
     6
 10
763.90845101600371
 20
162.72908474175139
 30
0.0
 11
763.90845101600371
 21
125.9163389670057
 31
0.0
  0
LINE
  5
10A4
  8
LOGO
  6
CONTINUOUS
 62
     7
 10
770.80886158462295
 20
144.19231529105559
 30
0.0
 11
787.06402688134415
 21
144.19231529105559
 31
0.0
  0
LINE
  5
10A5
  8
LOGO
 62
     6
 10
879.88475722858448
 20
107.5099660796328
 30
0.0
 11
879.88475722858448
 21
62.516610132721212
 31
0.0
  0
LINE
  5
10A6
  8
LOGO
 62
     6
 10
859.10172341945474
 20
107.509966079633
 30
0.0
 11
859.10172341945474
 21
62.516610132721688
 31
0.0
  0
TEXT
  5
10A7
  8
LOGO
  6
CONTINUOUS
 62
     6
 10
813.60550494067354
 20
67.629491490325051
 30
0.0
 40
10.225762715207139
  1
Bore
 41
0.8
  7
CHINESET
 72
     4
 11
826.26597306426333
 21
72.742372847928621
 31
0.0
  0
TEXT
  5
10A8
  8
LOGO
 62
     6
 10
810.6205561099963
 20
85.013288106177242
 30
0.0
 40
16.361220344331429
  1
內徑
 41
0.9
  7
CHINESET
 72
     4
 11
826.26597306426333
 21
93.193898278342957
 31
0.0
  0
LINE
  5
10A9
  8
LOGO
  6
CONTINUOUS
 62
     7
 10
865.44400627630148
 20
144.19231529105579
 30
0.0
 11
881.6991715730228
 21
144.19231529105579
 31
0.0
  0
LINE
  5
10AA
  8
LOGO
 62
     6
 10
859.10172341945474
 20
162.7290847417519
 30
0.0
 11
859.10172341945474
 21
125.9163389670059
 31
0.0
  0
LINE
  5
10AB
  8
LOGO
 62
     6
 10
826.26597212110244
 20
125.9163389670059
 30
0.0
 11
826.26597212110244
 21
107.509966079633
 31
0.0
  0
LINE
  5
10AC
  8
LOGO
 62
     6
 10
888.06536740075023
 20
162.72908474175139
 30
0.0
 11
888.06536740075023
 21
125.9163389670057
 31
0.0
  0
LINE
  5
10AD
  8
LOGO
 62
     6
 10
923.00066314098353
 20
125.9163389670057
 30
0.0
 11
923.00066314098353
 21
107.5099660796328
 31
0.0
  0
TEXT
  5
10AE
  8
LOGO
 62
     6
 10
1007.72280281105
 20
85.717819001910087
 30
0.0
 40
16.361220344331429
  1
雙心轉軸
 41
0.9
  7
CHINESET
 72
     4
 11
1037.326385871575
 21
93.193898278343028
 31
0.0
  0
LINE
  5
10AF
  8
LOGO
 62
     6
 10
1097.1470977555359
 20
62.516610132721688
 30
0.0
 11
977.50567398761291
 21
62.516610132721553
 31
0.0
  0
LINE
  5
10B0
  8
LOGO
 62
     6
 10
1097.1470977555359
 20
107.509966079633
 30
0.0
 11
977.50567398761291
 21
107.509966079633
 31
0.0
  0
TEXT
  5
10B1
  8
LOGO
  6
CONTINUOUS
 62
     6
 10
997.00766430875819
 20
69.333785276192955
 30
0.0
 40
10.225762715207139
  1
End rod type
 41
0.8
  7
CHINESET
 72
     4
 11
1037.326385871575
 21
72.742372847928692
 31
0.0
  0
LINE
  5
10B2
  8
LOGO
 62
     6
 10
977.50567398761291
 20
107.509966079633
 30
0.0
 11
977.50567398761291
 21
62.516610132721553
 31
0.0
  0
LINE
  5
10B3
  8
LOGO
 62
     6
 10
964.38399009766954
 20
107.5099660796328
 30
0.0
 11
964.38399009766954
 21
62.346955346695438
 31
0.0
  0
LINE
  5
10B4
  8
LOGO
 62
     6
 10
956.20337992550378
 20
162.72908474175139
 30
0.0
 11
956.20337992550378
 21
125.9163389670056
 31
0.0
  0
LINE
  5
10B5
  8
LOGO
  6
CONTINUOUS
 62
     7
 10
963.44989829868916
 20
144.19231529105559
 30
0.0
 11
979.70506359541048
 21
144.19231529105559
 31
0.0
  0
TEXT
  5
10B6
  8
LOGO
  6
CONTINUOUS
 62
     7
 10
998.06406694860834
 20
133.86502755208301
 30
0.0
 40
20.451525430414289
  1
D
  7
CHINESET
 72
     1
 11
1004.881242092079
 21
144.0907902672902
 31
0.0
 73
     2
  0
LINE
  5
10B7
  8
LOGO
 62
     6
 10
1023.002345953066
 20
162.72908474175159
 30
0.0
 11
1023.002345953066
 21
125.9163389670057
 31
0.0
  0
LINE
  5
10B8
  8
LOGO
 62
     6
 10
985.75569527886023
 20
162.72908474175159
 30
0.0
 11
985.75569527886023
 21
125.9163389670057
 31
0.0
  0
LINE
  5
10B9
  8
LOGO
 62
     6
 10
1023.002345953066
 20
125.9163389670057
 30
0.0
 11
985.75569527886023
 21
125.9163389670057
 31
0.0
  0
LINE
  5
10BA
  8
LOGO
 62
     6
 10
1004.379020615963
 20
125.9163389670057
 30
0.0
 11
1004.379020615963
 21
107.509966079633
 31
0.0
  0
LINE
  5
10BB
  8
LOGO
 62
     6
 10
1023.002345953066
 20
162.72908474175159
 30
0.0
 11
985.75569527886023
 21
162.72908474175159
 31
0.0
  0
LINE
  5
10BC
  8
LOGO
 62
     6
 10
1097.1470977555359
 20
107.509966079633
 30
0.0
 11
1097.1470977555359
 21
62.516610132721688
 31
0.0
  0
LINE
  5
10BD
  8
LOGO
 62
     1
 10
1107.0
 20
52.290847417514229
 30
0.0
 11
1107.0
 21
175.0
 31
0.0
  0
ENDSEC
  0
EOF
