  0
SECTION
  2
HEADER
  9
$ACADVER
  1
AC1012
  9
$DWGCODEPAGE
  3
big5
  9
$INSBASE
 10
0.0
 20
0.0
 30
0.0
  9
$EXTMIN
 10
226.9193145536342
 20
42.65625200543581
 30
-0.0000000349181948
  9
$EXTMAX
 10
1107.006594468614
 20
765.0439471810173
 30
0.0000000814935746
  9
$LIMMIN
 10
0.0
 20
0.0
  9
$LIMMAX
 10
1188.0
 20
840.0
  9
$ORTHOMODE
 70
     0
  9
$REGENMODE
 70
     1
  9
$FILLMODE
 70
     1
  9
$QTEXTMODE
 70
     0
  9
$MIRRTEXT
 70
     1
  9
$DRAGMODE
 70
     2
  9
$LTSCALE
 40
1.0
  9
$OSMODE
 70
    37
  9
$ATTMODE
 70
     1
  9
$TEXTSIZE
 40
3.0
  9
$TRACEWID
 40
0.05
  9
$TEXTSTYLE
  7
ITALICT
  9
$CLAYER
  8
0
  9
$CELTYPE
  6
CONTINUOUS
  9
$CECOLOR
 62
   256
  9
$CELTSCALE
 40
1.0
  9
$DELOBJ
 70
     1
  9
$DISPSILH
 70
     0
  9
$DIMSCALE
 40
1.0
  9
$DIMASZ
 40
3.0
  9
$DIMEXO
 40
1.0
  9
$DIMDLI
 40
1.482416151081472E+16
  9
$DIMRND
 40
0.0
  9
$DIMDLE
 40
0.0
  9
$DIMEXE
 40
1.0
  9
$DIMTP
 40
0.15
  9
$DIMTM
 40
-0.1
  9
$DIMTXT
 40
3.0
  9
$DIMCEN
 40
2.0
  9
$DIMTSZ
 40
0.0
  9
$DIMTOL
 70
     0
  9
$DIMLIM
 70
     0
  9
$DIMTIH
 70
     0
  9
$DIMTOH
 70
     0
  9
$DIMSE1
 70
     0
  9
$DIMSE2
 70
     0
  9
$DIMTAD
 70
     1
  9
$DIMZIN
 70
     0
  9
$DIMBLK
  1

  9
$DIMASO
 70
     0
  9
$DIMSHO
 70
     0
  9
$DIMPOST
  1

  9
$DIMAPOST
  1

  9
$DIMALT
 70
     0
  9
$DIMALTD
 70
     2
  9
$DIMALTF
 40
25.4
  9
$DIMLFAC
 40
1.0
  9
$DIMTOFL
 70
     1
  9
$DIMTVP
 40
1.0
  9
$DIMTIX
 70
     0
  9
$DIMSOXD
 70
     0
  9
$DIMSAH
 70
     0
  9
$DIMBLK1
  1

  9
$DIMBLK2
  1

  9
$DIMSTYLE
  2
STANDARD
  9
$DIMCLRD
 70
     0
  9
$DIMCLRE
 70
     0
  9
$DIMCLRT
 70
     0
  9
$DIMTFAC
 40
1.0
  9
$DIMGAP
 40
0.09
  9
$DIMJUST
 70
     0
  9
$DIMSD1
 70
     0
  9
$DIMSD2
 70
     0
  9
$DIMTOLJ
 70
     1
  9
$DIMTZIN
 70
     0
  9
$DIMALTZ
 70
     0
  9
$DIMALTTZ
 70
     0
  9
$DIMFIT
 70
     5
  9
$DIMUPT
 70
     0
  9
$DIMUNIT
 70
     2
  9
$DIMDEC
 70
     2
  9
$DIMTDEC
 70
     2
  9
$DIMALTU
 70
     2
  9
$DIMALTTD
 70
     2
  9
$DIMTXSTY
  7
STANDARD
  9
$DIMAUNIT
 70
     0
  9
$LUNITS
 70
     2
  9
$LUPREC
 70
     2
  9
$SKETCHINC
 40
0.1
  9
$FILLETRAD
 40
0.75
  9
$AUNITS
 70
     0
  9
$AUPREC
 70
     2
  9
$MENU
  1
ACAD
  9
$ELEVATION
 40
0.0
  9
$PELEVATION
 40
0.0
  9
$THICKNESS
 40
0.0
  9
$LIMCHECK
 70
     0
  9
$BLIPMODE
 70
     0
  9
$CHAMFERA
 40
0.0
  9
$CHAMFERB
 40
0.0
  9
$CHAMFERC
 40
0.0
  9
$CHAMFERD
 40
0.0
  9
$SKPOLY
 70
     1
  9
$TDCREATE
 40
2450580.703446064
  9
$TDUPDATE
 40
2452705.781509386
  9
$TDINDWG
 40
0.0952050926
  9
$TDUSRTIMER
 40
0.0952050926
  9
$USRTIMER
 70
     1
  9
$ANGBASE
 50
0.0
  9
$ANGDIR
 70
     0
  9
$PDMODE
 70
     0
  9
$PDSIZE
 40
0.0
  9
$PLINEWID
 40
0.0
  9
$COORDS
 70
     1
  9
$SPLFRAME
 70
     0
  9
$SPLINETYPE
 70
     6
  9
$SPLINESEGS
 70
     8
  9
$ATTDIA
 70
     1
  9
$ATTREQ
 70
     1
  9
$HANDLING
 70
 22529
  9
$HANDSEED
  5
1963
  9
$SURFTAB1
 70
     6
  9
$SURFTAB2
 70
     6
  9
$SURFTYPE
 70
     6
  9
$SURFU
 70
     6
  9
$SURFV
 70
     6
  9
$UCSNAME
  2

  9
$UCSORG
 10
0.0
 20
0.0
 30
0.0
  9
$UCSXDIR
 10
1.0
 20
0.0
 30
0.0
  9
$UCSYDIR
 10
0.0
 20
1.0
 30
0.0
  9
$PUCSNAME
  2

  9
$PUCSORG
 10
0.0
 20
0.0
 30
0.0
  9
$PUCSXDIR
 10
1.0
 20
0.0
 30
0.0
  9
$PUCSYDIR
 10
0.0
 20
1.0
 30
0.0
  9
$USERI1
 70
     0
  9
$USERI2
 70
-31485
  9
$USERI3
 70
     0
  9
$USERI4
 70
     0
  9
$USERI5
 70
     0
  9
$USERR1
 40
0.0
  9
$USERR2
 40
0.0
  9
$USERR3
 40
0.0
  9
$USERR4
 40
0.0
  9
$USERR5
 40
0.0
  9
$WORLDVIEW
 70
     1
  9
$SHADEDGE
 70
     3
  9
$SHADEDIF
 70
    70
  9
$TILEMODE
 70
     1
  9
$MAXACTVP
 70
    48
  9
$PINSBASE
 10
0.0
 20
0.0
 30
0.0
  9
$PLIMCHECK
 70
     0
  9
$PEXTMIN
 10
1.000000000000000E+20
 20
1.000000000000000E+20
 30
1.000000000000000E+20
  9
$PEXTMAX
 10
-1.000000000000000E+20
 20
-1.000000000000000E+20
 30
-1.000000000000000E+20
  9
$PLIMMIN
 10
0.0
 20
0.0
  9
$PLIMMAX
 10
12.0
 20
9.0
  9
$UNITMODE
 70
     0
  9
$VISRETAIN
 70
     1
  9
$PLINEGEN
 70
     0
  9
$PSLTSCALE
 70
     0
  9
$TREEDEPTH
 70
  3020
  9
$PICKSTYLE
 70
     1
  9
$CMLSTYLE
  2
STANDARD
  9
$CMLJUST
 70
     0
  9
$CMLSCALE
 40
1.0
  9
$SAVEIMAGES
 70
     1
  0
ENDSEC
  0
SECTION
  2
CLASSES
  0
CLASS
  1
ACDBDICTIONARYWDFLT
  2
AcDbDictionaryWithDefault
  3
AutoCAD 2000
 90
    32768
280
     0
281
     0
  0
CLASS
  1
ACDBPLACEHOLDER
  2
AcDbPlaceHolder
  3
AutoCAD 2000
 90
    32768
280
     0
281
     0
  0
CLASS
  1
LAYOUT
  2
AcDbLayout
  3
AutoCAD 2000
 90
    32768
280
     0
281
     0
  0
CLASS
  1
LONG_TRANSACTION
  2
AcDbLongTransaction
  3
AutoCAD 2000
 90
    32768
280
     0
281
     0
  0
CLASS
  1
LWPOLYLINE
  2
AcDbPolyline
  3
AutoCAD 2000
 90
    32768
280
     0
281
     1
  0
CLASS
  1
HATCH
  2
AcDbHatch
  3
AutoCAD 2000
 90
    32768
280
     0
281
     1
  0
CLASS
  1
XRECORD
  2
AcDbXrecord
  3
AutoCAD 2000
 90
    32768
280
     0
281
     0
  0
CLASS
  1
ACME_DOCUMENT
  2
AcMeDbDoc
  3
AcMeServices
 90
    32768
280
     0
281
     0
  0
CLASS
  1
AMGSETTINGSOBJ
  2
AmgSettingsObj
  3
"AcadM|Product Description: AutoCAD Mechanical 2000|Company: Autodesk"
 90
    32768
280
     0
281
     0
  0
CLASS
  1
ACMESCOPE
  2
AcMeScope
  3
AcMeServices
 90
    32768
280
     0
281
     0
  0
CLASS
  1
ACMECOMMANDHISTORY
  2
AcMeCommandHistory
  3
AcMeServices
 90
    32768
280
     0
281
     0
  0
CLASS
  1
ACIMSYSVARMAN
  2
AcImSysVarManager
  3
AcMeServices
 90
    32768
280
     0
281
     0
  0
CLASS
  1
ACIMREALSYSVAR
  2
AcImRealSysVar
  3
AcMeServices
 90
    32768
280
     0
281
     0
  0
CLASS
  1
ACIMINTSYSVAR
  2
AcImIntSysVar
  3
AcMeServices
 90
    32768
280
     0
281
     0
  0
CLASS
  1
ACMEDRAWINGMAN
  2
AcMeDrawingMan
  3
AcMeServices
 90
    32768
280
     0
281
     0
  0
CLASS
  1
ACMEVIEW
  2
AcMeView
  3
AcMeServices
 90
    32768
280
     0
281
     0
  0
CLASS
  1
ACDBENTITYCACHE
  2
AcMeEntityCache
  3
AcMeServices
 90
    32768
280
     0
281
     0
  0
CLASS
  1
GSMANAGER
  2
AcMeGSManager
  3
AcMeServices
 90
    32768
280
     0
281
     0
  0
CLASS
  1
AMDTINTERNALREACTOR
  2
AmdtInternalReactor
  3
AcMeServices
 90
    32768
280
     0
281
     0
  0
CLASS
  1
ACMESTATEMGR
  2
AcMeStateMgr
  3
AcMeServices
 90
    32768
280
     0
281
     0
  0
CLASS
  1
ACGREFMASTER
  2
AcGrefMaster
  3
AcAttribServices
 90
    32768
280
     0
281
     0
  0
CLASS
  1
ACME_DATABASE
  2
AcMeDbDatabase
  3
AcMeServices
 90
    32768
280
     0
281
     0
  0
CLASS
  1
ACRFINSADJUSTERMGR
  2
AcRfInsAdjusterMgr
  3
AcMeServices
 90
    32768
280
     0
281
     0
  0
CLASS
  1
ACGREFACADMASTER
  2
AcGrefacadMaster
  3
AcGrefServices
 90
    32768
280
     0
281
     0
  0
CLASS
  1
AMIMASTER
  2
AmiMaster
  3
AmiServices
 90
    32768
280
     0
281
     0
  0
CLASS
  1
ACMDATADICTIONARY
  2
AcmDataDictionary
  3
"AcmSymBB|Product Description: AutoCAD Mechanical 2000|Company: Autodesk"
 90
    32768
280
     0
281
     0
  0
CLASS
  1
ACMDATAENTRYBLOCK
  2
AcmDataEntryBlock
  3
"AcmSymBB|Product Description: AutoCAD Mechanical 2000|Company: Autodesk"
 90
    32768
280
     0
281
     0
  0
CLASS
  1
ACIMSTRSYSVAR
  2
AcImStrSysVar
  3
AcMeServices
 90
    32768
280
     0
281
     0
  0
CLASS
  1
ACMSTANDARDANSI
  2
AcmStandardANSI
  3
"Amdt_StdImp|Product Description: AutoCAD Mechanical 2000|Company: Autodesk"
 90
    32768
280
     0
281
     0
  0
CLASS
  1
AMGOBJPROPCFG
  2
AmgObjPropCfg
  3
"AmgLay|Product Description: AutoCAD Mechanical 2000|Company: Autodesk"
 90
    32769
280
     0
281
     0
  0
CLASS
  1
ACMSURFSTANDARDANSI
  2
AcmSurfTextStdANSI
  3
"Amdt_StdImp|Product Description: AutoCAD Mechanical 2000|Company: Autodesk"
 90
    32768
280
     0
281
     0
  0
CLASS
  1
ACMFCFSTANDARDANSI
  2
AcmFCFStdANSI
  3
"Amdt_StdImp|Product Description: AutoCAD Mechanical 2000|Company: Autodesk"
 90
    32768
280
     0
281
     0
  0
CLASS
  1
ACMWELDSTANDARDANSI
  2
AcmWeldingStdANSI
  3
"Amdt_StdImp|Product Description: AutoCAD Mechanical 2000|Company: Autodesk"
 90
    32768
280
     0
281
     0
  0
CLASS
  1
ACMIDSTANDARDANSI
  2
AcmIdStdANSI
  3
"Amdt_StdImp|Product Description: AutoCAD Mechanical 2000|Company: Autodesk"
 90
    32768
280
     0
281
     0
  0
CLASS
  1
ACMDATUMSTANDARDANSI
  2
AcmDatumStdANSI
  3
"Amdt_StdImp|Product Description: AutoCAD Mechanical 2000|Company: Autodesk"
 90
    32768
280
     0
281
     0
  0
CLASS
  1
ACMBOMSTANDARDANSI
  2
AcmBOMStdANSI
  3
"Amdt_StdImp|Product Description: AutoCAD Mechanical 2000|Company: Autodesk"
 90
    32768
280
     0
281
     0
  0
CLASS
  1
ACMDETAILSTANDARDANSI
  2
AmdtDetailSymStdANSI
  3
"Amdt_StdImp|Product Description: AutoCAD Mechanical 2000|Company: Autodesk"
 90
    32768
280
     0
281
     0
  0
CLASS
  1
ACMSECTIONSTANDARDANSI
  2
AmdtSectionSymStdANSI
  3
"Amdt_StdImp|Product Description: AutoCAD Mechanical 2000|Company: Autodesk"
 90
    32768
280
     0
281
     0
  0
CLASS
  1
ACMCENTERLINESTANDARDANSI
  2
AmdtCenterLineStdANSI
  3
"Amdt_StdImp|Product Description: AutoCAD Mechanical 2000|Company: Autodesk"
 90
    32768
280
     0
281
     0
  0
CLASS
  1
ACMNOTESTANDARDANSI
  2
AmdtNoteStdANSI
  3
"Amdt_StdImp|Product Description: AutoCAD Mechanical 2000|Company: Autodesk"
 90
    32768
280
     0
281
     0
  0
CLASS
  1
ACAMGLAYSTD
  2
AcAmgLayStd
  3
"AcAmgLayStd|Product Description: AutoCAD Mechanical 2000|Company: Autodesk"
 90
    32768
280
     0
281
     0
  0
CLASS
  1
ACAMGDIMSTD
  2
AcAmgDimStd
  3
"AcAmgDimStd|Product Description: AutoCAD Mechanical 2000|Company: Autodesk"
 90
    32768
280
     0
281
     0
  0
CLASS
  1
ACAMGHOLECHARTSTDANSI
  2
AcAmgHoleChartStdANSI
  3
ACMSYMBB_MODULE_NAME
 90
    32768
280
     0
281
     0
  0
CLASS
  1
ACAMGTITLESTD
  2
AcAmgTitleStd
  3
"TITLEAPP"
 90
    32768
280
     0
281
     0
  0
CLASS
  1
ACAMGFILTERDAT
  2
AcAmgFilterDat
  3
"AcadM|Product Description: AutoCAD Mechanical 2000|Company: Autodesk"
 90
    32768
280
     0
281
     0
  0
CLASS
  1
LAYER_INDEX
  2
AcDbLayerIndex
  3
AutoCAD 2000
 90
    32768
280
     0
281
     0
  0
CLASS
  1
IDBUFFER
  2
AcDbIdBuffer
  3
AutoCAD 2000
 90
    32768
280
     0
281
     0
  0
CLASS
  1
DICTIONARYVAR
  2
AcDbDictionaryVar
  3
AutoCAD 2000
 90
    32768
280
     0
281
     0
  0
CLASS
  1
LONG_TRANSACTION
  2
AcDbLongTransaction
  3
AutoCAD 2000
 90
    32768
280
     0
281
     0
  0
CLASS
  1
LWPOLYLINE
  2
AcDbPolyline
  3
AutoCAD 2000
 90
    32768
280
     0
281
     1
  0
CLASS
  1
HATCH
  2
AcDbHatch
  3
AutoCAD 2000
 90
    32768
280
     0
281
     1
  0
CLASS
  1
XRECORD
  2
AcDbXrecord
  3
AutoCAD 2000
 90
    32768
280
     0
281
     0
  0
ENDSEC
  0
SECTION
  2
TABLES
  0
TABLE
  2
VPORT
  5
8
330
0
100
AcDbSymbolTable
 70
     5
  0
VPORT
  5
1960
330
8
100
AcDbSymbolTableRecord
100
AcDbViewportTableRecord
  2
*ACTIVE
 70
     0
 10
0.0
 20
0.0
 11
1.0
 21
1.0
 12
666.9629545111242
 22
403.8500995932265
 13
0.0
 23
0.0
 14
1.0
 24
1.0
 15
0.0
 25
0.0
 16
0.0
 26
0.0
 36
1.0
 17
0.0
 27
0.0
 37
0.0
 40
730.5502680024241
 41
1.788679245283019
 42
1.0
 43
0.0
 44
0.0
 50
0.0
 51
0.0
 71
     0
 72
   100
 73
     1
 74
     1
 75
     0
 76
     0
 77
     0
 78
     0
  0
ENDTAB
  0
TABLE
  2
LTYPE
  5
5
330
0
100
AcDbSymbolTable
 70
    16
  0
LTYPE
  5
13
330
5
100
AcDbSymbolTableRecord
100
AcDbLinetypeTableRecord
  2
BYBLOCK
 70
     0
  3

 72
    65
 73
     0
 40
0.0
  0
LTYPE
  5
14
330
5
100
AcDbSymbolTableRecord
100
AcDbLinetypeTableRecord
  2
BYLAYER
 70
     0
  3

 72
    65
 73
     0
 40
0.0
  0
LTYPE
  5
15
330
5
100
AcDbSymbolTableRecord
100
AcDbLinetypeTableRecord
  2
CONTINUOUS
 70
     0
  3
Solid line
 72
    65
 73
     0
 40
0.0
  0
LTYPE
  5
35
330
5
100
AcDbSymbolTableRecord
100
AcDbLinetypeTableRecord
  2
CENTER
 70
     0
  3
_______________ _ _______________ _ ___________
 72
    65
 73
     4
 40
18.0
 49
15.0
 74
     0
 49
-1.0
 74
     0
 49
1.0
 74
     0
 49
-1.0
 74
     0
  0
LTYPE
  5
36
330
5
100
AcDbSymbolTableRecord
100
AcDbLinetypeTableRecord
  2
HIDDEN
 70
     0
  3
___ ___ ___ ___ ___ ___ ___ ___ ___ ___ 
 72
    65
 73
     2
 40
4.0
 49
3.0
 74
     0
 49
-1.0
 74
     0
  0
LTYPE
  5
18CF
330
5
100
AcDbSymbolTableRecord
100
AcDbLinetypeTableRecord
  2
AM_ISO02W050
 70
     0
  3
__ __ __ __ __ __ __ __ __ __ __ __ __ __ __
 72
    65
 73
     2
 40
7.5
 49
6.0
 74
     0
 49
-1.5
 74
     0
  0
LTYPE
  5
18D0
330
5
100
AcDbSymbolTableRecord
100
AcDbLinetypeTableRecord
  2
AM_ISO08W050
 70
     0
  3
____ . ____ . ____ . ____ . ____ . ____ . ____
 72
    65
 73
     4
 40
18.0
 49
12.0
 74
     0
 49
-1.5
 74
     0
 49
3.0
 74
     0
 49
-1.5
 74
     0
  0
LTYPE
  5
18D1
330
5
100
AcDbSymbolTableRecord
100
AcDbLinetypeTableRecord
  2
AM_ISO09W050
 70
     0
  3
_____ . . _____ . . _____ . . ____ .. ____
 72
    65
 73
     6
 40
22.5
 49
12.0
 74
     0
 49
-1.5
 74
     0
 49
3.0
 74
     0
 49
-1.5
 74
     0
 49
3.0
 74
     0
 49
-1.5
 74
     0
  0
LTYPE
  5
18D2
330
5
100
AcDbSymbolTableRecord
100
AcDbLinetypeTableRecord
  2
AMCONSTR
 70
     0
  3
_______________________
 72
    65
 73
     2
 40
9999.0
 49
9999.0
 74
     0
 49
0.0
 74
     0
  0
LTYPE
  5
18D3
330
5
100
AcDbSymbolTableRecord
100
AcDbLinetypeTableRecord
  2
AM_ISO08W050X2
 70
     0
  3
__ . __ . __ . __ . __ . __
 72
    65
 73
     4
 40
9.0
 49
6.0
 74
     0
 49
-0.75
 74
     0
 49
1.5
 74
     0
 49
-0.75
 74
     0
  0
LTYPE
  5
18D4
330
5
100
AcDbSymbolTableRecord
100
AcDbLinetypeTableRecord
  2
AM_ISO02W050X2
 70
     0
  3
 _ _ _ _ _ _ _ _ _ _ _ _
 72
    65
 73
     2
 40
3.75
 49
3.0
 74
     0
 49
-0.75
 74
     0
  0
LTYPE
  5
18D7
330
5
100
AcDbSymbolTableRecord
100
AcDbLinetypeTableRecord
  2
AMZIGZAG
 70
     0
  3
/\/-/\/-/\/-/\/-/\/-/\/
 72
    65
 73
     2
 40
11.00009999999999
 49
0.0001
 74
     4
 75
   135
340
18D6
 46
0.04
 50
0.0
 44
0.0
 45
0.0
 49
-11.0
 74
     0
  0
LTYPE
  5
18D8
330
5
100
AcDbSymbolTableRecord
100
AcDbLinetypeTableRecord
  2
PHANTOM2
 70
     0
  3
Phantom (.5x) ___ _ _ ___ _ _ ___ _ _ ___ _ _
 72
    65
 73
     6
 40
1.25
 49
0.625
 74
     0
 49
-0.125
 74
     0
 49
0.125
 74
     0
 49
-0.125
 74
     0
 49
0.125
 74
     0
 49
-0.125
 74
     0
  0
LTYPE
  5
18D9
330
5
100
AcDbSymbolTableRecord
100
AcDbLinetypeTableRecord
  2
CENTER2
 70
     0
  3
Center (.5x) ___ _ ___ _ ___ _ ___ _ ___ _ ___
 72
    65
 73
     4
 40
1.125
 49
0.75
 74
     0
 49
-0.125
 74
     0
 49
0.125
 74
     0
 49
-0.125
 74
     0
  0
LTYPE
  5
18DA
330
5
100
AcDbSymbolTableRecord
100
AcDbLinetypeTableRecord
  2
HIDDEN2
 70
     0
  3
Hidden (.5x) _ _ _ _ _ _ _ _ _ _ _ _ _ _ _ _ _
 72
    65
 73
     2
 40
0.1875
 49
0.125
 74
     0
 49
-0.0625
 74
     0
  0
LTYPE
  5
18DB
330
5
100
AcDbSymbolTableRecord
100
AcDbLinetypeTableRecord
  2
AMZIGZAG2
 70
     0
  3
/\/-/\/-/\/-/\/-/\/-/\/
 72
    65
 73
     2
 40
0.4401
 49
0.0001
 74
     4
 75
   135
340
18D6
 46
0.0016
 50
0.0
 44
0.0
 45
0.0
 49
-0.4400000000000001
 74
     0
  0
LTYPE
  5
18E8
330
5
100
AcDbSymbolTableRecord
100
AcDbLinetypeTableRecord
  2
ACANSTGB
 70
     0
  3
__ . . __ . .
 72
    65
 73
     6
 40
0.35433070866
 49
0.15748031496
 74
     0
 49
-0.03937007874
 74
     0
 49
0.03937007874
 74
     0
 49
-0.03937007874
 74
     0
 49
0.03937007874
 74
     0
 49
-0.03937007874
 74
     0
  0
LTYPE
  5
18E9
330
5
100
AcDbSymbolTableRecord
100
AcDbLinetypeTableRecord
  2
ACANSTGL
 70
     0
  3
_ _ _ _ _
 72
    65
 73
     2
 40
0.11811023622
 49
0.07874015748
 74
     0
 49
-0.03937007874
 74
     0
  0
ENDTAB
  0
TABLE
  2
LAYER
  5
2
330
0
100
AcDbSymbolTable
 70
     5
  0
LAYER
  5
10
330
2
100
AcDbSymbolTableRecord
100
AcDbLayerTableRecord
  2
0
 70
     0
 62
     7
  6
CONTINUOUS
  0
LAYER
  5
39
330
2
100
AcDbSymbolTableRecord
100
AcDbLayerTableRecord
  2
DIM
 70
     0
 62
     5
  6
CONTINUOUS
  0
LAYER
  5
3A
330
2
100
AcDbSymbolTableRecord
100
AcDbLayerTableRecord
  2
HIDDEN
 70
     0
 62
     6
  6
HIDDEN
  0
LAYER
  5
3B
330
2
100
AcDbSymbolTableRecord
100
AcDbLayerTableRecord
  2
CENTER
 70
     0
 62
     1
  6
CENTER
  0
LAYER
  5
FEE
330
2
100
AcDbSymbolTableRecord
100
AcDbLayerTableRecord
  2
LOGO
 70
     0
 62
     7
  6
CONTINUOUS
  0
ENDTAB
  0
TABLE
  2
STYLE
  5
3
330
0
100
AcDbSymbolTable
 70
     8
  0
STYLE
  5
11
330
3
100
AcDbSymbolTableRecord
100
AcDbTextStyleTableRecord
  2
STANDARD
 70
     0
 40
0.0
 41
1.0
 50
0.0
 71
     0
 42
3.0
  3

  4

  0
STYLE
  5
30
330
3
100
AcDbSymbolTableRecord
100
AcDbTextStyleTableRecord
  2
ITALICT
 70
     0
 40
0.0
 41
1.0
 50
0.0
 71
     0
 42
3.0
  3
ITALICT.SHX
  4

  0
STYLE
  5
34
330
3
100
AcDbSymbolTableRecord
100
AcDbTextStyleTableRecord
  2
ROMANSS
 70
     0
 40
0.0
 41
1.0
 50
0.0
 71
     0
 42
3.0
  3
ROMANSS.SHX
  4
LMP
  0
STYLE
  5
FEF
330
3
100
AcDbSymbolTableRecord
100
AcDbTextStyleTableRecord
  2
CHINESET
 70
     0
 40
0.0
 41
1.0
 50
0.0
 71
     0
 42
4.0
  3
C:\r13\com\fonts\simplex.shx
  4
C:\r13\com\fonts\chineset.shx
  0
STYLE
  5
FF0
330
3
100
AcDbSymbolTableRecord
100
AcDbTextStyleTableRecord
  2
LOGO
 70
     0
 40
0.0
 41
1.0
 50
0.0
 71
     0
 42
5.0
  3
LEI00DP.TTF
  4

1001
ACAD
1000
文鼎中粗隸
1071
    34865
  0
STYLE
  5
18D6
330
3
100
AcDbSymbolTableRecord
100
AcDbTextStyleTableRecord
  2

 70
     1
 40
0.0
 41
1.0
 50
0.0
 71
     0
 42
14.0
  3
ltypeshp.shx
  4

  0
STYLE
  5
18DC
330
3
100
AcDbSymbolTableRecord
100
AcDbTextStyleTableRecord
  2
ACANSTS
 70
     0
 40
1.0
 41
1.0
 50
0.0
 71
     0
 42
14.0
  3
romans.shx
  4
chineset.shx
  0
STYLE
  5
18E7
330
3
100
AcDbSymbolTableRecord
100
AcDbTextStyleTableRecord
  2
ACANSGDT
 70
     0
 40
0.0
 41
1.0
 50
0.0
 71
     0
 42
14.0
  3
amgdtans.shx
  4

  0
ENDTAB
  0
TABLE
  2
VIEW
  5
6
330
0
100
AcDbSymbolTable
 70
     0
  0
ENDTAB
  0
TABLE
  2
UCS
  5
7
330
0
100
AcDbSymbolTable
 70
     0
  0
ENDTAB
  0
TABLE
  2
APPID
  5
9
330
0
100
AcDbSymbolTable
 70
     5
  0
APPID
  5
12
330
9
100
AcDbSymbolTableRecord
100
AcDbRegAppTableRecord
  2
ACAD
 70
     0
  0
APPID
  5
38
330
9
100
AcDbSymbolTableRecord
100
AcDbRegAppTableRecord
  2
TCAD
 70
     0
  0
APPID
  5
18B1
330
9
100
AcDbSymbolTableRecord
100
AcDbRegAppTableRecord
  2
MCAD_NO_VIS
 70
     0
  0
APPID
  5
18B2
330
9
100
AcDbSymbolTableRecord
100
AcDbRegAppTableRecord
  2
ACAD_TEMP_GRAPHIC
 70
     0
  0
APPID
  5
18C3
330
9
100
AcDbSymbolTableRecord
100
AcDbRegAppTableRecord
  2
ACATTRIBSERVICES
 70
     0
  0
ENDTAB
  0
TABLE
  2
DIMSTYLE
  5
A
330
0
100
AcDbSymbolTable
 70
     7
  0
DIMSTYLE
105
FED
330
A
100
AcDbSymbolTableRecord
100
AcDbDimStyleTableRecord
  2
STANDARD
 70
     0
  3

  4

  5

  6

  7

 40
1.0
 41
0.18
 42
0.0625
 43
0.38
 44
0.18
 45
0.0
 46
0.0
 47
0.0
 48
0.0
140
0.18
141
0.09
142
0.0
143
25.4
144
1.0
145
0.0
146
1.0
147
0.09
 71
     0
 72
     0
 73
     1
 74
     1
 75
     0
 76
     0
 77
     0
 78
     0
170
     0
171
     2
172
     0
173
     0
174
     0
175
     0
176
     0
177
     0
178
     0
270
     2
271
     4
272
     4
273
     2
274
     2
340
11
275
     0
280
     0
281
     0
282
     0
283
     1
284
     0
285
     0
286
     0
287
     3
288
     0
  0
DIMSTYLE
105
18EE
330
A
100
AcDbSymbolTableRecord
100
AcDbDimStyleTableRecord
  2
AM_ANSI
 70
     0
  3

  4
mm
  5

  6

  7

 40
1.0
 41
0.1
 42
0.05
 43
0.5
 44
0.1
 45
0.0
 46
0.0
 47
0.1
 48
0.1
140
0.12
141
0.0
142
0.0
143
25.4
144
1.0
145
0.0
146
0.71
147
0.06
 71
     0
 72
     0
 73
     1
 74
     1
 75
     0
 76
     0
 77
     0
 78
     7
170
     0
171
     2
172
     0
173
     0
174
     0
175
     0
176
   256
177
   256
178
     2
270
     2
271
     4
272
     4
273
     2
274
     4
340
11
275
     0
280
     0
281
     0
282
     0
283
     1
284
     7
285
     0
286
     0
287
     3
288
     0
  0
DIMSTYLE
105
18EF
330
A
100
AcDbSymbolTableRecord
100
AcDbDimStyleTableRecord
  2
AM_ANSI$3
 70
     0
  3

  4
mm
  5

  6

  7

 40
1.0
 41
0.1
 42
0.05
 43
0.5
 44
0.1
 45
0.0
 46
0.0
 47
0.1
 48
0.1
140
0.12
141
0.0
142
0.0
143
25.4
144
1.0
145
0.0
146
0.71
147
0.06
 71
     0
 72
     0
 73
     1
 74
     1
 75
     0
 76
     0
 77
     0
 78
     7
170
     0
171
     2
172
     0
173
     0
174
     0
175
     0
176
   256
177
   256
178
     2
270
     2
271
     4
272
     4
273
     2
274
     4
340
11
275
     0
280
     0
281
     0
282
     0
283
     1
284
     7
285
     0
286
     0
287
     0
288
     1
  0
DIMSTYLE
105
18F0
330
A
100
AcDbSymbolTableRecord
100
AcDbDimStyleTableRecord
  2
AM_ANSI$4
 70
     0
  3

  4
mm
  5

  6

  7

 40
1.0
 41
0.1
 42
0.05
 43
0.5
 44
0.1
 45
0.0
 46
0.0
 47
0.1
 48
0.1
140
0.12
141
0.0
142
0.0
143
25.4
144
1.0
145
0.0
146
0.71
147
0.06
 71
     0
 72
     0
 73
     1
 74
     1
 75
     0
 76
     0
 77
     0
 78
     7
170
     0
171
     2
172
     0
173
     0
174
     0
175
     0
176
   256
177
   256
178
     2
270
     2
271
     4
272
     4
273
     2
274
     4
340
11
275
     0
280
     0
281
     0
282
     0
283
     1
284
     7
285
     0
286
     0
287
     0
288
     1
  0
DIMSTYLE
105
18F1
330
A
100
AcDbSymbolTableRecord
100
AcDbDimStyleTableRecord
  2
AM_ANSI$7
 70
     0
  3

  4
mm
  5

  6

  7

 40
1.0
 41
0.1
 42
0.05
 43
0.5
 44
0.1
 45
0.0
 46
0.0
 47
0.1
 48
0.1
140
0.24
141
0.0
142
0.0
143
25.4
144
1.0
145
0.0
146
0.71
147
0.06
 71
     0
 72
     0
 73
     1
 74
     1
 75
     0
 76
     0
 77
     0
 78
     7
170
     0
171
     2
172
     0
173
     0
174
     0
175
     0
176
   256
177
   256
178
     2
270
     2
271
     4
272
     4
273
     2
274
     4
340
11
275
     0
280
     0
281
     0
282
     0
283
     1
284
     7
285
     0
286
     0
287
     3
288
     0
  0
DIMSTYLE
105
18F2
330
A
100
AcDbSymbolTableRecord
100
AcDbDimStyleTableRecord
  2
AM_ANSI$SF
 70
     0
  3

  4
mm
  5

  6

  7

 40
1.0
 41
0.1
 42
0.05
 43
0.5
 44
0.1
 45
0.0
 46
0.0
 47
0.1
 48
0.1
140
0.12
141
0.0
142
0.0
143
25.4
144
1.0
145
0.0
146
0.71
147
0.06
 71
     0
 72
     0
 73
     1
 74
     1
 75
     1
 76
     1
 77
     0
 78
     7
170
     0
171
     2
172
     0
173
     0
174
     0
175
     0
176
   256
177
   256
178
     2
270
     2
271
     4
272
     4
273
     2
274
     4
340
11
275
     0
280
     0
281
     0
282
     0
283
     1
284
     7
285
     0
286
     0
287
     3
288
     0
  0
DIMSTYLE
105
18F7
330
A
100
AcDbSymbolTableRecord
100
AcDbDimStyleTableRecord
  2
AM_ANSI$SH
 70
     0
  3

  4
mm
  5

  6
GENAXEH
  7

 40
1.0
 41
0.1
 42
0.05
 43
0.5
 44
0.1
 45
0.0
 46
0.0
 47
0.1
 48
0.1
140
0.12
141
0.0
142
0.0
143
25.4
144
1.0
145
0.0
146
0.71
147
0.06
 71
     0
 72
     0
 73
     1
 74
     1
 75
     1
 76
     1
 77
     0
 78
     7
170
     0
171
     2
172
     0
173
     1
174
     0
175
     0
176
   256
177
   256
178
     2
270
     2
271
     4
272
     4
273
     2
274
     4
340
11
275
     0
280
     0
281
     0
282
     0
283
     1
284
     7
285
     0
286
     0
287
     3
288
     0
  0
ENDTAB
  0
TABLE
  2
BLOCK_RECORD
  5
1
330
0
100
AcDbSymbolTable
 70
     1
  0
BLOCK_RECORD
  5
1E
102
{ACAD_XDICTIONARY
360
146E
102
}
330
1
100
AcDbSymbolTableRecord
100
AcDbBlockTableRecord
  2
*MODEL_SPACE
  0
BLOCK_RECORD
  5
1A
102
{ACAD_XDICTIONARY
360
1470
102
}
330
1
100
AcDbSymbolTableRecord
100
AcDbBlockTableRecord
  2
*PAPER_SPACE
  0
BLOCK_RECORD
  5
18F3
330
1
100
AcDbSymbolTableRecord
100
AcDbBlockTableRecord
  2
GENAXEH
  0
ENDTAB
  0
ENDSEC
  0
SECTION
  2
BLOCKS
  0
BLOCK
  5
3E
330
1E
100
AcDbEntity
  8
0
100
AcDbBlockBegin
  2
*MODEL_SPACE
 70
     0
 10
0.0
 20
0.0
 30
0.0
  3
*MODEL_SPACE
  1

  0
ENDBLK
  5
3F
330
1E
100
AcDbEntity
  8
0
100
AcDbBlockEnd
  0
BLOCK
  5
3C
330
1A
100
AcDbEntity
 67
     1
  8
0
100
AcDbBlockBegin
  2
*PAPER_SPACE
 70
     0
 10
0.0
 20
0.0
 30
0.0
  3
*PAPER_SPACE
  1

  0
ENDBLK
  5
3D
330
1A
100
AcDbEntity
 67
     1
  8
0
100
AcDbBlockEnd
  0
BLOCK
  5
18F5
330
18F3
100
AcDbEntity
  8
0
100
AcDbBlockBegin
  2
GENAXEH
 70
     0
 10
0.0
 20
0.0
 30
0.0
  3
GENAXEH
  1

  0
LINE
  5
18F4
330
18F3
100
AcDbEntity
  8
0
100
AcDbLine
 10
-1.0
 20
0.0
 30
0.0
 11
1.0
 21
0.0
 31
0.0
  0
ENDBLK
  5
18F6
330
18F3
100
AcDbEntity
  8
0
100
AcDbBlockEnd
  0
ENDSEC
  0
SECTION
  2
ENTITIES
  0
LINE
  5
B29
330
1E
100
AcDbEntity
  8
0
 62
     4
100
AcDbLine
 10
227.0
 20
185.0
 30
0.0
 11
227.0
 21
765.0000000000002
 31
0.0
  0
LINE
  5
B2B
330
1E
100
AcDbEntity
  8
0
 62
     4
100
AcDbLine
 10
1107.0
 20
185.0
 30
0.0
 11
227.0
 21
185.0
 31
0.0
  0
LINE
  5
B2E
330
1E
100
AcDbEntity
  8
0
 62
     4
100
AcDbLine
 10
227.0
 20
765.0000000000002
 30
0.0
 11
1107.0
 21
764.9999999999998
 31
0.0
  0
LINE
  5
B2F
330
1E
100
AcDbEntity
  8
0
 62
     4
100
AcDbLine
 10
1107.0
 20
764.9999999999998
 30
0.0
 11
1107.0
 21
185.0
 31
0.0
  0
LINE
  5
B30
330
1E
100
AcDbEntity
  8
CENTER
  6
CENTER
100
AcDbLine
 10
703.1338413727658
 20
432.1470643864207
 30
0.0
 11
673.1338413727658
 21
432.1470643864207
 31
0.0
  0
LINE
  5
B31
330
1E
100
AcDbEntity
  8
CENTER
  6
CENTER
100
AcDbLine
 10
470.1338413727657
 20
300.8780460437871
 30
0.0
 11
863.1338413727657
 21
300.8780460437871
 31
0.0
  0
LINE
  5
B32
330
1E
100
AcDbEntity
  8
CENTER
  6
CENTER
100
AcDbLine
 10
618.6338413727658
 20
270.878046043787
 30
0.0
 11
714.6338413727658
 21
270.878046043787
 31
0.0
  0
LINE
  5
B33
330
1E
100
AcDbEntity
  8
0
100
AcDbLine
 10
621.6338413727656
 20
228.3780460437869
 30
0.0
 11
711.6338413727658
 21
228.3780460437869
 31
0.0
  0
LINE
  5
B34
330
1E
100
AcDbEntity
  8
0
100
AcDbLine
 10
621.6338413727657
 20
338.3780460437871
 30
0.0
 11
711.6338413727658
 21
338.3780460437871
 31
0.0
  0
CIRCLE
  5
B35
330
1E
100
AcDbEntity
  8
0
  6
CONTINUOUS
100
AcDbCircle
 10
666.6338413727658
 20
270.878046043787
 30
0.0
 40
41.0
  0
CIRCLE
  5
B36
330
1E
100
AcDbEntity
  8
0
  6
CONTINUOUS
100
AcDbCircle
 10
666.6338413727658
 20
270.878046043787
 30
0.0
 40
40.0
  0
CIRCLE
  5
B37
330
1E
100
AcDbEntity
  8
CENTER
  6
CENTER
100
AcDbCircle
 10
666.6338413727658
 20
270.878046043787
 30
0.0
 40
33.5
  0
ARC
  5
B38
330
1E
100
AcDbEntity
  8
0
  6
CONTINUOUS
100
AcDbCircle
 10
666.6338413727658
 20
661.8419640600152
 30
0.0
 40
15.00000000000005
100
AcDbArc
 50
195.4660099534203
 51
164.5339900465796
  0
CIRCLE
  5
B39
330
1E
100
AcDbEntity
  8
CENTER
  6
CENTER
100
AcDbCircle
 10
666.6338413727658
 20
661.8419640600152
 30
0.0
 40
33.5
  0
LINE
  5
B3A
330
1E
100
AcDbEntity
  8
DIM
  6
CONTINUOUS
100
AcDbLine
 10
673.3856486979139
 20
663.6232885600532
 30
0.0
 11
734.9805781439124
 21
685.3316440718217
 31
0.0
  0
LINE
  5
B3B
330
1E
100
AcDbEntity
  8
DIM
  6
CONTINUOUS
100
AcDbLine
 10
675.6338413727656
 20
558.1470643864207
 30
0.0
 11
654.6338413727656
 21
558.1470643864207
 31
0.0
  0
LINE
  5
B3C
330
1E
100
AcDbEntity
  8
DIM
  6
CONTINUOUS
100
AcDbLine
 10
675.6338413727656
 20
550.1470643864207
 30
0.0
 11
657.6338413727655
 21
550.1470643864207
 31
0.0
  0
ARC
  5
B3D
330
1E
100
AcDbEntity
  8
DIM
  6
CONTINUOUS
100
AcDbCircle
 10
666.6338413727658
 20
661.8419640600152
 30
0.0
 40
67.69541120523182
100
AcDbArc
 50
0.0
 51
180.0
  0
LINE
  5
B3E
330
1E
100
AcDbEntity
  8
DIM
  6
CONTINUOUS
100
AcDbLine
 10
634.6338413727657
 20
712.3419640600154
 30
0.0
 11
698.6338413727658
 21
712.3419640600154
 31
0.0
  0
LINE
  5
B3F
330
1E
100
AcDbEntity
  8
DIM
  6
CONTINUOUS
100
AcDbLine
 10
464.2771153560491
 20
380.1470643864207
 30
0.0
 11
868.6098611009937
 21
380.1470643864207
 31
0.0
  0
LINE
  5
B40
330
1E
100
AcDbEntity
  8
DIM
  6
CONTINUOUS
100
AcDbLine
 10
624.6338413727658
 20
388.1470643864208
 30
0.0
 11
708.6338413727657
 21
388.1470643864208
 31
0.0
  0
LINE
  5
B41
330
1E
100
AcDbEntity
  8
DIM
  6
CONTINUOUS
100
AcDbLine
 10
628.6338413727658
 20
396.1470643864208
 30
0.0
 11
704.6338413727657
 21
396.1470643864208
 31
0.0
  0
CIRCLE
  5
B42
330
1E
100
AcDbEntity
  8
0
  6
CONTINUOUS
100
AcDbCircle
 10
666.6338413727658
 20
661.8419640600152
 30
0.0
 40
40.0
  0
CIRCLE
  5
B43
330
1E
100
AcDbEntity
  8
0
  6
CONTINUOUS
100
AcDbCircle
 10
666.6338413727658
 20
661.8419640600152
 30
0.0
 40
41.0
  0
LINE
  5
B44
330
1E
100
AcDbEntity
  8
0
100
AcDbLine
 10
621.6338413727657
 20
594.3419640600152
 30
0.0
 11
711.6338413727658
 21
594.3419640600152
 31
0.0
  0
LINE
  5
B45
330
1E
100
AcDbEntity
  8
0
100
AcDbLine
 10
621.6338413727656
 20
704.3419640600155
 30
0.0
 11
711.6338413727658
 21
704.3419640600155
 31
0.0
  0
LINE
  5
B46
330
1E
100
AcDbEntity
  8
CENTER
  6
CENTER
100
AcDbLine
 10
618.6338413727658
 20
661.8419640600152
 30
0.0
 11
714.6338413727658
 21
661.8419640600152
 31
0.0
  0
CIRCLE
  5
B47
330
1E
100
AcDbEntity
  8
0
  6
CONTINUOUS
100
AcDbCircle
 10
666.6338413727658
 20
661.8419640600152
 30
0.0
 40
11.00000000000005
  0
CIRCLE
  5
B48
330
1E
100
AcDbEntity
  8
0
  6
CONTINUOUS
100
AcDbCircle
 10
666.6338413727658
 20
661.8419640600152
 30
0.0
 40
12.00000000000005
  0
LINE
  5
B49
330
1E
100
AcDbEntity
  8
0
  6
CONTINUOUS
100
AcDbLine
 10
625.6338413727657
 20
405.1470643864207
 30
0.0
 11
707.6338413727658
 21
405.1470643864207
 31
0.0
  0
LINE
  5
B4A
330
1E
100
AcDbEntity
  8
0
  6
CONTINUOUS
100
AcDbLine
 10
625.6338413727657
 20
498.1470643864208
 30
0.0
 11
707.6338413727658
 21
498.1470643864208
 31
0.0
  0
LINE
  5
B4B
330
1E
100
AcDbEntity
  8
0
  6
CONTINUOUS
100
AcDbLine
 10
651.6338413727656
 20
500.1470643864207
 30
0.0
 11
681.6338413727656
 21
500.1470643864207
 31
0.0
  0
LINE
  5
B4C
330
1E
100
AcDbEntity
  8
0
  6
CONTINUOUS
100
AcDbLine
 10
654.6338413727656
 20
541.1470643864207
 30
0.0
 11
678.6338413727655
 21
541.1470643864207
 31
0.0
  0
LINE
  5
B4D
330
1E
100
AcDbEntity
  8
0
  6
CONTINUOUS
100
AcDbLine
 10
655.6338413727655
 20
542.1470643864207
 30
0.0
 11
677.6338413727655
 21
542.1470643864207
 31
0.0
  0
LINE
  5
B4E
330
1E
100
AcDbEntity
  8
0
  6
CONTINUOUS
100
AcDbLine
 10
626.6338413727658
 20
404.1470643864207
 30
0.0
 11
706.6338413727658
 21
404.1470643864207
 31
0.0
  0
LINE
  5
B4F
330
1E
100
AcDbEntity
  8
0
  6
CONTINUOUS
100
AcDbLine
 10
626.6338413727658
 20
499.1470643864207
 30
0.0
 11
706.6338413727658
 21
499.1470643864207
 31
0.0
  0
LINE
  5
B50
330
1E
100
AcDbEntity
  8
0
  6
CONTINUOUS
100
AcDbLine
 10
621.6338413727657
 20
414.1470643864208
 30
0.0
 11
711.6338413727658
 21
414.1470643864208
 31
0.0
  0
LINE
  5
B51
330
1E
100
AcDbEntity
  8
0
  6
CONTINUOUS
100
AcDbLine
 10
621.6338413727656
 20
489.1470643864208
 30
0.0
 11
711.6338413727658
 21
489.1470643864208
 31
0.0
  0
LINE
  5
B52
330
1E
100
AcDbEntity
  8
CENTER
  6
CENTER
100
AcDbLine
 10
470.1338413727657
 20
631.8419640600152
 30
0.0
 11
863.1338413727657
 21
631.8419640600152
 31
0.0
  0
LINE
  5
B53
330
1E
100
AcDbEntity
  8
CENTER
  6
CENTER
100
AcDbLine
 10
470.1338413727657
 20
451.6470643864208
 30
0.0
 11
862.1338413727656
 21
451.6470643864208
 31
0.0
  0
LINE
  5
B54
330
1E
100
AcDbEntity
  8
CENTER
  6
CENTER
100
AcDbLine
 10
364.3782523013401
 20
492.1470643864206
 30
0.0
 11
364.3782523013401
 21
411.1470643864207
 31
0.0
  0
CIRCLE
  5
B55
330
1E
100
AcDbEntity
  8
0
100
AcDbCircle
 10
364.3782523013401
 20
451.6470643864206
 30
0.0
 40
22.99999999999998
  0
CIRCLE
  5
B56
330
1E
100
AcDbEntity
  8
0
100
AcDbCircle
 10
364.3782523013401
 20
451.6470643864206
 30
0.0
 40
22.49999999999998
  0
LINE
  5
B57
330
1E
100
AcDbEntity
  8
0
100
AcDbLine
 10
398.8782523013401
 20
449.1470643864206
 30
0.0
 11
398.8782523013401
 21
433.3186318029127
 31
0.0
  0
LINE
  5
B58
330
1E
100
AcDbEntity
  8
0
100
AcDbLine
 10
401.3782523013402
 20
479.6470643864206
 30
0.0
 11
401.3782523013402
 21
423.6470643864207
 31
0.0
  0
LINE
  5
B59
330
1E
100
AcDbEntity
  8
0
100
AcDbLine
 10
329.8782523013401
 20
449.1470643864205
 30
0.0
 11
329.8782523013401
 21
433.3186318029127
 31
0.0
  0
LINE
  5
B5A
330
1E
100
AcDbEntity
  8
0
100
AcDbLine
 10
326.8782523013401
 20
479.6470643864206
 30
0.0
 11
326.8782523013401
 21
423.6470643864207
 31
0.0
  0
LINE
  5
B5B
330
1E
100
AcDbEntity
  8
0
100
AcDbLine
 10
327.3782523013401
 20
479.6470643864206
 30
0.0
 11
327.3782523013401
 21
423.6470643864207
 31
0.0
  0
LINE
  5
B5C
330
1E
100
AcDbEntity
  8
0
100
AcDbLine
 10
401.8782523013401
 20
489.1470643864208
 30
0.0
 11
401.8782523013401
 21
414.1470643864206
 31
0.0
  0
LINE
  5
B5D
330
1E
100
AcDbEntity
  8
0
100
AcDbLine
 10
291.87825230134
 20
489.1470643864208
 30
0.0
 11
291.8782523013401
 21
414.1470643864206
 31
0.0
  0
LINE
  5
B5E
330
1E
100
AcDbEntity
  8
CENTER
  6
CENTER
100
AcDbLine
 10
334.3782523013402
 20
546.5872736649621
 30
0.0
 11
334.3782523013401
 21
401.1470643864205
 31
0.0
  0
CIRCLE
  5
B5F
330
1E
100
AcDbEntity
  8
0
  6
CONTINUOUS
100
AcDbCircle
 10
666.6338413727657
 20
451.6470643864208
 30
0.0
 40
4.0
  0
LINE
  5
B60
330
1E
100
AcDbEntity
  8
0
100
AcDbLine
 10
473.1338413727656
 20
430.1470643864209
 30
0.0
 11
473.1338413727656
 21
473.1470643864208
 31
0.0
  0
LINE
  5
B61
330
1E
100
AcDbEntity
  8
0
100
AcDbLine
 10
478.1338413727658
 20
414.6470643864208
 30
0.0
 11
478.1338413727657
 21
488.6470643864208
 31
0.0
  0
LINE
  5
B62
330
1E
100
AcDbEntity
  8
0
100
AcDbLine
 10
510.1338413727658
 20
414.1470643864208
 30
0.0
 11
510.1338413727656
 21
489.1470643864208
 31
0.0
  0
LINE
  5
B63
330
1E
100
AcDbEntity
  8
0
100
AcDbLine
 10
510.1338413727658
 20
416.6470643864207
 30
0.0
 11
510.1338413727658
 21
486.6470643864207
 31
0.0
  0
ARC
  5
B64
330
1E
100
AcDbEntity
  8
0
 62
     2
100
AcDbCircle
 10
494.1338413727656
 20
444.6470643864207
 30
0.0
 40
8.25
100
AcDbArc
 50
77.92480383695469
 51
18.66239316544431
  0
CIRCLE
  5
B65
330
1E
100
AcDbEntity
  8
0
100
AcDbCircle
 10
494.1338413727656
 20
444.6470643864207
 30
0.0
 40
11.5
  0
CIRCLE
  5
B66
330
1E
100
AcDbEntity
  8
0
100
AcDbCircle
 10
494.1338413727656
 20
444.6470643864207
 30
0.0
 40
8.499999999999957
  0
CIRCLE
  5
B67
330
1E
100
AcDbEntity
  8
0
100
AcDbCircle
 10
494.1338413727656
 20
444.6470643864206
 30
0.0
 40
6.5
  0
CIRCLE
  5
B68
330
1E
100
AcDbEntity
  8
0
100
AcDbCircle
 10
494.1338413727656
 20
444.6470643864207
 30
0.0
 40
7.5
  0
LINE
  5
B69
330
1E
100
AcDbEntity
  8
CENTER
  6
CENTER
100
AcDbLine
 10
494.1338413727658
 20
457.1470643864208
 30
0.0
 11
494.1338413727656
 21
432.1470643864208
 31
0.0
  0
LINE
  5
B6A
330
1E
100
AcDbEntity
  8
0
100
AcDbLine
 10
621.6338413727656
 20
489.1470643864208
 30
0.0
 11
621.6338413727657
 21
414.1470643864208
 31
0.0
  0
LINE
  5
B6B
330
1E
100
AcDbEntity
  8
CENTER
  6
CENTER
100
AcDbLine
 10
666.6338413727657
 20
545.1470643864207
 30
0.0
 11
666.6338413727658
 21
401.1470643864207
 31
0.0
  0
ARC
  5
B6C
330
1E
100
AcDbEntity
  8
0
100
AcDbCircle
 10
375.8782523013402
 20
430.0137567336368
 30
0.0
 40
1.5
100
AcDbArc
 50
117.9945617322523
 51
180.0
  0
ARC
  5
B6D
330
1E
100
AcDbEntity
  8
0
100
AcDbCircle
 10
375.8782523013402
 20
418.6470643864207
 30
0.0
 40
1.5
100
AcDbArc
 50
180.0
 51
270.0
  0
LINE
  5
B6E
330
1E
100
AcDbEntity
  8
0
  6
CONTINUOUS
100
AcDbLine
 10
374.3782523013401
 20
404.1470643864205
 30
0.0
 11
375.3782523013401
 21
405.1470643864205
 31
0.0
  0
LINE
  5
B6F
330
1E
100
AcDbEntity
  8
0
100
AcDbLine
 10
366.8782523013402
 20
417.1470643864206
 30
0.0
 11
382.706684884848
 21
417.1470643864207
 31
0.0
  0
LINE
  5
B70
330
1E
100
AcDbEntity
  8
0
100
AcDbLine
 10
392.3782523013401
 20
414.6470643864206
 30
0.0
 11
336.3782523013401
 21
414.6470643864206
 31
0.0
  0
LINE
  5
B71
330
1E
100
AcDbEntity
  8
0
  6
CONTINUOUS
100
AcDbLine
 10
375.3782523013401
 20
405.1470643864205
 30
0.0
 11
293.3782523013401
 21
405.1470643864205
 31
0.0
  0
LINE
  5
B72
330
1E
100
AcDbEntity
  8
0
  6
CONTINUOUS
100
AcDbLine
 10
401.8782523013401
 20
414.1470643864206
 30
0.0
 11
291.87825230134
 21
414.1470643864206
 31
0.0
  0
LINE
  5
B73
330
1E
100
AcDbEntity
  8
0
  6
CONTINUOUS
100
AcDbLine
 10
374.3782523013401
 20
404.1470643864205
 30
0.0
 11
294.3782523013401
 21
404.1470643864205
 31
0.0
  0
LINE
  5
B74
330
1E
100
AcDbEntity
  8
CENTER
  6
CENTER
100
AcDbLine
 10
299.3782523013401
 20
411.866883023638
 30
0.0
 11
299.3782523013401
 21
425.866883023638
 31
0.0
  0
LINE
  5
B75
330
1E
100
AcDbEntity
  8
0
100
AcDbLine
 10
293.3782523013401
 20
405.1470643864205
 30
0.0
 11
293.3782523013401
 21
414.1470643864206
 31
0.0
  0
LINE
  5
B76
330
1E
100
AcDbEntity
  8
0
  6
CONTINUOUS
100
AcDbLine
 10
294.3782523013401
 20
404.1470643864205
 30
0.0
 11
293.3782523013401
 21
405.1470643864205
 31
0.0
  0
ARC
  5
B77
330
1E
100
AcDbEntity
  8
0
100
AcDbCircle
 10
341.7148938187731
 20
432.8727932003795
 30
0.0
 40
1.5
100
AcDbArc
 50
239.4775121859314
 51
315.0
  0
LINE
  5
B78
330
1E
100
AcDbEntity
  8
0
100
AcDbLine
 10
331.3782523013401
 20
441.6470643864205
 30
0.0
 11
342.7449446485561
 21
441.6470643864205
 31
0.0
  0
LINE
  5
B79
330
1E
100
AcDbEntity
  8
CENTER
  6
CENTER
100
AcDbLine
 10
343.6282523013401
 20
423.3970643864206
 30
0.0
 11
328.6282523013401
 21
423.3970643864206
 31
0.0
  0
CIRCLE
  5
B7A
330
1E
100
AcDbEntity
  8
0
100
AcDbCircle
 10
336.1282523013401
 20
423.3970643864206
 30
0.0
 40
6.5
  0
LINE
  5
B7B
330
1E
100
AcDbEntity
  8
CENTER
  6
CENTER
100
AcDbLine
 10
336.1282523013401
 20
430.8970643864206
 30
0.0
 11
336.1282523013401
 21
415.8970643864206
 31
0.0
  0
ARC
  5
B7C
330
1E
100
AcDbEntity
  8
0
  6
CONTINUOUS
 62
     2
100
AcDbCircle
 10
336.1282523013401
 20
423.3970643864206
 30
0.0
 40
4.0
100
AcDbArc
 50
165.5461188433243
 51
122.2258188393757
  0
CIRCLE
  5
B7D
330
1E
100
AcDbEntity
  8
0
  6
CONTINUOUS
100
AcDbCircle
 10
336.1282523013401
 20
423.3970643864206
 30
0.0
 40
3.399999999999999
  0
POLYLINE
  5
B7E
330
1E
100
AcDbEntity
  8
0
  6
CONTINUOUS
100
AcDb2dPolyline
 66
     1
 10
0.0
 20
0.0
 30
0.0
 70
     1
  0
VERTEX
  5
17E9
330
B7E
100
AcDbEntity
  8
0
  6
CONTINUOUS
100
AcDbVertex
100
AcDb2dVertex
 10
338.4376533780986
 20
427.3970643864206
 30
0.0
  0
VERTEX
  5
17EA
330
B7E
100
AcDbEntity
  8
0
  6
CONTINUOUS
100
AcDbVertex
100
AcDb2dVertex
 10
340.7470544548571
 20
423.3970643864206
 30
0.0
  0
VERTEX
  5
17EB
330
B7E
100
AcDbEntity
  8
0
  6
CONTINUOUS
100
AcDbVertex
100
AcDb2dVertex
 10
338.4376533780986
 20
419.3970643864206
 30
0.0
  0
VERTEX
  5
17EC
330
B7E
100
AcDbEntity
  8
0
  6
CONTINUOUS
100
AcDbVertex
100
AcDb2dVertex
 10
333.8188512245816
 20
419.3970643864206
 30
0.0
  0
VERTEX
  5
17ED
330
B7E
100
AcDbEntity
  8
0
  6
CONTINUOUS
100
AcDbVertex
100
AcDb2dVertex
 10
331.5094501478231
 20
423.3970643864206
 30
0.0
  0
VERTEX
  5
17EE
330
B7E
100
AcDbEntity
  8
0
  6
CONTINUOUS
100
AcDbVertex
100
AcDb2dVertex
 10
333.8188512245816
 20
427.3970643864206
 30
0.0
  0
SEQEND
  5
17EF
330
B7E
100
AcDbEntity
  8
0
  6
CONTINUOUS
  0
ARC
  5
B86
330
1E
100
AcDbEntity
  8
0
100
AcDbCircle
 10
336.3782523013401
 20
423.6470643864207
 30
0.0
 40
9.5
100
AcDbArc
 50
180.0
 51
270.0
  0
ARC
  5
B87
330
1E
100
AcDbEntity
  8
0
100
AcDbCircle
 10
336.3782523013401
 20
423.6470643864207
 30
0.0
 40
9.0
100
AcDbArc
 50
180.0
 51
270.0
  0
ARC
  5
B88
330
1E
100
AcDbEntity
  8
0
100
AcDbCircle
 10
336.1282523013401
 20
423.3970643864206
 30
0.0
 40
9.5
100
AcDbArc
 50
59.47751218593014
 51
115.5830019773933
  0
ARC
  5
B89
330
1E
100
AcDbEntity
  8
0
100
AcDbCircle
 10
331.3782523013401
 20
433.3186318029127
 30
0.0
 40
1.5
100
AcDbArc
 50
180.0
 51
295.5830019774268
  0
ARC
  5
B8A
330
1E
100
AcDbEntity
  8
0
100
AcDbCircle
 10
331.3782523013401
 20
440.1470643864205
 30
0.0
 40
1.5
100
AcDbArc
 50
90.0
 51
180.0
  0
LINE
  5
B8B
330
1E
100
AcDbEntity
  8
0
100
AcDbLine
 10
354.3782523013401
 20
418.6470643864207
 30
0.0
 11
354.3782523013401
 21
430.0137567336368
 31
0.0
  0
ARC
  5
B8C
330
1E
100
AcDbEntity
  8
0
100
AcDbCircle
 10
336.1282523013401
 20
423.3970643864206
 30
0.0
 40
9.5
100
AcDbArc
 50
334.4169980226225
 51
30.52248781407032
  0
LINE
  5
B8D
330
1E
100
AcDbEntity
  8
0
100
AcDbLine
 10
365.3782523013402
 20
418.6470643864207
 30
0.0
 11
365.3782523013402
 21
427.2749491725128
 31
0.0
  0
LINE
  5
B8E
330
1E
100
AcDbEntity
  8
0
100
AcDbLine
 10
374.3782523013402
 20
418.6470643864207
 30
0.0
 11
374.3782523013402
 21
430.0137567336368
 31
0.0
  0
LINE
  5
B8F
330
1E
100
AcDbEntity
  8
0
100
AcDbLine
 10
363.3782523013401
 20
418.6470643864207
 30
0.0
 11
363.3782523013401
 21
427.2749491725128
 31
0.0
  0
LINE
  5
B90
330
1E
100
AcDbEntity
  8
CENTER
  6
CENTER
100
AcDbLine
 10
369.3782523013401
 20
411.8668830236379
 30
0.0
 11
369.3782523013401
 21
425.8668830236379
 31
0.0
  0
LINE
  5
B91
330
1E
100
AcDbEntity
  8
0
100
AcDbLine
 10
361.8782523013401
 20
417.1470643864206
 30
0.0
 11
346.0498197178321
 21
417.1470643864207
 31
0.0
  0
ARC
  5
B92
330
1E
100
AcDbEntity
  8
0
100
AcDbCircle
 10
346.0498197178321
 20
418.6470643864207
 30
0.0
 40
1.5
100
AcDbArc
 50
154.4169980225905
 51
270.0
  0
ARC
  5
B93
330
1E
100
AcDbEntity
  8
0
100
AcDbCircle
 10
352.8782523013401
 20
418.6470643864207
 30
0.0
 40
1.5
100
AcDbArc
 50
270.0
 51
0.0
  0
ARC
  5
B94
330
1E
100
AcDbEntity
  8
0
100
AcDbCircle
 10
366.8782523013402
 20
418.6470643864207
 30
0.0
 40
1.5
100
AcDbArc
 50
180.0
 51
270.0
  0
ARC
  5
B95
330
1E
100
AcDbEntity
  8
0
100
AcDbCircle
 10
361.8782523013401
 20
418.6470643864207
 30
0.0
 40
1.5
100
AcDbArc
 50
270.0
 51
0.0
  0
ARC
  5
B96
330
1E
100
AcDbEntity
  8
0
100
AcDbCircle
 10
345.2190709862541
 20
436.3769703678606
 30
0.0
 40
1.5
100
AcDbArc
 50
315.0
 51
38.55525966022961
  0
ARC
  5
B97
330
1E
100
AcDbEntity
  8
0
100
AcDbCircle
 10
349.1081582827801
 20
432.4878830713347
 30
0.0
 40
1.5
100
AcDbArc
 50
51.44474033977039
 51
135.0
  0
LINE
  5
B98
330
1E
100
AcDbEntity
  8
0
100
AcDbLine
 10
346.2797311580341
 20
435.3163101960809
 30
0.0
 11
342.7755539905529
 21
431.8121330285997
 31
0.0
  0
LINE
  5
B99
330
1E
100
AcDbEntity
  8
0
100
AcDbLine
 10
348.0474981110003
 20
433.5485432431146
 30
0.0
 11
344.5433209435191
 21
430.0443660756335
 31
0.0
  0
ARC
  5
B9A
330
1E
100
AcDbEntity
  8
0
100
AcDbCircle
 10
345.6039811152991
 20
428.9837059038537
 30
0.0
 40
1.5
100
AcDbArc
 50
135.0
 51
210.52248781407
  0
ARC
  5
B9B
330
1E
100
AcDbEntity
  8
0
100
AcDbCircle
 10
352.8782523013401
 20
430.0137567336368
 30
0.0
 40
1.5
100
AcDbArc
 50
0.0
 51
62.00543826774762
  0
ARC
  5
B9C
330
1E
100
AcDbEntity
  8
0
100
AcDbCircle
 10
342.7449446485561
 20
440.1470643864205
 30
0.0
 40
1.5
100
AcDbArc
 50
27.99456173225237
 51
90.0
  0
ARC
  5
B9D
330
1E
100
AcDbEntity
  8
0
100
AcDbCircle
 10
366.8782523013402
 20
427.2749491725128
 30
0.0
 40
1.5
100
AcDbArc
 50
95.85670190991903
 51
180.0
  0
ARC
  5
B9E
330
1E
100
AcDbEntity
  8
0
100
AcDbCircle
 10
361.8782523013401
 20
427.2749491725128
 30
0.0
 40
1.5
100
AcDbArc
 50
0.0
 51
84.14329809008096
  0
LINE
  5
B9F
330
1E
100
AcDbEntity
  8
CENTER
  6
CENTER
100
AcDbLine
 10
666.6338413727658
 20
225.3780460437869
 30
0.0
 11
666.6338413727658
 21
341.378046043787
 31
0.0
  0
LINE
  5
BA0
330
1E
100
AcDbEntity
  8
0
100
AcDbLine
 10
621.6338413727656
 20
228.3780460437869
 30
0.0
 11
621.6338413727657
 21
338.3780460437871
 31
0.0
  0
LINE
  5
BA1
330
1E
100
AcDbEntity
  8
CENTER
  6
CENTER
100
AcDbLine
 10
638.7031235158971
 20
242.9473281869184
 30
0.0
 11
647.1884048901356
 21
251.4326095611569
 31
0.0
  0
LINE
  5
BA2
330
1E
100
AcDbEntity
  8
CENTER
  6
CENTER
100
AcDbLine
 10
624.6338413727658
 20
235.878046043787
 30
0.0
 11
638.6338413727657
 21
235.878046043787
 31
0.0
  0
LINE
  5
BA3
330
1E
100
AcDbEntity
  8
CENTER
  6
CENTER
100
AcDbLine
 10
631.6338413727658
 20
228.878046043787
 30
0.0
 11
631.6338413727658
 21
242.8780460437871
 31
0.0
  0
ARC
  5
BA4
330
1E
100
AcDbEntity
  8
0
  6
CONTINUOUS
 62
     2
100
AcDbCircle
 10
631.6338413727658
 20
235.878046043787
 30
0.0
 40
4.0
100
AcDbArc
 50
335.2285795742738
 51
294.3224829748806
  0
CIRCLE
  5
BA5
330
1E
100
AcDbEntity
  8
0
  6
CONTINUOUS
100
AcDbCircle
 10
631.6338413727658
 20
235.878046043787
 30
0.0
 40
3.399999999999999
  0
LINE
  5
BA6
330
1E
100
AcDbEntity
  8
0
100
AcDbLine
 10
621.6338413727656
 20
265.8780460437871
 30
0.0
 11
510.1338413727658
 21
265.8780460437871
 31
0.0
  0
LINE
  5
BA7
330
1E
100
AcDbEntity
  8
0
100
AcDbLine
 10
621.6338413727657
 20
335.8780460437869
 30
0.0
 11
510.1338413727658
 21
335.8780460437869
 31
0.0
  0
LINE
  5
BA8
330
1E
100
AcDbEntity
  8
0
100
AcDbLine
 10
621.6338413727657
 20
319.6681555023603
 30
0.0
 11
510.1338413727658
 21
319.6681555023603
 31
0.0
  0
LINE
  5
BA9
330
1E
100
AcDbEntity
  8
0
100
AcDbLine
 10
621.6338413727657
 20
282.0879365852135
 30
0.0
 11
510.1338413727658
 21
282.0879365852135
 31
0.0
  0
LINE
  5
BAA
330
1E
100
AcDbEntity
  8
0
100
AcDbLine
 10
621.6338413727657
 20
432.8569549278474
 30
0.0
 11
510.1338413727658
 21
432.8569549278474
 31
0.0
  0
LINE
  5
BAB
330
1E
100
AcDbEntity
  8
0
100
AcDbLine
 10
621.6338413727657
 20
416.6470643864208
 30
0.0
 11
510.1338413727658
 21
416.6470643864208
 31
0.0
  0
LINE
  5
BAC
330
1E
100
AcDbEntity
  8
0
100
AcDbLine
 10
510.1338413727658
 20
263.3780460437869
 30
0.0
 11
510.1338413727656
 21
338.3780460437869
 31
0.0
  0
LINE
  5
BAD
330
1E
100
AcDbEntity
  8
0
100
AcDbLine
 10
478.1338413727658
 20
263.8780460437869
 30
0.0
 11
478.1338413727657
 21
337.8780460437869
 31
0.0
  0
LINE
  5
BAE
330
1E
100
AcDbEntity
  8
0
100
AcDbLine
 10
510.1338413727656
 20
263.3780460437869
 30
0.0
 11
478.1338413727657
 21
263.8780460437869
 31
0.0
  0
LINE
  5
BAF
330
1E
100
AcDbEntity
  8
0
100
AcDbLine
 10
473.1338413727656
 20
279.378046043787
 30
0.0
 11
473.1338413727656
 21
322.3780460437871
 31
0.0
  0
ARC
  5
BB0
330
1E
100
AcDbEntity
  8
0
100
AcDbCircle
 10
474.1338413727657
 20
279.378046043787
 30
0.0
 40
1.0
100
AcDbArc
 50
180.0
 51
270.0
  0
LINE
  5
BB1
330
1E
100
AcDbEntity
  8
0
100
AcDbLine
 10
478.1338413727658
 20
278.3780460437871
 30
0.0
 11
474.1338413727657
 21
278.3780460437871
 31
0.0
  0
ARC
  5
BB2
330
1E
100
AcDbEntity
  8
0
100
AcDbCircle
 10
474.1338413727657
 20
322.3780460437871
 30
0.0
 40
1.0
100
AcDbArc
 50
90.0
 51
180.0
  0
LINE
  5
BB3
330
1E
100
AcDbEntity
  8
0
100
AcDbLine
 10
478.1338413727657
 20
323.378046043787
 30
0.0
 11
474.1338413727657
 21
323.378046043787
 31
0.0
  0
LINE
  5
BB4
330
1E
100
AcDbEntity
  8
0
100
AcDbLine
 10
510.1338413727658
 20
265.8780460437869
 30
0.0
 11
510.1338413727658
 21
335.8780460437869
 31
0.0
  0
LINE
  5
BB5
330
1E
100
AcDbEntity
  8
0
100
AcDbLine
 10
510.1338413727656
 20
338.3780460437869
 30
0.0
 11
478.1338413727657
 21
337.8780460437869
 31
0.0
  0
SOLID
  5
BB6
330
1E
100
AcDbEntity
  8
DIM
  6
CONTINUOUS
100
AcDbTrace
 10
481.1338413727658
 20
380.6470643864207
 30
0.0
 11
481.1338413727658
 21
379.6470643864207
 31
0.0
 12
478.1338413727658
 22
380.1470643864207
 32
0.0
 13
478.1338413727658
 23
380.1470643864207
 33
0.0
  0
LINE
  5
BB7
330
1E
100
AcDbEntity
  8
0
100
AcDbLine
 10
510.1338413727656
 20
414.1470643864208
 30
0.0
 11
478.1338413727657
 21
414.6470643864208
 31
0.0
  0
LINE
  5
BB8
330
1E
100
AcDbEntity
  8
DIM
  6
CONTINUOUS
100
AcDbLine
 10
473.1338413727658
 20
428.0693414622309
 30
0.0
 11
473.1338413727658
 21
379.1470643864208
 31
0.0
  0
LINE
  5
BB9
330
1E
100
AcDbEntity
  8
DIM
  6
CONTINUOUS
100
AcDbLine
 10
478.1338413727658
 20
413.6470643864207
 30
0.0
 11
478.1338413727658
 21
379.1470643864208
 31
0.0
  0
TEXT
  5
BBA
330
1E
100
AcDbEntity
  8
DIM
  6
CONTINUOUS
100
AcDbText
 10
465.9129727422249
 20
381.6470643864207
 30
0.0
 40
3.0
  1
5
  7
ROMANSS
 72
     1
 11
466.9129727422249
 21
383.1470643864207
 31
0.0
100
AcDbText
 73
     2
  0
SOLID
  5
BBC
330
1E
100
AcDbEntity
  8
DIM
  6
CONTINUOUS
100
AcDbTrace
 10
470.1338413727658
 20
380.6470643864207
 30
0.0
 11
470.1338413727658
 21
379.6470643864207
 31
0.0
 12
473.1338413727658
 22
380.1470643864207
 32
0.0
 13
473.1338413727658
 23
380.1470643864207
 33
0.0
  0
LINE
  5
BBD
330
1E
100
AcDbEntity
  8
CENTER
  6
CENTER
100
AcDbLine
 10
390.7412324730407
 20
432.1470643864207
 30
0.0
 11
412.8782523013401
 21
432.1470643864207
 31
0.0
  0
LINE
  5
BBE
330
1E
100
AcDbEntity
  8
0
  6
CONTINUOUS
100
AcDbLine
 10
406.8782523013401
 20
427.1470643864208
 30
0.0
 11
408.3782523013401
 21
427.1470643864208
 31
0.0
  0
LINE
  5
BBF
330
1E
100
AcDbEntity
  8
0
  6
CONTINUOUS
100
AcDbLine
 10
406.8782523013401
 20
437.1470643864207
 30
0.0
 11
408.3782523013401
 21
437.1470643864207
 31
0.0
  0
LINE
  5
BC0
330
1E
100
AcDbEntity
  8
0
  6
CONTINUOUS
 62
     2
100
AcDbLine
 10
406.8782523013401
 20
428.1470643864207
 30
0.0
 11
409.3782523013401
 21
428.1470643864207
 31
0.0
  0
LINE
  5
BC1
330
1E
100
AcDbEntity
  8
0
  6
CONTINUOUS
 62
     2
100
AcDbLine
 10
406.8782523013401
 20
436.1470643864207
 30
0.0
 11
409.3782523013401
 21
436.1470643864207
 31
0.0
  0
ARC
  5
BC2
330
1E
100
AcDbEntity
  8
0
  6
CONTINUOUS
100
AcDbCircle
 10
412.050474523568
 20
427.8970643864209
 30
0.0
 40
10.19983357405331
100
AcDbArc
 50
155.3752531507763
 51
204.6247468492236
  0
ARC
  5
BC3
330
1E
100
AcDbEntity
  8
0
  6
CONTINUOUS
100
AcDbCircle
 10
396.7060300791121
 20
427.8970643864207
 30
0.0
 40
10.19983357405331
100
AcDbArc
 50
335.3752531507737
 51
24.62474684922625
  0
LINE
  5
BC4
330
1E
100
AcDbEntity
  8
0
  6
CONTINUOUS
100
AcDbLine
 10
406.8782523013401
 20
423.6470643864207
 30
0.0
 11
406.8782523013401
 21
440.6470643864207
 31
0.0
  0
ARC
  5
BC5
330
1E
100
AcDbEntity
  8
0
100
AcDbCircle
 10
392.6282523013401
 20
423.3970643864206
 30
0.0
 40
9.5
100
AcDbArc
 50
149.4775121859296
 51
205.5830019773826
  0
LINE
  5
BC6
330
1E
100
AcDbEntity
  8
CENTER
  6
CENTER
100
AcDbLine
 10
392.6282523013401
 20
430.8970643864206
 30
0.0
 11
392.6282523013401
 21
415.8970643864206
 31
0.0
  0
CIRCLE
  5
BC7
330
1E
100
AcDbEntity
  8
0
100
AcDbCircle
 10
392.6282523013401
 20
423.3970643864206
 30
0.0
 40
6.5
  0
ARC
  5
BC8
330
1E
100
AcDbEntity
  8
0
  6
CONTINUOUS
 62
     2
100
AcDbCircle
 10
392.6282523013401
 20
423.3970643864206
 30
0.0
 40
4.0
100
AcDbArc
 50
165.5461188433243
 51
122.2258188393757
  0
CIRCLE
  5
BC9
330
1E
100
AcDbEntity
  8
0
  6
CONTINUOUS
100
AcDbCircle
 10
392.6282523013401
 20
423.3970643864206
 30
0.0
 40
3.399999999999999
  0
POLYLINE
  5
BCA
330
1E
100
AcDbEntity
  8
0
  6
CONTINUOUS
100
AcDb2dPolyline
 66
     1
 10
0.0
 20
0.0
 30
0.0
 70
     1
  0
VERTEX
  5
17F0
330
BCA
100
AcDbEntity
  8
0
  6
CONTINUOUS
100
AcDbVertex
100
AcDb2dVertex
 10
394.9376533780986
 20
427.3970643864206
 30
0.0
  0
VERTEX
  5
17F1
330
BCA
100
AcDbEntity
  8
0
  6
CONTINUOUS
100
AcDbVertex
100
AcDb2dVertex
 10
397.2470544548571
 20
423.3970643864206
 30
0.0
  0
VERTEX
  5
17F2
330
BCA
100
AcDbEntity
  8
0
  6
CONTINUOUS
100
AcDbVertex
100
AcDb2dVertex
 10
394.9376533780986
 20
419.3970643864206
 30
0.0
  0
VERTEX
  5
17F3
330
BCA
100
AcDbEntity
  8
0
  6
CONTINUOUS
100
AcDbVertex
100
AcDb2dVertex
 10
390.3188512245816
 20
419.3970643864206
 30
0.0
  0
VERTEX
  5
17F4
330
BCA
100
AcDbEntity
  8
0
  6
CONTINUOUS
100
AcDbVertex
100
AcDb2dVertex
 10
388.0094501478231
 20
423.3970643864206
 30
0.0
  0
VERTEX
  5
17F5
330
BCA
100
AcDbEntity
  8
0
  6
CONTINUOUS
100
AcDbVertex
100
AcDb2dVertex
 10
390.3188512245816
 20
427.3970643864206
 30
0.0
  0
SEQEND
  5
17F6
330
BCA
100
AcDbEntity
  8
0
  6
CONTINUOUS
  0
LINE
  5
BD2
330
1E
100
AcDbEntity
  8
CENTER
  6
CENTER
100
AcDbLine
 10
400.1282523013401
 20
423.3970643864206
 30
0.0
 11
385.1282523013401
 21
423.3970643864206
 31
0.0
  0
LINE
  5
BD3
330
1E
100
AcDbEntity
  8
0
100
AcDbLine
 10
375.3782523013401
 20
405.1470643864205
 30
0.0
 11
375.3782523013401
 21
414.1470643864206
 31
0.0
  0
ARC
  5
BD4
330
1E
100
AcDbEntity
  8
0
100
AcDbCircle
 10
382.706684884848
 20
418.6470643864207
 30
0.0
 40
1.5
100
AcDbArc
 50
270.0
 51
25.58300197741426
  0
ARC
  5
BD5
330
1E
100
AcDbEntity
  8
0
100
AcDbCircle
 10
392.3782523013401
 20
423.6470643864207
 30
0.0
 40
9.5
100
AcDbArc
 50
270.0
 51
0.0
  0
ARC
  5
BD6
330
1E
100
AcDbEntity
  8
0
100
AcDbCircle
 10
392.3782523013401
 20
423.6470643864207
 30
0.0
 40
9.0
100
AcDbArc
 50
270.0
 51
0.0
  0
LINE
  5
BD7
330
1E
100
AcDbEntity
  8
0
  6
CONTINUOUS
100
AcDbLine
 10
406.8782523013401
 20
423.6470643864207
 30
0.0
 11
401.8782523013402
 21
423.6470643864207
 31
0.0
  0
LINE
  5
BD8
330
1E
100
AcDbEntity
  8
CENTER
  6
CENTER
100
AcDbLine
 10
405.06954638468
 20
444.6470643864207
 30
0.0
 11
381.4048889635826
 21
444.6470643864207
 31
0.0
  0
ARC
  5
BD9
330
1E
100
AcDbEntity
  8
0
100
AcDbCircle
 10
392.6282523013401
 20
423.3970643864206
 30
0.0
 40
9.5
100
AcDbArc
 50
64.41699802261196
 51
120.52248781407
  0
ARC
  5
BDA
330
1E
100
AcDbEntity
  8
0
100
AcDbCircle
 10
383.537433616426
 20
436.3769703678607
 30
0.0
 40
1.5
100
AcDbArc
 50
141.4447403397703
 51
225.0
  0
LINE
  5
BDB
330
1E
100
AcDbEntity
  8
0
100
AcDbLine
 10
382.4767734446462
 20
435.3163101960809
 30
0.0
 11
385.9809506121273
 21
431.8121330285997
 31
0.0
  0
LINE
  5
BDC
330
1E
100
AcDbEntity
  8
0
100
AcDbLine
 10
380.7090064916799
 20
433.5485432431146
 30
0.0
 11
384.213183659161
 21
430.0443660756335
 31
0.0
  0
ARC
  5
BDD
330
1E
100
AcDbEntity
  8
0
100
AcDbCircle
 10
379.6483463199001
 20
432.4878830713347
 30
0.0
 40
1.5
100
AcDbArc
 50
45.0
 51
128.5552596602326
  0
ARC
  5
BDE
330
1E
100
AcDbEntity
  8
0
100
AcDbCircle
 10
387.0416107839071
 20
432.8727932003796
 30
0.0
 40
1.5
100
AcDbArc
 50
225.0
 51
300.5224878140694
  0
ARC
  5
BDF
330
1E
100
AcDbEntity
  8
0
100
AcDbCircle
 10
383.1525234873812
 20
428.9837059038537
 30
0.0
 40
1.5
100
AcDbArc
 50
329.4775121859294
 51
45.0
  0
ARC
  5
BE0
330
1E
100
AcDbEntity
  8
0
  6
CONTINUOUS
100
AcDbCircle
 10
412.050474523568
 20
436.3970643864209
 30
0.0
 40
10.19983357405331
100
AcDbArc
 50
155.3752531507763
 51
204.6247468492236
  0
ARC
  5
BE1
330
1E
100
AcDbEntity
  8
0
  6
CONTINUOUS
100
AcDbCircle
 10
396.7060300791121
 20
436.3970643864207
 30
0.0
 40
10.19983357405331
100
AcDbArc
 50
335.3752531507737
 51
24.62474684922582
  0
ARC
  5
BE2
330
1E
100
AcDbEntity
  8
0
100
AcDbCircle
 10
397.3782523013401
 20
433.3186318029127
 30
0.0
 40
1.5
100
AcDbArc
 50
244.4169980225808
 51
0.0
  0
LINE
  5
BE3
330
1E
100
AcDbEntity
  8
0
  6
CONTINUOUS
100
AcDbLine
 10
399.8782523013401
 20
432.1470643864207
 30
0.0
 11
405.9782523013405
 21
432.1470643864207
 31
0.0
  0
LINE
  5
BE4
330
1E
100
AcDbEntity
  8
0
  6
CONTINUOUS
100
AcDbLine
 10
399.8782523013401
 20
432.1470643864207
 30
0.0
 11
405.9782523013405
 21
432.1470643864207
 31
0.0
  0
LINE
  5
BE5
330
1E
100
AcDbEntity
  8
0
  6
CONTINUOUS
100
AcDbLine
 10
406.8782523013401
 20
440.6470643864207
 30
0.0
 11
401.8782523013402
 21
440.6470643864207
 31
0.0
  0
LINE
  5
BE6
330
1E
100
AcDbEntity
  8
0
  6
CONTINUOUS
100
AcDbLine
 10
408.3782523013401
 20
437.1470643864207
 30
0.0
 11
409.8782523013401
 21
435.6470643864208
 31
0.0
  0
LINE
  5
BE7
330
1E
100
AcDbEntity
  8
0
  6
CONTINUOUS
100
AcDbLine
 10
408.3782523013401
 20
427.1470643864208
 30
0.0
 11
408.3782523013401
 21
437.1470643864207
 31
0.0
  0
LINE
  5
BE8
330
1E
100
AcDbEntity
  8
0
  6
CONTINUOUS
100
AcDbLine
 10
409.8782523013401
 20
428.6470643864207
 30
0.0
 11
409.8782523013401
 21
435.6470643864208
 31
0.0
  0
LINE
  5
BE9
330
1E
100
AcDbEntity
  8
0
  6
CONTINUOUS
100
AcDbLine
 10
408.3782523013401
 20
427.1470643864208
 30
0.0
 11
409.8782523013401
 21
428.6470643864207
 31
0.0
  0
LINE
  5
BEA
330
1E
100
AcDbEntity
  8
0
100
AcDbLine
 10
478.1338413727658
 20
429.1470643864208
 30
0.0
 11
475.1338413727657
 21
429.1470643864208
 31
0.0
  0
ARC
  5
BEB
330
1E
100
AcDbEntity
  8
0
100
AcDbCircle
 10
475.0226501599201
 20
431.4246819607297
 30
0.0
 40
2.280330085889911
100
AcDbArc
 50
214.074988904782
 51
272.7949087410608
  0
LINE
  5
BEC
330
1E
100
AcDbEntity
  8
CENTER
  6
CENTER
100
AcDbLine
 10
506.6338413727656
 20
444.6470643864207
 30
0.0
 11
481.6338413727656
 21
444.6470643864208
 31
0.0
  0
LINE
  5
BED
330
1E
100
AcDbEntity
  8
CENTER
  6
CENTER
100
AcDbLine
 10
645.1338413727658
 20
325.5516781090888
 30
0.0
 11
645.1338413727658
 21
350.1464865146389
 31
0.0
  0
CIRCLE
  5
BEE
330
1E
100
AcDbEntity
  8
0
  6
CONTINUOUS
100
AcDbCircle
 10
642.9457642030163
 20
247.1899688740377
 30
0.0
 40
2.5
  0
ARC
  5
BEF
330
1E
100
AcDbEntity
  8
0
  6
CONTINUOUS
 62
     2
100
AcDbCircle
 10
642.9457642030163
 20
247.1899688740377
 30
0.0
 40
3.0
100
AcDbArc
 50
206.963598891015
 51
149.154987673995
  0
LINE
  5
BF0
330
1E
100
AcDbEntity
  8
CENTER
  6
CENTER
100
AcDbLine
 10
624.6338413727658
 20
305.878046043787
 30
0.0
 11
638.6338413727657
 21
305.878046043787
 31
0.0
  0
LINE
  5
BF1
330
1E
100
AcDbEntity
  8
CENTER
  6
CENTER
100
AcDbLine
 10
631.6338413727658
 20
298.8780460437871
 30
0.0
 11
631.6338413727658
 21
312.878046043787
 31
0.0
  0
ARC
  5
BF2
330
1E
100
AcDbEntity
  8
0
  6
CONTINUOUS
 62
     2
100
AcDbCircle
 10
631.6338413727658
 20
305.878046043787
 30
0.0
 40
4.0
100
AcDbArc
 50
335.2285795742745
 51
294.3224829748806
  0
CIRCLE
  5
BF3
330
1E
100
AcDbEntity
  8
0
  6
CONTINUOUS
100
AcDbCircle
 10
631.6338413727658
 20
305.878046043787
 30
0.0
 40
3.399999999999999
  0
LINE
  5
BF4
330
1E
100
AcDbEntity
  8
DIM
  6
CONTINUOUS
100
AcDbLine
 10
621.6338413727657
 20
413.1470643864207
 30
0.0
 11
621.6338413727657
 21
387.1470643864208
 31
0.0
  0
LINE
  5
BF5
330
1E
100
AcDbEntity
  8
DIM
  6
CONTINUOUS
100
AcDbLine
 10
625.6338413727657
 20
404.1470643864207
 30
0.0
 11
625.6338413727657
 21
395.1470643864208
 31
0.0
  0
LINE
  5
BF6
330
1E
100
AcDbEntity
  8
0
  6
CONTINUOUS
100
AcDbLine
 10
648.6338413727635
 20
346.378046043787
 30
0.0
 11
641.6338413727634
 21
346.378046043787
 31
0.0
  0
ARC
  5
BF7
330
1E
100
AcDbEntity
  8
0
  6
CONTINUOUS
100
AcDbCircle
 10
645.1398811636184
 20
328.3780472597563
 30
0.0
 40
14.99999999999999
100
AcDbArc
 50
90.0230703022984
 51
109.4956922330535
  0
LINE
  5
BF8
330
1E
100
AcDbEntity
  8
0
  6
CONTINUOUS
100
AcDbLine
 10
653.3838413727635
 20
343.378046043787
 30
0.0
 11
636.8838413727634
 21
343.378046043787
 31
0.0
  0
LINE
  5
BF9
330
1E
100
AcDbEntity
  8
0
  6
CONTINUOUS
100
AcDbLine
 10
650.1338413727635
 20
344.8780460437871
 30
0.0
 11
640.1338413727634
 21
344.8780460437871
 31
0.0
  0
ARC
  5
BFA
330
1E
100
AcDbEntity
  8
0
  6
CONTINUOUS
100
AcDbCircle
 10
645.1398811635631
 20
353.3780448278179
 30
0.0
 40
14.99999999999999
100
AcDbArc
 50
250.5043077669459
 51
269.9769296977011
  0
LINE
  5
BFB
330
1E
100
AcDbEntity
  8
0
  6
CONTINUOUS
 62
     2
100
AcDbLine
 10
641.1338413727635
 20
343.378046043787
 30
0.0
 11
641.1338413727635
 21
345.878046043787
 31
0.0
  0
LINE
  5
BFC
330
1E
100
AcDbEntity
  8
0
  6
CONTINUOUS
100
AcDbLine
 10
635.3338413727642
 20
342.4831268751955
 30
0.0
 11
636.8838413727635
 21
343.378046043787
 31
0.0
  0
ARC
  5
BFD
330
1E
100
AcDbEntity
  8
0
  6
CONTINUOUS
100
AcDbCircle
 10
637.8273821592661
 20
339.8562679603969
 30
0.0
 40
3.522047226932054
100
AcDbArc
 50
49.09072006652965
 51
119.2051441578367
  0
LINE
  5
BFE
330
1E
100
AcDbEntity
  8
0
  6
CONTINUOUS
100
AcDbLine
 10
640.1338413727635
 20
343.378046043787
 30
0.0
 11
640.1338413727635
 21
344.8780460437871
 31
0.0
  0
ARC
  5
BFF
330
1E
100
AcDbEntity
  8
0
  6
CONTINUOUS
100
AcDbCircle
 10
637.8273821592107
 20
341.8998241271771
 30
0.0
 40
3.522047226932054
100
AcDbArc
 50
240.7948558421627
 51
310.9092799334703
  0
LINE
  5
C00
330
1E
100
AcDbEntity
  8
0
  6
CONTINUOUS
100
AcDbLine
 10
635.3338413727088
 20
339.2729652123786
 30
0.0
 11
636.8838413727082
 21
338.3780460437871
 31
0.0
  0
LINE
  5
C01
330
1E
100
AcDbEntity
  8
0
  6
CONTINUOUS
100
AcDbLine
 10
635.3338413727642
 20
339.2729652123466
 30
0.0
 11
635.3338413727642
 21
342.4831268751955
 31
0.0
  0
LINE
  5
C02
330
1E
100
AcDbEntity
  8
0
  6
CONTINUOUS
100
AcDbLine
 10
640.1338413727635
 20
339.238046043768
 30
0.0
 11
640.1338413727635
 21
342.5180460437865
 31
0.0
  0
LINE
  5
C03
330
1E
100
AcDbEntity
  8
0
  6
CONTINUOUS
100
AcDbLine
 10
640.1338413727635
 20
344.8780460437871
 30
0.0
 11
641.6338413727635
 21
346.378046043787
 31
0.0
  0
SOLID
  5
C04
330
1E
100
AcDbEntity
  8
DIM
  6
CONTINUOUS
100
AcDbTrace
 10
628.6338413727658
 20
396.6470643864208
 30
0.0
 11
628.6338413727658
 21
395.6470643864208
 31
0.0
 12
625.6338413727657
 22
396.1470643864208
 32
0.0
 13
625.6338413727657
 23
396.1470643864208
 33
0.0
  0
SOLID
  5
C05
330
1E
100
AcDbEntity
  8
DIM
  6
CONTINUOUS
100
AcDbTrace
 10
624.6338413727658
 20
388.6470643864208
 30
0.0
 11
624.6338413727658
 21
387.6470643864208
 31
0.0
 12
621.6338413727657
 22
388.1470643864208
 32
0.0
 13
621.6338413727657
 23
388.1470643864208
 33
0.0
  0
ARC
  5
C06
330
1E
100
AcDbEntity
  8
0
  6
CONTINUOUS
100
AcDbCircle
 10
652.4403005862609
 20
339.8562679603969
 30
0.0
 40
3.522047226932054
100
AcDbArc
 50
60.79485584216321
 51
130.9092799334703
  0
ARC
  5
C07
330
1E
100
AcDbEntity
  8
0
  6
CONTINUOUS
100
AcDbCircle
 10
652.4403005862056
 20
341.8998241271771
 30
0.0
 40
3.522047226932054
100
AcDbArc
 50
229.0907200665296
 51
299.2051441578372
  0
LINE
  5
C08
330
1E
100
AcDbEntity
  8
0
  6
CONTINUOUS
 62
     2
100
AcDbLine
 10
649.1338413727635
 20
343.378046043787
 30
0.0
 11
649.1338413727635
 21
345.878046043787
 31
0.0
  0
LINE
  5
C09
330
1E
100
AcDbEntity
  8
0
  6
CONTINUOUS
100
AcDbLine
 10
650.1338413727635
 20
343.378046043787
 30
0.0
 11
650.1338413727635
 21
344.8780460437871
 31
0.0
  0
LINE
  5
C0A
330
1E
100
AcDbEntity
  8
0
  6
CONTINUOUS
100
AcDbLine
 10
650.1338413727635
 20
344.8780460437871
 30
0.0
 11
648.6338413727635
 21
346.378046043787
 31
0.0
  0
LINE
  5
C0B
330
1E
100
AcDbEntity
  8
0
  6
CONTINUOUS
100
AcDbLine
 10
650.1338413727635
 20
339.2380460438072
 30
0.0
 11
650.1338413727635
 21
342.5180460437865
 31
0.0
  0
ARC
  5
C0C
330
1E
100
AcDbEntity
  8
0
  6
CONTINUOUS
100
AcDbCircle
 10
645.1278015819084
 20
328.3780472597563
 30
0.0
 40
14.99999999999999
100
AcDbArc
 50
70.50430776694547
 51
89.97692969770072
  0
ARC
  5
C0D
330
1E
100
AcDbEntity
  8
0
  6
CONTINUOUS
100
AcDbCircle
 10
645.1278015818531
 20
353.3780448278179
 30
0.0
 40
14.99999999999999
100
AcDbArc
 50
270.0230703022988
 51
289.4956922330539
  0
LINE
  5
C0E
330
1E
100
AcDbEntity
  8
0
  6
CONTINUOUS
100
AcDbLine
 10
654.9338413727627
 20
342.4831268751955
 30
0.0
 11
653.3838413727635
 21
343.378046043787
 31
0.0
  0
LINE
  5
C0F
330
1E
100
AcDbEntity
  8
0
  6
CONTINUOUS
100
AcDbLine
 10
654.9338413727074
 20
339.2729652123786
 30
0.0
 11
653.3838413727082
 21
338.3780460437871
 31
0.0
  0
LINE
  5
C10
330
1E
100
AcDbEntity
  8
0
  6
CONTINUOUS
100
AcDbLine
 10
654.9338413727627
 20
339.2729652124105
 30
0.0
 11
654.9338413727627
 21
342.4831268751955
 31
0.0
  0
TEXT
  5
C11
330
1E
100
AcDbEntity
  8
DIM
  6
CONTINUOUS
100
AcDbText
 10
664.2052699441943
 20
389.6470643864208
 30
0.0
 40
3.0
  1
90
  7
ROMANSS
 72
     1
 11
666.6338413727658
 21
391.1470643864208
 31
0.0
100
AcDbText
 73
     2
  0
TEXT
  5
C12
330
1E
100
AcDbEntity
  8
DIM
  6
CONTINUOUS
100
AcDbText
 10
662.7766985156228
 20
381.6470643864207
 30
0.0
 40
3.0
  1
377
  7
ROMANSS
 72
     1
 11
666.6338413727658
 21
383.1470643864207
 31
0.0
100
AcDbText
 73
     2
  0
TEXT
  5
C13
330
1E
100
AcDbEntity
  8
DIM
  6
CONTINUOUS
100
AcDbText
 10
662.8481270870515
 20
397.6470643864208
 30
0.0
 40
3.0
  1
%%c82
  7
ROMANSS
 72
     1
 11
666.6338413727658
 21
399.1470643864208
 31
0.0
100
AcDbText
 73
     2
  0
POLYLINE
  5
C14
330
1E
100
AcDbEntity
  8
0
  6
CONTINUOUS
100
AcDb2dPolyline
 66
     1
 10
0.0
 20
0.0
 30
0.0
 70
     1
  0
VERTEX
  5
17F7
330
C14
100
AcDbEntity
  8
0
  6
CONTINUOUS
100
AcDbVertex
100
AcDb2dVertex
 10
640.2338413727662
 20
440.6341133435084
 30
0.0
  0
VERTEX
  5
17F8
330
C14
100
AcDbEntity
  8
0
  6
CONTINUOUS
100
AcDbVertex
100
AcDb2dVertex
 10
635.3338413727665
 20
432.1470643864208
 30
0.0
  0
VERTEX
  5
17F9
330
C14
100
AcDbEntity
  8
0
  6
CONTINUOUS
100
AcDbVertex
100
AcDb2dVertex
 10
640.2338413727662
 20
423.6600154293332
 30
0.0
  0
VERTEX
  5
17FA
330
C14
100
AcDbEntity
  8
0
  6
CONTINUOUS
100
AcDbVertex
100
AcDb2dVertex
 10
650.0338413727654
 20
423.6600154293332
 30
0.0
  0
VERTEX
  5
17FB
330
C14
100
AcDbEntity
  8
0
  6
CONTINUOUS
100
AcDbVertex
100
AcDb2dVertex
 10
654.933841372765
 20
432.1470643864208
 30
0.0
  0
VERTEX
  5
17FC
330
C14
100
AcDbEntity
  8
0
  6
CONTINUOUS
100
AcDbVertex
100
AcDb2dVertex
 10
650.0338413727654
 20
440.6341133435084
 30
0.0
  0
SEQEND
  5
17FD
330
C14
100
AcDbEntity
  8
0
  6
CONTINUOUS
  0
CIRCLE
  5
C1C
330
1E
100
AcDbEntity
  8
0
  6
CONTINUOUS
100
AcDbCircle
 10
645.1338413727658
 20
432.1470643864208
 30
0.0
 40
8.25
  0
POLYLINE
  5
C1D
330
1E
100
AcDbEntity
  8
0
  6
CONTINUOUS
100
AcDb2dPolyline
 66
     1
 10
0.0
 20
0.0
 30
0.0
 70
     1
  0
VERTEX
  5
17FE
330
C1D
100
AcDbEntity
  8
0
  6
CONTINUOUS
100
AcDbVertex
100
AcDb2dVertex
 10
643.6904656997917
 20
434.6470643864208
 30
0.0
  0
VERTEX
  5
17FF
330
C1D
100
AcDbEntity
  8
0
  6
CONTINUOUS
100
AcDbVertex
100
AcDb2dVertex
 10
642.2470900268177
 20
432.1470643864208
 30
0.0
  0
VERTEX
  5
1800
330
C1D
100
AcDbEntity
  8
0
  6
CONTINUOUS
100
AcDbVertex
100
AcDb2dVertex
 10
643.6904656997917
 20
429.6470643864208
 30
0.0
  0
VERTEX
  5
1801
330
C1D
100
AcDbEntity
  8
0
  6
CONTINUOUS
100
AcDbVertex
100
AcDb2dVertex
 10
646.5772170457398
 20
429.6470643864208
 30
0.0
  0
VERTEX
  5
1802
330
C1D
100
AcDbEntity
  8
0
  6
CONTINUOUS
100
AcDbVertex
100
AcDb2dVertex
 10
648.0205927187139
 20
432.1470643864208
 30
0.0
  0
VERTEX
  5
1803
330
C1D
100
AcDbEntity
  8
0
  6
CONTINUOUS
100
AcDbVertex
100
AcDb2dVertex
 10
646.5772170457398
 20
434.6470643864208
 30
0.0
  0
SEQEND
  5
1804
330
C1D
100
AcDbEntity
  8
0
  6
CONTINUOUS
  0
ARC
  5
C25
330
1E
100
AcDbEntity
  8
0
  6
CONTINUOUS
 62
     2
100
AcDbCircle
 10
645.1338413727658
 20
432.1470643864208
 30
0.0
 40
4.25
100
AcDbArc
 50
69.4878130165154
 51
22.41462014748477
  0
CIRCLE
  5
C26
330
1E
100
AcDbEntity
  8
0
  6
CONTINUOUS
100
AcDbCircle
 10
645.1338413727658
 20
432.1470643864208
 30
0.0
 40
5.0
  0
LINE
  5
C27
330
1E
100
AcDbEntity
  8
CENTER
  6
CENTER
100
AcDbLine
 10
630.1338413727657
 20
432.1470643864207
 30
0.0
 11
660.1338413727658
 21
432.1470643864207
 31
0.0
  0
LINE
  5
C28
330
1E
100
AcDbEntity
  8
CENTER
  6
CENTER
100
AcDbLine
 10
631.6338413727658
 20
411.8668830236381
 30
0.0
 11
631.6338413727658
 21
429.9999200484781
 31
0.0
  0
LINE
  5
C29
330
1E
100
AcDbEntity
  8
0
  6
CONTINUOUS
100
AcDbLine
 10
625.6338413727657
 20
405.1470643864207
 30
0.0
 11
626.6338413727658
 21
404.1470643864207
 31
0.0
  0
LINE
  5
C2A
330
1E
100
AcDbEntity
  8
0
100
AcDbLine
 10
625.6338413727657
 20
414.1470643864208
 30
0.0
 11
625.6338413727657
 21
405.1470643864207
 31
0.0
  0
LINE
  5
C2B
330
1E
100
AcDbEntity
  8
CENTER
  6
CENTER
100
AcDbLine
 10
645.1338413727658
 20
447.1470643864208
 30
0.0
 11
645.1338413727658
 21
417.1470643864208
 31
0.0
  0
LINE
  5
C2C
330
1E
100
AcDbEntity
  8
0
  6
CONTINUOUS
100
AcDbLine
 10
374.3782523013401
 20
499.1470643864207
 30
0.0
 11
375.3782523013401
 21
498.1470643864208
 31
0.0
  0
ARC
  5
C2D
330
1E
100
AcDbEntity
  8
0
100
AcDbCircle
 10
375.8782523013402
 20
484.6470643864206
 30
0.0
 40
1.5
100
AcDbArc
 50
90.0
 51
180.0
  0
ARC
  5
C2E
330
1E
100
AcDbEntity
  8
0
100
AcDbCircle
 10
375.8782523013402
 20
473.2803720392045
 30
0.0
 40
1.5
100
AcDbArc
 50
180.0
 51
242.0054382677476
  0
LINE
  5
C2F
330
1E
100
AcDbEntity
  8
0
100
AcDbLine
 10
366.8782523013402
 20
486.1470643864207
 30
0.0
 11
382.706684884848
 21
486.1470643864207
 31
0.0
  0
LINE
  5
C30
330
1E
100
AcDbEntity
  8
CENTER
  6
CENTER
100
AcDbLine
 10
404.8782523013402
 20
451.6470643864208
 30
0.0
 11
288.8782523013401
 21
451.6470643864206
 31
0.0
  0
LINE
  5
C31
330
1E
100
AcDbEntity
  8
0
100
AcDbLine
 10
392.3782523013401
 20
488.6470643864206
 30
0.0
 11
336.3782523013401
 21
488.6470643864206
 31
0.0
  0
LINE
  5
C32
330
1E
100
AcDbEntity
  8
0
  6
CONTINUOUS
100
AcDbLine
 10
375.3782523013401
 20
498.1470643864208
 30
0.0
 11
293.3782523013401
 21
498.1470643864208
 31
0.0
  0
LINE
  5
C33
330
1E
100
AcDbEntity
  8
0
  6
CONTINUOUS
100
AcDbLine
 10
401.8782523013401
 20
489.1470643864208
 30
0.0
 11
291.87825230134
 21
489.1470643864208
 31
0.0
  0
LINE
  5
C34
330
1E
100
AcDbEntity
  8
0
100
AcDbLine
 10
322.3782523013402
 20
541.1470643864207
 30
0.0
 11
322.3782523013401
 21
500.1470643864207
 31
0.0
  0
LINE
  5
C35
330
1E
100
AcDbEntity
  8
0
100
AcDbLine
 10
346.3782523013402
 20
541.1470643864207
 30
0.0
 11
346.3782523013402
 21
500.1470643864207
 31
0.0
  0
LINE
  5
C36
330
1E
100
AcDbEntity
  8
0
  6
CONTINUOUS
100
AcDbLine
 10
374.3782523013401
 20
499.1470643864207
 30
0.0
 11
294.3782523013401
 21
499.1470643864207
 31
0.0
  0
LINE
  5
C37
330
1E
100
AcDbEntity
  8
0
100
AcDbLine
 10
293.3782523013401
 20
498.1470643864208
 30
0.0
 11
293.3782523013401
 21
489.1470643864208
 31
0.0
  0
LINE
  5
C38
330
1E
100
AcDbEntity
  8
CENTER
  6
CENTER
100
AcDbLine
 10
299.3782523013401
 20
491.4272457492034
 30
0.0
 11
299.3782523013401
 21
477.4272457492034
 31
0.0
  0
LINE
  5
C39
330
1E
100
AcDbEntity
  8
0
  6
CONTINUOUS
100
AcDbLine
 10
294.3782523013401
 20
499.1470643864207
 30
0.0
 11
293.3782523013401
 21
498.1470643864208
 31
0.0
  0
ARC
  5
C3A
330
1E
100
AcDbEntity
  8
0
100
AcDbCircle
 10
341.7148938187729
 20
470.4213355724617
 30
0.0
 40
1.5
100
AcDbArc
 50
45.0
 51
120.5224878140705
  0
LINE
  5
C3B
330
1E
100
AcDbEntity
  8
CENTER
  6
CENTER
100
AcDbLine
 10
343.6282523013401
 20
479.8970643864207
 30
0.0
 11
328.6282523013401
 21
479.8970643864207
 31
0.0
  0
CIRCLE
  5
C3C
330
1E
100
AcDbEntity
  8
0
100
AcDbCircle
 10
336.1282523013401
 20
479.8970643864207
 30
0.0
 40
6.5
  0
ARC
  5
C3D
330
1E
100
AcDbEntity
  8
0
100
AcDbCircle
 10
340.0061370874323
 20
449.1470643864205
 30
0.0
 40
1.5
100
AcDbArc
 50
5.856701909919149
 51
90.0
  0
ARC
  5
C3E
330
1E
100
AcDbEntity
  8
0
100
AcDbCircle
 10
340.0061370874323
 20
454.1470643864206
 30
0.0
 40
1.5
100
AcDbArc
 50
270.0
 51
354.1432980900808
  0
LINE
  5
C3F
330
1E
100
AcDbEntity
  8
0
100
AcDbLine
 10
331.3782523013401
 20
461.6470643864206
 30
0.0
 11
342.7449446485561
 21
461.6470643864206
 31
0.0
  0
ARC
  5
C40
330
1E
100
AcDbEntity
  8
0
100
AcDbCircle
 10
336.1282523013401
 20
479.8970643864207
 30
0.0
 40
9.5
100
AcDbArc
 50
244.4169980226119
 51
300.5224878140702
  0
ARC
  5
C41
330
1E
100
AcDbEntity
  8
0
100
AcDbCircle
 10
331.3782523013401
 20
469.9754969699285
 30
0.0
 40
1.5
100
AcDbArc
 50
64.41699802257798
 51
180.0
  0
LINE
  5
C42
330
1E
100
AcDbEntity
  8
0
100
AcDbLine
 10
329.8782523013401
 20
454.1470643864206
 30
0.0
 11
329.8782523013401
 21
469.9754969699285
 31
0.0
  0
LINE
  5
C43
330
1E
100
AcDbEntity
  8
0
100
AcDbLine
 10
331.3782523013401
 20
450.6470643864205
 30
0.0
 11
340.0061370874323
 21
450.6470643864205
 31
0.0
  0
LINE
  5
C44
330
1E
100
AcDbEntity
  8
0
100
AcDbLine
 10
331.3782523013401
 20
452.6470643864207
 30
0.0
 11
340.0061370874323
 21
452.6470643864207
 31
0.0
  0
ARC
  5
C45
330
1E
100
AcDbEntity
  8
0
100
AcDbCircle
 10
331.3782523013401
 20
449.1470643864205
 30
0.0
 40
1.5
100
AcDbArc
 50
90.0
 51
180.0
  0
ARC
  5
C46
330
1E
100
AcDbEntity
  8
0
100
AcDbCircle
 10
331.3782523013401
 20
454.1470643864206
 30
0.0
 40
1.5
100
AcDbArc
 50
180.0
 51
270.0
  0
ARC
  5
C47
330
1E
100
AcDbEntity
  8
0
100
AcDbCircle
 10
331.3782523013401
 20
463.1470643864206
 30
0.0
 40
1.5
100
AcDbArc
 50
180.0
 51
270.0
  0
ARC
  5
C48
330
1E
100
AcDbEntity
  8
0
100
AcDbCircle
 10
336.3782523013401
 20
479.6470643864206
 30
0.0
 40
9.5
100
AcDbArc
 50
90.0
 51
180.0
  0
ARC
  5
C49
330
1E
100
AcDbEntity
  8
0
100
AcDbCircle
 10
336.3782523013401
 20
479.6470643864206
 30
0.0
 40
9.0
100
AcDbArc
 50
90.0
 51
180.0
  0
LINE
  5
C4A
330
1E
100
AcDbEntity
  8
CENTER
  6
CENTER
100
AcDbLine
 10
336.1282523013401
 20
487.3970643864206
 30
0.0
 11
336.1282523013401
 21
472.3970643864206
 31
0.0
  0
ARC
  5
C4B
330
1E
100
AcDbEntity
  8
0
  6
CONTINUOUS
 62
     2
100
AcDbCircle
 10
336.1282523013401
 20
479.8970643864207
 30
0.0
 40
4.0
100
AcDbArc
 50
165.5461188433243
 51
122.2258188393757
  0
CIRCLE
  5
C4C
330
1E
100
AcDbEntity
  8
0
  6
CONTINUOUS
100
AcDbCircle
 10
336.1282523013401
 20
479.8970643864207
 30
0.0
 40
3.399999999999999
  0
POLYLINE
  5
C4D
330
1E
100
AcDbEntity
  8
0
  6
CONTINUOUS
100
AcDb2dPolyline
 66
     1
 10
0.0
 20
0.0
 30
0.0
 70
     1
  0
VERTEX
  5
1805
330
C4D
100
AcDbEntity
  8
0
  6
CONTINUOUS
100
AcDbVertex
100
AcDb2dVertex
 10
338.4376533780986
 20
483.8970643864207
 30
0.0
  0
VERTEX
  5
1806
330
C4D
100
AcDbEntity
  8
0
  6
CONTINUOUS
100
AcDbVertex
100
AcDb2dVertex
 10
340.7470544548571
 20
479.8970643864207
 30
0.0
  0
VERTEX
  5
1807
330
C4D
100
AcDbEntity
  8
0
  6
CONTINUOUS
100
AcDbVertex
100
AcDb2dVertex
 10
338.4376533780986
 20
475.8970643864206
 30
0.0
  0
VERTEX
  5
1808
330
C4D
100
AcDbEntity
  8
0
  6
CONTINUOUS
100
AcDbVertex
100
AcDb2dVertex
 10
333.8188512245816
 20
475.8970643864206
 30
0.0
  0
VERTEX
  5
1809
330
C4D
100
AcDbEntity
  8
0
  6
CONTINUOUS
100
AcDbVertex
100
AcDb2dVertex
 10
331.5094501478231
 20
479.8970643864207
 30
0.0
  0
VERTEX
  5
180A
330
C4D
100
AcDbEntity
  8
0
  6
CONTINUOUS
100
AcDbVertex
100
AcDb2dVertex
 10
333.8188512245816
 20
483.8970643864207
 30
0.0
  0
SEQEND
  5
180B
330
C4D
100
AcDbEntity
  8
0
  6
CONTINUOUS
  0
LINE
  5
C55
330
1E
100
AcDbEntity
  8
0
100
AcDbLine
 10
348.0474981110003
 20
469.7455855297268
 30
0.0
 11
344.5433209435191
 21
473.2497626972079
 31
0.0
  0
LINE
  5
C56
330
1E
100
AcDbEntity
  8
0
100
AcDbLine
 10
346.2797311580338
 20
467.9778185767604
 30
0.0
 11
342.7755539905529
 21
471.4819957442415
 31
0.0
  0
ARC
  5
C57
330
1E
100
AcDbEntity
  8
0
100
AcDbCircle
 10
349.1081582827801
 20
470.8062457015065
 30
0.0
 40
1.5
100
AcDbArc
 50
225.0
 51
308.5552596602296
  0
ARC
  5
C58
330
1E
100
AcDbEntity
  8
0
100
AcDbCircle
 10
345.2190709862541
 20
466.9171584049805
 30
0.0
 40
1.5
100
AcDbArc
 50
321.4447403397703
 51
45.0
  0
ARC
  5
C59
330
1E
100
AcDbEntity
  8
0
100
AcDbCircle
 10
342.7449446485561
 20
463.1470643864206
 30
0.0
 40
1.5
100
AcDbArc
 50
270.0
 51
332.0054382677476
  0
LINE
  5
C5A
330
1E
100
AcDbEntity
  8
0
100
AcDbLine
 10
361.8782523013401
 20
486.1470643864207
 30
0.0
 11
346.0498197178321
 21
486.1470643864207
 31
0.0
  0
LINE
  5
C5B
330
1E
100
AcDbEntity
  8
0
100
AcDbLine
 10
354.3782523013401
 20
484.6470643864206
 30
0.0
 11
354.3782523013401
 21
473.2803720392045
 31
0.0
  0
ARC
  5
C5C
330
1E
100
AcDbEntity
  8
0
100
AcDbCircle
 10
336.1282523013401
 20
479.8970643864207
 30
0.0
 40
9.5
100
AcDbArc
 50
329.4775121859296
 51
25.58300197738266
  0
ARC
  5
C5D
330
1E
100
AcDbEntity
  8
0
100
AcDbCircle
 10
345.6039811152991
 20
474.3104228689877
 30
0.0
 40
1.5
100
AcDbArc
 50
149.4775121859299
 51
225.0
  0
ARC
  5
C5E
330
1E
100
AcDbEntity
  8
0
100
AcDbCircle
 10
352.8782523013401
 20
473.2803720392045
 30
0.0
 40
1.5
100
AcDbArc
 50
297.9945617322523
 51
0.0
  0
ARC
  5
C5F
330
1E
100
AcDbEntity
  8
0
100
AcDbCircle
 10
346.0498197178321
 20
484.6470643864206
 30
0.0
 40
1.5
100
AcDbArc
 50
90.0
 51
205.5830019774171
  0
ARC
  5
C60
330
1E
100
AcDbEntity
  8
0
100
AcDbCircle
 10
352.8782523013401
 20
484.6470643864206
 30
0.0
 40
1.5
100
AcDbArc
 50
0.0
 51
90.0
  0
LINE
  5
C61
330
1E
100
AcDbEntity
  8
0
100
AcDbLine
 10
363.3782523013401
 20
484.6470643864206
 30
0.0
 11
363.3782523013401
 21
476.0191796003284
 31
0.0
  0
LINE
  5
C62
330
1E
100
AcDbEntity
  8
0
100
AcDbLine
 10
365.3782523013402
 20
484.6470643864206
 30
0.0
 11
365.3782523013402
 21
476.0191796003284
 31
0.0
  0
LINE
  5
C63
330
1E
100
AcDbEntity
  8
CENTER
  6
CENTER
100
AcDbLine
 10
369.3782523013401
 20
491.4272457492034
 30
0.0
 11
369.3782523013401
 21
477.4272457492034
 31
0.0
  0
LINE
  5
C64
330
1E
100
AcDbEntity
  8
0
100
AcDbLine
 10
374.3782523013402
 20
484.6470643864206
 30
0.0
 11
374.3782523013402
 21
473.2803720392045
 31
0.0
  0
ARC
  5
C65
330
1E
100
AcDbEntity
  8
0
100
AcDbCircle
 10
366.8782523013402
 20
476.0191796003284
 30
0.0
 40
1.5
100
AcDbArc
 50
180.0
 51
264.1432980900809
  0
ARC
  5
C66
330
1E
100
AcDbEntity
  8
0
100
AcDbCircle
 10
361.8782523013401
 20
476.0191796003284
 30
0.0
 40
1.5
100
AcDbArc
 50
275.856701909919
 51
0.0
  0
ARC
  5
C67
330
1E
100
AcDbEntity
  8
0
100
AcDbCircle
 10
366.8782523013402
 20
484.6470643864206
 30
0.0
 40
1.5
100
AcDbArc
 50
90.0
 51
180.0
  0
ARC
  5
C68
330
1E
100
AcDbEntity
  8
0
100
AcDbCircle
 10
361.8782523013401
 20
484.6470643864206
 30
0.0
 40
1.5
100
AcDbArc
 50
0.0
 51
90.0
  0
LINE
  5
C69
330
1E
100
AcDbEntity
  8
0
  6
CONTINUOUS
100
AcDbLine
 10
349.3782523013401
 20
500.1470643864207
 30
0.0
 11
319.3782523013401
 21
500.1470643864207
 31
0.0
  0
LINE
  5
C6A
330
1E
100
AcDbEntity
  8
0
100
AcDbLine
 10
330.3782523013402
 20
535.1470643864208
 30
0.0
 11
330.3782523013402
 21
507.1470643864208
 31
0.0
  0
LINE
  5
C6B
330
1E
100
AcDbEntity
  8
0
100
AcDbLine
 10
338.3782523013402
 20
535.1470643864208
 30
0.0
 11
338.3782523013402
 21
507.1470643864208
 31
0.0
  0
LINE
  5
C6C
330
1E
100
AcDbEntity
  8
0
100
AcDbLine
 10
319.3782523013401
 20
500.1470643864207
 30
0.0
 11
319.3782523013401
 21
499.1470643864207
 31
0.0
  0
ARC
  5
C6D
330
1E
100
AcDbEntity
  8
0
  6
CONTINUOUS
100
AcDbCircle
 10
334.3782523013402
 20
507.1470643864207
 30
0.0
 40
4.0
100
AcDbArc
 50
180.0
 51
0.0
  0
ARC
  5
C6E
330
1E
100
AcDbEntity
  8
0
  6
CONTINUOUS
100
AcDbCircle
 10
334.3782523013402
 20
535.1470643864208
 30
0.0
 40
4.0
100
AcDbArc
 50
0.0
 51
180.0
  0
LINE
  5
C6F
330
1E
100
AcDbEntity
  8
0
100
AcDbLine
 10
349.3782523013401
 20
500.1470643864208
 30
0.0
 11
349.3782523013402
 21
499.1470643864208
 31
0.0
  0
LINE
  5
C70
330
1E
100
AcDbEntity
  8
0
  6
CONTINUOUS
100
AcDbLine
 10
346.3782523013402
 20
541.1470643864207
 30
0.0
 11
322.3782523013402
 21
541.1470643864207
 31
0.0
  0
LINE
  5
C71
330
1E
100
AcDbEntity
  8
0
  6
CONTINUOUS
100
AcDbLine
 10
345.3782523013402
 20
542.1470643864207
 30
0.0
 11
323.3782523013402
 21
542.1470643864207
 31
0.0
  0
LINE
  5
C72
330
1E
100
AcDbEntity
  8
0
  6
CONTINUOUS
100
AcDbLine
 10
323.3782523013402
 20
542.1470643864207
 30
0.0
 11
322.3782523013402
 21
541.1470643864207
 31
0.0
  0
LINE
  5
C73
330
1E
100
AcDbEntity
  8
0
  6
CONTINUOUS
100
AcDbLine
 10
345.3782523013402
 20
542.1470643864207
 30
0.0
 11
346.3782523013402
 21
541.1470643864207
 31
0.0
  0
LINE
  5
C74
330
1E
100
AcDbEntity
  8
0
100
AcDbLine
 10
478.1338413727658
 20
668.8419640600154
 30
0.0
 11
478.1338413727657
 21
594.8419640600154
 31
0.0
  0
LINE
  5
C75
330
1E
100
AcDbEntity
  8
0
100
AcDbLine
 10
473.1338413727656
 20
653.3419640600152
 30
0.0
 11
473.1338413727656
 21
610.3419640600152
 31
0.0
  0
LINE
  5
C76
330
1E
100
AcDbEntity
  8
0
100
AcDbLine
 10
510.1338413727658
 20
669.3419640600154
 30
0.0
 11
510.1338413727656
 21
594.3419640600154
 31
0.0
  0
LINE
  5
C77
330
1E
100
AcDbEntity
  8
0
100
AcDbLine
 10
510.1338413727658
 20
666.8419640600155
 30
0.0
 11
510.1338413727658
 21
596.8419640600155
 31
0.0
  0
LINE
  5
C78
330
1E
100
AcDbEntity
  8
0
100
AcDbLine
 10
621.6338413727656
 20
704.3419640600155
 30
0.0
 11
621.6338413727657
 21
594.3419640600152
 31
0.0
  0
LINE
  5
C79
330
1E
100
AcDbEntity
  8
CENTER
  6
CENTER
100
AcDbLine
 10
666.6338413727658
 20
707.3419640600154
 30
0.0
 11
666.6338413727658
 21
591.3419640600152
 31
0.0
  0
LINE
  5
C7A
330
1E
100
AcDbEntity
  8
0
100
AcDbLine
 10
621.6338413727657
 20
650.6320735185888
 30
0.0
 11
510.1338413727658
 21
650.6320735185888
 31
0.0
  0
LINE
  5
C7B
330
1E
100
AcDbEntity
  8
0
100
AcDbLine
 10
621.6338413727657
 20
613.051854601442
 30
0.0
 11
510.1338413727658
 21
613.051854601442
 31
0.0
  0
LINE
  5
C7C
330
1E
100
AcDbEntity
  8
0
100
AcDbLine
 10
621.6338413727657
 20
596.8419640600155
 30
0.0
 11
510.1338413727658
 21
596.8419640600155
 31
0.0
  0
LINE
  5
C7D
330
1E
100
AcDbEntity
  8
0
100
AcDbLine
 10
621.6338413727657
 20
486.6470643864207
 30
0.0
 11
510.1338413727658
 21
486.6470643864207
 31
0.0
  0
LINE
  5
C7E
330
1E
100
AcDbEntity
  8
0
100
AcDbLine
 10
621.6338413727657
 20
470.4371738449942
 30
0.0
 11
510.1338413727658
 21
470.4371738449942
 31
0.0
  0
LINE
  5
C7F
330
1E
100
AcDbEntity
  8
0
100
AcDbLine
 10
510.1338413727656
 20
489.1470643864208
 30
0.0
 11
478.1338413727657
 21
488.6470643864208
 31
0.0
  0
LINE
  5
C80
330
1E
100
AcDbEntity
  8
0
100
AcDbLine
 10
375.3782523013401
 20
498.1470643864208
 30
0.0
 11
375.3782523013401
 21
489.1470643864208
 31
0.0
  0
LINE
  5
C81
330
1E
100
AcDbEntity
  8
0
100
AcDbLine
 10
380.7090064916799
 20
469.7455855297268
 30
0.0
 11
384.213183659161
 21
473.2497626972079
 31
0.0
  0
LINE
  5
C82
330
1E
100
AcDbEntity
  8
0
100
AcDbLine
 10
382.7897924951372
 20
468.2908376272513
 30
0.0
 11
385.9809506121273
 21
471.4819957442415
 31
0.0
  0
ARC
  5
C83
330
1E
100
AcDbEntity
  8
0
100
AcDbCircle
 10
397.3782523013402
 20
469.9754969699285
 30
0.0
 40
1.5
100
AcDbArc
 50
0.0
 51
115.5830019773997
  0
ARC
  5
C84
330
1E
100
AcDbEntity
  8
0
100
AcDbCircle
 10
392.6282523013401
 20
479.8970643864207
 30
0.0
 40
9.5
100
AcDbArc
 50
239.4775121859296
 51
295.583001977399
  0
LINE
  5
C85
330
1E
100
AcDbEntity
  8
CENTER
  6
CENTER
100
AcDbLine
 10
404.9329742331083
 20
460.6470643864208
 30
0.0
 11
381.4048889635826
 21
460.6470643864208
 31
0.0
  0
LINE
  5
C86
330
1E
100
AcDbEntity
  8
0
100
AcDbLine
 10
397.3782523013401
 20
450.6470643864206
 30
0.0
 11
388.7503675152479
 21
450.6470643864206
 31
0.0
  0
LINE
  5
C87
330
1E
100
AcDbEntity
  8
0
100
AcDbLine
 10
397.3782523013402
 20
452.6470643864207
 30
0.0
 11
389.1975995933218
 21
452.6470643864207
 31
0.0
  0
LINE
  5
C88
330
1E
100
AcDbEntity
  8
0
100
AcDbLine
 10
397.3782523013401
 20
457.1470643864207
 30
0.0
 11
388.2267323367636
 21
457.1470643864207
 31
0.0
  0
ARC
  5
C89
330
1E
100
AcDbEntity
  8
0
100
AcDbCircle
 10
388.7503675152479
 20
449.1470643864206
 30
0.0
 40
1.5
100
AcDbArc
 50
90.0
 51
174.1432980900809
  0
ARC
  5
C8A
330
1E
100
AcDbEntity
  8
0
100
AcDbCircle
 10
389.1975995933218
 20
454.6470643864206
 30
0.0
 40
2.0
100
AcDbArc
 50
186.8921025793466
 51
270.0
  0
ARC
  5
C8B
330
1E
100
AcDbEntity
  8
0
100
AcDbCircle
 10
388.2267323367636
 20
459.1470643864207
 30
0.0
 40
2.0
100
AcDbArc
 50
197.4576031237227
 51
270.0
  0
ARC
  5
C8C
330
1E
100
AcDbEntity
  8
0
100
AcDbCircle
 10
384.2040060575103
 20
466.8766240648782
 30
0.0
 40
2.0
100
AcDbArc
 50
134.9999999999988
 51
217.530407683583
  0
ARC
  5
C8D
330
1E
100
AcDbEntity
  8
0
100
AcDbCircle
 10
379.6483463199001
 20
470.8062457015065
 30
0.0
 40
1.5
100
AcDbArc
 50
231.4447403397673
 51
315.0
  0
LINE
  5
C8E
330
1E
100
AcDbEntity
  8
0
100
AcDbLine
 10
398.8782523013402
 20
469.9754969699285
 30
0.0
 11
398.8782523013402
 21
454.1470643864206
 31
0.0
  0
ARC
  5
C8F
330
1E
100
AcDbEntity
  8
0
100
AcDbCircle
 10
397.3782523013402
 20
454.1470643864206
 30
0.0
 40
1.5
100
AcDbArc
 50
270.0
 51
0.0
  0
ARC
  5
C90
330
1E
100
AcDbEntity
  8
0
100
AcDbCircle
 10
397.3782523013401
 20
449.1470643864206
 30
0.0
 40
1.5
100
AcDbArc
 50
0.0
 51
90.0
  0
ARC
  5
C91
330
1E
100
AcDbEntity
  8
0
100
AcDbCircle
 10
397.3782523013401
 20
458.6470643864207
 30
0.0
 40
1.5
100
AcDbArc
 50
270.0
 51
0.0
  0
LINE
  5
C92
330
1E
100
AcDbEntity
  8
CENTER
  6
CENTER
100
AcDbLine
 10
400.1282523013401
 20
479.8970643864207
 30
0.0
 11
385.1282523013401
 21
479.8970643864207
 31
0.0
  0
CIRCLE
  5
C93
330
1E
100
AcDbEntity
  8
0
100
AcDbCircle
 10
392.6282523013401
 20
479.8970643864207
 30
0.0
 40
6.5
  0
ARC
  5
C94
330
1E
100
AcDbEntity
  8
0
  6
CONTINUOUS
 62
     2
100
AcDbCircle
 10
392.6282523013401
 20
479.8970643864207
 30
0.0
 40
4.0
100
AcDbArc
 50
165.5461188433243
 51
122.2258188393757
  0
CIRCLE
  5
C95
330
1E
100
AcDbEntity
  8
0
  6
CONTINUOUS
100
AcDbCircle
 10
392.6282523013401
 20
479.8970643864207
 30
0.0
 40
3.399999999999999
  0
POLYLINE
  5
C96
330
1E
100
AcDbEntity
  8
0
  6
CONTINUOUS
100
AcDb2dPolyline
 66
     1
 10
0.0
 20
0.0
 30
0.0
 70
     1
  0
VERTEX
  5
180C
330
C96
100
AcDbEntity
  8
0
  6
CONTINUOUS
100
AcDbVertex
100
AcDb2dVertex
 10
394.9376533780986
 20
483.8970643864207
 30
0.0
  0
VERTEX
  5
180D
330
C96
100
AcDbEntity
  8
0
  6
CONTINUOUS
100
AcDbVertex
100
AcDb2dVertex
 10
397.2470544548571
 20
479.8970643864207
 30
0.0
  0
VERTEX
  5
180E
330
C96
100
AcDbEntity
  8
0
  6
CONTINUOUS
100
AcDbVertex
100
AcDb2dVertex
 10
394.9376533780986
 20
475.8970643864206
 30
0.0
  0
VERTEX
  5
180F
330
C96
100
AcDbEntity
  8
0
  6
CONTINUOUS
100
AcDbVertex
100
AcDb2dVertex
 10
390.3188512245816
 20
475.8970643864206
 30
0.0
  0
VERTEX
  5
1810
330
C96
100
AcDbEntity
  8
0
  6
CONTINUOUS
100
AcDbVertex
100
AcDb2dVertex
 10
388.0094501478231
 20
479.8970643864207
 30
0.0
  0
VERTEX
  5
1811
330
C96
100
AcDbEntity
  8
0
  6
CONTINUOUS
100
AcDbVertex
100
AcDb2dVertex
 10
390.3188512245816
 20
483.8970643864207
 30
0.0
  0
SEQEND
  5
1812
330
C96
100
AcDbEntity
  8
0
  6
CONTINUOUS
  0
ARC
  5
C9E
330
1E
100
AcDbEntity
  8
0
100
AcDbCircle
 10
392.6282523013401
 20
479.8970643864207
 30
0.0
 40
9.5
100
AcDbArc
 50
154.4169980226119
 51
210.5224878140703
  0
ARC
  5
C9F
330
1E
100
AcDbEntity
  8
0
100
AcDbCircle
 10
387.0416107839071
 20
470.4213355724617
 30
0.0
 40
1.5
100
AcDbArc
 50
59.47751218592943
 51
135.0000000000015
  0
ARC
  5
CA0
330
1E
100
AcDbEntity
  8
0
100
AcDbCircle
 10
383.1525234873812
 20
474.3104228689877
 30
0.0
 40
1.5
100
AcDbArc
 50
315.0
 51
30.52248781407057
  0
ARC
  5
CA1
330
1E
100
AcDbEntity
  8
0
100
AcDbCircle
 10
382.706684884848
 20
484.6470643864206
 30
0.0
 40
1.5
100
AcDbArc
 50
334.4169980225779
 51
90.0
  0
ARC
  5
CA2
330
1E
100
AcDbEntity
  8
0
100
AcDbCircle
 10
392.3782523013401
 20
479.6470643864206
 30
0.0
 40
9.5
100
AcDbArc
 50
0.0
 51
90.0
  0
ARC
  5
CA3
330
1E
100
AcDbEntity
  8
0
100
AcDbCircle
 10
392.3782523013401
 20
479.6470643864206
 30
0.0
 40
9.0
100
AcDbArc
 50
0.0
 51
90.0
  0
LINE
  5
CA4
330
1E
100
AcDbEntity
  8
CENTER
  6
CENTER
100
AcDbLine
 10
392.6282523013401
 20
487.3970643864206
 30
0.0
 11
392.6282523013401
 21
472.3970643864206
 31
0.0
  0
LINE
  5
CA5
330
1E
100
AcDbEntity
  8
0
100
AcDbLine
 10
401.8782523013402
 20
476.6470643864206
 30
0.0
 11
401.3782523013402
 21
476.6470643864206
 31
0.0
  0
ARC
  5
CA6
330
1E
100
AcDbEntity
  8
0
100
AcDbCircle
 10
475.0226501599201
 20
471.869446812112
 30
0.0
 40
2.280330085889911
100
AcDbArc
 50
87.20509125893915
 51
145.9250110952179
  0
LINE
  5
CA7
330
1E
100
AcDbEntity
  8
0
100
AcDbLine
 10
478.1338413727657
 20
474.1470643864208
 30
0.0
 11
475.1338413727657
 21
474.1470643864208
 31
0.0
  0
ARC
  5
CA8
330
1E
100
AcDbEntity
  8
0
  6
CONTINUOUS
100
AcDbCircle
 10
503.1338413727657
 20
460.6470643864208
 30
0.0
 40
3.5
100
AcDbArc
 50
158.2132107017386
 51
201.7867892982613
  0
ARC
  5
CA9
330
1E
100
AcDbEntity
  8
0
  6
CONTINUOUS
100
AcDbCircle
 10
503.1338413727657
 20
460.6470643864208
 30
0.0
 40
3.5
100
AcDbArc
 50
338.2132107017377
 51
21.78678929826224
  0
LINE
  5
CAA
330
1E
100
AcDbEntity
  8
CENTER
  6
CENTER
100
AcDbLine
 10
503.1338413727657
 20
467.1470643864207
 30
0.0
 11
503.1338413727657
 21
454.1470643864207
 31
0.0
  0
CIRCLE
  5
CAB
330
1E
100
AcDbEntity
  8
0
  6
CONTINUOUS
100
AcDbCircle
 10
503.1338413727657
 20
460.6470643864208
 30
0.0
 40
2.5
  0
CIRCLE
  5
CAC
330
1E
100
AcDbEntity
  8
0
100
AcDbCircle
 10
503.1338413727657
 20
460.6470643864208
 30
0.0
 40
5.0
  0
CIRCLE
  5
CAD
330
1E
100
AcDbEntity
  8
0
100
AcDbCircle
 10
503.1338413727657
 20
460.6470643864208
 30
0.0
 40
5.299999999999999
  0
POLYLINE
  5
CAE
330
1E
100
AcDbEntity
  8
0
  6
CONTINUOUS
100
AcDb2dPolyline
 66
     1
 10
0.0
 20
0.0
 30
0.0
 70
     1
  0
VERTEX
  5
1813
330
CAE
100
AcDbEntity
  8
0
  6
CONTINUOUS
100
AcDbVertex
100
AcDb2dVertex
 10
503.9998667765501
 20
459.1470643864207
 30
0.0
  0
VERTEX
  5
1814
330
CAE
100
AcDbEntity
  8
0
  6
CONTINUOUS
100
AcDbVertex
100
AcDb2dVertex
 10
504.8658921803345
 20
460.6470643864208
 30
0.0
  0
VERTEX
  5
1815
330
CAE
100
AcDbEntity
  8
0
  6
CONTINUOUS
100
AcDbVertex
100
AcDb2dVertex
 10
503.9998667765501
 20
462.1470643864207
 30
0.0
  0
VERTEX
  5
1816
330
CAE
100
AcDbEntity
  8
0
  6
CONTINUOUS
100
AcDbVertex
100
AcDb2dVertex
 10
502.2678159689812
 20
462.1470643864207
 30
0.0
  0
VERTEX
  5
1817
330
CAE
100
AcDbEntity
  8
0
  6
CONTINUOUS
100
AcDbVertex
100
AcDb2dVertex
 10
501.4017905651968
 20
460.6470643864208
 30
0.0
  0
VERTEX
  5
1818
330
CAE
100
AcDbEntity
  8
0
  6
CONTINUOUS
100
AcDbVertex
100
AcDb2dVertex
 10
502.2678159689812
 20
459.1470643864207
 30
0.0
  0
SEQEND
  5
1819
330
CAE
100
AcDbEntity
  8
0
  6
CONTINUOUS
  0
LINE
  5
CB6
330
1E
100
AcDbEntity
  8
0
  6
CONTINUOUS
100
AcDbLine
 10
499.8838413727656
 20
459.3480262807441
 30
0.0
 11
498.575419387862
 21
458.5926084955464
 31
0.0
  0
LINE
  5
CB7
330
1E
100
AcDbEntity
  8
0
  6
CONTINUOUS
100
AcDbLine
 10
500.3838413727656
 20
458.4820008769596
 30
0.0
 11
499.0754193878621
 21
457.7265830917619
 31
0.0
  0
LINE
  5
CB8
330
1E
100
AcDbEntity
  8
0
  6
CONTINUOUS
100
AcDbLine
 10
502.6338413727656
 20
455.6721272008876
 30
0.0
 11
502.6338413727656
 21
457.1829627712829
 31
0.0
  0
ARC
  5
CB9
330
1E
100
AcDbEntity
  8
0
  6
CONTINUOUS
100
AcDbCircle
 10
503.1338413727657
 20
460.6470643864208
 30
0.0
 40
3.5
100
AcDbArc
 50
218.2132107017383
 51
261.7867892982618
  0
LINE
  5
CBA
330
1E
100
AcDbEntity
  8
0
  6
CONTINUOUS
100
AcDbLine
 10
503.6338413727657
 20
455.6721272008876
 30
0.0
 11
503.6338413727657
 21
457.1829627712829
 31
0.0
  0
LINE
  5
CBB
330
1E
100
AcDbEntity
  8
0
  6
CONTINUOUS
100
AcDbLine
 10
506.3838413727657
 20
459.3480262807441
 30
0.0
 11
507.6922633576692
 21
458.5926084955464
 31
0.0
  0
ARC
  5
CBC
330
1E
100
AcDbEntity
  8
0
  6
CONTINUOUS
100
AcDbCircle
 10
503.1338413727657
 20
460.6470643864208
 30
0.0
 40
3.5
100
AcDbArc
 50
278.2132107017381
 51
321.7867892982624
  0
LINE
  5
CBD
330
1E
100
AcDbEntity
  8
0
  6
CONTINUOUS
100
AcDbLine
 10
505.8838413727657
 20
458.4820008769596
 30
0.0
 11
507.1922633576693
 21
457.7265830917619
 31
0.0
  0
LINE
  5
CBE
330
1E
100
AcDbEntity
  8
CENTER
  6
CENTER
100
AcDbLine
 10
509.633841372766
 20
460.6470643864208
 30
0.0
 11
496.6338413727657
 21
460.6470643864208
 31
0.0
  0
LINE
  5
CBF
330
1E
100
AcDbEntity
  8
0
  6
CONTINUOUS
100
AcDbLine
 10
498.575419387862
 20
462.7015202772951
 30
0.0
 11
499.8838413727656
 21
461.9461024920974
 31
0.0
  0
LINE
  5
CC0
330
1E
100
AcDbEntity
  8
0
  6
CONTINUOUS
100
AcDbLine
 10
499.0754193878621
 20
463.5675456810795
 30
0.0
 11
500.3838413727656
 21
462.8121278958818
 31
0.0
  0
LINE
  5
CC1
330
1E
100
AcDbEntity
  8
0
  6
CONTINUOUS
100
AcDbLine
 10
502.6338413727656
 20
464.1111660015585
 30
0.0
 11
502.6338413727656
 21
465.6220015719538
 31
0.0
  0
ARC
  5
CC2
330
1E
100
AcDbEntity
  8
0
  6
CONTINUOUS
100
AcDbCircle
 10
503.1338413727657
 20
460.6470643864208
 30
0.0
 40
3.5
100
AcDbArc
 50
98.21321070173823
 51
141.7867892982616
  0
ARC
  5
CC3
330
1E
100
AcDbEntity
  8
0
  6
CONTINUOUS
100
AcDbCircle
 10
503.1338413727657
 20
460.6470643864208
 30
0.0
 40
3.5
100
AcDbArc
 50
38.21321070173831
 51
81.78678929826176
  0
LINE
  5
CC4
330
1E
100
AcDbEntity
  8
0
  6
CONTINUOUS
100
AcDbLine
 10
507.1922633576693
 20
463.5675456810795
 30
0.0
 11
505.8838413727657
 21
462.8121278958818
 31
0.0
  0
LINE
  5
CC5
330
1E
100
AcDbEntity
  8
0
  6
CONTINUOUS
100
AcDbLine
 10
503.6338413727657
 20
464.1111660015585
 30
0.0
 11
503.6338413727657
 21
465.6220015719538
 31
0.0
  0
LINE
  5
CC6
330
1E
100
AcDbEntity
  8
0
  6
CONTINUOUS
100
AcDbLine
 10
507.6922633576692
 20
462.7015202772951
 30
0.0
 11
506.3838413727657
 21
461.9461024920974
 31
0.0
  0
LINE
  5
CC7
330
1E
100
AcDbEntity
  8
HIDDEN
  6
HIDDEN
100
AcDbLine
 10
478.1338413727658
 20
599.5919640600154
 30
0.0
 11
496.1338413727657
 21
599.5919640600154
 31
0.0
  0
LINE
  5
CC8
330
1E
100
AcDbEntity
  8
HIDDEN
  6
HIDDEN
100
AcDbLine
 10
478.1338413727657
 20
607.5919640600154
 30
0.0
 11
496.1338413727657
 21
607.5919640600154
 31
0.0
  0
LINE
  5
CC9
330
1E
100
AcDbEntity
  8
0
100
AcDbLine
 10
510.1338413727656
 20
594.3419640600154
 30
0.0
 11
478.1338413727657
 21
594.8419640600154
 31
0.0
  0
LINE
  5
CCA
330
1E
100
AcDbEntity
  8
CENTER
  6
CENTER
100
AcDbLine
 10
510.1338413727658
 20
603.5919640600152
 30
0.0
 11
475.1338413727657
 21
603.5919640600152
 31
0.0
  0
LINE
  5
CCB
330
1E
100
AcDbEntity
  8
0
100
AcDbLine
 10
478.1338413727657
 20
609.3419640600152
 30
0.0
 11
474.1338413727657
 21
609.3419640600152
 31
0.0
  0
ARC
  5
CCC
330
1E
100
AcDbEntity
  8
0
100
AcDbCircle
 10
474.1338413727657
 20
610.3419640600152
 30
0.0
 40
1.0
100
AcDbArc
 50
180.0
 51
270.0
  0
LINE
  5
CCD
330
1E
100
AcDbEntity
  8
HIDDEN
  6
HIDDEN
100
AcDbLine
 10
484.1338413727657
 20
599.5919640600154
 30
0.0
 11
484.1338413727657
 21
607.5919640600154
 31
0.0
  0
LINE
  5
CCE
330
1E
100
AcDbEntity
  8
HIDDEN
  6
HIDDEN
100
AcDbLine
 10
499.1338413727658
 20
606.9919640600153
 30
0.0
 11
501.0968322880105
 21
603.5919640600154
 31
0.0
  0
LINE
  5
CCF
330
1E
100
AcDbEntity
  8
HIDDEN
  6
HIDDEN
100
AcDbLine
 10
499.1338413727658
 20
600.1919640600154
 30
0.0
 11
499.1338413727658
 21
606.9919640600153
 31
0.0
  0
LINE
  5
CD0
330
1E
100
AcDbEntity
  8
HIDDEN
  6
HIDDEN
100
AcDbLine
 10
496.1338413727657
 20
599.5919640600154
 30
0.0
 11
496.1338413727657
 21
607.5919640600154
 31
0.0
  0
LINE
  5
CD1
330
1E
100
AcDbEntity
  8
CENTER
  6
CENTER
100
AcDbLine
 10
494.1338413727659
 20
591.5876333765579
 30
0.0
 11
494.1338413727657
 21
611.3620578803212
 31
0.0
  0
LINE
  5
CD2
330
1E
100
AcDbEntity
  8
HIDDEN
  6
HIDDEN
100
AcDbLine
 10
484.1338413727657
 20
600.1919640600154
 30
0.0
 11
499.1338413727658
 21
600.1919640600154
 31
0.0
  0
LINE
  5
CD3
330
1E
100
AcDbEntity
  8
CENTER
  6
CENTER
100
AcDbLine
 10
503.1338413727657
 20
591.8094951692268
 30
0.0
 11
503.1338413727657
 21
611.5544742242125
 31
0.0
  0
LINE
  5
CD4
330
1E
100
AcDbEntity
  8
HIDDEN
  6
HIDDEN
100
AcDbLine
 10
499.1338413727658
 20
600.1919640600154
 30
0.0
 11
501.0968322880105
 21
603.5919640600154
 31
0.0
  0
LINE
  5
CD5
330
1E
100
AcDbEntity
  8
HIDDEN
  6
HIDDEN
100
AcDbLine
 10
484.1338413727657
 20
606.9919640600153
 30
0.0
 11
499.1338413727658
 21
606.9919640600153
 31
0.0
  0
LINE
  5
CD6
330
1E
100
AcDbEntity
  8
DIM
  6
CONTINUOUS
100
AcDbLine
 10
651.6338413727655
 20
540.1470643864207
 30
0.0
 11
651.6338413727655
 21
559.1470643864207
 31
0.0
  0
SOLID
  5
CD7
330
1E
100
AcDbEntity
  8
DIM
  6
CONTINUOUS
100
AcDbTrace
 10
605.1338413727656
 20
539.1470643864208
 30
0.0
 11
606.1338413727656
 21
539.1470643864208
 31
0.0
 12
605.6338413727656
 22
542.1470643864207
 32
0.0
 13
605.6338413727656
 23
542.1470643864207
 33
0.0
  0
LINE
  5
CD8
330
1E
100
AcDbEntity
  8
0
100
AcDbLine
 10
654.6338413727656
 20
541.1470643864207
 30
0.0
 11
654.6338413727656
 21
500.1470643864207
 31
0.0
  0
LINE
  5
CD9
330
1E
100
AcDbEntity
  8
DIM
  6
CONTINUOUS
100
AcDbLine
 10
625.6403680003493
 20
499.1470643864207
 30
0.0
 11
604.6338413727656
 21
499.1470643864207
 31
0.0
  0
LINE
  5
CDA
330
1E
100
AcDbEntity
  8
DIM
  6
CONTINUOUS
100
AcDbLine
 10
650.6338413727656
 20
500.1470643864207
 30
0.0
 11
604.6338413727657
 21
500.1470643864207
 31
0.0
  0
TEXT
  5
CDB
330
1E
100
AcDbEntity
  8
DIM
  6
CONTINUOUS
100
AcDbText
 10
612.1338413727657
 20
518.7899215292778
 30
0.0
 40
3.0
  1
36
 50
90.0
  7
ROMANSS
 72
     1
 11
610.6338413727656
 21
521.1470643864207
 31
0.0
100
AcDbText
 73
     2
  0
LINE
  5
CDC
330
1E
100
AcDbEntity
  8
DIM
  6
CONTINUOUS
100
AcDbLine
 10
605.6338413727656
 20
539.1470643864208
 30
0.0
 11
605.6338413727656
 21
492.0878873225805
 31
0.0
  0
TEXT
  5
CDD
330
1E
100
AcDbEntity
  8
DIM
  6
CONTINUOUS
100
AcDbText
 10
604.1338413727657
 20
493.308275395958
 30
0.0
 40
3.0
  1
1
 50
90.0
  7
ROMANSS
 72
     1
 11
602.6338413727657
 21
493.6654182531008
 31
0.0
100
AcDbText
 73
     2
  0
SOLID
  5
CDE
330
1E
100
AcDbEntity
  8
DIM
  6
CONTINUOUS
100
AcDbTrace
 10
605.1338413727656
 20
496.1470643864207
 30
0.0
 11
606.1338413727655
 21
496.1470643864207
 31
0.0
 12
605.6338413727655
 22
499.1470643864207
 32
0.0
 13
605.6338413727655
 23
499.1470643864207
 33
0.0
  0
SOLID
  5
CDF
330
1E
100
AcDbEntity
  8
DIM
  6
CONTINUOUS
100
AcDbTrace
 10
605.1338413727656
 20
503.1470643864207
 30
0.0
 11
606.1338413727656
 21
503.1470643864207
 31
0.0
 12
605.6338413727656
 22
500.1470643864207
 32
0.0
 13
605.6338413727656
 23
500.1470643864207
 33
0.0
  0
TEXT
  5
CE0
330
1E
100
AcDbEntity
  8
DIM
  6
CONTINUOUS
100
AcDbText
 10
604.1338413727657
 20
518.7184929578493
 30
0.0
 40
3.0
  1
42
 50
90.0
  7
ROMANSS
 72
     1
 11
602.6338413727657
 21
521.1470643864207
 31
0.0
100
AcDbText
 73
     2
  0
LINE
  5
CE1
330
1E
100
AcDbEntity
  8
0
100
AcDbLine
 10
625.6338413727657
 20
498.1470643864208
 30
0.0
 11
625.6338413727657
 21
489.1470643864208
 31
0.0
  0
LINE
  5
CE2
330
1E
100
AcDbEntity
  8
CENTER
  6
CENTER
100
AcDbLine
 10
631.6338413727658
 20
491.4272457492034
 30
0.0
 11
631.6338413727658
 21
473.7436959359816
 31
0.0
  0
POLYLINE
  5
CE3
330
1E
100
AcDbEntity
  8
0
  6
CONTINUOUS
100
AcDb2dPolyline
 66
     1
 10
0.0
 20
0.0
 30
0.0
 70
     1
 40
1.0
 41
1.0
  0
VERTEX
  5
181A
330
CE3
100
AcDbEntity
  8
0
  6
CONTINUOUS
100
AcDbVertex
100
AcDb2dVertex
 10
667.1338413727657
 20
451.6470643864208
 30
0.0
 42
1.0
  0
VERTEX
  5
181B
330
CE3
100
AcDbEntity
  8
0
  6
CONTINUOUS
100
AcDbVertex
100
AcDb2dVertex
 10
666.1338413727657
 20
451.6470643864208
 30
0.0
 42
1.0
  0
SEQEND
  5
181C
330
CE3
100
AcDbEntity
  8
0
  6
CONTINUOUS
  0
LINE
  5
CE7
330
1E
100
AcDbEntity
  8
DIM
  6
CONTINUOUS
100
AcDbLine
 10
650.6338413727656
 20
503.1470643864207
 30
0.0
 11
612.6338413727657
 21
503.1470643864207
 31
0.0
  0
LINE
  5
CE8
330
1E
100
AcDbEntity
  8
DIM
  6
CONTINUOUS
100
AcDbLine
 10
650.6338413727656
 20
539.1470643864208
 30
0.0
 11
612.6338413727657
 21
539.1470643864208
 31
0.0
  0
LINE
  5
CE9
330
1E
100
AcDbEntity
  8
DIM
  6
CONTINUOUS
100
AcDbLine
 10
613.6338413727656
 20
536.1470643864207
 30
0.0
 11
613.6338413727656
 21
506.1470643864208
 31
0.0
  0
LINE
  5
CEA
330
1E
100
AcDbEntity
  8
0
  6
CONTINUOUS
100
AcDbLine
 10
626.6338413727658
 20
499.1470643864207
 30
0.0
 11
625.6338413727657
 21
498.1470643864208
 31
0.0
  0
SOLID
  5
CEB
330
1E
100
AcDbEntity
  8
DIM
  6
CONTINUOUS
100
AcDbTrace
 10
613.1338413727656
 20
506.1470643864208
 30
0.0
 11
614.1338413727656
 21
506.1470643864208
 31
0.0
 12
613.6338413727656
 22
503.1470643864207
 32
0.0
 13
613.6338413727656
 23
503.1470643864207
 33
0.0
  0
SOLID
  5
CEC
330
1E
100
AcDbEntity
  8
DIM
  6
CONTINUOUS
100
AcDbTrace
 10
613.1338413727656
 20
536.1470643864207
 30
0.0
 11
614.1338413727656
 21
536.1470643864207
 31
0.0
 12
613.6338413727656
 22
539.1470643864208
 32
0.0
 13
613.6338413727656
 23
539.1470643864208
 33
0.0
  0
LINE
  5
CED
330
1E
100
AcDbEntity
  8
0
100
AcDbLine
 10
651.6338413727655
 20
539.1470643864208
 30
0.0
 11
651.6338413727655
 21
503.1470643864207
 31
0.0
  0
LINE
  5
CEE
330
1E
100
AcDbEntity
  8
0
  6
CONTINUOUS
100
AcDbLine
 10
651.6338413727655
 20
503.1470643864207
 30
0.0
 11
654.6338413727656
 21
503.1470643864207
 31
0.0
  0
LINE
  5
CEF
330
1E
100
AcDbEntity
  8
0
100
AcDbLine
 10
651.6338413727656
 20
500.1470643864207
 30
0.0
 11
651.6338413727655
 21
499.1470643864207
 31
0.0
  0
LINE
  5
CF0
330
1E
100
AcDbEntity
  8
0
  6
CONTINUOUS
100
AcDbLine
 10
651.6338413727655
 20
539.1470643864208
 30
0.0
 11
654.6338413727657
 21
539.1470643864208
 31
0.0
  0
LINE
  5
CF1
330
1E
100
AcDbEntity
  8
DIM
  6
CONTINUOUS
100
AcDbLine
 10
654.6338413727656
 20
542.1470643864207
 30
0.0
 11
604.6338413727657
 21
542.1470643864207
 31
0.0
  0
LINE
  5
CF2
330
1E
100
AcDbEntity
  8
CENTER
  6
CENTER
100
AcDbLine
 10
645.1338413727658
 20
607.1683319947135
 30
0.0
 11
645.1338413727658
 21
582.5735235891634
 31
0.0
  0
ARC
  5
CF3
330
1E
100
AcDbEntity
  8
0
  6
CONTINUOUS
100
AcDbCircle
 10
645.1398811635631
 20
579.3419652759844
 30
0.0
 40
14.99999999999999
100
AcDbArc
 50
90.0230703022988
 51
109.495692233054
  0
LINE
  5
CF4
330
1E
100
AcDbEntity
  8
0
  6
CONTINUOUS
100
AcDbLine
 10
648.6338413727635
 20
586.3419640600152
 30
0.0
 11
641.6338413727634
 21
586.3419640600152
 31
0.0
  0
ARC
  5
CF5
330
1E
100
AcDbEntity
  8
0
  6
CONTINUOUS
100
AcDbCircle
 10
645.1398811636184
 20
604.341962844046
 30
0.0
 40
14.99999999999999
100
AcDbArc
 50
250.5043077669463
 51
269.9769296977015
  0
LINE
  5
CF6
330
1E
100
AcDbEntity
  8
0
  6
CONTINUOUS
100
AcDbLine
 10
653.3838413727635
 20
589.3419640600152
 30
0.0
 11
636.8838413727634
 21
589.3419640600152
 31
0.0
  0
LINE
  5
CF7
330
1E
100
AcDbEntity
  8
0
  6
CONTINUOUS
100
AcDbLine
 10
650.1338413727635
 20
587.8419640600152
 30
0.0
 11
640.1338413727634
 21
587.8419640600152
 31
0.0
  0
LINE
  5
CF8
330
1E
100
AcDbEntity
  8
0
  6
CONTINUOUS
100
AcDbLine
 10
635.3338413727088
 20
593.4470448914237
 30
0.0
 11
636.8838413727082
 21
594.3419640600152
 31
0.0
  0
ARC
  5
CF9
330
1E
100
AcDbEntity
  8
0
  6
CONTINUOUS
100
AcDbCircle
 10
637.8273821592107
 20
590.8201859766252
 30
0.0
 40
3.522047226932054
100
AcDbArc
 50
49.09072006652904
 51
119.2051441578367
  0
LINE
  5
CFA
330
1E
100
AcDbEntity
  8
0
  6
CONTINUOUS
100
AcDbLine
 10
640.1338413727635
 20
587.8419640600152
 30
0.0
 11
641.6338413727635
 21
586.3419640600152
 31
0.0
  0
LINE
  5
CFB
330
1E
100
AcDbEntity
  8
0
  6
CONTINUOUS
100
AcDbLine
 10
640.1338413727635
 20
589.3419640600152
 30
0.0
 11
640.1338413727635
 21
587.8419640600152
 31
0.0
  0
ARC
  5
CFC
330
1E
100
AcDbEntity
  8
0
  6
CONTINUOUS
100
AcDbCircle
 10
637.8273821592661
 20
592.8637421434054
 30
0.0
 40
3.522047226932054
100
AcDbArc
 50
240.7948558421647
 51
310.9092799334683
  0
LINE
  5
CFD
330
1E
100
AcDbEntity
  8
0
  6
CONTINUOUS
100
AcDbLine
 10
635.3338413727642
 20
590.2368832286067
 30
0.0
 11
636.8838413727635
 21
589.3419640600152
 31
0.0
  0
LINE
  5
CFE
330
1E
100
AcDbEntity
  8
0
  6
CONTINUOUS
100
AcDbLine
 10
635.3338413727642
 20
593.4470448914558
 30
0.0
 11
635.3338413727642
 21
590.2368832286067
 31
0.0
  0
LINE
  5
CFF
330
1E
100
AcDbEntity
  8
0
  6
CONTINUOUS
 62
     2
100
AcDbLine
 10
641.1338413727635
 20
589.3419640600152
 30
0.0
 11
641.1338413727635
 21
586.8419640600152
 31
0.0
  0
LINE
  5
D00
330
1E
100
AcDbEntity
  8
0
  6
CONTINUOUS
100
AcDbLine
 10
640.1338413727635
 20
593.4819640600344
 30
0.0
 11
640.1338413727635
 21
590.2019640600157
 31
0.0
  0
SOLID
  5
D01
330
1E
100
AcDbEntity
  8
DIM
  6
CONTINUOUS
100
AcDbTrace
 10
657.6338413727655
 20
550.6470643864207
 30
0.0
 11
657.6338413727655
 21
549.6470643864207
 31
0.0
 12
654.6338413727656
 22
550.1470643864207
 32
0.0
 13
654.6338413727656
 23
550.1470643864207
 33
0.0
  0
LINE
  5
D02
330
1E
100
AcDbEntity
  8
DIM
  6
CONTINUOUS
100
AcDbLine
 10
654.6338413727656
 20
542.1470643864207
 30
0.0
 11
654.6338413727656
 21
551.1470643864207
 31
0.0
  0
LINE
  5
D03
330
1E
100
AcDbEntity
  8
0
  6
CONTINUOUS
100
AcDbLine
 10
655.6338413727655
 20
542.1470643864207
 30
0.0
 11
654.6338413727656
 21
541.1470643864207
 31
0.0
  0
SOLID
  5
D04
330
1E
100
AcDbEntity
  8
DIM
  6
CONTINUOUS
100
AcDbTrace
 10
654.6338413727656
 20
558.6470643864207
 30
0.0
 11
654.6338413727656
 21
557.6470643864207
 31
0.0
 12
651.6338413727655
 22
558.1470643864207
 32
0.0
 13
651.6338413727655
 23
558.1470643864207
 33
0.0
  0
TEXT
  5
D05
330
1E
100
AcDbEntity
  8
DIM
  6
CONTINUOUS
100
AcDbText
 10
660.1338413727655
 20
551.6470643864208
 30
0.0
 40
3.0
  1
%%c24h6
  7
ROMANSS
 72
     1
 11
666.6338413727656
 21
553.1470643864207
 31
0.0
100
AcDbText
 73
     2
  0
TEXT
  5
D06
330
1E
100
AcDbEntity
  8
DIM
  6
CONTINUOUS
100
AcDbText
 10
662.7052699441941
 20
559.6470643864207
 30
0.0
 40
3.0
  1
27
  7
ROMANSS
 72
     1
 11
665.1338413727655
 21
561.1470643864207
 31
0.0
100
AcDbText
 73
     2
  0
ARC
  5
D07
330
1E
100
AcDbEntity
  8
0
  6
CONTINUOUS
100
AcDbCircle
 10
652.4403005862056
 20
590.8201859766252
 30
0.0
 40
3.522047226932054
100
AcDbArc
 50
60.79485584216321
 51
130.9092799334709
  0
ARC
  5
D08
330
1E
100
AcDbEntity
  8
0
  6
CONTINUOUS
100
AcDbCircle
 10
652.4403005862609
 20
592.8637421434054
 30
0.0
 40
3.522047226932054
100
AcDbArc
 50
229.0907200665316
 51
299.2051441578352
  0
ARC
  5
D09
330
1E
100
AcDbEntity
  8
0
  6
CONTINUOUS
100
AcDbCircle
 10
645.1278015818531
 20
579.3419652759844
 30
0.0
 40
14.99999999999999
100
AcDbArc
 50
70.50430776694596
 51
89.97692969770119
  0
LINE
  5
D0A
330
1E
100
AcDbEntity
  8
0
  6
CONTINUOUS
100
AcDbLine
 10
650.1338413727635
 20
587.8419640600152
 30
0.0
 11
648.6338413727635
 21
586.3419640600152
 31
0.0
  0
LINE
  5
D0B
330
1E
100
AcDbEntity
  8
0
  6
CONTINUOUS
100
AcDbLine
 10
650.1338413727635
 20
589.3419640600152
 30
0.0
 11
650.1338413727635
 21
587.8419640600152
 31
0.0
  0
ARC
  5
D0C
330
1E
100
AcDbEntity
  8
0
  6
CONTINUOUS
100
AcDbCircle
 10
645.1278015819084
 20
604.341962844046
 30
0.0
 40
14.99999999999999
100
AcDbArc
 50
270.0230703022993
 51
289.4956922330544
  0
LINE
  5
D0D
330
1E
100
AcDbEntity
  8
0
  6
CONTINUOUS
 62
     2
100
AcDbLine
 10
649.1338413727635
 20
589.3419640600152
 30
0.0
 11
649.1338413727635
 21
586.8419640600152
 31
0.0
  0
LINE
  5
D0E
330
1E
100
AcDbEntity
  8
0
  6
CONTINUOUS
100
AcDbLine
 10
650.1338413727635
 20
593.481964059995
 30
0.0
 11
650.1338413727635
 21
590.2019640600157
 31
0.0
  0
LINE
  5
D0F
330
1E
100
AcDbEntity
  8
0
  6
CONTINUOUS
100
AcDbLine
 10
654.9338413727074
 20
593.4470448914237
 30
0.0
 11
653.3838413727082
 21
594.3419640600152
 31
0.0
  0
LINE
  5
D10
330
1E
100
AcDbEntity
  8
0
  6
CONTINUOUS
100
AcDbLine
 10
654.9338413727627
 20
590.2368832286067
 30
0.0
 11
653.3838413727635
 21
589.3419640600152
 31
0.0
  0
LINE
  5
D11
330
1E
100
AcDbEntity
  8
0
  6
CONTINUOUS
100
AcDbLine
 10
654.9338413727627
 20
593.4470448913919
 30
0.0
 11
654.9338413727627
 21
590.2368832286067
 31
0.0
  0
LINE
  5
D12
330
1E
100
AcDbEntity
  8
CENTER
  6
CENTER
100
AcDbLine
 10
631.6338413727658
 20
633.8419640600152
 30
0.0
 11
631.6338413727658
 21
619.8419640600152
 31
0.0
  0
CIRCLE
  5
D13
330
1E
100
AcDbEntity
  8
0
  6
CONTINUOUS
100
AcDbCircle
 10
631.6338413727658
 20
626.8419640600152
 30
0.0
 40
3.399999999999999
  0
ARC
  5
D14
330
1E
100
AcDbEntity
  8
0
  6
CONTINUOUS
 62
     2
100
AcDbCircle
 10
631.6338413727658
 20
626.8419640600152
 30
0.0
 40
4.0
100
AcDbArc
 50
65.67751702511931
 51
24.77142042572841
  0
LINE
  5
D15
330
1E
100
AcDbEntity
  8
CENTER
  6
CENTER
100
AcDbLine
 10
624.6338413727658
 20
626.8419640600152
 30
0.0
 11
638.6338413727657
 21
626.8419640600152
 31
0.0
  0
LINE
  5
D16
330
1E
100
AcDbEntity
  8
0
100
AcDbLine
 10
621.6338413727656
 20
666.8419640600152
 30
0.0
 11
510.1338413727658
 21
666.8419640600152
 31
0.0
  0
LINE
  5
D17
330
1E
100
AcDbEntity
  8
HIDDEN
  6
HIDDEN
100
AcDbLine
 10
478.1338413727657
 20
656.0919640600152
 30
0.0
 11
496.1338413727657
 21
656.0919640600152
 31
0.0
  0
LINE
  5
D18
330
1E
100
AcDbEntity
  8
HIDDEN
  6
HIDDEN
100
AcDbLine
 10
478.1338413727658
 20
664.0919640600152
 30
0.0
 11
496.1338413727657
 21
664.0919640600152
 31
0.0
  0
LINE
  5
D19
330
1E
100
AcDbEntity
  8
0
100
AcDbLine
 10
510.1338413727656
 20
669.3419640600154
 30
0.0
 11
478.1338413727657
 21
668.8419640600154
 31
0.0
  0
LINE
  5
D1A
330
1E
100
AcDbEntity
  8
CENTER
  6
CENTER
100
AcDbLine
 10
510.1338413727658
 20
660.0919640600152
 30
0.0
 11
475.1338413727657
 21
660.0919640600152
 31
0.0
  0
ARC
  5
D1B
330
1E
100
AcDbEntity
  8
0
100
AcDbCircle
 10
474.1338413727657
 20
653.3419640600152
 30
0.0
 40
1.0
100
AcDbArc
 50
90.0
 51
180.0
  0
LINE
  5
D1C
330
1E
100
AcDbEntity
  8
0
100
AcDbLine
 10
478.1338413727658
 20
654.3419640600152
 30
0.0
 11
474.1338413727657
 21
654.3419640600152
 31
0.0
  0
LINE
  5
D1D
330
1E
100
AcDbEntity
  8
HIDDEN
  6
HIDDEN
100
AcDbLine
 10
484.1338413727657
 20
663.4919640600153
 30
0.0
 11
499.1338413727658
 21
663.4919640600153
 31
0.0
  0
LINE
  5
D1E
330
1E
100
AcDbEntity
  8
HIDDEN
  6
HIDDEN
100
AcDbLine
 10
484.1338413727657
 20
656.6919640600153
 30
0.0
 11
499.1338413727658
 21
656.6919640600153
 31
0.0
  0
LINE
  5
D1F
330
1E
100
AcDbEntity
  8
HIDDEN
  6
HIDDEN
100
AcDbLine
 10
484.1338413727657
 20
664.0919640600152
 30
0.0
 11
484.1338413727657
 21
656.0919640600152
 31
0.0
  0
LINE
  5
D20
330
1E
100
AcDbEntity
  8
HIDDEN
  6
HIDDEN
100
AcDbLine
 10
499.1338413727658
 20
656.6919640600153
 30
0.0
 11
501.0968322880105
 21
660.0919640600152
 31
0.0
  0
LINE
  5
D21
330
1E
100
AcDbEntity
  8
HIDDEN
  6
HIDDEN
100
AcDbLine
 10
496.1338413727657
 20
664.0919640600152
 30
0.0
 11
496.1338413727657
 21
656.0919640600152
 31
0.0
  0
LINE
  5
D22
330
1E
100
AcDbEntity
  8
HIDDEN
  6
HIDDEN
100
AcDbLine
 10
499.1338413727658
 20
663.4919640600153
 30
0.0
 11
499.1338413727658
 21
656.6919640600153
 31
0.0
  0
LINE
  5
D23
330
1E
100
AcDbEntity
  8
HIDDEN
  6
HIDDEN
100
AcDbLine
 10
499.1338413727658
 20
663.4919640600153
 30
0.0
 11
501.0968322880105
 21
660.0919640600152
 31
0.0
  0
LINE
  5
D24
330
1E
100
AcDbEntity
  8
DIM
  6
CONTINUOUS
100
AcDbLine
 10
617.6338413727657
 20
661.8419640600152
 30
0.0
 11
597.9384301675338
 21
661.8419640600152
 31
0.0
  0
SOLID
  5
D25
330
1E
100
AcDbEntity
  8
DIM
  6
CONTINUOUS
100
AcDbTrace
 10
599.504781632452
 20
664.830148461652
 30
0.0
 11
598.5050271527363
 21
664.8523065366721
 31
0.0
 12
598.9384301675338
 22
661.8419640600152
 32
0.0
 13
598.9384301675338
 23
661.8419640600152
 33
0.0
  0
ARC
  5
D26
330
1E
100
AcDbEntity
  8
0
  6
CONTINUOUS
 62
     2
100
AcDbCircle
 10
631.6338413727658
 20
696.8419640600152
 30
0.0
 40
4.0
100
AcDbArc
 50
65.67751702511931
 51
24.77142042572841
  0
CIRCLE
  5
D27
330
1E
100
AcDbEntity
  8
0
  6
CONTINUOUS
100
AcDbCircle
 10
631.6338413727658
 20
696.8419640600152
 30
0.0
 40
3.399999999999999
  0
LINE
  5
D28
330
1E
100
AcDbEntity
  8
CENTER
  6
CENTER
100
AcDbLine
 10
631.6338413727658
 20
703.8419640600152
 30
0.0
 11
631.6338413727658
 21
689.8419640600153
 31
0.0
  0
CIRCLE
  5
D29
330
1E
100
AcDbEntity
  8
0
  6
CONTINUOUS
100
AcDbCircle
 10
642.9457642030163
 20
685.5300412297647
 30
0.0
 40
2.5
  0
ARC
  5
D2A
330
1E
100
AcDbEntity
  8
0
  6
CONTINUOUS
 62
     2
100
AcDbCircle
 10
642.9457642030163
 20
685.5300412297647
 30
0.0
 40
3.0
100
AcDbArc
 50
210.845012326004
 51
153.036401108983
  0
LINE
  5
D2B
330
1E
100
AcDbEntity
  8
CENTER
  6
CENTER
100
AcDbLine
 10
638.7031235158971
 20
689.772681916884
 30
0.0
 11
647.1884048901356
 21
681.2874005426453
 31
0.0
  0
TEXT
  5
D2C
330
1E
100
AcDbEntity
  8
DIM
  6
CONTINUOUS
100
AcDbText
 10
642.1338413727656
 20
669.9748440455705
 30
0.0
 40
3.0
  1
8
 50
90.0
  7
ROMANSS
 72
     1
 11
640.6338413727655
 21
670.9748440455705
 31
0.0
100
AcDbText
 73
     2
  0
LINE
  5
D2D
330
1E
100
AcDbEntity
  8
CENTER
  6
CENTER
100
AcDbLine
 10
624.6338413727658
 20
696.8419640600152
 30
0.0
 11
638.6338413727657
 21
696.8419640600152
 31
0.0
  0
LINE
  5
D2E
330
1E
100
AcDbEntity
  8
DIM
  6
CONTINUOUS
100
AcDbLine
 10
643.6338413727655
 20
653.4552295809092
 30
0.0
 11
643.6338413727655
 21
672.9354676371313
 31
0.0
  0
LINE
  5
D2F
330
1E
100
AcDbEntity
  8
0
100
AcDbLine
 10
651.6338413727655
 20
665.8419640600152
 30
0.0
 11
651.6338413727655
 21
657.8419640600152
 31
0.0
  0
SOLID
  5
D30
330
1E
100
AcDbEntity
  8
DIM
  6
CONTINUOUS
100
AcDbTrace
 10
643.1338413727655
 20
654.8419640600152
 30
0.0
 11
644.1338413727655
 21
654.8419640600152
 31
0.0
 12
643.6338413727655
 22
657.8419640600152
 32
0.0
 13
643.6338413727655
 23
657.8419640600152
 33
0.0
  0
LINE
  5
D31
330
1E
100
AcDbEntity
  8
DIM
  6
CONTINUOUS
100
AcDbLine
 10
650.6338413727656
 20
657.8419640600152
 30
0.0
 11
642.6338413727656
 21
657.8419640600152
 31
0.0
  0
LINE
  5
D32
330
1E
100
AcDbEntity
  8
0
100
AcDbLine
 10
651.6338413727655
 20
657.8419640600152
 30
0.0
 11
655.3201328737809
 21
657.8419640600152
 31
0.0
  0
SOLID
  5
D33
330
1E
100
AcDbEntity
  8
DIM
  6
CONTINUOUS
100
AcDbTrace
 10
643.1338413727655
 20
668.8419640600152
 30
0.0
 11
644.1338413727655
 21
668.8419640600152
 31
0.0
 12
643.6338413727655
 22
665.8419640600152
 32
0.0
 13
643.6338413727655
 23
665.8419640600152
 33
0.0
  0
LINE
  5
D34
330
1E
100
AcDbEntity
  8
DIM
  6
CONTINUOUS
100
AcDbLine
 10
650.6338413727656
 20
665.8419640600152
 30
0.0
 11
642.6338413727656
 21
665.8419640600152
 31
0.0
  0
LINE
  5
D35
330
1E
100
AcDbEntity
  8
0
100
AcDbLine
 10
651.6338413727655
 20
665.8419640600152
 30
0.0
 11
655.3201328737809
 21
665.8419640600152
 31
0.0
  0
CIRCLE
  5
D36
330
1E
100
AcDbEntity
  8
0
  6
CONTINUOUS
100
AcDbCircle
 10
666.6338413727658
 20
661.8419640600152
 30
0.0
 40
3.399999999999999
  0
ARC
  5
D37
330
1E
100
AcDbEntity
  8
0
  6
CONTINUOUS
 62
     2
100
AcDbCircle
 10
666.6338413727658
 20
661.8419640600152
 30
0.0
 40
4.0
100
AcDbArc
 50
155.6775170251192
 51
114.7714204257284
  0
SOLID
  5
D38
330
1E
100
AcDbEntity
  8
DIM
  6
CONTINUOUS
100
AcDbTrace
 10
673.5518474806556
 20
663.1517188784417
 30
0.0
 11
673.2194499151719
 21
664.0948582416645
 31
0.0
 12
670.5562306082449
 22
662.6260958636021
 32
0.0
 13
670.5562306082449
 23
662.6260958636021
 33
0.0
  0
LINE
  5
D39
330
1E
100
AcDbEntity
  8
DIM
  6
CONTINUOUS
100
AcDbLine
 10
631.6338413727658
 20
704.8419640600152
 30
0.0
 11
631.6338413727658
 21
713.3419640600155
 31
0.0
  0
SOLID
  5
D3A
330
1E
100
AcDbEntity
  8
DIM
  6
CONTINUOUS
100
AcDbTrace
 10
634.6338413727657
 20
712.8419640600155
 30
0.0
 11
634.6338413727657
 21
711.8419640600154
 31
0.0
 12
631.6338413727658
 22
712.3419640600154
 32
0.0
 13
631.6338413727658
 23
712.3419640600154
 33
0.0
  0
TEXT
  5
D3B
330
1E
100
AcDbEntity
  8
DIM
  6
CONTINUOUS
100
AcDbText
 10
664.2052699441943
 20
713.8419640600154
 30
0.0
 40
3.0
  1
70
  7
ROMANSS
 72
     1
 11
666.6338413727658
 21
715.3419640600154
 31
0.0
100
AcDbText
 73
     2
  0
TEXT
  5
D3C
330
1E
100
AcDbEntity
  8
DIM
  6
CONTINUOUS
100
AcDbText
 10
913.8894304441912
 20
447.0756358149921
 30
0.0
 40
3.0
  1
56.5
 50
90.0
  7
ROMANSS
 72
     1
 11
912.3894304441913
 21
451.6470643864206
 31
0.0
100
AcDbText
 73
     2
  0
LINE
  5
D3D
330
1E
100
AcDbEntity
  8
DIM
  6
CONTINUOUS
100
AcDbLine
 10
915.3894304441912
 20
426.3970643864206
 30
0.0
 11
915.3894304441912
 21
476.8970643864206
 31
0.0
  0
LINE
  5
D3E
330
1E
100
AcDbEntity
  8
DIM
  6
CONTINUOUS
100
AcDbLine
 10
1057.389430444191
 20
407.1470643864206
 30
0.0
 11
1057.389430444191
 21
539.1470643864208
 31
0.0
  0
LINE
  5
D3F
330
1E
100
AcDbEntity
  8
DIM
  6
CONTINUOUS
100
AcDbLine
 10
1049.389430444191
 20
397.1798360253506
 30
0.0
 11
1049.389430444191
 21
506.7586997463548
 31
0.0
  0
TEXT
  5
D40
330
1E
100
AcDbEntity
  8
DIM
  6
CONTINUOUS
100
AcDbText
 10
866.6338413727658
 20
447.8613501007065
 30
0.0
 40
3.0
  1
%%c45
 50
90.0
  7
ROMANSS
 72
     1
 11
865.1338413727657
 21
451.6470643864208
 31
0.0
100
AcDbText
 73
     2
  0
LINE
  5
D41
330
1E
100
AcDbEntity
  8
DIM
  6
CONTINUOUS
100
AcDbLine
 10
868.1338413727658
 20
432.1470643864207
 30
0.0
 11
868.1338413727658
 21
471.1470643864207
 31
0.0
  0
LINE
  5
D42
330
1E
100
AcDbEntity
  8
CENTER
  6
CENTER
100
AcDbLine
 10
998.8894304441911
 20
546.5872736649621
 30
0.0
 11
998.8894304441911
 21
401.1470643864205
 31
0.0
  0
LINE
  5
D43
330
1E
100
AcDbEntity
  8
0
100
AcDbLine
 10
1041.389430444191
 20
489.1470643864208
 30
0.0
 11
1041.389430444191
 21
414.1470643864206
 31
0.0
  0
LINE
  5
D44
330
1E
100
AcDbEntity
  8
0
100
AcDbLine
 10
931.3894304441912
 20
489.1470643864208
 30
0.0
 11
931.3894304441912
 21
414.1470643864206
 31
0.0
  0
LINE
  5
D45
330
1E
100
AcDbEntity
  8
0
100
AcDbLine
 10
711.6338413727658
 20
489.1470643864208
 30
0.0
 11
711.6338413727658
 21
414.1470643864208
 31
0.0
  0
LINE
  5
D46
330
1E
100
AcDbEntity
  8
0
100
AcDbLine
 10
1005.889430444191
 20
479.6470643864206
 30
0.0
 11
1005.889430444191
 21
423.6470643864207
 31
0.0
  0
LINE
  5
D47
330
1E
100
AcDbEntity
  8
0
100
AcDbLine
 10
1006.389430444191
 20
479.6470643864206
 30
0.0
 11
1006.389430444191
 21
423.6470643864207
 31
0.0
  0
LINE
  5
D48
330
1E
100
AcDbEntity
  8
0
100
AcDbLine
 10
1003.389430444191
 20
449.1470643864205
 30
0.0
 11
1003.389430444191
 21
433.3186318029127
 31
0.0
  0
LINE
  5
D49
330
1E
100
AcDbEntity
  8
0
100
AcDbLine
 10
931.8894304441911
 20
479.6470643864206
 30
0.0
 11
931.8894304441911
 21
423.6470643864207
 31
0.0
  0
LINE
  5
D4A
330
1E
100
AcDbEntity
  8
0
100
AcDbLine
 10
931.3894304441912
 20
479.6470643864206
 30
0.0
 11
931.3894304441912
 21
423.6470643864207
 31
0.0
  0
LINE
  5
D4B
330
1E
100
AcDbEntity
  8
0
100
AcDbLine
 10
934.3894304441912
 20
449.1470643864206
 30
0.0
 11
934.3894304441912
 21
433.3186318029127
 31
0.0
  0
CIRCLE
  5
D4C
330
1E
100
AcDbEntity
  8
0
100
AcDbCircle
 10
968.8894304441912
 20
451.6470643864206
 30
0.0
 40
22.49999999999998
  0
CIRCLE
  5
D4D
330
1E
100
AcDbEntity
  8
0
100
AcDbCircle
 10
968.8894304441912
 20
451.6470643864206
 30
0.0
 40
22.99999999999998
  0
LINE
  5
D4E
330
1E
100
AcDbEntity
  8
CENTER
  6
CENTER
100
AcDbLine
 10
830.1338413727657
 20
436.1470643864207
 30
0.0
 11
830.1338413727657
 21
449.1470643864207
 31
0.0
  0
LINE
  5
D4F
330
1E
100
AcDbEntity
  8
CENTER
  6
CENTER
100
AcDbLine
 10
839.1338413727655
 20
446.1470643864207
 30
0.0
 11
839.1338413727657
 21
471.1470643864207
 31
0.0
  0
CIRCLE
  5
D50
330
1E
100
AcDbEntity
  8
0
100
AcDbCircle
 10
839.1338413727657
 20
458.6470643864207
 30
0.0
 40
11.5
  0
LINE
  5
D51
330
1E
100
AcDbEntity
  8
0
100
AcDbLine
 10
823.1338413727655
 20
489.1470643864208
 30
0.0
 11
823.1338413727657
 21
414.1470643864208
 31
0.0
  0
LINE
  5
D52
330
1E
100
AcDbEntity
  8
0
100
AcDbLine
 10
860.1338413727658
 20
473.1470643864208
 30
0.0
 11
860.1338413727658
 21
430.1470643864207
 31
0.0
  0
LINE
  5
D53
330
1E
100
AcDbEntity
  8
0
100
AcDbLine
 10
855.1338413727656
 20
488.6470643864207
 30
0.0
 11
855.1338413727657
 21
414.6470643864208
 31
0.0
  0
LINE
  5
D54
330
1E
100
AcDbEntity
  8
0
100
AcDbLine
 10
823.1338413727655
 20
486.6470643864207
 30
0.0
 11
823.1338413727655
 21
416.6470643864208
 31
0.0
  0
LINE
  5
D55
330
1E
100
AcDbEntity
  8
CENTER
  6
CENTER
100
AcDbLine
 10
968.8894304441912
 20
492.1470643864206
 30
0.0
 11
968.8894304441912
 21
411.1470643864207
 31
0.0
  0
LINE
  5
D56
330
1E
100
AcDbEntity
  8
DIM
  6
CONTINUOUS
100
AcDbLine
 10
934.3894304441912
 20
388.1470643864208
 30
0.0
 11
1003.389430444191
 21
388.1470643864208
 31
0.0
  0
LINE
  5
D57
330
1E
100
AcDbEntity
  8
DIM
  6
CONTINUOUS
100
AcDbLine
 10
934.3894304441912
 20
380.1470643864207
 30
0.0
 11
1038.389430444191
 21
380.1470643864207
 31
0.0
  0
LINE
  5
D58
330
1E
100
AcDbEntity
  8
0
  6
CONTINUOUS
100
AcDbLine
 10
931.3894304441912
 20
414.1470643864206
 30
0.0
 11
1041.389430444191
 21
414.1470643864206
 31
0.0
  0
LINE
  5
D59
330
1E
100
AcDbEntity
  8
0
  6
CONTINUOUS
100
AcDbLine
 10
957.8894304441913
 20
405.1470643864205
 30
0.0
 11
1039.889430444191
 21
405.1470643864205
 31
0.0
  0
LINE
  5
D5A
330
1E
100
AcDbEntity
  8
0
  6
CONTINUOUS
100
AcDbLine
 10
958.8894304441913
 20
404.1470643864205
 30
0.0
 11
1038.889430444191
 21
404.1470643864205
 31
0.0
  0
LINE
  5
D5B
330
1E
100
AcDbEntity
  8
0
100
AcDbLine
 10
971.3894304441913
 20
417.1470643864206
 30
0.0
 11
987.2178630276991
 21
417.1470643864207
 31
0.0
  0
LINE
  5
D5C
330
1E
100
AcDbEntity
  8
0
100
AcDbLine
 10
940.8894304441913
 20
414.6470643864206
 30
0.0
 11
996.8894304441912
 21
414.6470643864206
 31
0.0
  0
LINE
  5
D5D
330
1E
100
AcDbEntity
  8
0
100
AcDbLine
 10
711.6338413727658
 20
228.3780460437869
 30
0.0
 11
711.6338413727658
 21
338.3780460437871
 31
0.0
  0
LINE
  5
D5E
330
1E
100
AcDbEntity
  8
CENTER
  6
CENTER
100
AcDbLine
 10
694.6338413727658
 20
235.878046043787
 30
0.0
 11
708.6338413727657
 21
235.878046043787
 31
0.0
  0
LINE
  5
D5F
330
1E
100
AcDbEntity
  8
CENTER
  6
CENTER
100
AcDbLine
 10
701.6338413727658
 20
228.878046043787
 30
0.0
 11
701.6338413727658
 21
242.8780460437871
 31
0.0
  0
ARC
  5
D60
330
1E
100
AcDbEntity
  8
0
  6
CONTINUOUS
 62
     2
100
AcDbCircle
 10
701.6338413727658
 20
235.878046043787
 30
0.0
 40
4.0
100
AcDbArc
 50
245.2285795742714
 51
204.3224829748799
  0
CIRCLE
  5
D61
330
1E
100
AcDbEntity
  8
0
  6
CONTINUOUS
100
AcDbCircle
 10
701.6338413727658
 20
235.878046043787
 30
0.0
 40
3.399999999999999
  0
LINE
  5
D62
330
1E
100
AcDbEntity
  8
0
100
AcDbLine
 10
711.6338413727658
 20
265.8780460437871
 30
0.0
 11
823.1338413727655
 21
265.8780460437871
 31
0.0
  0
LINE
  5
D63
330
1E
100
AcDbEntity
  8
0
100
AcDbLine
 10
711.6338413727658
 20
335.8780460437869
 30
0.0
 11
823.1338413727655
 21
335.8780460437869
 31
0.0
  0
LINE
  5
D64
330
1E
100
AcDbEntity
  8
0
100
AcDbLine
 10
711.6338413727658
 20
319.6681555023603
 30
0.0
 11
823.1338413727655
 21
319.6681555023603
 31
0.0
  0
LINE
  5
D65
330
1E
100
AcDbEntity
  8
0
100
AcDbLine
 10
711.6338413727658
 20
282.0879365852135
 30
0.0
 11
823.1338413727655
 21
282.0879365852135
 31
0.0
  0
LINE
  5
D66
330
1E
100
AcDbEntity
  8
0
100
AcDbLine
 10
711.6338413727658
 20
432.8569549278474
 30
0.0
 11
823.1338413727655
 21
432.8569549278474
 31
0.0
  0
LINE
  5
D67
330
1E
100
AcDbEntity
  8
0
100
AcDbLine
 10
711.6338413727658
 20
416.6470643864208
 30
0.0
 11
823.1338413727655
 21
416.6470643864208
 31
0.0
  0
LINE
  5
D68
330
1E
100
AcDbEntity
  8
CENTER
  6
CENTER
100
AcDbLine
 10
688.1338413727657
 20
325.5516781090888
 30
0.0
 11
688.1338413727657
 21
350.1464865146389
 31
0.0
  0
LINE
  5
D69
330
1E
100
AcDbEntity
  8
CENTER
  6
CENTER
100
AcDbLine
 10
694.6338413727658
 20
305.878046043787
 30
0.0
 11
708.6338413727657
 21
305.878046043787
 31
0.0
  0
ARC
  5
D6A
330
1E
100
AcDbEntity
  8
0
  6
CONTINUOUS
 62
     2
100
AcDbCircle
 10
690.321918542515
 20
294.5661232135364
 30
0.0
 40
3.0
100
AcDbArc
 50
206.963598891015
 51
149.154987673995
  0
CIRCLE
  5
D6B
330
1E
100
AcDbEntity
  8
0
  6
CONTINUOUS
100
AcDbCircle
 10
690.321918542515
 20
294.5661232135364
 30
0.0
 40
2.5
  0
LINE
  5
D6C
330
1E
100
AcDbEntity
  8
CENTER
  6
CENTER
100
AcDbLine
 10
686.0792778553957
 20
290.3234825264171
 30
0.0
 11
694.5645592296344
 21
298.8087639006556
 31
0.0
  0
LINE
  5
D6D
330
1E
100
AcDbEntity
  8
CENTER
  6
CENTER
100
AcDbLine
 10
701.6338413727658
 20
298.8780460437871
 30
0.0
 11
701.6338413727658
 21
312.878046043787
 31
0.0
  0
ARC
  5
D6E
330
1E
100
AcDbEntity
  8
0
  6
CONTINUOUS
 62
     2
100
AcDbCircle
 10
701.6338413727658
 20
305.878046043787
 30
0.0
 40
4.0
100
AcDbArc
 50
335.2285795742745
 51
294.3224829748806
  0
CIRCLE
  5
D6F
330
1E
100
AcDbEntity
  8
0
  6
CONTINUOUS
100
AcDbCircle
 10
701.6338413727658
 20
305.878046043787
 30
0.0
 40
3.399999999999999
  0
LINE
  5
D70
330
1E
100
AcDbEntity
  8
DIM
  6
CONTINUOUS
100
AcDbLine
 10
711.6338413727658
 20
413.1470643864207
 30
0.0
 11
711.6338413727658
 21
387.1470643864208
 31
0.0
  0
LINE
  5
D71
330
1E
100
AcDbEntity
  8
DIM
  6
CONTINUOUS
100
AcDbLine
 10
707.6338413727658
 20
404.1470643864207
 30
0.0
 11
707.6338413727658
 21
395.1470643864208
 31
0.0
  0
ARC
  5
D72
330
1E
100
AcDbEntity
  8
0
  6
CONTINUOUS
100
AcDbCircle
 10
688.1278015819569
 20
353.3780448278179
 30
0.0
 40
14.99999999999999
100
AcDbArc
 50
270.0230703022988
 51
289.4956922330539
  0
LINE
  5
D73
330
1E
100
AcDbEntity
  8
0
  6
CONTINUOUS
100
AcDbLine
 10
693.1338413728671
 20
344.8780460437871
 30
0.0
 11
691.6338413728672
 21
346.378046043787
 31
0.0
  0
ARC
  5
D74
330
1E
100
AcDbEntity
  8
0
  6
CONTINUOUS
100
AcDbCircle
 10
688.1278015820123
 20
328.3780472597563
 30
0.0
 40
14.99999999999999
100
AcDbArc
 50
70.50430776694644
 51
89.97692969770161
  0
LINE
  5
D75
330
1E
100
AcDbEntity
  8
0
  6
CONTINUOUS
100
AcDbLine
 10
693.1338413728671
 20
344.8780460437871
 30
0.0
 11
683.1338413728672
 21
344.8780460437871
 31
0.0
  0
LINE
  5
D76
330
1E
100
AcDbEntity
  8
0
  6
CONTINUOUS
100
AcDbLine
 10
696.3838413728672
 20
343.378046043787
 30
0.0
 11
679.8838413728672
 21
343.378046043787
 31
0.0
  0
LINE
  5
D77
330
1E
100
AcDbEntity
  8
0
  6
CONTINUOUS
100
AcDbLine
 10
683.1338413728672
 20
344.8780460437871
 30
0.0
 11
684.6338413728672
 21
346.378046043787
 31
0.0
  0
ARC
  5
D78
330
1E
100
AcDbEntity
  8
0
  6
CONTINUOUS
100
AcDbCircle
 10
688.1398811636669
 20
353.3780448278179
 30
0.0
 40
14.99999999999999
100
AcDbArc
 50
250.5043077669459
 51
269.9769296977011
  0
ARC
  5
D79
330
1E
100
AcDbEntity
  8
0
  6
CONTINUOUS
100
AcDbCircle
 10
688.1398811637223
 20
328.3780472597563
 30
0.0
 40
14.99999999999999
100
AcDbArc
 50
90.02307030229927
 51
109.4956922330545
  0
LINE
  5
D7A
330
1E
100
AcDbEntity
  8
0
  6
CONTINUOUS
100
AcDbLine
 10
683.1338413728673
 20
339.238046043768
 30
0.0
 11
683.1338413728672
 21
342.5180460437865
 31
0.0
  0
LINE
  5
D7B
330
1E
100
AcDbEntity
  8
0
  6
CONTINUOUS
100
AcDbLine
 10
678.3338413728679
 20
339.2729652123466
 30
0.0
 11
678.3338413728679
 21
342.4831268751955
 31
0.0
  0
LINE
  5
D7C
330
1E
100
AcDbEntity
  8
0
  6
CONTINUOUS
100
AcDbLine
 10
678.3338413728126
 20
339.2729652123786
 30
0.0
 11
679.883841372812
 21
338.3780460437871
 31
0.0
  0
ARC
  5
D7D
330
1E
100
AcDbEntity
  8
0
  6
CONTINUOUS
100
AcDbCircle
 10
680.8273821593145
 20
341.8998241271771
 30
0.0
 40
3.522047226932054
100
AcDbArc
 50
240.7948558421632
 51
310.9092799334703
  0
LINE
  5
D7E
330
1E
100
AcDbEntity
  8
0
  6
CONTINUOUS
100
AcDbLine
 10
683.1338413728672
 20
343.378046043787
 30
0.0
 11
683.1338413728672
 21
344.8780460437871
 31
0.0
  0
ARC
  5
D7F
330
1E
100
AcDbEntity
  8
0
  6
CONTINUOUS
100
AcDbCircle
 10
680.8273821593697
 20
339.8562679603969
 30
0.0
 40
3.522047226932054
100
AcDbArc
 50
49.09072006652965
 51
119.2051441578367
  0
LINE
  5
D80
330
1E
100
AcDbEntity
  8
0
  6
CONTINUOUS
100
AcDbLine
 10
678.3338413728679
 20
342.4831268751955
 30
0.0
 11
679.8838413728672
 21
343.378046043787
 31
0.0
  0
LINE
  5
D81
330
1E
100
AcDbEntity
  8
0
  6
CONTINUOUS
 62
     2
100
AcDbLine
 10
684.1338413728672
 20
343.378046043787
 30
0.0
 11
684.1338413728672
 21
345.878046043787
 31
0.0
  0
LINE
  5
D82
330
1E
100
AcDbEntity
  8
0
  6
CONTINUOUS
100
AcDbLine
 10
691.6338413728672
 20
346.378046043787
 30
0.0
 11
684.6338413728672
 21
346.378046043787
 31
0.0
  0
LINE
  5
D83
330
1E
100
AcDbEntity
  8
0
  6
CONTINUOUS
100
AcDbLine
 10
697.9338413728664
 20
339.2729652124105
 30
0.0
 11
697.9338413728664
 21
342.4831268751955
 31
0.0
  0
LINE
  5
D84
330
1E
100
AcDbEntity
  8
0
  6
CONTINUOUS
100
AcDbLine
 10
697.9338413728112
 20
339.2729652123786
 30
0.0
 11
696.3838413728119
 21
338.3780460437871
 31
0.0
  0
LINE
  5
D85
330
1E
100
AcDbEntity
  8
0
  6
CONTINUOUS
100
AcDbLine
 10
697.9338413728664
 20
342.4831268751955
 30
0.0
 11
696.3838413728672
 21
343.378046043787
 31
0.0
  0
LINE
  5
D86
330
1E
100
AcDbEntity
  8
0
  6
CONTINUOUS
100
AcDbLine
 10
693.1338413728673
 20
339.2380460438072
 30
0.0
 11
693.1338413728671
 21
342.5180460437865
 31
0.0
  0
LINE
  5
D87
330
1E
100
AcDbEntity
  8
0
  6
CONTINUOUS
100
AcDbLine
 10
693.1338413728671
 20
343.378046043787
 30
0.0
 11
693.1338413728671
 21
344.8780460437871
 31
0.0
  0
LINE
  5
D88
330
1E
100
AcDbEntity
  8
0
  6
CONTINUOUS
 62
     2
100
AcDbLine
 10
692.1338413728672
 20
343.378046043787
 30
0.0
 11
692.1338413728672
 21
345.878046043787
 31
0.0
  0
ARC
  5
D89
330
1E
100
AcDbEntity
  8
0
  6
CONTINUOUS
100
AcDbCircle
 10
695.4403005863094
 20
341.8998241271771
 30
0.0
 40
3.522047226932054
100
AcDbArc
 50
229.0907200665296
 51
299.2051441578368
  0
ARC
  5
D8A
330
1E
100
AcDbEntity
  8
0
  6
CONTINUOUS
100
AcDbCircle
 10
695.4403005863646
 20
339.8562679603969
 30
0.0
 40
3.522047226932054
100
AcDbArc
 50
60.79485584216321
 51
130.9092799334703
  0
SOLID
  5
D8B
330
1E
100
AcDbEntity
  8
DIM
  6
CONTINUOUS
100
AcDbTrace
 10
704.6338413727657
 20
396.6470643864208
 30
0.0
 11
704.6338413727657
 21
395.6470643864208
 31
0.0
 12
707.6338413727658
 22
396.1470643864208
 32
0.0
 13
707.6338413727658
 23
396.1470643864208
 33
0.0
  0
SOLID
  5
D8C
330
1E
100
AcDbEntity
  8
DIM
  6
CONTINUOUS
100
AcDbTrace
 10
708.6338413727657
 20
388.6470643864208
 30
0.0
 11
708.6338413727657
 21
387.6470643864208
 31
0.0
 12
711.6338413727658
 22
388.1470643864208
 32
0.0
 13
711.6338413727658
 23
388.1470643864208
 33
0.0
  0
POLYLINE
  5
D8D
330
1E
100
AcDbEntity
  8
0
  6
CONTINUOUS
100
AcDb2dPolyline
 66
     1
 10
0.0
 20
0.0
 30
0.0
 70
     1
  0
VERTEX
  5
181D
330
D8D
100
AcDbEntity
  8
0
  6
CONTINUOUS
100
AcDbVertex
100
AcDb2dVertex
 10
683.2338413727661
 20
440.6341133435084
 30
0.0
  0
VERTEX
  5
181E
330
D8D
100
AcDbEntity
  8
0
  6
CONTINUOUS
100
AcDbVertex
100
AcDb2dVertex
 10
678.3338413727665
 20
432.1470643864208
 30
0.0
  0
VERTEX
  5
181F
330
D8D
100
AcDbEntity
  8
0
  6
CONTINUOUS
100
AcDbVertex
100
AcDb2dVertex
 10
683.2338413727661
 20
423.6600154293332
 30
0.0
  0
VERTEX
  5
1820
330
D8D
100
AcDbEntity
  8
0
  6
CONTINUOUS
100
AcDbVertex
100
AcDb2dVertex
 10
693.0338413727654
 20
423.6600154293332
 30
0.0
  0
VERTEX
  5
1821
330
D8D
100
AcDbEntity
  8
0
  6
CONTINUOUS
100
AcDbVertex
100
AcDb2dVertex
 10
697.933841372765
 20
432.1470643864208
 30
0.0
  0
VERTEX
  5
1822
330
D8D
100
AcDbEntity
  8
0
  6
CONTINUOUS
100
AcDbVertex
100
AcDb2dVertex
 10
693.0338413727654
 20
440.6341133435084
 30
0.0
  0
SEQEND
  5
1823
330
D8D
100
AcDbEntity
  8
0
  6
CONTINUOUS
  0
CIRCLE
  5
D95
330
1E
100
AcDbEntity
  8
0
  6
CONTINUOUS
100
AcDbCircle
 10
688.1338413727657
 20
432.1470643864208
 30
0.0
 40
8.25
  0
LINE
  5
D96
330
1E
100
AcDbEntity
  8
CENTER
  6
CENTER
100
AcDbLine
 10
688.1338413727657
 20
447.1470643864208
 30
0.0
 11
688.1338413727657
 21
417.1470643864208
 31
0.0
  0
LINE
  5
D97
330
1E
100
AcDbEntity
  8
CENTER
  6
CENTER
100
AcDbLine
 10
701.6338413727655
 20
411.8668830236381
 30
0.0
 11
701.6338413727658
 21
428.9822452563856
 31
0.0
  0
LINE
  5
D98
330
1E
100
AcDbEntity
  8
0
100
AcDbLine
 10
707.6338413727658
 20
414.1470643864208
 30
0.0
 11
707.6338413727658
 21
405.1470643864207
 31
0.0
  0
LINE
  5
D99
330
1E
100
AcDbEntity
  8
0
  6
CONTINUOUS
100
AcDbLine
 10
707.6338413727658
 20
405.1470643864207
 30
0.0
 11
706.6338413727658
 21
404.1470643864207
 31
0.0
  0
CIRCLE
  5
D9A
330
1E
100
AcDbEntity
  8
0
  6
CONTINUOUS
100
AcDbCircle
 10
688.1338413727657
 20
432.1470643864208
 30
0.0
 40
5.0
  0
ARC
  5
D9B
330
1E
100
AcDbEntity
  8
0
  6
CONTINUOUS
 62
     2
100
AcDbCircle
 10
688.1338413727657
 20
432.1470643864208
 30
0.0
 40
4.25
100
AcDbArc
 50
69.4878130165154
 51
22.41462014748477
  0
POLYLINE
  5
D9C
330
1E
100
AcDbEntity
  8
0
  6
CONTINUOUS
100
AcDb2dPolyline
 66
     1
 10
0.0
 20
0.0
 30
0.0
 70
     1
  0
VERTEX
  5
1824
330
D9C
100
AcDbEntity
  8
0
  6
CONTINUOUS
100
AcDbVertex
100
AcDb2dVertex
 10
686.6904656997917
 20
434.6470643864208
 30
0.0
  0
VERTEX
  5
1825
330
D9C
100
AcDbEntity
  8
0
  6
CONTINUOUS
100
AcDbVertex
100
AcDb2dVertex
 10
685.2470900268176
 20
432.1470643864208
 30
0.0
  0
VERTEX
  5
1826
330
D9C
100
AcDbEntity
  8
0
  6
CONTINUOUS
100
AcDbVertex
100
AcDb2dVertex
 10
686.6904656997917
 20
429.6470643864208
 30
0.0
  0
VERTEX
  5
1827
330
D9C
100
AcDbEntity
  8
0
  6
CONTINUOUS
100
AcDbVertex
100
AcDb2dVertex
 10
689.5772170457398
 20
429.6470643864208
 30
0.0
  0
VERTEX
  5
1828
330
D9C
100
AcDbEntity
  8
0
  6
CONTINUOUS
100
AcDbVertex
100
AcDb2dVertex
 10
691.0205927187139
 20
432.1470643864208
 30
0.0
  0
VERTEX
  5
1829
330
D9C
100
AcDbEntity
  8
0
  6
CONTINUOUS
100
AcDbVertex
100
AcDb2dVertex
 10
689.5772170457398
 20
434.6470643864208
 30
0.0
  0
SEQEND
  5
182A
330
D9C
100
AcDbEntity
  8
0
  6
CONTINUOUS
  0
LINE
  5
DA4
330
1E
100
AcDbEntity
  8
0
100
AcDbLine
 10
855.1338413727656
 20
263.8780460437869
 30
0.0
 11
855.1338413727657
 21
337.8780460437869
 31
0.0
  0
LINE
  5
DA5
330
1E
100
AcDbEntity
  8
0
100
AcDbLine
 10
823.1338413727655
 20
263.3780460437869
 30
0.0
 11
823.1338413727657
 21
338.3780460437869
 31
0.0
  0
LINE
  5
DA6
330
1E
100
AcDbEntity
  8
0
100
AcDbLine
 10
823.1338413727655
 20
265.8780460437869
 30
0.0
 11
823.1338413727655
 21
335.8780460437869
 31
0.0
  0
LINE
  5
DA7
330
1E
100
AcDbEntity
  8
0
100
AcDbLine
 10
860.1338413727658
 20
279.378046043787
 30
0.0
 11
860.1338413727658
 21
322.3780460437871
 31
0.0
  0
LINE
  5
DA8
330
1E
100
AcDbEntity
  8
0
100
AcDbLine
 10
823.1338413727657
 20
263.3780460437869
 30
0.0
 11
855.1338413727657
 21
263.8780460437869
 31
0.0
  0
LINE
  5
DA9
330
1E
100
AcDbEntity
  8
0
100
AcDbLine
 10
855.1338413727656
 20
278.3780460437871
 30
0.0
 11
859.1338413727658
 21
278.3780460437871
 31
0.0
  0
ARC
  5
DAA
330
1E
100
AcDbEntity
  8
0
100
AcDbCircle
 10
859.1338413727658
 20
279.378046043787
 30
0.0
 40
1.0
100
AcDbArc
 50
270.0
 51
0.0
  0
LINE
  5
DAB
330
1E
100
AcDbEntity
  8
0
100
AcDbLine
 10
855.1338413727657
 20
323.378046043787
 30
0.0
 11
859.1338413727658
 21
323.378046043787
 31
0.0
  0
ARC
  5
DAC
330
1E
100
AcDbEntity
  8
0
100
AcDbCircle
 10
859.1338413727658
 20
322.3780460437871
 30
0.0
 40
1.0
100
AcDbArc
 50
0.0
 51
90.0
  0
LINE
  5
DAD
330
1E
100
AcDbEntity
  8
DIM
  6
CONTINUOUS
100
AcDbLine
 10
860.1338413727658
 20
428.0693414622309
 30
0.0
 11
860.1338413727658
 21
379.1470643864208
 31
0.0
  0
LINE
  5
DAE
330
1E
100
AcDbEntity
  8
DIM
  6
CONTINUOUS
100
AcDbLine
 10
855.1338413727657
 20
413.6470643864207
 30
0.0
 11
855.1338413727657
 21
379.1470643864208
 31
0.0
  0
LINE
  5
DAF
330
1E
100
AcDbEntity
  8
0
100
AcDbLine
 10
823.1338413727657
 20
338.3780460437869
 30
0.0
 11
855.1338413727657
 21
337.8780460437869
 31
0.0
  0
SOLID
  5
DB0
330
1E
100
AcDbEntity
  8
DIM
  6
CONTINUOUS
100
AcDbTrace
 10
852.1338413727658
 20
380.6470643864207
 30
0.0
 11
852.1338413727658
 21
379.6470643864207
 31
0.0
 12
855.1338413727657
 22
380.1470643864207
 32
0.0
 13
855.1338413727657
 23
380.1470643864207
 33
0.0
  0
SOLID
  5
DB1
330
1E
100
AcDbEntity
  8
DIM
  6
CONTINUOUS
100
AcDbTrace
 10
863.1338413727657
 20
380.6470643864207
 30
0.0
 11
863.1338413727657
 21
379.6470643864207
 31
0.0
 12
860.1338413727658
 22
380.1470643864207
 32
0.0
 13
860.1338413727658
 23
380.1470643864207
 33
0.0
  0
TEXT
  5
DB2
330
1E
100
AcDbEntity
  8
DIM
  6
CONTINUOUS
100
AcDbText
 10
865.5090930928432
 20
381.6470643864207
 30
0.0
 40
3.0
  1
5
  7
ROMANSS
 72
     1
 11
866.5090930928432
 21
383.1470643864207
 31
0.0
100
AcDbText
 73
     2
  0
LINE
  5
DB3
330
1E
100
AcDbEntity
  8
0
100
AcDbLine
 10
823.1338413727657
 20
414.1470643864208
 30
0.0
 11
855.1338413727657
 21
414.6470643864208
 31
0.0
  0
ARC
  5
DB4
330
1E
100
AcDbEntity
  8
0
  6
CONTINUOUS
100
AcDbCircle
 10
830.1338413727657
 20
442.6470643864207
 30
0.0
 40
3.5
100
AcDbArc
 50
38.21321070173831
 51
81.78678929826176
  0
ARC
  5
DB5
330
1E
100
AcDbEntity
  8
0
  6
CONTINUOUS
100
AcDbCircle
 10
830.1338413727657
 20
442.6470643864207
 30
0.0
 40
3.5
100
AcDbArc
 50
278.2132107017381
 51
321.7867892982616
  0
POLYLINE
  5
DB6
330
1E
100
AcDbEntity
  8
0
  6
CONTINUOUS
100
AcDb2dPolyline
 66
     1
 10
0.0
 20
0.0
 30
0.0
 70
     1
  0
VERTEX
  5
182B
330
DB6
100
AcDbEntity
  8
0
  6
CONTINUOUS
100
AcDbVertex
100
AcDb2dVertex
 10
829.2678159689812
 20
444.1470643864207
 30
0.0
  0
VERTEX
  5
182C
330
DB6
100
AcDbEntity
  8
0
  6
CONTINUOUS
100
AcDbVertex
100
AcDb2dVertex
 10
828.4017905651969
 20
442.6470643864207
 30
0.0
  0
VERTEX
  5
182D
330
DB6
100
AcDbEntity
  8
0
  6
CONTINUOUS
100
AcDbVertex
100
AcDb2dVertex
 10
829.2678159689812
 20
441.1470643864207
 30
0.0
  0
VERTEX
  5
182E
330
DB6
100
AcDbEntity
  8
0
  6
CONTINUOUS
100
AcDbVertex
100
AcDb2dVertex
 10
830.9998667765501
 20
441.1470643864207
 30
0.0
  0
VERTEX
  5
182F
330
DB6
100
AcDbEntity
  8
0
  6
CONTINUOUS
100
AcDbVertex
100
AcDb2dVertex
 10
831.8658921803345
 20
442.6470643864207
 30
0.0
  0
VERTEX
  5
1830
330
DB6
100
AcDbEntity
  8
0
  6
CONTINUOUS
100
AcDbVertex
100
AcDb2dVertex
 10
830.9998667765501
 20
444.1470643864207
 30
0.0
  0
SEQEND
  5
1831
330
DB6
100
AcDbEntity
  8
0
  6
CONTINUOUS
  0
CIRCLE
  5
DBE
330
1E
100
AcDbEntity
  8
0
100
AcDbCircle
 10
830.1338413727657
 20
442.6470643864207
 30
0.0
 40
5.299999999999999
  0
CIRCLE
  5
DBF
330
1E
100
AcDbEntity
  8
0
100
AcDbCircle
 10
830.1338413727657
 20
442.6470643864207
 30
0.0
 40
5.0
  0
CIRCLE
  5
DC0
330
1E
100
AcDbEntity
  8
0
  6
CONTINUOUS
100
AcDbCircle
 10
830.1338413727657
 20
442.6470643864207
 30
0.0
 40
2.5
  0
LINE
  5
DC1
330
1E
100
AcDbEntity
  8
CENTER
  6
CENTER
100
AcDbLine
 10
823.6338413727652
 20
442.6470643864207
 30
0.0
 11
836.6338413727655
 21
442.6470643864207
 31
0.0
  0
LINE
  5
DC2
330
1E
100
AcDbEntity
  8
0
  6
CONTINUOUS
100
AcDbLine
 10
829.6338413727658
 20
447.6220015719539
 30
0.0
 11
829.6338413727658
 21
446.1111660015586
 31
0.0
  0
LINE
  5
DC3
330
1E
100
AcDbEntity
  8
0
  6
CONTINUOUS
100
AcDbLine
 10
830.6338413727658
 20
447.6220015719539
 30
0.0
 11
830.6338413727658
 21
446.1111660015586
 31
0.0
  0
LINE
  5
DC4
330
1E
100
AcDbEntity
  8
0
  6
CONTINUOUS
100
AcDbLine
 10
829.6338413727658
 20
439.182962771283
 30
0.0
 11
829.6338413727658
 21
437.6721272008877
 31
0.0
  0
LINE
  5
DC5
330
1E
100
AcDbEntity
  8
0
  6
CONTINUOUS
100
AcDbLine
 10
830.6338413727658
 20
439.182962771283
 30
0.0
 11
830.6338413727658
 21
437.6721272008877
 31
0.0
  0
LINE
  5
DC6
330
1E
100
AcDbEntity
  8
0
  6
CONTINUOUS
100
AcDbLine
 10
827.3838413727657
 20
444.8121278958819
 30
0.0
 11
826.0754193878621
 21
445.5675456810795
 31
0.0
  0
ARC
  5
DC7
330
1E
100
AcDbEntity
  8
0
  6
CONTINUOUS
100
AcDbCircle
 10
830.1338413727657
 20
442.6470643864207
 30
0.0
 40
3.5
100
AcDbArc
 50
158.2132107017377
 51
201.7867892982622
  0
LINE
  5
DC8
330
1E
100
AcDbEntity
  8
0
  6
CONTINUOUS
100
AcDbLine
 10
826.8838413727658
 20
443.9461024920974
 30
0.0
 11
825.5754193878622
 21
444.7015202772951
 31
0.0
  0
LINE
  5
DC9
330
1E
100
AcDbEntity
  8
0
  6
CONTINUOUS
100
AcDbLine
 10
826.0754193878621
 20
439.726583091762
 30
0.0
 11
827.3838413727657
 21
440.4820008769597
 31
0.0
  0
LINE
  5
DCA
330
1E
100
AcDbEntity
  8
0
  6
CONTINUOUS
100
AcDbLine
 10
825.5754193878622
 20
440.5926084955464
 30
0.0
 11
826.8838413727658
 21
441.348026280744
 31
0.0
  0
ARC
  5
DCB
330
1E
100
AcDbEntity
  8
0
  6
CONTINUOUS
100
AcDbCircle
 10
830.1338413727657
 20
442.6470643864207
 30
0.0
 40
3.5
100
AcDbArc
 50
98.21321070173823
 51
141.7867892982624
  0
ARC
  5
DCC
330
1E
100
AcDbEntity
  8
0
  6
CONTINUOUS
100
AcDbCircle
 10
830.1338413727657
 20
442.6470643864207
 30
0.0
 40
3.5
100
AcDbArc
 50
218.2132107017383
 51
261.7867892982618
  0
ARC
  5
DCD
330
1E
100
AcDbEntity
  8
0
  6
CONTINUOUS
100
AcDbCircle
 10
830.1338413727657
 20
442.6470643864207
 30
0.0
 40
3.5
100
AcDbArc
 50
338.2132107017385
 51
21.78678929826138
  0
LINE
  5
DCE
330
1E
100
AcDbEntity
  8
0
  6
CONTINUOUS
100
AcDbLine
 10
832.8838413727657
 20
444.8121278958819
 30
0.0
 11
834.1922633576693
 21
445.5675456810795
 31
0.0
  0
LINE
  5
DCF
330
1E
100
AcDbEntity
  8
0
  6
CONTINUOUS
100
AcDbLine
 10
833.3838413727658
 20
443.9461024920974
 30
0.0
 11
834.6922633576694
 21
444.7015202772951
 31
0.0
  0
LINE
  5
DD0
330
1E
100
AcDbEntity
  8
0
  6
CONTINUOUS
100
AcDbLine
 10
834.1922633576693
 20
439.726583091762
 30
0.0
 11
832.8838413727657
 21
440.4820008769597
 31
0.0
  0
LINE
  5
DD1
330
1E
100
AcDbEntity
  8
0
  6
CONTINUOUS
100
AcDbLine
 10
834.6922633576694
 20
440.5926084955464
 30
0.0
 11
833.3838413727658
 21
441.348026280744
 31
0.0
  0
LINE
  5
DD2
330
1E
100
AcDbEntity
  8
0
100
AcDbLine
 10
855.1338413727657
 20
429.1470643864207
 30
0.0
 11
859.1338413727658
 21
429.1470643864207
 31
0.0
  0
LINE
  5
DD3
330
1E
100
AcDbEntity
  8
DIM
  6
CONTINUOUS
100
AcDbLine
 10
860.7583292100008
 20
429.1470643864207
 30
0.0
 11
869.1338413727658
 21
429.1470643864207
 31
0.0
  0
ARC
  5
DD4
330
1E
100
AcDbEntity
  8
0
100
AcDbCircle
 10
859.1338413727658
 20
430.1470643864207
 30
0.0
 40
1.0
100
AcDbArc
 50
270.0
 51
0.0
  0
SOLID
  5
DD5
330
1E
100
AcDbEntity
  8
DIM
  6
CONTINUOUS
100
AcDbTrace
 10
867.6338413727657
 20
432.1470643864207
 30
0.0
 11
868.6338413727657
 21
432.1470643864207
 31
0.0
 12
868.1338413727658
 22
429.1470643864207
 32
0.0
 13
868.1338413727658
 23
429.1470643864207
 33
0.0
  0
LINE
  5
DD6
330
1E
100
AcDbEntity
  8
DIM
  6
CONTINUOUS
100
AcDbLine
 10
931.3894304441912
 20
413.1470643864206
 30
0.0
 11
931.3894304441912
 21
379.1470643864207
 31
0.0
  0
LINE
  5
DD7
330
1E
100
AcDbEntity
  8
DIM
  6
CONTINUOUS
100
AcDbLine
 10
968.8894304441912
 20
410.1470643864207
 30
0.0
 11
968.8894304441912
 21
395.1470643864208
 31
0.0
  0
SOLID
  5
DD8
330
1E
100
AcDbEntity
  8
DIM
  6
CONTINUOUS
100
AcDbTrace
 10
934.3894304441912
 20
388.6470643864208
 30
0.0
 11
934.3894304441912
 21
387.6470643864208
 31
0.0
 12
931.3894304441912
 22
388.1470643864208
 32
0.0
 13
931.3894304441912
 23
388.1470643864208
 33
0.0
  0
SOLID
  5
DD9
330
1E
100
AcDbEntity
  8
DIM
  6
CONTINUOUS
100
AcDbTrace
 10
934.3894304441912
 20
380.6470643864207
 30
0.0
 11
934.3894304441912
 21
379.6470643864207
 31
0.0
 12
931.3894304441912
 22
380.1470643864207
 32
0.0
 13
931.3894304441912
 23
380.1470643864207
 33
0.0
  0
POLYLINE
  5
DDA
330
1E
100
AcDbEntity
  8
DIM
  6
CONTINUOUS
100
AcDb2dPolyline
 66
     1
 10
0.0
 20
0.0
 30
0.0
 70
     1
  0
VERTEX
  5
1832
330
DDA
100
AcDbEntity
  8
DIM
  6
CONTINUOUS
100
AcDbVertex
100
AcDb2dVertex
 10
962.7165639219057
 20
392.1827622043356
 30
0.0
  0
VERTEX
  5
1833
330
DDA
100
AcDbEntity
  8
DIM
  6
CONTINUOUS
100
AcDbVertex
100
AcDb2dVertex
 10
962.7165639219057
 20
389.5387411441823
 30
0.0
  0
VERTEX
  5
1834
330
DDA
100
AcDbEntity
  8
DIM
  6
CONTINUOUS
100
AcDbVertex
100
AcDb2dVertex
 10
965.1219351058127
 20
389.5387411441823
 30
0.0
  0
VERTEX
  5
1835
330
DDA
100
AcDbEntity
  8
DIM
  6
CONTINUOUS
100
AcDbVertex
100
AcDb2dVertex
 10
965.1219351058127
 20
392.1827622043356
 30
0.0
  0
SEQEND
  5
1836
330
DDA
100
AcDbEntity
  8
DIM
  6
CONTINUOUS
  0
TEXT
  5
DE0
330
1E
100
AcDbEntity
  8
DIM
  6
CONTINUOUS
100
AcDbText
 10
966.4608590156198
 20
389.6470643864208
 30
0.0
 40
3.0
  1
75
  7
ROMANSS
 72
     1
 11
968.8894304441912
 21
391.1470643864208
 31
0.0
100
AcDbText
 73
     2
  0
SOLID
  5
DE1
330
1E
100
AcDbEntity
  8
DIM
  6
CONTINUOUS
100
AcDbTrace
 10
971.8894304441912
 20
396.6470643864208
 30
0.0
 11
971.8894304441912
 21
395.6470643864208
 31
0.0
 12
968.8894304441912
 22
396.1470643864208
 32
0.0
 13
968.8894304441912
 23
396.1470643864208
 33
0.0
  0
LINE
  5
DE2
330
1E
100
AcDbEntity
  8
CENTER
  6
CENTER
100
AcDbLine
 10
928.1981363608514
 20
442.6470643864207
 30
0.0
 11
951.862793781949
 21
442.6470643864207
 31
0.0
  0
POLYLINE
  5
DE3
330
1E
100
AcDbEntity
  8
0
  6
CONTINUOUS
100
AcDb2dPolyline
 66
     1
 10
0.0
 20
0.0
 30
0.0
 70
     1
  0
VERTEX
  5
1837
330
DE3
100
AcDbEntity
  8
0
  6
CONTINUOUS
100
AcDbVertex
100
AcDb2dVertex
 10
938.3300293674329
 20
427.3970643864206
 30
0.0
  0
VERTEX
  5
1838
330
DE3
100
AcDbEntity
  8
0
  6
CONTINUOUS
100
AcDbVertex
100
AcDb2dVertex
 10
936.0206282906743
 20
423.3970643864206
 30
0.0
  0
VERTEX
  5
1839
330
DE3
100
AcDbEntity
  8
0
  6
CONTINUOUS
100
AcDbVertex
100
AcDb2dVertex
 10
938.3300293674329
 20
419.3970643864206
 30
0.0
  0
VERTEX
  5
183A
330
DE3
100
AcDbEntity
  8
0
  6
CONTINUOUS
100
AcDbVertex
100
AcDb2dVertex
 10
942.9488315209498
 20
419.3970643864206
 30
0.0
  0
VERTEX
  5
183B
330
DE3
100
AcDbEntity
  8
0
  6
CONTINUOUS
100
AcDbVertex
100
AcDb2dVertex
 10
945.2582325977083
 20
423.3970643864206
 30
0.0
  0
VERTEX
  5
183C
330
DE3
100
AcDbEntity
  8
0
  6
CONTINUOUS
100
AcDbVertex
100
AcDb2dVertex
 10
942.9488315209498
 20
427.3970643864206
 30
0.0
  0
SEQEND
  5
183D
330
DE3
100
AcDbEntity
  8
0
  6
CONTINUOUS
  0
CIRCLE
  5
DEB
330
1E
100
AcDbEntity
  8
0
  6
CONTINUOUS
100
AcDbCircle
 10
940.6394304441912
 20
423.3970643864206
 30
0.0
 40
3.399999999999999
  0
ARC
  5
DEC
330
1E
100
AcDbEntity
  8
0
  6
CONTINUOUS
 62
     2
100
AcDbCircle
 10
940.6394304441912
 20
423.3970643864206
 30
0.0
 40
4.0
100
AcDbArc
 50
57.77418116062497
 51
14.45388115667581
  0
CIRCLE
  5
DED
330
1E
100
AcDbEntity
  8
0
100
AcDbCircle
 10
940.6394304441912
 20
423.3970643864206
 30
0.0
 40
6.5
  0
LINE
  5
DEE
330
1E
100
AcDbEntity
  8
0
100
AcDbLine
 10
935.8894304441912
 20
446.1470643864207
 30
0.0
 11
945.0409504087676
 21
446.1470643864207
 31
0.0
  0
ARC
  5
DEF
330
1E
100
AcDbEntity
  8
0
100
AcDbCircle
 10
940.6394304441912
 20
423.3970643864206
 30
0.0
 40
9.5
100
AcDbArc
 50
59.47751218592967
 51
115.583001977388
  0
LINE
  5
DF0
330
1E
100
AcDbEntity
  8
CENTER
  6
CENTER
100
AcDbLine
 10
933.1394304441912
 20
423.3970643864206
 30
0.0
 11
948.1394304441913
 21
423.3970643864206
 31
0.0
  0
ARC
  5
DF1
330
1E
100
AcDbEntity
  8
0
  6
CONTINUOUS
100
AcDbCircle
 10
936.5616526664194
 20
427.8970643864207
 30
0.0
 40
10.19983357405331
100
AcDbArc
 50
155.3752531507763
 51
204.6247468492236
  0
LINE
  5
DF2
330
1E
100
AcDbEntity
  8
0
  6
CONTINUOUS
100
AcDbLine
 10
926.3894304441912
 20
423.6470643864207
 30
0.0
 11
926.3894304441912
 21
440.6470643864207
 31
0.0
  0
ARC
  5
DF3
330
1E
100
AcDbEntity
  8
0
  6
CONTINUOUS
100
AcDbCircle
 10
921.2172082219634
 20
427.8970643864209
 30
0.0
 40
10.19983357405331
100
AcDbArc
 50
335.3752531507788
 51
24.62474684922139
  0
SOLID
  5
DF4
330
1E
100
AcDbEntity
  8
DIM
  6
CONTINUOUS
100
AcDbTrace
 10
914.8894304441911
 20
426.3970643864206
 30
0.0
 11
915.8894304441913
 21
426.3970643864206
 31
0.0
 12
915.3894304441912
 22
423.3970643864206
 32
0.0
 13
915.3894304441912
 23
423.3970643864206
 33
0.0
  0
LINE
  5
DF5
330
1E
100
AcDbEntity
  8
CENTER
  6
CENTER
100
AcDbLine
 10
940.6394304441912
 20
430.8970643864206
 30
0.0
 11
940.6394304441912
 21
415.8970643864206
 31
0.0
  0
LINE
  5
DF6
330
1E
100
AcDbEntity
  8
0
  6
CONTINUOUS
100
AcDbLine
 10
926.3894304441912
 20
423.6470643864207
 30
0.0
 11
931.3894304441912
 21
423.6470643864207
 31
0.0
  0
LINE
  5
DF7
330
1E
100
AcDbEntity
  8
DIM
  6
CONTINUOUS
100
AcDbLine
 10
932.1394304441913
 20
423.3970643864206
 30
0.0
 11
913.9462838212496
 21
423.3970643864206
 31
0.0
  0
ARC
  5
DF8
330
1E
100
AcDbEntity
  8
0
100
AcDbCircle
 10
940.8894304441913
 20
423.6470643864207
 30
0.0
 40
9.0
100
AcDbArc
 50
180.0
 51
270.0
  0
ARC
  5
DF9
330
1E
100
AcDbEntity
  8
0
100
AcDbCircle
 10
940.8894304441913
 20
423.6470643864207
 30
0.0
 40
9.5
100
AcDbArc
 50
180.0
 51
270.0
  0
LINE
  5
DFA
330
1E
100
AcDbEntity
  8
CENTER
  6
CENTER
100
AcDbLine
 10
942.5264502724905
 20
432.1470643864207
 30
0.0
 11
920.3894304441913
 21
432.1470643864207
 31
0.0
  0
ARC
  5
DFB
330
1E
100
AcDbEntity
  8
0
  6
CONTINUOUS
100
AcDbCircle
 10
936.5616526664194
 20
436.3970643864207
 30
0.0
 40
10.19983357405331
100
AcDbArc
 50
155.3752531507763
 51
204.6247468492236
  0
LINE
  5
DFC
330
1E
100
AcDbEntity
  8
0
  6
CONTINUOUS
100
AcDbLine
 10
926.3894304441912
 20
440.6470643864207
 30
0.0
 11
931.3894304441912
 21
440.6470643864207
 31
0.0
  0
LINE
  5
DFD
330
1E
100
AcDbEntity
  8
0
  6
CONTINUOUS
100
AcDbLine
 10
924.8894304441913
 20
437.1470643864207
 30
0.0
 11
923.3894304441912
 21
435.6470643864208
 31
0.0
  0
LINE
  5
DFE
330
1E
100
AcDbEntity
  8
0
  6
CONTINUOUS
100
AcDbLine
 10
924.8894304441913
 20
427.1470643864208
 30
0.0
 11
924.8894304441913
 21
437.1470643864207
 31
0.0
  0
LINE
  5
DFF
330
1E
100
AcDbEntity
  8
0
  6
CONTINUOUS
100
AcDbLine
 10
924.8894304441913
 20
427.1470643864208
 30
0.0
 11
923.3894304441912
 21
428.6470643864207
 31
0.0
  0
LINE
  5
E00
330
1E
100
AcDbEntity
  8
0
  6
CONTINUOUS
 62
     2
100
AcDbLine
 10
926.3894304441912
 20
428.1470643864207
 30
0.0
 11
923.8894304441911
 21
428.1470643864207
 31
0.0
  0
LINE
  5
E01
330
1E
100
AcDbEntity
  8
0
  6
CONTINUOUS
 62
     2
100
AcDbLine
 10
926.3894304441912
 20
436.1470643864207
 30
0.0
 11
923.8894304441911
 21
436.1470643864207
 31
0.0
  0
LINE
  5
E02
330
1E
100
AcDbEntity
  8
0
  6
CONTINUOUS
100
AcDbLine
 10
926.3894304441912
 20
427.1470643864208
 30
0.0
 11
924.8894304441913
 21
427.1470643864208
 31
0.0
  0
LINE
  5
E03
330
1E
100
AcDbEntity
  8
0
  6
CONTINUOUS
100
AcDbLine
 10
923.3894304441912
 20
428.6470643864207
 30
0.0
 11
923.3894304441912
 21
435.6470643864208
 31
0.0
  0
POLYLINE
  5
E04
330
1E
100
AcDbEntity
  8
DIM
  6
CONTINUOUS
100
AcDb2dPolyline
 66
     1
 10
0.0
 20
0.0
 30
0.0
 70
     1
  0
VERTEX
  5
183E
330
E04
100
AcDbEntity
  8
DIM
  6
CONTINUOUS
100
AcDbVertex
100
AcDb2dVertex
 10
911.1793515784501
 20
446.2650151737222
 30
0.0
  0
VERTEX
  5
183F
330
E04
100
AcDbEntity
  8
DIM
  6
CONTINUOUS
100
AcDbVertex
100
AcDb2dVertex
 10
911.1793515784501
 20
443.6209941135689
 30
0.0
  0
VERTEX
  5
1840
330
E04
100
AcDbEntity
  8
DIM
  6
CONTINUOUS
100
AcDbVertex
100
AcDb2dVertex
 10
913.5847227623571
 20
443.6209941135689
 30
0.0
  0
VERTEX
  5
1841
330
E04
100
AcDbEntity
  8
DIM
  6
CONTINUOUS
100
AcDbVertex
100
AcDb2dVertex
 10
913.5847227623571
 20
446.2650151737222
 30
0.0
  0
SEQEND
  5
1842
330
E04
100
AcDbEntity
  8
DIM
  6
CONTINUOUS
  0
LINE
  5
E0A
330
1E
100
AcDbEntity
  8
0
  6
CONTINUOUS
100
AcDbLine
 10
926.3894304441912
 20
437.1470643864207
 30
0.0
 11
924.8894304441913
 21
437.1470643864207
 31
0.0
  0
ARC
  5
E0B
330
1E
100
AcDbEntity
  8
0
  6
CONTINUOUS
100
AcDbCircle
 10
921.2172082219634
 20
436.3970643864209
 30
0.0
 40
10.19983357405331
100
AcDbArc
 50
335.3752531507788
 51
24.62474684922139
  0
ARC
  5
E0C
330
1E
100
AcDbEntity
  8
0
100
AcDbCircle
 10
935.8894304441912
 20
433.3186318029127
 30
0.0
 40
1.5
100
AcDbArc
 50
180.0
 51
295.5830019774268
  0
LINE
  5
E0D
330
1E
100
AcDbEntity
  8
0
100
AcDbLine
 10
931.3894304441912
 20
426.6470643864206
 30
0.0
 11
931.8894304441911
 21
426.6470643864206
 31
0.0
  0
ARC
  5
E0E
330
1E
100
AcDbEntity
  8
0
100
AcDbCircle
 10
935.8894304441912
 20
444.6470643864206
 30
0.0
 40
1.5
100
AcDbArc
 50
90.0
 51
180.0
  0
LINE
  5
E0F
330
1E
100
AcDbEntity
  8
CENTER
  6
CENTER
100
AcDbLine
 10
963.8894304441912
 20
411.8668830236379
 30
0.0
 11
963.8894304441912
 21
425.8668830236379
 31
0.0
  0
LINE
  5
E10
330
1E
100
AcDbEntity
  8
0
100
AcDbLine
 10
969.8894304441912
 20
418.6470643864207
 30
0.0
 11
969.8894304441912
 21
427.2749491725128
 31
0.0
  0
LINE
  5
E11
330
1E
100
AcDbEntity
  8
0
100
AcDbLine
 10
958.8894304441913
 20
418.6470643864207
 30
0.0
 11
958.8894304441913
 21
430.0137567336368
 31
0.0
  0
LINE
  5
E12
330
1E
100
AcDbEntity
  8
0
100
AcDbLine
 10
967.8894304441913
 20
418.6470643864207
 30
0.0
 11
967.8894304441913
 21
427.2749491725128
 31
0.0
  0
ARC
  5
E13
330
1E
100
AcDbEntity
  8
0
100
AcDbCircle
 10
940.6394304441912
 20
423.3970643864206
 30
0.0
 40
9.5
100
AcDbArc
 50
334.4169980226124
 51
30.52248781406986
  0
LINE
  5
E14
330
1E
100
AcDbEntity
  8
0
100
AcDbLine
 10
966.3894304441912
 20
417.1470643864206
 30
0.0
 11
950.5609978606832
 21
417.1470643864207
 31
0.0
  0
LINE
  5
E15
330
1E
100
AcDbEntity
  8
0
100
AcDbLine
 10
957.8894304441913
 20
405.1470643864205
 30
0.0
 11
957.8894304441913
 21
414.1470643864206
 31
0.0
  0
LINE
  5
E16
330
1E
100
AcDbEntity
  8
0
  6
CONTINUOUS
100
AcDbLine
 10
958.8894304441913
 20
404.1470643864205
 30
0.0
 11
957.8894304441913
 21
405.1470643864205
 31
0.0
  0
ARC
  5
E17
330
1E
100
AcDbEntity
  8
0
100
AcDbCircle
 10
950.5609978606832
 20
418.6470643864207
 30
0.0
 40
1.5
100
AcDbArc
 50
154.4169980225779
 51
270.0
  0
ARC
  5
E18
330
1E
100
AcDbEntity
  8
0
100
AcDbCircle
 10
957.3894304441912
 20
418.6470643864207
 30
0.0
 40
1.5
100
AcDbArc
 50
270.0
 51
0.0
  0
ARC
  5
E19
330
1E
100
AcDbEntity
  8
0
100
AcDbCircle
 10
966.3894304441912
 20
418.6470643864207
 30
0.0
 40
1.5
100
AcDbArc
 50
270.0
 51
0.0
  0
ARC
  5
E1A
330
1E
100
AcDbEntity
  8
0
100
AcDbCircle
 10
971.3894304441913
 20
418.6470643864207
 30
0.0
 40
1.5
100
AcDbArc
 50
180.0
 51
270.0
  0
ARC
  5
E1B
330
1E
100
AcDbEntity
  8
0
100
AcDbCircle
 10
949.7302491291055
 20
436.3769703678607
 30
0.0
 40
1.5
100
AcDbArc
 50
314.9999999999984
 51
38.5552596602313
  0
LINE
  5
E1C
330
1E
100
AcDbEntity
  8
0
100
AcDbLine
 10
952.5586762538514
 20
433.5485432431146
 30
0.0
 11
949.0544990863705
 21
430.0443660756335
 31
0.0
  0
ARC
  5
E1D
330
1E
100
AcDbEntity
  8
0
100
AcDbCircle
 10
950.1151592581502
 20
428.9837059038537
 30
0.0
 40
1.5
100
AcDbArc
 50
134.9999999999984
 51
210.5224878140695
  0
ARC
  5
E1E
330
1E
100
AcDbEntity
  8
0
100
AcDbCircle
 10
946.2260719616242
 20
432.8727932003796
 30
0.0
 40
1.5
100
AcDbArc
 50
239.4775121859323
 51
314.9999999999984
  0
LINE
  5
E1F
330
1E
100
AcDbEntity
  8
0
100
AcDbLine
 10
950.7909093008851
 20
435.3163101960809
 30
0.0
 11
947.2867321334041
 21
431.8121330285997
 31
0.0
  0
ARC
  5
E20
330
1E
100
AcDbEntity
  8
0
100
AcDbCircle
 10
957.3894304441912
 20
430.0137567336368
 30
0.0
 40
1.5
100
AcDbArc
 50
0.0
 51
62.00543826774953
  0
ARC
  5
E21
330
1E
100
AcDbEntity
  8
0
100
AcDbCircle
 10
953.6193364256313
 20
432.4878830713347
 30
0.0
 40
1.5
100
AcDbArc
 50
51.44474033977039
 51
134.9999999999984
  0
ARC
  5
E22
330
1E
100
AcDbEntity
  8
0
100
AcDbCircle
 10
945.0409504087676
 20
444.1470643864207
 30
0.0
 40
2.0
100
AcDbArc
 50
17.4576031237207
 51
90.0
  0
ARC
  5
E23
330
1E
100
AcDbEntity
  8
0
100
AcDbCircle
 10
966.3894304441912
 20
427.2749491725128
 30
0.0
 40
1.5
100
AcDbArc
 50
0.0
 51
84.14329809007858
  0
ARC
  5
E24
330
1E
100
AcDbEntity
  8
0
100
AcDbCircle
 10
971.3894304441913
 20
427.2749491725128
 30
0.0
 40
1.5
100
AcDbArc
 50
95.85670190992141
 51
180.0
  0
LINE
  5
E25
330
1E
100
AcDbEntity
  8
DIM
  6
CONTINUOUS
100
AcDbLine
 10
1039.889430444191
 20
404.1470643864205
 30
0.0
 11
1058.389430444191
 21
404.1470643864205
 31
0.0
  0
LINE
  5
E26
330
1E
100
AcDbEntity
  8
DIM
  6
CONTINUOUS
100
AcDbLine
 10
1006.389430444191
 20
420.5038209321824
 30
0.0
 11
1006.389430444191
 21
397.829622975435
 31
0.0
  0
LINE
  5
E27
330
1E
100
AcDbEntity
  8
DIM
  6
CONTINUOUS
100
AcDbLine
 10
1041.389430444191
 20
413.1470643864206
 30
0.0
 11
1041.389430444191
 21
379.1470643864207
 31
0.0
  0
LINE
  5
E28
330
1E
100
AcDbEntity
  8
DIM
  6
CONTINUOUS
100
AcDbLine
 10
968.8894304441911
 20
396.1470643864208
 30
0.0
 11
1038.389430444191
 21
396.1470643864208
 31
0.0
  0
TEXT
  5
E29
330
1E
100
AcDbEntity
  8
DIM
  6
CONTINUOUS
100
AcDbText
 10
983.1037161584768
 20
381.6470643864207
 30
0.0
 40
3.0
  1
110
  7
ROMANSS
 72
     1
 11
986.3894304441911
 21
383.1470643864207
 31
0.0
100
AcDbText
 73
     2
  0
TEXT
  5
E2A
330
1E
100
AcDbEntity
  8
DIM
  6
CONTINUOUS
100
AcDbText
 10
981.4608590156197
 20
397.6470643864208
 30
0.0
 40
3.0
  1
30
  7
ROMANSS
 72
     1
 11
983.8894304441913
 21
399.1470643864208
 31
0.0
100
AcDbText
 73
     2
  0
LINE
  5
E2B
330
1E
100
AcDbEntity
  8
DIM
  6
CONTINUOUS
100
AcDbLine
 10
1006.389430444191
 20
394.2241394441426
 30
0.0
 11
1006.389430444191
 21
387.1470643864208
 31
0.0
  0
SOLID
  5
E2C
330
1E
100
AcDbEntity
  8
DIM
  6
CONTINUOUS
100
AcDbTrace
 10
1003.389430444191
 20
388.6470643864208
 30
0.0
 11
1003.389430444191
 21
387.6470643864208
 31
0.0
 12
1006.389430444191
 22
388.1470643864208
 32
0.0
 13
1006.389430444191
 23
388.1470643864208
 33
0.0
  0
SOLID
  5
E2D
330
1E
100
AcDbEntity
  8
DIM
  6
CONTINUOUS
100
AcDbTrace
 10
1001.889430444191
 20
396.6470643864208
 30
0.0
 11
1001.889430444191
 21
395.6470643864208
 31
0.0
 12
998.8894304441911
 22
396.1470643864208
 32
0.0
 13
998.8894304441911
 23
396.1470643864208
 33
0.0
  0
LINE
  5
E2E
330
1E
100
AcDbEntity
  8
DIM
  6
CONTINUOUS
100
AcDbLine
 10
998.8894304441911
 20
400.1470643864205
 30
0.0
 11
998.8894304441911
 21
395.1470643864208
 31
0.0
  0
SOLID
  5
E2F
330
1E
100
AcDbEntity
  8
DIM
  6
CONTINUOUS
100
AcDbTrace
 10
995.8894304441912
 20
396.6470643864208
 30
0.0
 11
995.8894304441912
 21
395.6470643864208
 31
0.0
 12
998.8894304441911
 22
396.1470643864208
 32
0.0
 13
998.8894304441911
 23
396.1470643864208
 33
0.0
  0
LINE
  5
E30
330
1E
100
AcDbEntity
  8
DIM
  6
CONTINUOUS
100
AcDbLine
 10
998.8894304441911
 20
400.1470643864205
 30
0.0
 11
998.8894304441911
 21
395.1470643864208
 31
0.0
  0
TEXT
  5
E31
330
1E
100
AcDbEntity
  8
DIM
  6
CONTINUOUS
100
AcDbText
 10
1015.568001872762
 20
397.6470643864208
 30
0.0
 40
3.0
  1
42.5
  7
ROMANSS
 72
     1
 11
1020.139430444191
 21
399.1470643864208
 31
0.0
100
AcDbText
 73
     2
  0
SOLID
  5
E32
330
1E
100
AcDbEntity
  8
DIM
  6
CONTINUOUS
100
AcDbTrace
 10
1038.389430444191
 20
380.6470643864207
 30
0.0
 11
1038.389430444191
 21
379.6470643864207
 31
0.0
 12
1041.389430444191
 22
380.1470643864207
 32
0.0
 13
1041.389430444191
 23
380.1470643864207
 33
0.0
  0
SOLID
  5
E33
330
1E
100
AcDbEntity
  8
DIM
  6
CONTINUOUS
100
AcDbTrace
 10
1038.389430444191
 20
396.6470643864208
 30
0.0
 11
1038.389430444191
 21
395.6470643864208
 31
0.0
 12
1041.389430444191
 22
396.1470643864208
 32
0.0
 13
1041.389430444191
 23
396.1470643864208
 33
0.0
  0
POLYLINE
  5
E34
330
1E
100
AcDbEntity
  8
0
  6
CONTINUOUS
100
AcDb2dPolyline
 66
     1
 10
0.0
 20
0.0
 30
0.0
 70
     1
  0
VERTEX
  5
1843
330
E34
100
AcDbEntity
  8
0
  6
CONTINUOUS
100
AcDbVertex
100
AcDb2dVertex
 10
994.8300293674328
 20
427.3970643864206
 30
0.0
  0
VERTEX
  5
1844
330
E34
100
AcDbEntity
  8
0
  6
CONTINUOUS
100
AcDbVertex
100
AcDb2dVertex
 10
992.5206282906742
 20
423.3970643864206
 30
0.0
  0
VERTEX
  5
1845
330
E34
100
AcDbEntity
  8
0
  6
CONTINUOUS
100
AcDbVertex
100
AcDb2dVertex
 10
994.8300293674328
 20
419.3970643864206
 30
0.0
  0
VERTEX
  5
1846
330
E34
100
AcDbEntity
  8
0
  6
CONTINUOUS
100
AcDbVertex
100
AcDb2dVertex
 10
999.4488315209498
 20
419.3970643864206
 30
0.0
  0
VERTEX
  5
1847
330
E34
100
AcDbEntity
  8
0
  6
CONTINUOUS
100
AcDbVertex
100
AcDb2dVertex
 10
1001.758232597708
 20
423.3970643864206
 30
0.0
  0
VERTEX
  5
1848
330
E34
100
AcDbEntity
  8
0
  6
CONTINUOUS
100
AcDbVertex
100
AcDb2dVertex
 10
999.4488315209498
 20
427.3970643864206
 30
0.0
  0
SEQEND
  5
1849
330
E34
100
AcDbEntity
  8
0
  6
CONTINUOUS
  0
CIRCLE
  5
E3C
330
1E
100
AcDbEntity
  8
0
  6
CONTINUOUS
100
AcDbCircle
 10
997.1394304441913
 20
423.3970643864206
 30
0.0
 40
3.399999999999999
  0
ARC
  5
E3D
330
1E
100
AcDbEntity
  8
0
  6
CONTINUOUS
 62
     2
100
AcDbCircle
 10
997.1394304441913
 20
423.3970643864206
 30
0.0
 40
4.0
100
AcDbArc
 50
57.77418116062497
 51
14.45388115667581
  0
CIRCLE
  5
E3E
330
1E
100
AcDbEntity
  8
0
100
AcDbCircle
 10
997.1394304441913
 20
423.3970643864206
 30
0.0
 40
6.5
  0
ARC
  5
E3F
330
1E
100
AcDbEntity
  8
0
100
AcDbCircle
 10
997.1394304441913
 20
423.3970643864206
 30
0.0
 40
9.5
100
AcDbArc
 50
149.4775121859295
 51
205.5830019773826
  0
LINE
  5
E40
330
1E
100
AcDbEntity
  8
CENTER
  6
CENTER
100
AcDbLine
 10
997.1394304441913
 20
430.8970643864206
 30
0.0
 11
997.1394304441913
 21
415.8970643864206
 31
0.0
  0
LINE
  5
E41
330
1E
100
AcDbEntity
  8
0
100
AcDbLine
 10
978.8894304441912
 20
418.6470643864207
 30
0.0
 11
978.8894304441912
 21
430.0137567336368
 31
0.0
  0
LINE
  5
E42
330
1E
100
AcDbEntity
  8
CENTER
  6
CENTER
100
AcDbLine
 10
989.6394304441912
 20
423.3970643864206
 30
0.0
 11
1004.639430444191
 21
423.3970643864206
 31
0.0
  0
ARC
  5
E43
330
1E
100
AcDbEntity
  8
0
100
AcDbCircle
 10
980.3894304441913
 20
418.6470643864207
 30
0.0
 40
1.5
100
AcDbArc
 50
180.0
 51
270.0
  0
ARC
  5
E44
330
1E
100
AcDbEntity
  8
0
100
AcDbCircle
 10
987.2178630276991
 20
418.6470643864207
 30
0.0
 40
1.5
100
AcDbArc
 50
270.0
 51
25.58300197741426
  0
ARC
  5
E45
330
1E
100
AcDbEntity
  8
0
100
AcDbCircle
 10
996.8894304441912
 20
423.6470643864207
 30
0.0
 40
9.0
100
AcDbArc
 50
270.0
 51
0.0
  0
ARC
  5
E46
330
1E
100
AcDbEntity
  8
0
100
AcDbCircle
 10
996.8894304441912
 20
423.6470643864207
 30
0.0
 40
9.5
100
AcDbArc
 50
270.0
 51
0.0
  0
LINE
  5
E47
330
1E
100
AcDbEntity
  8
0
100
AcDbLine
 10
1001.889430444191
 20
441.6470643864205
 30
0.0
 11
990.5227380969751
 21
441.6470643864205
 31
0.0
  0
ARC
  5
E48
330
1E
100
AcDbEntity
  8
0
100
AcDbCircle
 10
997.1394304441913
 20
423.3970643864206
 30
0.0
 40
9.5
100
AcDbArc
 50
64.41699802260598
 51
120.5224878140703
  0
ARC
  5
E49
330
1E
100
AcDbEntity
  8
0
100
AcDbCircle
 10
988.0486117592772
 20
436.3769703678606
 30
0.0
 40
1.5
100
AcDbArc
 50
141.4447403397687
 51
225.0000000000015
  0
ARC
  5
E4A
330
1E
100
AcDbEntity
  8
0
100
AcDbCircle
 10
984.1595244627512
 20
432.4878830713347
 30
0.0
 40
1.5
100
AcDbArc
 50
45.00000000000152
 51
128.5552596602296
  0
ARC
  5
E4B
330
1E
100
AcDbEntity
  8
0
100
AcDbCircle
 10
980.3894304441913
 20
430.0137567336368
 30
0.0
 40
1.5
100
AcDbArc
 50
117.9945617322504
 51
180.0
  0
ARC
  5
E4C
330
1E
100
AcDbEntity
  8
0
100
AcDbCircle
 10
991.5527889267583
 20
432.8727932003795
 30
0.0
 40
1.5
100
AcDbArc
 50
225.0000000000015
 51
300.5224878140676
  0
ARC
  5
E4D
330
1E
100
AcDbEntity
  8
0
100
AcDbCircle
 10
987.6637016302323
 20
428.9837059038537
 30
0.0
 40
1.5
100
AcDbArc
 50
329.4775121859305
 51
45.00000000000152
  0
LINE
  5
E4E
330
1E
100
AcDbEntity
  8
0
100
AcDbLine
 10
985.2201846345311
 20
433.5485432431146
 30
0.0
 11
988.7243618020121
 21
430.0443660756335
 31
0.0
  0
LINE
  5
E4F
330
1E
100
AcDbEntity
  8
0
100
AcDbLine
 10
986.9879515874972
 20
435.3163101960809
 30
0.0
 11
990.4921287549784
 21
431.8121330285997
 31
0.0
  0
ARC
  5
E50
330
1E
100
AcDbEntity
  8
0
100
AcDbCircle
 10
990.5227380969751
 20
440.1470643864205
 30
0.0
 40
1.5
100
AcDbArc
 50
90.0
 51
152.0054382677456
  0
ARC
  5
E51
330
1E
100
AcDbEntity
  8
0
100
AcDbCircle
 10
1001.889430444191
 20
433.3186318029127
 30
0.0
 40
1.5
100
AcDbArc
 50
244.4169980225731
 51
0.0
  0
ARC
  5
E52
330
1E
100
AcDbEntity
  8
0
100
AcDbCircle
 10
1001.889430444191
 20
440.1470643864205
 30
0.0
 40
1.5
100
AcDbArc
 50
0.0
 51
90.0
  0
LINE
  5
E53
330
1E
100
AcDbEntity
  8
CENTER
  6
CENTER
100
AcDbLine
 10
1033.889430444191
 20
411.866883023638
 30
0.0
 11
1033.889430444191
 21
425.866883023638
 31
0.0
  0
LINE
  5
E54
330
1E
100
AcDbEntity
  8
0
100
AcDbLine
 10
1039.889430444191
 20
405.1470643864205
 30
0.0
 11
1039.889430444191
 21
414.1470643864206
 31
0.0
  0
LINE
  5
E55
330
1E
100
AcDbEntity
  8
0
  6
CONTINUOUS
100
AcDbLine
 10
1038.889430444191
 20
404.1470643864205
 30
0.0
 11
1039.889430444191
 21
405.1470643864205
 31
0.0
  0
SOLID
  5
E56
330
1E
100
AcDbEntity
  8
DIM
  6
CONTINUOUS
100
AcDbTrace
 10
1048.889430444191
 20
401.1470643864205
 30
0.0
 11
1049.889430444191
 21
401.1470643864205
 31
0.0
 12
1049.389430444191
 22
404.1470643864205
 32
0.0
 13
1049.389430444191
 23
404.1470643864205
 33
0.0
  0
TEXT
  5
E57
330
1E
100
AcDbEntity
  8
DIM
  6
CONTINUOUS
100
AcDbText
 10
1047.889430444191
 20
406.9963033115772
 30
0.0
 40
3.0
  1
10
 50
90.0
  7
ROMANSS
 72
     1
 11
1046.389430444191
 21
409.1391604544344
 31
0.0
100
AcDbText
 73
     2
  0
SOLID
  5
E58
330
1E
100
AcDbEntity
  8
DIM
  6
CONTINUOUS
100
AcDbTrace
 10
1056.889430444191
 20
407.1470643864206
 30
0.0
 11
1057.889430444191
 21
407.1470643864206
 31
0.0
 12
1057.389430444191
 22
404.1470643864205
 32
0.0
 13
1057.389430444191
 23
404.1470643864205
 33
0.0
  0
LINE
  5
E59
330
1E
100
AcDbEntity
  8
DIM
  6
CONTINUOUS
100
AcDbLine
 10
1042.389430444191
 20
414.1470643864206
 30
0.0
 11
1050.389430444191
 21
414.1470643864206
 31
0.0
  0
SOLID
  5
E5A
330
1E
100
AcDbEntity
  8
DIM
  6
CONTINUOUS
100
AcDbTrace
 10
1048.889430444191
 20
417.1470643864205
 30
0.0
 11
1049.889430444191
 21
417.1470643864205
 31
0.0
 12
1049.389430444191
 22
414.1470643864206
 32
0.0
 13
1049.389430444191
 23
414.1470643864206
 33
0.0
  0
LINE
  5
E5B
330
1E
100
AcDbEntity
  8
0
  6
CONTINUOUS
100
AcDbLine
 10
931.3894304441912
 20
489.1470643864208
 30
0.0
 11
1041.389430444191
 21
489.1470643864208
 31
0.0
  0
LINE
  5
E5C
330
1E
100
AcDbEntity
  8
0
  6
CONTINUOUS
100
AcDbLine
 10
958.8894304441913
 20
499.1470643864207
 30
0.0
 11
1038.889430444191
 21
499.1470643864207
 31
0.0
  0
LINE
  5
E5D
330
1E
100
AcDbEntity
  8
0
  6
CONTINUOUS
100
AcDbLine
 10
957.8894304441913
 20
498.1470643864208
 30
0.0
 11
1039.889430444191
 21
498.1470643864208
 31
0.0
  0
LINE
  5
E5E
330
1E
100
AcDbEntity
  8
0
100
AcDbLine
 10
971.3894304441913
 20
486.1470643864207
 30
0.0
 11
987.2178630276991
 21
486.1470643864207
 31
0.0
  0
LINE
  5
E5F
330
1E
100
AcDbEntity
  8
0
100
AcDbLine
 10
940.8894304441913
 20
488.6470643864206
 30
0.0
 11
996.8894304441912
 21
488.6470643864206
 31
0.0
  0
LINE
  5
E60
330
1E
100
AcDbEntity
  8
CENTER
  6
CENTER
100
AcDbLine
 10
928.3894304441913
 20
451.6470643864208
 30
0.0
 11
1044.389430444191
 21
451.6470643864206
 31
0.0
  0
LINE
  5
E61
330
1E
100
AcDbEntity
  8
DIM
  6
CONTINUOUS
100
AcDbLine
 10
761.093952382965
 20
629.8419640600152
 30
0.0
 11
761.093952382965
 21
693.8419640600152
 31
0.0
  0
LINE
  5
E62
330
1E
100
AcDbEntity
  8
0
100
AcDbLine
 10
711.6338413727658
 20
704.3419640600155
 30
0.0
 11
711.6338413727658
 21
594.3419640600152
 31
0.0
  0
LINE
  5
E63
330
1E
100
AcDbEntity
  8
0
100
AcDbLine
 10
823.1338413727655
 20
669.3419640600154
 30
0.0
 11
823.1338413727657
 21
594.3419640600154
 31
0.0
  0
LINE
  5
E64
330
1E
100
AcDbEntity
  8
0
100
AcDbLine
 10
860.1338413727658
 20
653.3419640600152
 30
0.0
 11
860.1338413727658
 21
610.3419640600152
 31
0.0
  0
LINE
  5
E65
330
1E
100
AcDbEntity
  8
0
100
AcDbLine
 10
855.1338413727656
 20
668.8419640600154
 30
0.0
 11
855.1338413727657
 21
594.8419640600154
 31
0.0
  0
LINE
  5
E66
330
1E
100
AcDbEntity
  8
0
100
AcDbLine
 10
823.1338413727655
 20
666.8419640600155
 30
0.0
 11
823.1338413727655
 21
596.8419640600155
 31
0.0
  0
LINE
  5
E67
330
1E
100
AcDbEntity
  8
DIM
  6
CONTINUOUS
100
AcDbLine
 10
709.6338413727657
 20
626.8419640600152
 30
0.0
 11
762.4108954679886
 21
626.8419640600152
 31
0.0
  0
LINE
  5
E68
330
1E
100
AcDbEntity
  8
0
100
AcDbLine
 10
711.6338413727658
 20
650.6320735185888
 30
0.0
 11
823.1338413727655
 21
650.6320735185888
 31
0.0
  0
LINE
  5
E69
330
1E
100
AcDbEntity
  8
0
100
AcDbLine
 10
711.6338413727658
 20
613.051854601442
 30
0.0
 11
823.1338413727655
 21
613.051854601442
 31
0.0
  0
LINE
  5
E6A
330
1E
100
AcDbEntity
  8
0
100
AcDbLine
 10
711.6338413727658
 20
596.8419640600155
 30
0.0
 11
823.1338413727655
 21
596.8419640600155
 31
0.0
  0
LINE
  5
E6B
330
1E
100
AcDbEntity
  8
0
100
AcDbLine
 10
711.6338413727658
 20
470.4371738449942
 30
0.0
 11
823.1338413727655
 21
470.4371738449942
 31
0.0
  0
LINE
  5
E6C
330
1E
100
AcDbEntity
  8
0
100
AcDbLine
 10
711.6338413727658
 20
486.6470643864207
 30
0.0
 11
823.1338413727655
 21
486.6470643864207
 31
0.0
  0
LINE
  5
E6D
330
1E
100
AcDbEntity
  8
0
100
AcDbLine
 10
678.6338413727655
 20
541.1470643864207
 30
0.0
 11
678.6338413727657
 21
500.1470643864207
 31
0.0
  0
LINE
  5
E6E
330
1E
100
AcDbEntity
  8
0
100
AcDbLine
 10
707.6338413727658
 20
498.1470643864208
 30
0.0
 11
707.6338413727658
 21
489.1470643864208
 31
0.0
  0
LINE
  5
E6F
330
1E
100
AcDbEntity
  8
CENTER
  6
CENTER
100
AcDbLine
 10
701.6338413727658
 20
491.4272457492034
 30
0.0
 11
701.6338413727658
 21
473.4134963775439
 31
0.0
  0
LINE
  5
E70
330
1E
100
AcDbEntity
  8
0
100
AcDbLine
 10
681.6338413727656
 20
500.1470643864207
 30
0.0
 11
681.6338413727656
 21
499.1470643864207
 31
0.0
  0
LINE
  5
E71
330
1E
100
AcDbEntity
  8
0
  6
CONTINUOUS
100
AcDbLine
 10
706.6338413727658
 20
499.1470643864207
 30
0.0
 11
707.6338413727658
 21
498.1470643864208
 31
0.0
  0
LINE
  5
E72
330
1E
100
AcDbEntity
  8
CENTER
  6
CENTER
100
AcDbLine
 10
688.1338413727657
 20
607.1683319947135
 30
0.0
 11
688.1338413727657
 21
582.5735235891634
 31
0.0
  0
LINE
  5
E73
330
1E
100
AcDbEntity
  8
DIM
  6
CONTINUOUS
100
AcDbLine
 10
678.6338413727655
 20
542.1470643864207
 30
0.0
 11
678.6338413727655
 21
559.1470643864207
 31
0.0
  0
SOLID
  5
E74
330
1E
100
AcDbEntity
  8
DIM
  6
CONTINUOUS
100
AcDbTrace
 10
675.6338413727656
 20
550.6470643864207
 30
0.0
 11
675.6338413727656
 21
549.6470643864207
 31
0.0
 12
678.6338413727655
 22
550.1470643864207
 32
0.0
 13
678.6338413727655
 23
550.1470643864207
 33
0.0
  0
LINE
  5
E75
330
1E
100
AcDbEntity
  8
DIM
  6
CONTINUOUS
100
AcDbLine
 10
678.6338413727655
 20
542.1470643864207
 30
0.0
 11
678.6338413727655
 21
551.1470643864207
 31
0.0
  0
LINE
  5
E76
330
1E
100
AcDbEntity
  8
0
  6
CONTINUOUS
100
AcDbLine
 10
677.6338413727655
 20
542.1470643864207
 30
0.0
 11
678.6338413727655
 21
541.1470643864207
 31
0.0
  0
SOLID
  5
E77
330
1E
100
AcDbEntity
  8
DIM
  6
CONTINUOUS
100
AcDbTrace
 10
675.6338413727656
 20
558.6470643864207
 30
0.0
 11
675.6338413727656
 21
557.6470643864207
 31
0.0
 12
678.6338413727655
 22
558.1470643864207
 32
0.0
 13
678.6338413727655
 23
558.1470643864207
 33
0.0
  0
ARC
  5
E78
330
1E
100
AcDbEntity
  8
0
  6
CONTINUOUS
100
AcDbCircle
 10
688.1278015820089
 20
579.3419652759844
 30
0.0
 40
14.99999999999999
100
AcDbArc
 50
70.50430776694636
 51
89.97692969770161
  0
ARC
  5
E79
330
1E
100
AcDbEntity
  8
0
  6
CONTINUOUS
100
AcDbCircle
 10
688.1278015820641
 20
604.341962844046
 30
0.0
 40
14.99999999999999
100
AcDbArc
 50
270.0230703022988
 51
289.4956922330539
  0
LINE
  5
E7A
330
1E
100
AcDbEntity
  8
0
  6
CONTINUOUS
100
AcDbLine
 10
693.1338413729191
 20
587.8419640600152
 30
0.0
 11
691.6338413729191
 21
586.3419640600152
 31
0.0
  0
LINE
  5
E7B
330
1E
100
AcDbEntity
  8
0
  6
CONTINUOUS
100
AcDbLine
 10
693.1338413729191
 20
587.8419640600152
 30
0.0
 11
683.1338413729191
 21
587.8419640600152
 31
0.0
  0
LINE
  5
E7C
330
1E
100
AcDbEntity
  8
0
  6
CONTINUOUS
100
AcDbLine
 10
696.3838413729192
 20
589.3419640600152
 30
0.0
 11
679.883841372919
 21
589.3419640600152
 31
0.0
  0
LINE
  5
E7D
330
1E
100
AcDbEntity
  8
0
  6
CONTINUOUS
100
AcDbLine
 10
683.1338413729191
 20
587.8419640600152
 30
0.0
 11
684.6338413729191
 21
586.3419640600152
 31
0.0
  0
ARC
  5
E7E
330
1E
100
AcDbEntity
  8
0
  6
CONTINUOUS
100
AcDbCircle
 10
688.1398811637189
 20
579.3419652759844
 30
0.0
 40
14.99999999999999
100
AcDbArc
 50
90.02307030229927
 51
109.4956922330544
  0
ARC
  5
E7F
330
1E
100
AcDbEntity
  8
0
  6
CONTINUOUS
100
AcDbCircle
 10
688.1398811637741
 20
604.341962844046
 30
0.0
 40
14.99999999999999
100
AcDbArc
 50
250.5043077669459
 51
269.9769296977011
  0
LINE
  5
E80
330
1E
100
AcDbEntity
  8
0
  6
CONTINUOUS
100
AcDbLine
 10
683.1338413729192
 20
593.4819640600342
 30
0.0
 11
683.1338413729191
 21
590.2019640600157
 31
0.0
  0
LINE
  5
E81
330
1E
100
AcDbEntity
  8
0
  6
CONTINUOUS
100
AcDbLine
 10
678.3338413729198
 20
593.4470448914558
 30
0.0
 11
678.3338413729198
 21
590.2368832286067
 31
0.0
  0
LINE
  5
E82
330
1E
100
AcDbEntity
  8
0
  6
CONTINUOUS
100
AcDbLine
 10
678.3338413728645
 20
593.4470448914237
 30
0.0
 11
679.8838413728637
 21
594.3419640600152
 31
0.0
  0
ARC
  5
E83
330
1E
100
AcDbEntity
  8
0
  6
CONTINUOUS
100
AcDbCircle
 10
680.8273821593664
 20
590.8201859766252
 30
0.0
 40
3.522047226932054
100
AcDbArc
 50
49.09072006652904
 51
119.2051441578367
  0
LINE
  5
E84
330
1E
100
AcDbEntity
  8
0
  6
CONTINUOUS
100
AcDbLine
 10
683.1338413729191
 20
589.3419640600152
 30
0.0
 11
683.1338413729191
 21
587.8419640600152
 31
0.0
  0
ARC
  5
E85
330
1E
100
AcDbEntity
  8
0
  6
CONTINUOUS
100
AcDbCircle
 10
680.8273821594217
 20
592.8637421434053
 30
0.0
 40
3.522047226932054
100
AcDbArc
 50
240.7948558421632
 51
310.9092799334709
  0
LINE
  5
E86
330
1E
100
AcDbEntity
  8
0
  6
CONTINUOUS
100
AcDbLine
 10
678.3338413729198
 20
590.2368832286067
 30
0.0
 11
679.8838413729192
 21
589.3419640600152
 31
0.0
  0
LINE
  5
E87
330
1E
100
AcDbEntity
  8
0
  6
CONTINUOUS
 62
     2
100
AcDbLine
 10
684.1338413729191
 20
589.3419640600152
 30
0.0
 11
684.1338413729191
 21
586.8419640600152
 31
0.0
  0
LINE
  5
E88
330
1E
100
AcDbEntity
  8
0
  6
CONTINUOUS
100
AcDbLine
 10
691.6338413729191
 20
586.3419640600152
 30
0.0
 11
684.633841372919
 21
586.3419640600152
 31
0.0
  0
LINE
  5
E89
330
1E
100
AcDbEntity
  8
0
  6
CONTINUOUS
100
AcDbLine
 10
697.9338413729184
 20
593.4470448913916
 30
0.0
 11
697.9338413729184
 21
590.2368832286067
 31
0.0
  0
LINE
  5
E8A
330
1E
100
AcDbEntity
  8
0
  6
CONTINUOUS
100
AcDbLine
 10
697.9338413728631
 20
593.4470448914237
 30
0.0
 11
696.3838413728637
 21
594.3419640600152
 31
0.0
  0
LINE
  5
E8B
330
1E
100
AcDbEntity
  8
0
  6
CONTINUOUS
100
AcDbLine
 10
697.9338413729184
 20
590.2368832286067
 30
0.0
 11
696.3838413729192
 21
589.3419640600152
 31
0.0
  0
LINE
  5
E8C
330
1E
100
AcDbEntity
  8
0
  6
CONTINUOUS
100
AcDbLine
 10
693.1338413729193
 20
593.481964059995
 30
0.0
 11
693.1338413729191
 21
590.2019640600157
 31
0.0
  0
LINE
  5
E8D
330
1E
100
AcDbEntity
  8
0
  6
CONTINUOUS
100
AcDbLine
 10
693.1338413729191
 20
589.3419640600152
 30
0.0
 11
693.1338413729191
 21
587.8419640600152
 31
0.0
  0
LINE
  5
E8E
330
1E
100
AcDbEntity
  8
0
  6
CONTINUOUS
 62
     2
100
AcDbLine
 10
692.1338413729191
 20
589.3419640600152
 30
0.0
 11
692.1338413729191
 21
586.8419640600152
 31
0.0
  0
ARC
  5
E8F
330
1E
100
AcDbEntity
  8
0
  6
CONTINUOUS
100
AcDbCircle
 10
695.4403005863611
 20
590.8201859766252
 30
0.0
 40
3.522047226932054
100
AcDbArc
 50
60.79485584216321
 51
130.9092799334709
  0
ARC
  5
E90
330
1E
100
AcDbEntity
  8
0
  6
CONTINUOUS
100
AcDbCircle
 10
695.4403005864166
 20
592.8637421434053
 30
0.0
 40
3.522047226932054
100
AcDbArc
 50
229.090720066529
 51
299.2051441578368
  0
LINE
  5
E91
330
1E
100
AcDbEntity
  8
CENTER
  6
CENTER
100
AcDbLine
 10
694.6338413727658
 20
626.8419640600152
 30
0.0
 11
708.6338413727657
 21
626.8419640600152
 31
0.0
  0
LINE
  5
E92
330
1E
100
AcDbEntity
  8
CENTER
  6
CENTER
100
AcDbLine
 10
701.6338413727658
 20
633.8419640600152
 30
0.0
 11
701.6338413727658
 21
619.8419640600152
 31
0.0
  0
CIRCLE
  5
E93
330
1E
100
AcDbEntity
  8
0
  6
CONTINUOUS
100
AcDbCircle
 10
701.6338413727658
 20
626.8419640600152
 30
0.0
 40
3.399999999999999
  0
ARC
  5
E94
330
1E
100
AcDbEntity
  8
0
  6
CONTINUOUS
 62
     2
100
AcDbCircle
 10
701.6338413727658
 20
626.8419640600152
 30
0.0
 40
4.0
100
AcDbArc
 50
65.67751702511931
 51
24.77142042572841
  0
LINE
  5
E95
330
1E
100
AcDbEntity
  8
CENTER
  6
CENTER
100
AcDbLine
 10
686.0792778553957
 20
642.3965275773853
 30
0.0
 11
694.5645592296344
 21
633.9112462031466
 31
0.0
  0
CIRCLE
  5
E96
330
1E
100
AcDbEntity
  8
0
  6
CONTINUOUS
100
AcDbCircle
 10
690.321918542515
 20
638.1538868902659
 30
0.0
 40
2.5
  0
ARC
  5
E97
330
1E
100
AcDbEntity
  8
0
  6
CONTINUOUS
 62
     2
100
AcDbCircle
 10
690.321918542515
 20
638.1538868902659
 30
0.0
 40
3.0
100
AcDbArc
 50
210.845012326004
 51
153.036401108983
  0
LINE
  5
E98
330
1E
100
AcDbEntity
  8
DIM
  6
CONTINUOUS
100
AcDbLine
 10
844.7428671892003
 20
467.5227490676187
 30
0.0
 11
866.3762318221504
 21
502.9861614426417
 31
0.0
  0
CIRCLE
  5
E99
330
1E
100
AcDbEntity
  8
0
100
AcDbCircle
 10
839.1338413727657
 20
458.6470643864209
 30
0.0
 40
6.5
  0
CIRCLE
  5
E9A
330
1E
100
AcDbEntity
  8
0
100
AcDbCircle
 10
839.1338413727657
 20
458.6470643864207
 30
0.0
 40
7.5
  0
ARC
  5
E9B
330
1E
100
AcDbEntity
  8
0
 62
     2
100
AcDbCircle
 10
839.1338413727657
 20
458.6470643864207
 30
0.0
 40
8.25
100
AcDbArc
 50
257.9248038369537
 51
198.6623931654444
  0
LINE
  5
E9C
330
1E
100
AcDbEntity
  8
0
100
AcDbLine
 10
823.1338413727657
 20
489.1470643864208
 30
0.0
 11
855.1338413727657
 21
488.6470643864207
 31
0.0
  0
LINE
  5
E9D
330
1E
100
AcDbEntity
  8
CENTER
  6
CENTER
100
AcDbLine
 10
826.6338413727657
 20
458.6470643864207
 30
0.0
 11
851.6338413727657
 21
458.6470643864207
 31
0.0
  0
CIRCLE
  5
E9E
330
1E
100
AcDbEntity
  8
0
100
AcDbCircle
 10
839.1338413727657
 20
458.6470643864207
 30
0.0
 40
8.499999999999957
  0
SOLID
  5
E9F
330
1E
100
AcDbEntity
  8
DIM
  6
CONTINUOUS
100
AcDbTrace
 10
867.6338413727657
 20
471.1470643864207
 30
0.0
 11
868.6338413727657
 21
471.1470643864207
 31
0.0
 12
868.1338413727658
 22
474.1470643864207
 32
0.0
 13
868.1338413727658
 23
474.1470643864207
 33
0.0
  0
SOLID
  5
EA0
330
1E
100
AcDbEntity
  8
DIM
  6
CONTINUOUS
100
AcDbTrace
 10
845.1697153388941
 20
467.2623634745015
 30
0.0
 11
844.3160190395065
 21
467.7831346607357
 31
0.0
 12
843.1805536304977
 22
464.9616601694556
 32
0.0
 13
843.1805536304977
 23
464.9616601694556
 33
0.0
  0
LINE
  5
EA1
330
1E
100
AcDbEntity
  8
0
100
AcDbLine
 10
855.1338413727656
 20
474.1470643864207
 30
0.0
 11
859.1338413727658
 21
474.1470643864207
 31
0.0
  0
LINE
  5
EA2
330
1E
100
AcDbEntity
  8
DIM
  6
CONTINUOUS
100
AcDbLine
 10
860.7583292100008
 20
474.1470643864207
 30
0.0
 11
869.1338413727658
 21
474.1470643864207
 31
0.0
  0
ARC
  5
EA3
330
1E
100
AcDbEntity
  8
0
100
AcDbCircle
 10
859.1338413727658
 20
473.1470643864208
 30
0.0
 40
1.0
100
AcDbArc
 50
0.0
 51
90.0
  0
TEXT
  5
EA4
330
1E
100
AcDbEntity
  8
DIM
  6
CONTINUOUS
100
AcDbText
 10
849.3736400653936
 20
504.4861614426418
 30
0.0
 40
3.0
  1
2-G3/8
  7
ROMANSS
 11
849.3736400653936
 21
505.9861614426417
 31
0.0
100
AcDbText
 73
     2
  0
LINE
  5
EA5
330
1E
100
AcDbEntity
  8
DIM
  6
CONTINUOUS
100
AcDbLine
 10
848.8344193896473
 20
502.9861614426417
 30
0.0
 11
866.3762318221504
 21
502.9861614426417
 31
0.0
  0
LINE
  5
EA6
330
1E
100
AcDbEntity
  8
DIM
  6
CONTINUOUS
100
AcDbLine
 10
937.1353834351182
 20
485.9538515382505
 30
0.0
 11
922.9514932872303
 21
508.7690241273984
 31
0.0
  0
LINE
  5
EA7
330
1E
100
AcDbEntity
  8
0
100
AcDbLine
 10
957.8894304441913
 20
498.1470643864208
 30
0.0
 11
957.8894304441913
 21
489.1470643864208
 31
0.0
  0
LINE
  5
EA8
330
1E
100
AcDbEntity
  8
CENTER
  6
CENTER
100
AcDbLine
 10
928.334708512423
 20
458.6470643864207
 30
0.0
 11
951.862793781949
 21
458.6470643864207
 31
0.0
  0
POLYLINE
  5
EA9
330
1E
100
AcDbEntity
  8
0
  6
CONTINUOUS
100
AcDb2dPolyline
 66
     1
 10
0.0
 20
0.0
 30
0.0
 70
     1
  0
VERTEX
  5
184A
330
EA9
100
AcDbEntity
  8
0
  6
CONTINUOUS
100
AcDbVertex
100
AcDb2dVertex
 10
938.3300293674329
 20
483.8970643864207
 30
0.0
  0
VERTEX
  5
184B
330
EA9
100
AcDbEntity
  8
0
  6
CONTINUOUS
100
AcDbVertex
100
AcDb2dVertex
 10
936.0206282906743
 20
479.8970643864207
 30
0.0
  0
VERTEX
  5
184C
330
EA9
100
AcDbEntity
  8
0
  6
CONTINUOUS
100
AcDbVertex
100
AcDb2dVertex
 10
938.3300293674329
 20
475.8970643864206
 30
0.0
  0
VERTEX
  5
184D
330
EA9
100
AcDbEntity
  8
0
  6
CONTINUOUS
100
AcDbVertex
100
AcDb2dVertex
 10
942.9488315209498
 20
475.8970643864206
 30
0.0
  0
VERTEX
  5
184E
330
EA9
100
AcDbEntity
  8
0
  6
CONTINUOUS
100
AcDbVertex
100
AcDb2dVertex
 10
945.2582325977083
 20
479.8970643864207
 30
0.0
  0
VERTEX
  5
184F
330
EA9
100
AcDbEntity
  8
0
  6
CONTINUOUS
100
AcDbVertex
100
AcDb2dVertex
 10
942.9488315209498
 20
483.8970643864207
 30
0.0
  0
SEQEND
  5
1850
330
EA9
100
AcDbEntity
  8
0
  6
CONTINUOUS
  0
CIRCLE
  5
EB1
330
1E
100
AcDbEntity
  8
0
  6
CONTINUOUS
100
AcDbCircle
 10
940.6394304441912
 20
479.8970643864207
 30
0.0
 40
3.399999999999999
  0
ARC
  5
EB2
330
1E
100
AcDbEntity
  8
0
  6
CONTINUOUS
 62
     2
100
AcDbCircle
 10
940.6394304441912
 20
479.8970643864207
 30
0.0
 40
4.0
100
AcDbArc
 50
57.77418116062497
 51
14.45388115667581
  0
CIRCLE
  5
EB3
330
1E
100
AcDbEntity
  8
0
100
AcDbCircle
 10
940.6394304441912
 20
479.8970643864207
 30
0.0
 40
6.5
  0
ARC
  5
EB4
330
1E
100
AcDbEntity
  8
0
100
AcDbCircle
 10
940.6394304441912
 20
479.8970643864207
 30
0.0
 40
9.5
100
AcDbArc
 50
244.4169980226013
 51
300.5224878140702
  0
LINE
  5
EB5
330
1E
100
AcDbEntity
  8
CENTER
  6
CENTER
100
AcDbLine
 10
933.1394304441912
 20
479.8970643864207
 30
0.0
 11
948.1394304441913
 21
479.8970643864207
 31
0.0
  0
LINE
  5
EB6
330
1E
100
AcDbEntity
  8
0
100
AcDbLine
 10
935.8894304441912
 20
452.6470643864207
 30
0.0
 11
944.0700831522097
 21
452.6470643864207
 31
0.0
  0
LINE
  5
EB7
330
1E
100
AcDbEntity
  8
0
100
AcDbLine
 10
935.8894304441912
 20
450.6470643864206
 30
0.0
 11
944.5173152302833
 21
450.6470643864206
 31
0.0
  0
ARC
  5
EB8
330
1E
100
AcDbEntity
  8
0
100
AcDbCircle
 10
935.8894304441912
 20
469.9754969699285
 30
0.0
 40
1.5
100
AcDbArc
 50
64.41699802260226
 51
180.0
  0
LINE
  5
EB9
330
1E
100
AcDbEntity
  8
0
100
AcDbLine
 10
934.3894304441912
 20
469.9754969699285
 30
0.0
 11
934.3894304441912
 21
454.1470643864206
 31
0.0
  0
ARC
  5
EBA
330
1E
100
AcDbEntity
  8
0
100
AcDbCircle
 10
935.8894304441912
 20
449.1470643864206
 30
0.0
 40
1.5
100
AcDbArc
 50
90.0
 51
180.0
  0
ARC
  5
EBB
330
1E
100
AcDbEntity
  8
0
100
AcDbCircle
 10
935.8894304441912
 20
454.1470643864206
 30
0.0
 40
1.5
100
AcDbArc
 50
180.0
 51
270.0
  0
LINE
  5
EBC
330
1E
100
AcDbEntity
  8
DIM
  6
CONTINUOUS
100
AcDbLine
 10
932.1394304441913
 20
479.8970643864207
 30
0.0
 11
913.9462838212496
 21
479.8970643864207
 31
0.0
  0
SOLID
  5
EBD
330
1E
100
AcDbEntity
  8
DIM
  6
CONTINUOUS
100
AcDbTrace
 10
914.8894304441911
 20
476.8970643864206
 30
0.0
 11
915.8894304441913
 21
476.8970643864206
 31
0.0
 12
915.3894304441912
 22
479.8970643864207
 32
0.0
 13
915.3894304441912
 23
479.8970643864207
 33
0.0
  0
LINE
  5
EBE
330
1E
100
AcDbEntity
  8
CENTER
  6
CENTER
100
AcDbLine
 10
940.6394304441912
 20
487.3970643864206
 30
0.0
 11
940.6394304441912
 21
472.3970643864206
 31
0.0
  0
ARC
  5
EBF
330
1E
100
AcDbEntity
  8
0
100
AcDbCircle
 10
940.8894304441913
 20
479.6470643864206
 30
0.0
 40
9.0
100
AcDbArc
 50
90.0
 51
180.0
  0
ARC
  5
EC0
330
1E
100
AcDbEntity
  8
0
100
AcDbCircle
 10
940.8894304441913
 20
479.6470643864206
 30
0.0
 40
9.5
100
AcDbArc
 50
90.0
 51
180.0
  0
LINE
  5
EC1
330
1E
100
AcDbEntity
  8
0
100
AcDbLine
 10
931.3894304441912
 20
476.6470643864206
 30
0.0
 11
931.8894304441911
 21
476.6470643864206
 31
0.0
  0
SOLID
  5
EC2
330
1E
100
AcDbEntity
  8
DIM
  6
CONTINUOUS
100
AcDbTrace
 10
937.5600137004164
 20
486.2178385413259
 30
0.0
 11
936.71075316982
 21
485.689864535175
 31
0.0
 12
938.719305453571
 22
483.4060699464612
 32
0.0
 13
938.719305453571
 23
483.4060699464612
 33
0.0
  0
LINE
  5
EC3
330
1E
100
AcDbEntity
  8
0
100
AcDbLine
 10
950.4778902503941
 20
468.2908376272513
 30
0.0
 11
947.2867321334041
 21
471.4819957442415
 31
0.0
  0
LINE
  5
EC4
330
1E
100
AcDbEntity
  8
0
100
AcDbLine
 10
952.5586762538514
 20
469.7455855297268
 30
0.0
 11
949.0544990863705
 21
473.2497626972079
 31
0.0
  0
ARC
  5
EC5
330
1E
100
AcDbEntity
  8
0
100
AcDbCircle
 10
944.0700831522097
 20
454.6470643864206
 30
0.0
 40
2.0
100
AcDbArc
 50
270.0
 51
353.1078974206534
  0
ARC
  5
EC6
330
1E
100
AcDbEntity
  8
0
100
AcDbCircle
 10
944.5173152302833
 20
449.1470643864206
 30
0.0
 40
1.5
100
AcDbArc
 50
5.856701909919038
 51
90.0
  0
ARC
  5
EC7
330
1E
100
AcDbEntity
  8
0
100
AcDbCircle
 10
949.0636766880211
 20
466.8766240648782
 30
0.0
 40
2.0
100
AcDbArc
 50
322.4695923164156
 51
45.0
  0
ARC
  5
EC8
330
1E
100
AcDbEntity
  8
0
100
AcDbCircle
 10
953.6193364256313
 20
470.8062457015065
 30
0.0
 40
1.5
100
AcDbArc
 50
225.0000000000015
 51
308.5552596602296
  0
LINE
  5
EC9
330
1E
100
AcDbEntity
  8
0
100
AcDbLine
 10
966.3894304441912
 20
486.1470643864207
 30
0.0
 11
950.5609978606832
 21
486.1470643864207
 31
0.0
  0
LINE
  5
ECA
330
1E
100
AcDbEntity
  8
0
100
AcDbLine
 10
958.8894304441913
 20
484.6470643864206
 30
0.0
 11
958.8894304441913
 21
473.2803720392045
 31
0.0
  0
ARC
  5
ECB
330
1E
100
AcDbEntity
  8
0
100
AcDbCircle
 10
940.6394304441912
 20
479.8970643864207
 30
0.0
 40
9.5
100
AcDbArc
 50
329.4775121859301
 51
25.58300197739308
  0
ARC
  5
ECC
330
1E
100
AcDbEntity
  8
0
100
AcDbCircle
 10
950.1151592581502
 20
474.3104228689877
 30
0.0
 40
1.5
100
AcDbArc
 50
149.4775121859305
 51
225.0000000000015
  0
ARC
  5
ECD
330
1E
100
AcDbEntity
  8
0
100
AcDbCircle
 10
946.2260719616242
 20
470.4213355724617
 30
0.0
 40
1.5
100
AcDbArc
 50
44.99999999999539
 51
120.5224878140676
  0
ARC
  5
ECE
330
1E
100
AcDbEntity
  8
0
100
AcDbCircle
 10
957.3894304441912
 20
473.2803720392045
 30
0.0
 40
1.5
100
AcDbArc
 50
297.9945617322504
 51
0.0
  0
ARC
  5
ECF
330
1E
100
AcDbEntity
  8
0
100
AcDbCircle
 10
950.5609978606832
 20
484.6470643864206
 30
0.0
 40
1.5
100
AcDbArc
 50
90.0
 51
205.5830019774278
  0
ARC
  5
ED0
330
1E
100
AcDbEntity
  8
0
100
AcDbCircle
 10
957.3894304441912
 20
484.6470643864206
 30
0.0
 40
1.5
100
AcDbArc
 50
0.0
 51
90.0
  0
LINE
  5
ED1
330
1E
100
AcDbEntity
  8
CENTER
  6
CENTER
100
AcDbLine
 10
963.8894304441912
 20
491.4272457492034
 30
0.0
 11
963.8894304441912
 21
477.4272457492034
 31
0.0
  0
LINE
  5
ED2
330
1E
100
AcDbEntity
  8
0
100
AcDbLine
 10
967.8894304441913
 20
484.6470643864206
 30
0.0
 11
967.8894304441913
 21
476.0191796003284
 31
0.0
  0
LINE
  5
ED3
330
1E
100
AcDbEntity
  8
0
100
AcDbLine
 10
969.8894304441912
 20
484.6470643864206
 30
0.0
 11
969.8894304441912
 21
476.0191796003284
 31
0.0
  0
ARC
  5
ED4
330
1E
100
AcDbEntity
  8
0
100
AcDbCircle
 10
966.3894304441912
 20
476.0191796003284
 30
0.0
 40
1.5
100
AcDbArc
 50
275.8567019099213
 51
0.0
  0
ARC
  5
ED5
330
1E
100
AcDbEntity
  8
0
100
AcDbCircle
 10
971.3894304441913
 20
476.0191796003284
 30
0.0
 40
1.5
100
AcDbArc
 50
180.0
 51
264.1432980900785
  0
ARC
  5
ED6
330
1E
100
AcDbEntity
  8
0
100
AcDbCircle
 10
966.3894304441912
 20
484.6470643864206
 30
0.0
 40
1.5
100
AcDbArc
 50
0.0
 51
90.0
  0
ARC
  5
ED7
330
1E
100
AcDbEntity
  8
0
100
AcDbCircle
 10
971.3894304441913
 20
484.6470643864206
 30
0.0
 40
1.5
100
AcDbArc
 50
90.0
 51
180.0
  0
TEXT
  5
ED8
330
1E
100
AcDbEntity
  8
DIM
  6
CONTINUOUS
100
AcDbText
 10
921.4138264046905
 20
510.2690241273983
 30
0.0
 40
3.0
  1
2x4-M8x15L
  7
ROMANSS
 72
     2
 11
948.8423978332619
 21
511.7690241273983
 31
0.0
100
AcDbText
 73
     2
  0
LINE
  5
ED9
330
1E
100
AcDbEntity
  8
DIM
  6
CONTINUOUS
100
AcDbLine
 10
948.9929461821878
 20
508.7690241273984
 30
0.0
 11
922.9514932872303
 21
508.7690241273984
 31
0.0
  0
LINE
  5
EDA
330
1E
100
AcDbEntity
  8
0
  6
CONTINUOUS
100
AcDbLine
 10
958.8894304441913
 20
499.1470643864207
 30
0.0
 11
957.8894304441913
 21
498.1470643864208
 31
0.0
  0
LINE
  5
EDB
330
1E
100
AcDbEntity
  8
0
100
AcDbLine
 10
823.1338413727657
 20
594.3419640600154
 30
0.0
 11
855.1338413727657
 21
594.8419640600154
 31
0.0
  0
SOLID
  5
EDC
330
1E
100
AcDbEntity
  8
DIM
  6
CONTINUOUS
100
AcDbTrace
 10
760.593952382965
 20
629.8419640600152
 30
0.0
 11
761.593952382965
 21
629.8419640600152
 31
0.0
 12
761.093952382965
 22
626.8419640600152
 32
0.0
 13
761.093952382965
 23
626.8419640600152
 33
0.0
  0
LINE
  5
EDD
330
1E
100
AcDbEntity
  8
0
100
AcDbLine
 10
855.1338413727657
 20
609.3419640600152
 30
0.0
 11
859.1338413727658
 21
609.3419640600152
 31
0.0
  0
ARC
  5
EDE
330
1E
100
AcDbEntity
  8
0
100
AcDbCircle
 10
859.1338413727658
 20
610.3419640600152
 30
0.0
 40
1.0
100
AcDbArc
 50
270.0
 51
0.0
  0
LINE
  5
EDF
330
1E
100
AcDbEntity
  8
DIM
  6
CONTINUOUS
100
AcDbLine
 10
709.6338413727657
 20
696.8419640600152
 30
0.0
 11
762.4108954679886
 21
696.8419640600152
 31
0.0
  0
LINE
  5
EE0
330
1E
100
AcDbEntity
  8
0
100
AcDbLine
 10
711.6338413727658
 20
666.8419640600152
 30
0.0
 11
823.1338413727655
 21
666.8419640600152
 31
0.0
  0
LINE
  5
EE1
330
1E
100
AcDbEntity
  8
DIM
  6
CONTINUOUS
100
AcDbLine
 10
734.9805781439124
 20
685.3316440718217
 30
0.0
 11
754.355527854419
 21
685.3316440718217
 31
0.0
  0
TEXT
  5
EE2
330
1E
100
AcDbEntity
  8
DIM
  6
CONTINUOUS
100
AcDbText
 10
737.7505376701305
 20
686.8316440718217
 30
0.0
 40
3.0
  1
M8x15L
  7
ROMANSS
 11
737.7505376701305
 21
688.3316440718218
 31
0.0
100
AcDbText
 73
     2
  0
TEXT
  5
EE3
330
1E
100
AcDbEntity
  8
DIM
  6
CONTINUOUS
100
AcDbText
 10
719.5910342240213
 20
714.386428227898
 30
0.0
 40
3.0
  1
2x4-M8x15L
  7
ROMANSS
 11
719.5910342240213
 21
715.886428227898
 31
0.0
100
AcDbText
 73
     2
  0
LINE
  5
EE4
330
1E
100
AcDbEntity
  8
DIM
  6
CONTINUOUS
100
AcDbLine
 10
719.5010342240213
 20
712.886428227898
 30
0.0
 11
744.2160342240213
 21
712.886428227898
 31
0.0
  0
CIRCLE
  5
EE5
330
1E
100
AcDbEntity
  8
0
  6
CONTINUOUS
100
AcDbCircle
 10
701.6338413727658
 20
696.8419640600152
 30
0.0
 40
3.399999999999999
  0
ARC
  5
EE6
330
1E
100
AcDbEntity
  8
0
  6
CONTINUOUS
 62
     2
100
AcDbCircle
 10
701.6338413727658
 20
696.8419640600152
 30
0.0
 40
4.0
100
AcDbArc
 50
155.6775170251192
 51
114.7714204257284
  0
LINE
  5
EE7
330
1E
100
AcDbEntity
  8
CENTER
  6
CENTER
100
AcDbLine
 10
701.6338413727658
 20
703.8419640600152
 30
0.0
 11
701.6338413727658
 21
689.8419640600153
 31
0.0
  0
LINE
  5
EE8
330
1E
100
AcDbEntity
  8
CENTER
  6
CENTER
100
AcDbLine
 10
694.6338413727658
 20
696.8419640600152
 30
0.0
 11
708.6338413727657
 21
696.8419640600152
 31
0.0
  0
LINE
  5
EE9
330
1E
100
AcDbEntity
  8
DIM
  6
CONTINUOUS
100
AcDbLine
 10
715.6338413727658
 20
661.8419640600152
 30
0.0
 11
735.3292525779975
 21
661.8419640600152
 31
0.0
  0
SOLID
  5
EEA
330
1E
100
AcDbEntity
  8
DIM
  6
CONTINUOUS
100
AcDbTrace
 10
733.7629011130795
 20
664.830148461652
 30
0.0
 11
734.7626555927952
 21
664.8523065366721
 31
0.0
 12
734.3292525779975
 22
661.8419640600152
 32
0.0
 13
734.3292525779975
 23
661.8419640600152
 33
0.0
  0
LINE
  5
EEB
330
1E
100
AcDbEntity
  8
DIM
  6
CONTINUOUS
100
AcDbLine
 10
706.6548101138407
 20
701.694787159151
 30
0.0
 11
716.5010342240214
 21
712.886428227898
 31
0.0
  0
LINE
  5
EEC
330
1E
100
AcDbEntity
  8
DIM
  6
CONTINUOUS
100
AcDbLine
 10
701.6338413727658
 20
704.8419640600152
 30
0.0
 11
701.6338413727658
 21
713.3419640600155
 31
0.0
  0
SOLID
  5
EED
330
1E
100
AcDbEntity
  8
DIM
  6
CONTINUOUS
100
AcDbTrace
 10
707.0302071272172
 20
701.3645189615479
 30
0.0
 11
706.2794131004643
 21
702.0250553567541
 31
0.0
 12
704.6732009282218
 22
699.4424050788922
 32
0.0
 13
704.6732009282218
 23
699.4424050788922
 33
0.0
  0
SOLID
  5
EEE
330
1E
100
AcDbEntity
  8
DIM
  6
CONTINUOUS
100
AcDbTrace
 10
698.6338413727658
 20
712.8419640600155
 30
0.0
 11
698.6338413727658
 21
711.8419640600154
 31
0.0
 12
701.6338413727658
 22
712.3419640600154
 32
0.0
 13
701.6338413727658
 23
712.3419640600154
 33
0.0
  0
LINE
  5
EEF
330
1E
100
AcDbEntity
  8
DIM
  6
CONTINUOUS
100
AcDbLine
 10
716.5010342240214
 20
712.886428227898
 30
0.0
 11
719.5010342240213
 21
712.886428227898
 31
0.0
  0
LINE
  5
EF0
330
1E
100
AcDbEntity
  8
0
100
AcDbLine
 10
823.1338413727657
 20
669.3419640600154
 30
0.0
 11
855.1338413727657
 21
668.8419640600154
 31
0.0
  0
LINE
  5
EF1
330
1E
100
AcDbEntity
  8
0
100
AcDbLine
 10
855.1338413727656
 20
654.3419640600152
 30
0.0
 11
859.1338413727658
 21
654.3419640600152
 31
0.0
  0
TEXT
  5
EF2
330
1E
100
AcDbEntity
  8
DIM
  6
CONTINUOUS
100
AcDbText
 10
759.5939523829651
 20
669.2599537519253
 30
0.0
 40
3.0
  1
70
 50
90.0
  7
ROMANSS
 72
     1
 11
758.093952382965
 21
671.6885251804967
 31
0.0
100
AcDbText
 73
     2
  0
ARC
  5
EF3
330
1E
100
AcDbEntity
  8
0
100
AcDbCircle
 10
859.1338413727658
 20
653.3419640600152
 30
0.0
 40
1.0
100
AcDbArc
 50
0.0
 51
90.0
  0
SOLID
  5
EF4
330
1E
100
AcDbEntity
  8
DIM
  6
CONTINUOUS
100
AcDbTrace
 10
760.593952382965
 20
693.8419640600152
 30
0.0
 11
761.593952382965
 21
693.8419640600152
 31
0.0
 12
761.093952382965
 22
696.8419640600152
 32
0.0
 13
761.093952382965
 23
696.8419640600152
 33
0.0
  0
SOLID
  5
EF5
330
1E
100
AcDbEntity
  8
DIM
  6
CONTINUOUS
100
AcDbTrace
 10
1056.889430444191
 20
539.1470643864208
 30
0.0
 11
1057.889430444191
 21
539.1470643864208
 31
0.0
 12
1057.389430444191
 22
542.1470643864207
 32
0.0
 13
1057.389430444191
 23
542.1470643864207
 33
0.0
  0
LINE
  5
EF6
330
1E
100
AcDbEntity
  8
0
100
AcDbLine
 10
986.8894304441912
 20
541.1470643864207
 30
0.0
 11
986.8894304441912
 21
500.1470643864207
 31
0.0
  0
LINE
  5
EF7
330
1E
100
AcDbEntity
  8
0
100
AcDbLine
 10
1010.889430444191
 20
541.1470643864207
 30
0.0
 11
1010.889430444191
 21
500.1470643864207
 31
0.0
  0
LINE
  5
EF8
330
1E
100
AcDbEntity
  8
DIM
  6
CONTINUOUS
100
AcDbLine
 10
1039.889430444191
 20
499.1470643864208
 30
0.0
 11
1050.389430444191
 21
499.1470643864208
 31
0.0
  0
LINE
  5
EF9
330
1E
100
AcDbEntity
  8
0
100
AcDbLine
 10
1039.889430444191
 20
498.1470643864208
 30
0.0
 11
1039.889430444191
 21
489.1470643864208
 31
0.0
  0
ARC
  5
EFA
330
1E
100
AcDbEntity
  8
0
100
AcDbCircle
 10
1001.889430444191
 20
469.9754969699285
 30
0.0
 40
1.5
100
AcDbArc
 50
0.0
 51
115.5830019774171
  0
LINE
  5
EFB
330
1E
100
AcDbEntity
  8
0
100
AcDbLine
 10
986.9879515874975
 20
467.9778185767604
 30
0.0
 11
990.4921287549784
 21
471.4819957442415
 31
0.0
  0
LINE
  5
EFC
330
1E
100
AcDbEntity
  8
0
100
AcDbLine
 10
985.2201846345311
 20
469.7455855297268
 30
0.0
 11
988.7243618020121
 21
473.2497626972079
 31
0.0
  0
ARC
  5
EFD
330
1E
100
AcDbEntity
  8
0
100
AcDbCircle
 10
997.1394304441913
 20
479.8970643864207
 30
0.0
 40
9.5
100
AcDbArc
 50
239.4775121859296
 51
295.583001977388
  0
LINE
  5
EFE
330
1E
100
AcDbEntity
  8
0
100
AcDbLine
 10
1001.889430444191
 20
461.6470643864206
 30
0.0
 11
990.5227380969751
 21
461.6470643864206
 31
0.0
  0
ARC
  5
EFF
330
1E
100
AcDbEntity
  8
0
100
AcDbCircle
 10
993.261545658099
 20
454.1470643864206
 30
0.0
 40
1.5
100
AcDbArc
 50
185.856701909919
 51
270.0
  0
ARC
  5
F00
330
1E
100
AcDbEntity
  8
0
100
AcDbCircle
 10
993.261545658099
 20
449.1470643864205
 30
0.0
 40
1.5
100
AcDbArc
 50
90.0
 51
174.1432980900809
  0
ARC
  5
F01
330
1E
100
AcDbEntity
  8
0
100
AcDbCircle
 10
984.1595244627512
 20
470.8062457015065
 30
0.0
 40
1.5
100
AcDbArc
 50
231.4447403397704
 51
314.9999999999984
  0
ARC
  5
F02
330
1E
100
AcDbEntity
  8
0
100
AcDbCircle
 10
990.5227380969751
 20
463.1470643864206
 30
0.0
 40
1.5
100
AcDbArc
 50
207.9945617322543
 51
270.0
  0
ARC
  5
F03
330
1E
100
AcDbEntity
  8
0
100
AcDbCircle
 10
988.0486117592772
 20
466.9171584049805
 30
0.0
 40
1.5
100
AcDbArc
 50
134.9999999999984
 51
218.5552596602312
  0
LINE
  5
F04
330
1E
100
AcDbEntity
  8
0
100
AcDbLine
 10
1003.389430444191
 20
454.1470643864206
 30
0.0
 11
1003.389430444191
 21
469.9754969699285
 31
0.0
  0
LINE
  5
F05
330
1E
100
AcDbEntity
  8
0
100
AcDbLine
 10
1001.889430444191
 20
452.6470643864207
 30
0.0
 11
993.261545658099
 21
452.6470643864207
 31
0.0
  0
LINE
  5
F06
330
1E
100
AcDbEntity
  8
0
100
AcDbLine
 10
1001.889430444191
 20
450.6470643864205
 30
0.0
 11
993.261545658099
 21
450.6470643864205
 31
0.0
  0
ARC
  5
F07
330
1E
100
AcDbEntity
  8
0
100
AcDbCircle
 10
1001.889430444191
 20
454.1470643864206
 30
0.0
 40
1.5
100
AcDbArc
 50
270.0
 51
0.0
  0
ARC
  5
F08
330
1E
100
AcDbEntity
  8
0
100
AcDbCircle
 10
1001.889430444191
 20
449.1470643864205
 30
0.0
 40
1.5
100
AcDbArc
 50
0.0
 51
90.0
  0
ARC
  5
F09
330
1E
100
AcDbEntity
  8
0
100
AcDbCircle
 10
1001.889430444191
 20
463.1470643864206
 30
0.0
 40
1.5
100
AcDbArc
 50
270.0
 51
0.0
  0
POLYLINE
  5
F0A
330
1E
100
AcDbEntity
  8
0
  6
CONTINUOUS
100
AcDb2dPolyline
 66
     1
 10
0.0
 20
0.0
 30
0.0
 70
     1
  0
VERTEX
  5
1851
330
F0A
100
AcDbEntity
  8
0
  6
CONTINUOUS
100
AcDbVertex
100
AcDb2dVertex
 10
994.8300293674328
 20
483.8970643864207
 30
0.0
  0
VERTEX
  5
1852
330
F0A
100
AcDbEntity
  8
0
  6
CONTINUOUS
100
AcDbVertex
100
AcDb2dVertex
 10
992.5206282906742
 20
479.8970643864207
 30
0.0
  0
VERTEX
  5
1853
330
F0A
100
AcDbEntity
  8
0
  6
CONTINUOUS
100
AcDbVertex
100
AcDb2dVertex
 10
994.8300293674328
 20
475.8970643864206
 30
0.0
  0
VERTEX
  5
1854
330
F0A
100
AcDbEntity
  8
0
  6
CONTINUOUS
100
AcDbVertex
100
AcDb2dVertex
 10
999.4488315209498
 20
475.8970643864206
 30
0.0
  0
VERTEX
  5
1855
330
F0A
100
AcDbEntity
  8
0
  6
CONTINUOUS
100
AcDbVertex
100
AcDb2dVertex
 10
1001.758232597708
 20
479.8970643864207
 30
0.0
  0
VERTEX
  5
1856
330
F0A
100
AcDbEntity
  8
0
  6
CONTINUOUS
100
AcDbVertex
100
AcDb2dVertex
 10
999.4488315209498
 20
483.8970643864207
 30
0.0
  0
SEQEND
  5
1857
330
F0A
100
AcDbEntity
  8
0
  6
CONTINUOUS
  0
CIRCLE
  5
F12
330
1E
100
AcDbEntity
  8
0
100
AcDbCircle
 10
997.1394304441913
 20
479.8970643864207
 30
0.0
 40
6.5
  0
LINE
  5
F13
330
1E
100
AcDbEntity
  8
CENTER
  6
CENTER
100
AcDbLine
 10
989.6394304441912
 20
479.8970643864207
 30
0.0
 11
1004.639430444191
 21
479.8970643864207
 31
0.0
  0
ARC
  5
F14
330
1E
100
AcDbEntity
  8
0
100
AcDbCircle
 10
997.1394304441913
 20
479.8970643864207
 30
0.0
 40
9.5
100
AcDbArc
 50
154.4169980226118
 51
210.5224878140705
  0
LINE
  5
F15
330
1E
100
AcDbEntity
  8
0
100
AcDbLine
 10
978.8894304441912
 20
484.6470643864206
 30
0.0
 11
978.8894304441912
 21
473.2803720392045
 31
0.0
  0
ARC
  5
F16
330
1E
100
AcDbEntity
  8
0
100
AcDbCircle
 10
980.3894304441913
 20
473.2803720392045
 30
0.0
 40
1.5
100
AcDbArc
 50
180.0
 51
242.0054382677495
  0
ARC
  5
F17
330
1E
100
AcDbEntity
  8
0
100
AcDbCircle
 10
987.6637016302323
 20
474.3104228689877
 30
0.0
 40
1.5
100
AcDbArc
 50
314.9999999999984
 51
30.52248781406947
  0
ARC
  5
F18
330
1E
100
AcDbEntity
  8
0
100
AcDbCircle
 10
991.5527889267584
 20
470.4213355724617
 30
0.0
 40
1.5
100
AcDbArc
 50
59.47751218593239
 51
134.9999999999984
  0
ARC
  5
F19
330
1E
100
AcDbEntity
  8
0
100
AcDbCircle
 10
980.3894304441913
 20
484.6470643864206
 30
0.0
 40
1.5
100
AcDbArc
 50
90.0
 51
180.0
  0
ARC
  5
F1A
330
1E
100
AcDbEntity
  8
0
100
AcDbCircle
 10
987.2178630276991
 20
484.6470643864206
 30
0.0
 40
1.5
100
AcDbArc
 50
334.4169980225799
 51
90.0
  0
CIRCLE
  5
F1B
330
1E
100
AcDbEntity
  8
0
  6
CONTINUOUS
100
AcDbCircle
 10
997.1394304441913
 20
479.8970643864207
 30
0.0
 40
3.399999999999999
  0
ARC
  5
F1C
330
1E
100
AcDbEntity
  8
0
  6
CONTINUOUS
 62
     2
100
AcDbCircle
 10
997.1394304441913
 20
479.8970643864207
 30
0.0
 40
4.0
100
AcDbArc
 50
57.77418116062497
 51
14.45388115667581
  0
LINE
  5
F1D
330
1E
100
AcDbEntity
  8
CENTER
  6
CENTER
100
AcDbLine
 10
997.1394304441913
 20
487.3970643864206
 30
0.0
 11
997.1394304441913
 21
472.3970643864206
 31
0.0
  0
ARC
  5
F1E
330
1E
100
AcDbEntity
  8
0
100
AcDbCircle
 10
996.8894304441912
 20
479.6470643864206
 30
0.0
 40
9.0
100
AcDbArc
 50
0.0
 51
90.0
  0
ARC
  5
F1F
330
1E
100
AcDbEntity
  8
0
100
AcDbCircle
 10
996.8894304441912
 20
479.6470643864206
 30
0.0
 40
9.5
100
AcDbArc
 50
0.0
 51
90.0
  0
LINE
  5
F20
330
1E
100
AcDbEntity
  8
CENTER
  6
CENTER
100
AcDbLine
 10
1033.889430444191
 20
491.4272457492034
 30
0.0
 11
1033.889430444191
 21
477.4272457492034
 31
0.0
  0
LINE
  5
F21
330
1E
100
AcDbEntity
  8
0
  6
CONTINUOUS
100
AcDbLine
 10
983.8894304441913
 20
500.1470643864207
 30
0.0
 11
1013.889430444191
 21
500.1470643864207
 31
0.0
  0
LINE
  5
F22
330
1E
100
AcDbEntity
  8
0
100
AcDbLine
 10
983.8894304441913
 20
500.1470643864208
 30
0.0
 11
983.8894304441913
 21
499.1470643864208
 31
0.0
  0
LINE
  5
F23
330
1E
100
AcDbEntity
  8
0
100
AcDbLine
 10
1013.889430444191
 20
500.1470643864207
 30
0.0
 11
1013.889430444191
 21
499.1470643864207
 31
0.0
  0
LINE
  5
F24
330
1E
100
AcDbEntity
  8
0
  6
CONTINUOUS
100
AcDbLine
 10
1038.889430444191
 20
499.1470643864207
 30
0.0
 11
1039.889430444191
 21
498.1470643864208
 31
0.0
  0
TEXT
  5
F25
330
1E
100
AcDbEntity
  8
DIM
  6
CONTINUOUS
100
AcDbText
 10
1047.889430444191
 20
491.7264293598067
 30
0.0
 40
3.0
  1
10
 50
90.0
  7
ROMANSS
 72
     1
 11
1046.389430444191
 21
493.8692865026638
 31
0.0
100
AcDbText
 73
     2
  0
TEXT
  5
F26
330
1E
100
AcDbEntity
  8
DIM
  6
CONTINUOUS
100
AcDbText
 10
1055.889430444191
 20
469.575635814992
 30
0.0
 40
3.0
  1
138
 50
90.0
  7
ROMANSS
 72
     1
 11
1054.389430444191
 21
473.1470643864206
 31
0.0
100
AcDbText
 73
     2
  0
TEXT
  5
F27
330
1E
100
AcDbEntity
  8
DIM
  6
CONTINUOUS
100
AcDbText
 10
1047.889430444191
 20
449.0756510693388
 30
0.0
 40
3.0
  1
75
 50
90.0
  7
ROMANSS
 72
     1
 11
1046.389430444191
 21
451.5042224979103
 31
0.0
100
AcDbText
 73
     2
  0
LINE
  5
F28
330
1E
100
AcDbEntity
  8
DIM
  6
CONTINUOUS
100
AcDbLine
 10
1042.389430444191
 20
489.1470643864208
 30
0.0
 11
1050.389430444191
 21
489.1470643864208
 31
0.0
  0
SOLID
  5
F29
330
1E
100
AcDbEntity
  8
DIM
  6
CONTINUOUS
100
AcDbTrace
 10
1048.889430444191
 20
486.1470643864207
 30
0.0
 11
1049.889430444191
 21
486.1470643864207
 31
0.0
 12
1049.389430444191
 22
489.1470643864208
 32
0.0
 13
1049.389430444191
 23
489.1470643864208
 33
0.0
  0
SOLID
  5
F2A
330
1E
100
AcDbEntity
  8
DIM
  6
CONTINUOUS
100
AcDbTrace
 10
1048.889430444191
 20
502.1470643864208
 30
0.0
 11
1049.889430444191
 21
502.1470643864208
 31
0.0
 12
1049.389430444191
 22
499.1470643864208
 32
0.0
 13
1049.389430444191
 23
499.1470643864208
 33
0.0
  0
LINE
  5
F2B
330
1E
100
AcDbEntity
  8
DIM
  6
CONTINUOUS
100
AcDbLine
 10
1010.889430444191
 20
542.1470643864207
 30
0.0
 11
1058.389430444191
 21
542.1470643864207
 31
0.0
  0
LINE
  5
F2C
330
1E
100
AcDbEntity
  8
0
  6
CONTINUOUS
100
AcDbLine
 10
987.8894304441912
 20
542.1470643864207
 30
0.0
 11
1009.889430444191
 21
542.1470643864207
 31
0.0
  0
LINE
  5
F2D
330
1E
100
AcDbEntity
  8
0
  6
CONTINUOUS
100
AcDbLine
 10
986.8894304441912
 20
541.1470643864207
 30
0.0
 11
1010.889430444191
 21
541.1470643864207
 31
0.0
  0
LINE
  5
F2E
330
1E
100
AcDbEntity
  8
0
  6
CONTINUOUS
100
AcDbLine
 10
987.8894304441912
 20
542.1470643864207
 30
0.0
 11
986.8894304441912
 21
541.1470643864207
 31
0.0
  0
LINE
  5
F2F
330
1E
100
AcDbEntity
  8
0
  6
CONTINUOUS
100
AcDbLine
 10
1009.889430444191
 20
542.1470643864207
 30
0.0
 11
1010.889430444191
 21
541.1470643864207
 31
0.0
  0
TEXT
  5
F30
330
1E
100
AcDbEntity
  8
DIM
  6
CONTINUOUS
100
AcDbText
 10
659.9110137671888
 20
731.4980489007475
 30
0.0
 40
3.0
  1
180%%p5%%d
  7
ROMANSS
 72
     1
 11
667.4824423386174
 21
732.9980489007475
 31
0.0
100
AcDbText
 73
     2
  0
LINE
  5
F33
330
1E
100
AcDbEntity
  8
HIDDEN
  6
HIDDEN
100
AcDbLine
 10
855.1338413727661
 20
599.5919640600154
 30
0.0
 11
837.1338413727659
 21
599.5919640600154
 31
0.0
  0
LINE
  5
F34
330
1E
100
AcDbEntity
  8
HIDDEN
  6
HIDDEN
100
AcDbLine
 10
855.1338413727661
 20
607.5919640600154
 30
0.0
 11
837.1338413727659
 21
607.5919640600154
 31
0.0
  0
LINE
  5
F35
330
1E
100
AcDbEntity
  8
CENTER
  6
CENTER
100
AcDbLine
 10
823.1338413727661
 20
603.5919640600152
 30
0.0
 11
858.1338413727662
 21
603.5919640600152
 31
0.0
  0
LINE
  5
F36
330
1E
100
AcDbEntity
  8
HIDDEN
  6
HIDDEN
100
AcDbLine
 10
849.133841372766
 20
599.5919640600154
 30
0.0
 11
849.133841372766
 21
607.5919640600154
 31
0.0
  0
LINE
  5
F37
330
1E
100
AcDbEntity
  8
HIDDEN
  6
HIDDEN
100
AcDbLine
 10
834.133841372766
 20
606.9919640600153
 30
0.0
 11
832.1708504575212
 21
603.5919640600154
 31
0.0
  0
LINE
  5
F38
330
1E
100
AcDbEntity
  8
HIDDEN
  6
HIDDEN
100
AcDbLine
 10
834.133841372766
 20
600.1919640600154
 30
0.0
 11
834.133841372766
 21
606.9919640600153
 31
0.0
  0
LINE
  5
F39
330
1E
100
AcDbEntity
  8
HIDDEN
  6
HIDDEN
100
AcDbLine
 10
837.1338413727659
 20
599.5919640600154
 30
0.0
 11
837.1338413727659
 21
607.5919640600154
 31
0.0
  0
LINE
  5
F3A
330
1E
100
AcDbEntity
  8
CENTER
  6
CENTER
100
AcDbLine
 10
839.1338413727659
 20
591.5876333765579
 30
0.0
 11
839.1338413727661
 21
611.3620578803212
 31
0.0
  0
LINE
  5
F3B
330
1E
100
AcDbEntity
  8
HIDDEN
  6
HIDDEN
100
AcDbLine
 10
849.133841372766
 20
600.1919640600154
 30
0.0
 11
834.133841372766
 21
600.1919640600154
 31
0.0
  0
LINE
  5
F3C
330
1E
100
AcDbEntity
  8
CENTER
  6
CENTER
100
AcDbLine
 10
830.1338413727661
 20
591.8094951692268
 30
0.0
 11
830.1338413727659
 21
611.5544742242125
 31
0.0
  0
LINE
  5
F3D
330
1E
100
AcDbEntity
  8
HIDDEN
  6
HIDDEN
100
AcDbLine
 10
834.133841372766
 20
600.1919640600154
 30
0.0
 11
832.1708504575212
 21
603.5919640600154
 31
0.0
  0
LINE
  5
F3E
330
1E
100
AcDbEntity
  8
HIDDEN
  6
HIDDEN
100
AcDbLine
 10
849.133841372766
 20
606.9919640600153
 30
0.0
 11
834.133841372766
 21
606.9919640600153
 31
0.0
  0
LINE
  5
F3F
330
1E
100
AcDbEntity
  8
HIDDEN
  6
HIDDEN
100
AcDbLine
 10
855.1338413727661
 20
656.0919640600152
 30
0.0
 11
837.1338413727659
 21
656.0919640600152
 31
0.0
  0
LINE
  5
F40
330
1E
100
AcDbEntity
  8
HIDDEN
  6
HIDDEN
100
AcDbLine
 10
855.1338413727661
 20
664.0919640600152
 30
0.0
 11
837.1338413727659
 21
664.0919640600152
 31
0.0
  0
LINE
  5
F41
330
1E
100
AcDbEntity
  8
CENTER
  6
CENTER
100
AcDbLine
 10
823.1338413727661
 20
660.0919640600152
 30
0.0
 11
858.133841372766
 21
660.0919640600152
 31
0.0
  0
LINE
  5
F42
330
1E
100
AcDbEntity
  8
HIDDEN
  6
HIDDEN
100
AcDbLine
 10
849.133841372766
 20
663.4919640600153
 30
0.0
 11
834.133841372766
 21
663.4919640600153
 31
0.0
  0
LINE
  5
F43
330
1E
100
AcDbEntity
  8
HIDDEN
  6
HIDDEN
100
AcDbLine
 10
849.133841372766
 20
656.6919640600153
 30
0.0
 11
834.133841372766
 21
656.6919640600153
 31
0.0
  0
LINE
  5
F44
330
1E
100
AcDbEntity
  8
HIDDEN
  6
HIDDEN
100
AcDbLine
 10
849.133841372766
 20
664.0919640600152
 30
0.0
 11
849.133841372766
 21
656.0919640600152
 31
0.0
  0
LINE
  5
F45
330
1E
100
AcDbEntity
  8
HIDDEN
  6
HIDDEN
100
AcDbLine
 10
834.133841372766
 20
656.6919640600153
 30
0.0
 11
832.1708504575212
 21
660.0919640600152
 31
0.0
  0
LINE
  5
F46
330
1E
100
AcDbEntity
  8
HIDDEN
  6
HIDDEN
100
AcDbLine
 10
837.1338413727659
 20
664.0919640600152
 30
0.0
 11
837.1338413727659
 21
656.0919640600152
 31
0.0
  0
LINE
  5
F47
330
1E
100
AcDbEntity
  8
HIDDEN
  6
HIDDEN
100
AcDbLine
 10
834.133841372766
 20
663.4919640600153
 30
0.0
 11
834.133841372766
 21
656.6919640600153
 31
0.0
  0
LINE
  5
F48
330
1E
100
AcDbEntity
  8
HIDDEN
  6
HIDDEN
100
AcDbLine
 10
834.133841372766
 20
663.4919640600153
 30
0.0
 11
832.1708504575212
 21
660.0919640600152
 31
0.0
  0
LINE
  5
F49
330
1E
100
AcDbEntity
  8
HIDDEN
  6
HIDDEN
100
AcDbLine
 10
478.1338413727658
 20
419.3970643864209
 30
0.0
 11
496.1338413727657
 21
419.3970643864209
 31
0.0
  0
LINE
  5
F4A
330
1E
100
AcDbEntity
  8
HIDDEN
  6
HIDDEN
100
AcDbLine
 10
478.1338413727655
 20
427.3970643864209
 30
0.0
 11
496.1338413727657
 21
427.3970643864209
 31
0.0
  0
LINE
  5
F4B
330
1E
100
AcDbEntity
  8
CENTER
  6
CENTER
100
AcDbLine
 10
510.1338413727657
 20
423.3970643864207
 30
0.0
 11
475.1338413727656
 21
423.3970643864207
 31
0.0
  0
LINE
  5
F4C
330
1E
100
AcDbEntity
  8
HIDDEN
  6
HIDDEN
100
AcDbLine
 10
484.1338413727657
 20
419.3970643864209
 30
0.0
 11
484.1338413727657
 21
427.3970643864209
 31
0.0
  0
LINE
  5
F4D
330
1E
100
AcDbEntity
  8
HIDDEN
  6
HIDDEN
100
AcDbLine
 10
499.1338413727657
 20
426.7970643864208
 30
0.0
 11
501.0968322880104
 21
423.3970643864209
 31
0.0
  0
LINE
  5
F4E
330
1E
100
AcDbEntity
  8
HIDDEN
  6
HIDDEN
100
AcDbLine
 10
499.1338413727657
 20
419.9970643864208
 30
0.0
 11
499.1338413727657
 21
426.7970643864208
 31
0.0
  0
LINE
  5
F4F
330
1E
100
AcDbEntity
  8
HIDDEN
  6
HIDDEN
100
AcDbLine
 10
496.1338413727657
 20
419.3970643864209
 30
0.0
 11
496.1338413727657
 21
427.3970643864209
 31
0.0
  0
LINE
  5
F50
330
1E
100
AcDbEntity
  8
HIDDEN
  6
HIDDEN
100
AcDbLine
 10
484.1338413727657
 20
419.9970643864208
 30
0.0
 11
499.1338413727657
 21
419.9970643864208
 31
0.0
  0
LINE
  5
F51
330
1E
100
AcDbEntity
  8
HIDDEN
  6
HIDDEN
100
AcDbLine
 10
499.1338413727657
 20
419.9970643864208
 30
0.0
 11
501.0968322880104
 21
423.3970643864209
 31
0.0
  0
LINE
  5
F52
330
1E
100
AcDbEntity
  8
HIDDEN
  6
HIDDEN
100
AcDbLine
 10
484.1338413727657
 20
426.7970643864208
 30
0.0
 11
499.1338413727657
 21
426.7970643864208
 31
0.0
  0
LINE
  5
F53
330
1E
100
AcDbEntity
  8
HIDDEN
  6
HIDDEN
100
AcDbLine
 10
478.1338413727655
 20
475.8970643864206
 30
0.0
 11
496.1338413727657
 21
475.8970643864206
 31
0.0
  0
LINE
  5
F54
330
1E
100
AcDbEntity
  8
HIDDEN
  6
HIDDEN
100
AcDbLine
 10
478.1338413727658
 20
483.8970643864207
 30
0.0
 11
496.1338413727657
 21
483.8970643864207
 31
0.0
  0
LINE
  5
F55
330
1E
100
AcDbEntity
  8
CENTER
  6
CENTER
100
AcDbLine
 10
510.1338413727657
 20
479.8970643864207
 30
0.0
 11
475.1338413727657
 21
479.8970643864207
 31
0.0
  0
LINE
  5
F56
330
1E
100
AcDbEntity
  8
HIDDEN
  6
HIDDEN
100
AcDbLine
 10
484.1338413727657
 20
483.2970643864207
 30
0.0
 11
499.1338413727657
 21
483.2970643864207
 31
0.0
  0
LINE
  5
F57
330
1E
100
AcDbEntity
  8
HIDDEN
  6
HIDDEN
100
AcDbLine
 10
484.1338413727657
 20
476.4970643864208
 30
0.0
 11
499.1338413727657
 21
476.4970643864208
 31
0.0
  0
LINE
  5
F58
330
1E
100
AcDbEntity
  8
HIDDEN
  6
HIDDEN
100
AcDbLine
 10
484.1338413727657
 20
483.8970643864207
 30
0.0
 11
484.1338413727657
 21
475.8970643864206
 31
0.0
  0
LINE
  5
F59
330
1E
100
AcDbEntity
  8
HIDDEN
  6
HIDDEN
100
AcDbLine
 10
499.1338413727657
 20
476.4970643864208
 30
0.0
 11
501.0968322880104
 21
479.8970643864207
 31
0.0
  0
LINE
  5
F5A
330
1E
100
AcDbEntity
  8
HIDDEN
  6
HIDDEN
100
AcDbLine
 10
496.1338413727657
 20
483.8970643864207
 30
0.0
 11
496.1338413727657
 21
475.8970643864206
 31
0.0
  0
LINE
  5
F5B
330
1E
100
AcDbEntity
  8
HIDDEN
  6
HIDDEN
100
AcDbLine
 10
499.1338413727657
 20
483.2970643864207
 30
0.0
 11
499.1338413727657
 21
476.4970643864208
 31
0.0
  0
LINE
  5
F5C
330
1E
100
AcDbEntity
  8
HIDDEN
  6
HIDDEN
100
AcDbLine
 10
499.1338413727657
 20
483.2970643864207
 30
0.0
 11
501.0968322880104
 21
479.8970643864207
 31
0.0
  0
LINE
  5
F5D
330
1E
100
AcDbEntity
  8
HIDDEN
  6
HIDDEN
100
AcDbLine
 10
855.1338413727661
 20
419.3970643864209
 30
0.0
 11
837.1338413727659
 21
419.3970643864209
 31
0.0
  0
LINE
  5
F5E
330
1E
100
AcDbEntity
  8
HIDDEN
  6
HIDDEN
100
AcDbLine
 10
855.1338413727661
 20
427.3970643864209
 30
0.0
 11
837.1338413727659
 21
427.3970643864209
 31
0.0
  0
LINE
  5
F5F
330
1E
100
AcDbEntity
  8
CENTER
  6
CENTER
100
AcDbLine
 10
823.1338413727661
 20
423.3970643864207
 30
0.0
 11
858.133841372766
 21
423.3970643864207
 31
0.0
  0
LINE
  5
F60
330
1E
100
AcDbEntity
  8
HIDDEN
  6
HIDDEN
100
AcDbLine
 10
849.133841372766
 20
419.3970643864209
 30
0.0
 11
849.133841372766
 21
427.3970643864209
 31
0.0
  0
LINE
  5
F61
330
1E
100
AcDbEntity
  8
HIDDEN
  6
HIDDEN
100
AcDbLine
 10
834.133841372766
 20
426.7970643864208
 30
0.0
 11
832.1708504575212
 21
423.3970643864209
 31
0.0
  0
LINE
  5
F62
330
1E
100
AcDbEntity
  8
HIDDEN
  6
HIDDEN
100
AcDbLine
 10
834.133841372766
 20
419.9970643864208
 30
0.0
 11
834.133841372766
 21
426.7970643864208
 31
0.0
  0
LINE
  5
F63
330
1E
100
AcDbEntity
  8
HIDDEN
  6
HIDDEN
100
AcDbLine
 10
837.1338413727659
 20
419.3970643864209
 30
0.0
 11
837.1338413727659
 21
427.3970643864209
 31
0.0
  0
LINE
  5
F64
330
1E
100
AcDbEntity
  8
HIDDEN
  6
HIDDEN
100
AcDbLine
 10
849.133841372766
 20
419.9970643864208
 30
0.0
 11
834.133841372766
 21
419.9970643864208
 31
0.0
  0
LINE
  5
F65
330
1E
100
AcDbEntity
  8
HIDDEN
  6
HIDDEN
100
AcDbLine
 10
834.133841372766
 20
419.9970643864208
 30
0.0
 11
832.1708504575212
 21
423.3970643864209
 31
0.0
  0
LINE
  5
F66
330
1E
100
AcDbEntity
  8
HIDDEN
  6
HIDDEN
100
AcDbLine
 10
849.133841372766
 20
426.7970643864208
 30
0.0
 11
834.133841372766
 21
426.7970643864208
 31
0.0
  0
LINE
  5
F67
330
1E
100
AcDbEntity
  8
HIDDEN
  6
HIDDEN
100
AcDbLine
 10
855.1338413727661
 20
475.8970643864206
 30
0.0
 11
837.1338413727659
 21
475.8970643864206
 31
0.0
  0
LINE
  5
F68
330
1E
100
AcDbEntity
  8
HIDDEN
  6
HIDDEN
100
AcDbLine
 10
855.1338413727661
 20
483.8970643864207
 30
0.0
 11
837.1338413727659
 21
483.8970643864207
 31
0.0
  0
LINE
  5
F69
330
1E
100
AcDbEntity
  8
CENTER
  6
CENTER
100
AcDbLine
 10
823.1338413727661
 20
479.8970643864207
 30
0.0
 11
858.133841372766
 21
479.8970643864207
 31
0.0
  0
LINE
  5
F6A
330
1E
100
AcDbEntity
  8
HIDDEN
  6
HIDDEN
100
AcDbLine
 10
849.133841372766
 20
483.2970643864207
 30
0.0
 11
834.133841372766
 21
483.2970643864207
 31
0.0
  0
LINE
  5
F6B
330
1E
100
AcDbEntity
  8
HIDDEN
  6
HIDDEN
100
AcDbLine
 10
849.133841372766
 20
476.4970643864208
 30
0.0
 11
834.133841372766
 21
476.4970643864208
 31
0.0
  0
LINE
  5
F6C
330
1E
100
AcDbEntity
  8
HIDDEN
  6
HIDDEN
100
AcDbLine
 10
849.133841372766
 20
483.8970643864207
 30
0.0
 11
849.133841372766
 21
475.8970643864206
 31
0.0
  0
LINE
  5
F6D
330
1E
100
AcDbEntity
  8
HIDDEN
  6
HIDDEN
100
AcDbLine
 10
834.133841372766
 20
476.4970643864208
 30
0.0
 11
832.1708504575212
 21
479.8970643864207
 31
0.0
  0
LINE
  5
F6E
330
1E
100
AcDbEntity
  8
HIDDEN
  6
HIDDEN
100
AcDbLine
 10
837.1338413727659
 20
483.8970643864207
 30
0.0
 11
837.1338413727659
 21
475.8970643864206
 31
0.0
  0
LINE
  5
F6F
330
1E
100
AcDbEntity
  8
HIDDEN
  6
HIDDEN
100
AcDbLine
 10
834.133841372766
 20
483.2970643864207
 30
0.0
 11
834.133841372766
 21
476.4970643864208
 31
0.0
  0
LINE
  5
F70
330
1E
100
AcDbEntity
  8
HIDDEN
  6
HIDDEN
100
AcDbLine
 10
834.133841372766
 20
483.2970643864207
 30
0.0
 11
832.1708504575212
 21
479.8970643864207
 31
0.0
  0
LINE
  5
F71
330
1E
100
AcDbEntity
  8
HIDDEN
  6
HIDDEN
100
AcDbLine
 10
478.1338413727658
 20
268.6280460437872
 30
0.0
 11
496.1338413727657
 21
268.6280460437872
 31
0.0
  0
LINE
  5
F72
330
1E
100
AcDbEntity
  8
HIDDEN
  6
HIDDEN
100
AcDbLine
 10
478.1338413727657
 20
276.6280460437872
 30
0.0
 11
496.1338413727657
 21
276.6280460437872
 31
0.0
  0
LINE
  5
F73
330
1E
100
AcDbEntity
  8
CENTER
  6
CENTER
100
AcDbLine
 10
510.1338413727658
 20
272.6280460437869
 30
0.0
 11
475.1338413727657
 21
272.6280460437869
 31
0.0
  0
LINE
  5
F74
330
1E
100
AcDbEntity
  8
HIDDEN
  6
HIDDEN
100
AcDbLine
 10
484.1338413727657
 20
268.6280460437872
 30
0.0
 11
484.1338413727657
 21
276.6280460437872
 31
0.0
  0
LINE
  5
F75
330
1E
100
AcDbEntity
  8
HIDDEN
  6
HIDDEN
100
AcDbLine
 10
499.1338413727658
 20
276.028046043787
 30
0.0
 11
501.0968322880105
 21
272.6280460437872
 31
0.0
  0
LINE
  5
F76
330
1E
100
AcDbEntity
  8
HIDDEN
  6
HIDDEN
100
AcDbLine
 10
499.1338413727658
 20
269.2280460437871
 30
0.0
 11
499.1338413727658
 21
276.028046043787
 31
0.0
  0
LINE
  5
F77
330
1E
100
AcDbEntity
  8
HIDDEN
  6
HIDDEN
100
AcDbLine
 10
496.1338413727657
 20
268.6280460437872
 30
0.0
 11
496.1338413727657
 21
276.6280460437872
 31
0.0
  0
LINE
  5
F78
330
1E
100
AcDbEntity
  8
HIDDEN
  6
HIDDEN
100
AcDbLine
 10
484.1338413727657
 20
269.2280460437871
 30
0.0
 11
499.1338413727658
 21
269.2280460437871
 31
0.0
  0
LINE
  5
F79
330
1E
100
AcDbEntity
  8
HIDDEN
  6
HIDDEN
100
AcDbLine
 10
499.1338413727658
 20
269.2280460437871
 30
0.0
 11
501.0968322880105
 21
272.6280460437872
 31
0.0
  0
LINE
  5
F7A
330
1E
100
AcDbEntity
  8
HIDDEN
  6
HIDDEN
100
AcDbLine
 10
484.1338413727657
 20
276.028046043787
 30
0.0
 11
499.1338413727658
 21
276.028046043787
 31
0.0
  0
LINE
  5
F7B
330
1E
100
AcDbEntity
  8
HIDDEN
  6
HIDDEN
100
AcDbLine
 10
478.1338413727657
 20
325.128046043787
 30
0.0
 11
496.1338413727657
 21
325.128046043787
 31
0.0
  0
LINE
  5
F7C
330
1E
100
AcDbEntity
  8
HIDDEN
  6
HIDDEN
100
AcDbLine
 10
478.1338413727658
 20
333.128046043787
 30
0.0
 11
496.1338413727657
 21
333.128046043787
 31
0.0
  0
LINE
  5
F7D
330
1E
100
AcDbEntity
  8
CENTER
  6
CENTER
100
AcDbLine
 10
510.1338413727658
 20
329.128046043787
 30
0.0
 11
475.1338413727657
 21
329.128046043787
 31
0.0
  0
LINE
  5
F7E
330
1E
100
AcDbEntity
  8
HIDDEN
  6
HIDDEN
100
AcDbLine
 10
484.1338413727657
 20
332.528046043787
 30
0.0
 11
499.1338413727658
 21
332.528046043787
 31
0.0
  0
LINE
  5
F7F
330
1E
100
AcDbEntity
  8
HIDDEN
  6
HIDDEN
100
AcDbLine
 10
484.1338413727657
 20
325.7280460437871
 30
0.0
 11
499.1338413727658
 21
325.7280460437871
 31
0.0
  0
LINE
  5
F80
330
1E
100
AcDbEntity
  8
HIDDEN
  6
HIDDEN
100
AcDbLine
 10
484.1338413727657
 20
333.128046043787
 30
0.0
 11
484.1338413727657
 21
325.128046043787
 31
0.0
  0
LINE
  5
F81
330
1E
100
AcDbEntity
  8
HIDDEN
  6
HIDDEN
100
AcDbLine
 10
499.1338413727658
 20
325.7280460437871
 30
0.0
 11
501.0968322880105
 21
329.128046043787
 31
0.0
  0
LINE
  5
F82
330
1E
100
AcDbEntity
  8
HIDDEN
  6
HIDDEN
100
AcDbLine
 10
496.1338413727657
 20
333.128046043787
 30
0.0
 11
496.1338413727657
 21
325.128046043787
 31
0.0
  0
LINE
  5
F83
330
1E
100
AcDbEntity
  8
HIDDEN
  6
HIDDEN
100
AcDbLine
 10
499.1338413727658
 20
332.528046043787
 30
0.0
 11
499.1338413727658
 21
325.7280460437871
 31
0.0
  0
LINE
  5
F84
330
1E
100
AcDbEntity
  8
HIDDEN
  6
HIDDEN
100
AcDbLine
 10
499.1338413727658
 20
332.528046043787
 30
0.0
 11
501.0968322880105
 21
329.128046043787
 31
0.0
  0
LINE
  5
F85
330
1E
100
AcDbEntity
  8
HIDDEN
  6
HIDDEN
100
AcDbLine
 10
855.1338413727661
 20
268.6280460437872
 30
0.0
 11
837.1338413727659
 21
268.6280460437872
 31
0.0
  0
LINE
  5
F86
330
1E
100
AcDbEntity
  8
HIDDEN
  6
HIDDEN
100
AcDbLine
 10
855.1338413727661
 20
276.6280460437872
 30
0.0
 11
837.1338413727659
 21
276.6280460437872
 31
0.0
  0
LINE
  5
F87
330
1E
100
AcDbEntity
  8
CENTER
  6
CENTER
100
AcDbLine
 10
823.1338413727661
 20
272.6280460437869
 30
0.0
 11
858.1338413727662
 21
272.6280460437869
 31
0.0
  0
LINE
  5
F88
330
1E
100
AcDbEntity
  8
HIDDEN
  6
HIDDEN
100
AcDbLine
 10
849.133841372766
 20
268.6280460437872
 30
0.0
 11
849.133841372766
 21
276.6280460437872
 31
0.0
  0
LINE
  5
F89
330
1E
100
AcDbEntity
  8
HIDDEN
  6
HIDDEN
100
AcDbLine
 10
834.133841372766
 20
276.028046043787
 30
0.0
 11
832.1708504575212
 21
272.6280460437872
 31
0.0
  0
LINE
  5
F8A
330
1E
100
AcDbEntity
  8
HIDDEN
  6
HIDDEN
100
AcDbLine
 10
834.133841372766
 20
269.2280460437871
 30
0.0
 11
834.133841372766
 21
276.028046043787
 31
0.0
  0
LINE
  5
F8B
330
1E
100
AcDbEntity
  8
HIDDEN
  6
HIDDEN
100
AcDbLine
 10
837.1338413727659
 20
268.6280460437872
 30
0.0
 11
837.1338413727659
 21
276.6280460437872
 31
0.0
  0
LINE
  5
F8C
330
1E
100
AcDbEntity
  8
HIDDEN
  6
HIDDEN
100
AcDbLine
 10
849.133841372766
 20
269.2280460437871
 30
0.0
 11
834.133841372766
 21
269.2280460437871
 31
0.0
  0
LINE
  5
F8D
330
1E
100
AcDbEntity
  8
HIDDEN
  6
HIDDEN
100
AcDbLine
 10
834.133841372766
 20
269.2280460437871
 30
0.0
 11
832.1708504575212
 21
272.6280460437872
 31
0.0
  0
LINE
  5
F8E
330
1E
100
AcDbEntity
  8
HIDDEN
  6
HIDDEN
100
AcDbLine
 10
849.133841372766
 20
276.028046043787
 30
0.0
 11
834.133841372766
 21
276.028046043787
 31
0.0
  0
LINE
  5
F8F
330
1E
100
AcDbEntity
  8
HIDDEN
  6
HIDDEN
100
AcDbLine
 10
855.1338413727661
 20
325.128046043787
 30
0.0
 11
837.1338413727659
 21
325.128046043787
 31
0.0
  0
LINE
  5
F90
330
1E
100
AcDbEntity
  8
HIDDEN
  6
HIDDEN
100
AcDbLine
 10
855.1338413727661
 20
333.128046043787
 30
0.0
 11
837.1338413727659
 21
333.128046043787
 31
0.0
  0
LINE
  5
F91
330
1E
100
AcDbEntity
  8
CENTER
  6
CENTER
100
AcDbLine
 10
823.1338413727661
 20
329.128046043787
 30
0.0
 11
858.133841372766
 21
329.128046043787
 31
0.0
  0
LINE
  5
F92
330
1E
100
AcDbEntity
  8
HIDDEN
  6
HIDDEN
100
AcDbLine
 10
849.133841372766
 20
332.528046043787
 30
0.0
 11
834.133841372766
 21
332.528046043787
 31
0.0
  0
LINE
  5
F93
330
1E
100
AcDbEntity
  8
HIDDEN
  6
HIDDEN
100
AcDbLine
 10
849.133841372766
 20
325.7280460437871
 30
0.0
 11
834.133841372766
 21
325.7280460437871
 31
0.0
  0
LINE
  5
F94
330
1E
100
AcDbEntity
  8
HIDDEN
  6
HIDDEN
100
AcDbLine
 10
849.133841372766
 20
333.128046043787
 30
0.0
 11
849.133841372766
 21
325.128046043787
 31
0.0
  0
LINE
  5
F95
330
1E
100
AcDbEntity
  8
HIDDEN
  6
HIDDEN
100
AcDbLine
 10
834.133841372766
 20
325.7280460437871
 30
0.0
 11
832.1708504575212
 21
329.128046043787
 31
0.0
  0
LINE
  5
F96
330
1E
100
AcDbEntity
  8
HIDDEN
  6
HIDDEN
100
AcDbLine
 10
837.1338413727659
 20
333.128046043787
 30
0.0
 11
837.1338413727659
 21
325.128046043787
 31
0.0
  0
LINE
  5
F97
330
1E
100
AcDbEntity
  8
HIDDEN
  6
HIDDEN
100
AcDbLine
 10
834.133841372766
 20
332.528046043787
 30
0.0
 11
834.133841372766
 21
325.7280460437871
 31
0.0
  0
LINE
  5
F98
330
1E
100
AcDbEntity
  8
HIDDEN
  6
HIDDEN
100
AcDbLine
 10
834.133841372766
 20
332.528046043787
 30
0.0
 11
832.1708504575212
 21
329.128046043787
 31
0.0
  0
LINE
  5
F99
330
1E
100
AcDbEntity
  8
CENTER
  6
CENTER
100
AcDbLine
 10
494.1338413727659
 20
341.1323767272444
 30
0.0
 11
494.1338413727657
 21
321.3579522234811
 31
0.0
  0
LINE
  5
F9A
330
1E
100
AcDbEntity
  8
CENTER
  6
CENTER
100
AcDbLine
 10
503.1338413727657
 20
340.9105149345754
 30
0.0
 11
503.1338413727657
 21
321.1655358795898
 31
0.0
  0
LINE
  5
F9B
330
1E
100
AcDbEntity
  8
CENTER
  6
CENTER
100
AcDbLine
 10
839.1338413727659
 20
341.1323767272444
 30
0.0
 11
839.1338413727661
 21
321.3579522234811
 31
0.0
  0
LINE
  5
F9C
330
1E
100
AcDbEntity
  8
CENTER
  6
CENTER
100
AcDbLine
 10
830.1338413727661
 20
340.9105149345754
 30
0.0
 11
830.1338413727659
 21
321.1655358795898
 31
0.0
  0
CIRCLE
  5
F9D
330
1E
100
AcDbEntity
  8
0
  6
CONTINUOUS
100
AcDbCircle
 10
666.6338413727658
 20
628.3419640600152
 30
0.0
 40
5.0
  0
CIRCLE
  5
F9E
330
1E
100
AcDbEntity
  8
0
  6
CONTINUOUS
100
AcDbCircle
 10
666.6338413727658
 20
628.3419640600152
 30
0.0
 40
4.53810623556582
  0
POLYLINE
  5
F9F
330
1E
100
AcDbEntity
  8
0
  6
CONTINUOUS
100
AcDb2dPolyline
 66
     1
 10
0.0
 20
0.0
 30
0.0
 70
     1
  0
VERTEX
  5
1858
330
F9F
100
AcDbEntity
  8
0
  6
CONTINUOUS
100
AcDbVertex
100
AcDb2dVertex
 10
665.1904656997917
 20
630.8419640600152
 30
0.0
  0
VERTEX
  5
1859
330
F9F
100
AcDbEntity
  8
0
  6
CONTINUOUS
100
AcDbVertex
100
AcDb2dVertex
 10
663.7470900268176
 20
628.3419640600152
 30
0.0
  0
VERTEX
  5
185A
330
F9F
100
AcDbEntity
  8
0
  6
CONTINUOUS
100
AcDbVertex
100
AcDb2dVertex
 10
665.1904656997917
 20
625.8419640600152
 30
0.0
  0
VERTEX
  5
185B
330
F9F
100
AcDbEntity
  8
0
  6
CONTINUOUS
100
AcDbVertex
100
AcDb2dVertex
 10
668.0772170457398
 20
625.8419640600152
 30
0.0
  0
VERTEX
  5
185C
330
F9F
100
AcDbEntity
  8
0
  6
CONTINUOUS
100
AcDbVertex
100
AcDb2dVertex
 10
669.5205927187139
 20
628.3419640600152
 30
0.0
  0
VERTEX
  5
185D
330
F9F
100
AcDbEntity
  8
0
  6
CONTINUOUS
100
AcDbVertex
100
AcDb2dVertex
 10
668.0772170457398
 20
630.8419640600152
 30
0.0
  0
SEQEND
  5
185E
330
F9F
100
AcDbEntity
  8
0
  6
CONTINUOUS
  0
CIRCLE
  5
FA7
330
1E
100
AcDbEntity
  8
0
  6
CONTINUOUS
100
AcDbCircle
 10
666.6338413727658
 20
695.3419640600152
 30
0.0
 40
5.0
  0
CIRCLE
  5
FA8
330
1E
100
AcDbEntity
  8
0
  6
CONTINUOUS
100
AcDbCircle
 10
666.6338413727658
 20
695.3419640600152
 30
0.0
 40
4.53810623556582
  0
POLYLINE
  5
FA9
330
1E
100
AcDbEntity
  8
0
  6
CONTINUOUS
100
AcDb2dPolyline
 66
     1
 10
0.0
 20
0.0
 30
0.0
 70
     1
  0
VERTEX
  5
185F
330
FA9
100
AcDbEntity
  8
0
  6
CONTINUOUS
100
AcDbVertex
100
AcDb2dVertex
 10
665.1904656997917
 20
697.8419640600152
 30
0.0
  0
VERTEX
  5
1860
330
FA9
100
AcDbEntity
  8
0
  6
CONTINUOUS
100
AcDbVertex
100
AcDb2dVertex
 10
663.7470900268176
 20
695.3419640600152
 30
0.0
  0
VERTEX
  5
1861
330
FA9
100
AcDbEntity
  8
0
  6
CONTINUOUS
100
AcDbVertex
100
AcDb2dVertex
 10
665.1904656997917
 20
692.8419640600152
 30
0.0
  0
VERTEX
  5
1862
330
FA9
100
AcDbEntity
  8
0
  6
CONTINUOUS
100
AcDbVertex
100
AcDb2dVertex
 10
668.0772170457398
 20
692.8419640600152
 30
0.0
  0
VERTEX
  5
1863
330
FA9
100
AcDbEntity
  8
0
  6
CONTINUOUS
100
AcDbVertex
100
AcDb2dVertex
 10
669.5205927187139
 20
695.3419640600152
 30
0.0
  0
VERTEX
  5
1864
330
FA9
100
AcDbEntity
  8
0
  6
CONTINUOUS
100
AcDbVertex
100
AcDb2dVertex
 10
668.0772170457398
 20
697.8419640600152
 30
0.0
  0
SEQEND
  5
1865
330
FA9
100
AcDbEntity
  8
0
  6
CONTINUOUS
  0
CIRCLE
  5
FB1
330
1E
100
AcDbEntity
  8
0
  6
CONTINUOUS
100
AcDbCircle
 10
633.1338413727658
 20
661.8419640600152
 30
0.0
 40
5.0
  0
CIRCLE
  5
FB2
330
1E
100
AcDbEntity
  8
0
  6
CONTINUOUS
100
AcDbCircle
 10
633.1338413727658
 20
661.8419640600152
 30
0.0
 40
4.53810623556582
  0
POLYLINE
  5
FB3
330
1E
100
AcDbEntity
  8
0
  6
CONTINUOUS
100
AcDb2dPolyline
 66
     1
 10
0.0
 20
0.0
 30
0.0
 70
     1
  0
VERTEX
  5
1866
330
FB3
100
AcDbEntity
  8
0
  6
CONTINUOUS
100
AcDbVertex
100
AcDb2dVertex
 10
631.6904656997917
 20
664.3419640600152
 30
0.0
  0
VERTEX
  5
1867
330
FB3
100
AcDbEntity
  8
0
  6
CONTINUOUS
100
AcDbVertex
100
AcDb2dVertex
 10
630.2470900268176
 20
661.8419640600152
 30
0.0
  0
VERTEX
  5
1868
330
FB3
100
AcDbEntity
  8
0
  6
CONTINUOUS
100
AcDbVertex
100
AcDb2dVertex
 10
631.6904656997917
 20
659.3419640600152
 30
0.0
  0
VERTEX
  5
1869
330
FB3
100
AcDbEntity
  8
0
  6
CONTINUOUS
100
AcDbVertex
100
AcDb2dVertex
 10
634.5772170457398
 20
659.3419640600152
 30
0.0
  0
VERTEX
  5
186A
330
FB3
100
AcDbEntity
  8
0
  6
CONTINUOUS
100
AcDbVertex
100
AcDb2dVertex
 10
636.0205927187139
 20
661.8419640600152
 30
0.0
  0
VERTEX
  5
186B
330
FB3
100
AcDbEntity
  8
0
  6
CONTINUOUS
100
AcDbVertex
100
AcDb2dVertex
 10
634.5772170457398
 20
664.3419640600152
 30
0.0
  0
SEQEND
  5
186C
330
FB3
100
AcDbEntity
  8
0
  6
CONTINUOUS
  0
CIRCLE
  5
FBB
330
1E
100
AcDbEntity
  8
0
  6
CONTINUOUS
100
AcDbCircle
 10
700.1338413727657
 20
661.8419640600152
 30
0.0
 40
5.0
  0
CIRCLE
  5
FBC
330
1E
100
AcDbEntity
  8
0
  6
CONTINUOUS
100
AcDbCircle
 10
700.1338413727657
 20
661.8419640600152
 30
0.0
 40
4.53810623556582
  0
POLYLINE
  5
FBD
330
1E
100
AcDbEntity
  8
0
  6
CONTINUOUS
100
AcDb2dPolyline
 66
     1
 10
0.0
 20
0.0
 30
0.0
 70
     1
  0
VERTEX
  5
186D
330
FBD
100
AcDbEntity
  8
0
  6
CONTINUOUS
100
AcDbVertex
100
AcDb2dVertex
 10
698.6904656997917
 20
664.3419640600152
 30
0.0
  0
VERTEX
  5
186E
330
FBD
100
AcDbEntity
  8
0
  6
CONTINUOUS
100
AcDbVertex
100
AcDb2dVertex
 10
697.2470900268176
 20
661.8419640600152
 30
0.0
  0
VERTEX
  5
186F
330
FBD
100
AcDbEntity
  8
0
  6
CONTINUOUS
100
AcDbVertex
100
AcDb2dVertex
 10
698.6904656997917
 20
659.3419640600152
 30
0.0
  0
VERTEX
  5
1870
330
FBD
100
AcDbEntity
  8
0
  6
CONTINUOUS
100
AcDbVertex
100
AcDb2dVertex
 10
701.5772170457398
 20
659.3419640600152
 30
0.0
  0
VERTEX
  5
1871
330
FBD
100
AcDbEntity
  8
0
  6
CONTINUOUS
100
AcDbVertex
100
AcDb2dVertex
 10
703.0205927187139
 20
661.8419640600152
 30
0.0
  0
VERTEX
  5
1872
330
FBD
100
AcDbEntity
  8
0
  6
CONTINUOUS
100
AcDbVertex
100
AcDb2dVertex
 10
701.5772170457398
 20
664.3419640600152
 30
0.0
  0
SEQEND
  5
1873
330
FBD
100
AcDbEntity
  8
0
  6
CONTINUOUS
  0
CIRCLE
  5
FC5
330
1E
100
AcDbEntity
  8
0
  6
CONTINUOUS
100
AcDbCircle
 10
666.6338413727658
 20
237.378046043787
 30
0.0
 40
5.0
  0
CIRCLE
  5
FC6
330
1E
100
AcDbEntity
  8
0
  6
CONTINUOUS
100
AcDbCircle
 10
666.6338413727658
 20
237.378046043787
 30
0.0
 40
4.53810623556582
  0
POLYLINE
  5
FC7
330
1E
100
AcDbEntity
  8
0
  6
CONTINUOUS
100
AcDb2dPolyline
 66
     1
 10
0.0
 20
0.0
 30
0.0
 70
     1
  0
VERTEX
  5
1874
330
FC7
100
AcDbEntity
  8
0
  6
CONTINUOUS
100
AcDbVertex
100
AcDb2dVertex
 10
665.1904656997917
 20
234.878046043787
 30
0.0
  0
VERTEX
  5
1875
330
FC7
100
AcDbEntity
  8
0
  6
CONTINUOUS
100
AcDbVertex
100
AcDb2dVertex
 10
663.7470900268176
 20
237.378046043787
 30
0.0
  0
VERTEX
  5
1876
330
FC7
100
AcDbEntity
  8
0
  6
CONTINUOUS
100
AcDbVertex
100
AcDb2dVertex
 10
665.1904656997917
 20
239.878046043787
 30
0.0
  0
VERTEX
  5
1877
330
FC7
100
AcDbEntity
  8
0
  6
CONTINUOUS
100
AcDbVertex
100
AcDb2dVertex
 10
668.0772170457398
 20
239.878046043787
 30
0.0
  0
VERTEX
  5
1878
330
FC7
100
AcDbEntity
  8
0
  6
CONTINUOUS
100
AcDbVertex
100
AcDb2dVertex
 10
669.5205927187139
 20
237.378046043787
 30
0.0
  0
VERTEX
  5
1879
330
FC7
100
AcDbEntity
  8
0
  6
CONTINUOUS
100
AcDbVertex
100
AcDb2dVertex
 10
668.0772170457398
 20
234.878046043787
 30
0.0
  0
SEQEND
  5
187A
330
FC7
100
AcDbEntity
  8
0
  6
CONTINUOUS
  0
CIRCLE
  5
FCF
330
1E
100
AcDbEntity
  8
0
  6
CONTINUOUS
100
AcDbCircle
 10
633.1338413727658
 20
270.878046043787
 30
0.0
 40
5.0
  0
CIRCLE
  5
FD0
330
1E
100
AcDbEntity
  8
0
  6
CONTINUOUS
100
AcDbCircle
 10
633.1338413727658
 20
270.878046043787
 30
0.0
 40
4.53810623556582
  0
POLYLINE
  5
FD1
330
1E
100
AcDbEntity
  8
0
  6
CONTINUOUS
100
AcDb2dPolyline
 66
     1
 10
0.0
 20
0.0
 30
0.0
 70
     1
  0
VERTEX
  5
187B
330
FD1
100
AcDbEntity
  8
0
  6
CONTINUOUS
100
AcDbVertex
100
AcDb2dVertex
 10
631.6904656997917
 20
268.378046043787
 30
0.0
  0
VERTEX
  5
187C
330
FD1
100
AcDbEntity
  8
0
  6
CONTINUOUS
100
AcDbVertex
100
AcDb2dVertex
 10
630.2470900268176
 20
270.878046043787
 30
0.0
  0
VERTEX
  5
187D
330
FD1
100
AcDbEntity
  8
0
  6
CONTINUOUS
100
AcDbVertex
100
AcDb2dVertex
 10
631.6904656997917
 20
273.378046043787
 30
0.0
  0
VERTEX
  5
187E
330
FD1
100
AcDbEntity
  8
0
  6
CONTINUOUS
100
AcDbVertex
100
AcDb2dVertex
 10
634.5772170457398
 20
273.378046043787
 30
0.0
  0
VERTEX
  5
187F
330
FD1
100
AcDbEntity
  8
0
  6
CONTINUOUS
100
AcDbVertex
100
AcDb2dVertex
 10
636.0205927187139
 20
270.878046043787
 30
0.0
  0
VERTEX
  5
1880
330
FD1
100
AcDbEntity
  8
0
  6
CONTINUOUS
100
AcDbVertex
100
AcDb2dVertex
 10
634.5772170457398
 20
268.378046043787
 30
0.0
  0
SEQEND
  5
1881
330
FD1
100
AcDbEntity
  8
0
  6
CONTINUOUS
  0
CIRCLE
  5
FD9
330
1E
100
AcDbEntity
  8
0
  6
CONTINUOUS
100
AcDbCircle
 10
666.6338413727658
 20
304.378046043787
 30
0.0
 40
5.0
  0
CIRCLE
  5
FDA
330
1E
100
AcDbEntity
  8
0
  6
CONTINUOUS
100
AcDbCircle
 10
666.6338413727658
 20
304.378046043787
 30
0.0
 40
4.53810623556582
  0
POLYLINE
  5
FDB
330
1E
100
AcDbEntity
  8
0
  6
CONTINUOUS
100
AcDb2dPolyline
 66
     1
 10
0.0
 20
0.0
 30
0.0
 70
     1
  0
VERTEX
  5
1882
330
FDB
100
AcDbEntity
  8
0
  6
CONTINUOUS
100
AcDbVertex
100
AcDb2dVertex
 10
665.1904656997917
 20
301.878046043787
 30
0.0
  0
VERTEX
  5
1883
330
FDB
100
AcDbEntity
  8
0
  6
CONTINUOUS
100
AcDbVertex
100
AcDb2dVertex
 10
663.7470900268176
 20
304.378046043787
 30
0.0
  0
VERTEX
  5
1884
330
FDB
100
AcDbEntity
  8
0
  6
CONTINUOUS
100
AcDbVertex
100
AcDb2dVertex
 10
665.1904656997917
 20
306.8780460437871
 30
0.0
  0
VERTEX
  5
1885
330
FDB
100
AcDbEntity
  8
0
  6
CONTINUOUS
100
AcDbVertex
100
AcDb2dVertex
 10
668.0772170457398
 20
306.8780460437871
 30
0.0
  0
VERTEX
  5
1886
330
FDB
100
AcDbEntity
  8
0
  6
CONTINUOUS
100
AcDbVertex
100
AcDb2dVertex
 10
669.5205927187139
 20
304.378046043787
 30
0.0
  0
VERTEX
  5
1887
330
FDB
100
AcDbEntity
  8
0
  6
CONTINUOUS
100
AcDbVertex
100
AcDb2dVertex
 10
668.0772170457398
 20
301.878046043787
 30
0.0
  0
SEQEND
  5
1888
330
FDB
100
AcDbEntity
  8
0
  6
CONTINUOUS
  0
CIRCLE
  5
FE3
330
1E
100
AcDbEntity
  8
0
  6
CONTINUOUS
100
AcDbCircle
 10
700.1338413727657
 20
270.878046043787
 30
0.0
 40
5.0
  0
CIRCLE
  5
FE4
330
1E
100
AcDbEntity
  8
0
  6
CONTINUOUS
100
AcDbCircle
 10
700.1338413727657
 20
270.878046043787
 30
0.0
 40
4.53810623556582
  0
POLYLINE
  5
FE5
330
1E
100
AcDbEntity
  8
0
  6
CONTINUOUS
100
AcDb2dPolyline
 66
     1
 10
0.0
 20
0.0
 30
0.0
 70
     1
  0
VERTEX
  5
1889
330
FE5
100
AcDbEntity
  8
0
  6
CONTINUOUS
100
AcDbVertex
100
AcDb2dVertex
 10
698.6904656997917
 20
268.378046043787
 30
0.0
  0
VERTEX
  5
188A
330
FE5
100
AcDbEntity
  8
0
  6
CONTINUOUS
100
AcDbVertex
100
AcDb2dVertex
 10
697.2470900268176
 20
270.878046043787
 30
0.0
  0
VERTEX
  5
188B
330
FE5
100
AcDbEntity
  8
0
  6
CONTINUOUS
100
AcDbVertex
100
AcDb2dVertex
 10
698.6904656997917
 20
273.378046043787
 30
0.0
  0
VERTEX
  5
188C
330
FE5
100
AcDbEntity
  8
0
  6
CONTINUOUS
100
AcDbVertex
100
AcDb2dVertex
 10
701.5772170457398
 20
273.378046043787
 30
0.0
  0
VERTEX
  5
188D
330
FE5
100
AcDbEntity
  8
0
  6
CONTINUOUS
100
AcDbVertex
100
AcDb2dVertex
 10
703.0205927187139
 20
270.878046043787
 30
0.0
  0
VERTEX
  5
188E
330
FE5
100
AcDbEntity
  8
0
  6
CONTINUOUS
100
AcDbVertex
100
AcDb2dVertex
 10
701.5772170457398
 20
268.378046043787
 30
0.0
  0
SEQEND
  5
188F
330
FE5
100
AcDbEntity
  8
0
  6
CONTINUOUS
  0
TEXT
  5
FF1
330
1E
100
AcDbEntity
  8
LOGO
 62
     6
100
AcDbText
 10
999.0601475450402
 20
81.22567384214692
 30
0.0
 40
18.97573448292915
  1
作動角度
 41
0.9
  7
CHINESET
 72
     4
 11
1033.216469614312
 21
90.12132758535406
 31
0.0
100
AcDbText
  0
LINE
  5
FF2
330
1E
100
AcDbEntity
  8
LOGO
 62
     6
100
AcDbLine
 10
1082.217551843807
 20
54.54182542986206
 30
0.0
 11
984.215387384817
 21
54.54182542986188
 31
0.0
  0
LINE
  5
FF3
330
1E
100
AcDbEntity
  8
LOGO
 62
     6
100
AcDbLine
 10
1082.217551843807
 20
106.7250952579172
 30
0.0
 11
984.215387384817
 21
106.7250952579172
 31
0.0
  0
TEXT
  5
FF4
330
1E
100
AcDbEntity
  8
LOGO
  6
CONTINUOUS
 62
     6
100
AcDbText
 10
988.4879526188369
 20
62.44838146441576
 30
0.0
 40
11.85983405183072
  1
Rotary angle
 41
0.8
  7
CHINESET
 72
     4
 11
1033.216469614312
 21
66.40165948169268
 31
0.0
100
AcDbText
  0
TEXT
  5
FF5
330
1E
100
AcDbEntity
  8
LOGO
  6
CONTINUOUS
 62
     7
100
AcDbText
 10
1007.192605791555
 20
137.2916812617394
 30
0.0
 40
23.71966810366144
  1
180
  7
CHINESET
 72
     1
 11
1035.430305914962
 21
149.1515153135701
 31
0.0
100
AcDbText
 73
     2
  0
LINE
  5
FF6
330
1E
100
AcDbEntity
  8
LOGO
 62
     6
100
AcDbLine
 10
1072.729684602343
 20
170.7681991378031
 30
0.0
 11
993.7032546262816
 21
170.7681991378031
 31
0.0
  0
LINE
  5
FF7
330
1E
100
AcDbEntity
  8
LOGO
 62
     6
100
AcDbLine
 10
1072.729684602343
 20
128.0727965512124
 30
0.0
 11
993.7032546262816
 21
128.0727965512125
 31
0.0
  0
LINE
  5
FF8
330
1E
100
AcDbEntity
  8
LOGO
 62
     1
100
AcDbLine
 10
1107.0
 20
185.0
 30
0.0
 11
227.0
 21
185.0
 31
0.0
  0
LINE
  5
FF9
330
1E
100
AcDbEntity
  8
LOGO
 62
     1
100
AcDbLine
 10
1107.0
 20
42.68199137803134
 30
0.0
 11
227.0
 21
42.68199137803134
 31
0.0
  0
LINE
  5
FFA
330
1E
100
AcDbEntity
  8
LOGO
  6
CONTINUOUS
 62
     6
100
AcDbLine
 10
497.5955292512349
 20
147.1766125052168
 30
0.0
 11
523.5005585979081
 21
150.598357899022
 31
0.0
  0
LINE
  5
FFB
330
1E
100
AcDbEntity
  8
LOGO
  6
CONTINUOUS
 62
     6
100
AcDbLine
 10
497.5955292512349
 20
137.4934661739817
 30
0.0
 11
523.5005585979081
 21
134.0717207801764
 31
0.0
  0
LINE
  5
FFC
330
1E
100
AcDbEntity
  8
LOGO
 62
     1
100
AcDbLine
 10
540.099618968331
 20
156.5363982756062
 30
0.0
 11
331.3665396561103
 21
156.5363982756062
 31
0.0
  0
LINE
  5
FFD
330
1E
100
AcDbEntity
  8
LOGO
 62
     1
100
AcDbLine
 10
540.099618968331
 20
128.0727965512125
 30
0.0
 11
331.3665396561103
 21
128.0727965512125
 31
0.0
  0
TEXT
  5
FFE
330
1E
100
AcDbEntity
  8
LOGO
 62
     6
100
AcDbText
 10
466.5709944821608
 20
163.6522987067047
 30
0.0
 40
14.23180086219686
  1
1 : 1
  7
CHINESET
 72
     1
 11
491.6460721917458
 21
170.7681991378031
 31
0.0
100
AcDbText
 73
     2
  0
TEXT
  5
FFF
330
1E
100
AcDbEntity
  8
LOGO
 62
     6
100
AcDbText
 10
466.5709944821608
 20
106.7250952579172
 30
0.0
 40
14.23180086219686
  1
m/m
  7
CHINESET
 72
     1
 11
491.6460721917458
 21
113.8409956890156
 31
0.0
100
AcDbText
 73
     2
  0
LINE
  5
1000
330
1E
100
AcDbEntity
  8
LOGO
 62
     1
100
AcDbLine
 10
540.099618968331
 20
99.60919482681894
 30
0.0
 11
226.9999999999998
 21
99.60919482681894
 31
0.0
  0
TEXT
  5
1001
330
1E
100
AcDbEntity
  8
LOGO
  6
CONTINUOUS
 62
     5
100
AcDbText
 10
231.6583087134339
 20
70.64014939521529
 30
0.0
 40
21.3477012932953
  1
金器工業股份有限公司
 41
0.8
  7
LOGO
100
AcDbText
  0
TEXT
  5
1002
330
1E
100
AcDbEntity
  8
LOGO
  6
CONTINUOUS
 62
     5
100
AcDbText
 10
237.7710027932578
 20
49.2882656261909
 30
0.0
 40
14.23180086219686
  1
MINDMAN INDUSTRIAL CO.,LTD
 41
0.85
  7
CHINESET
100
AcDbText
  0
SOLID
  5
1003
330
1E
100
AcDbEntity
  8
LOGO
 62
     5
100
AcDbTrace
 10
241.7657217975617
 20
123.2675380228863
 30
0.0
 11
247.9191790479208
 21
123.2675380228842
 31
0.0
 12
273.5939489545943
 22
181.6192878107774
 32
0.0
 13
279.7474062049528
 23
181.6192878107733
 33
0.0
  0
SOLID
  5
1004
330
1E
100
AcDbEntity
  8
LOGO
 62
     5
100
AcDbTrace
 10
250.4654372204871
 20
123.2675380228863
 30
0.0
 11
256.6188944708455
 21
123.2675380228863
 31
0.0
 12
279.7474062049528
 22
176.9511478277439
 32
0.0
 13
273.5939489545943
 23
154.388471243092
 33
0.0
  0
SOLID
  5
1005
330
1E
100
AcDbEntity
  8
LOGO
 62
     2
100
AcDbTrace
 10
247.9191790479208
 20
123.2675380228842
 30
0.0
 11
250.4654372204871
 21
123.2675380228863
 31
0.0
 12
279.7474062049528
 22
181.6192878107733
 32
0.0
 13
282.2936643775171
 23
181.6192878107733
 33
0.0
  0
SOLID
  5
1006
330
1E
100
AcDbEntity
  8
LOGO
 62
     5
100
AcDbTrace
 10
248.0947530983395
 20
112.6581289705423
 30
0.0
 11
250.2166349088062
 21
112.6581289705423
 31
0.0
 12
248.0947530983395
 22
102.0487199182002
 32
0.0
 13
250.2166349088062
 23
102.0487199182002
 33
0.0
  0
SOLID
  5
1007
330
1E
100
AcDbEntity
  8
LOGO
 62
     5
100
AcDbTrace
 10
231.900220812675
 20
102.0487199182002
 30
0.0
 11
234.022102623146
 21
102.0487199182002
 31
0.0
 12
239.9974869555059
 22
112.6581289705423
 32
0.0
 13
242.1193687659731
 23
112.6581289705423
 33
0.0
  0
SOLID
  5
1008
330
1E
100
AcDbEntity
  8
LOGO
 62
     5
100
AcDbTrace
 10
239.9974869555059
 20
112.6581289705423
 30
0.0
 11
242.1193687659731
 21
112.6581289705423
 31
0.0
 12
239.9974869555059
 22
102.0487199182002
 32
0.0
 13
242.1193687659731
 23
102.0487199182002
 33
0.0
  0
SOLID
  5
1009
330
1E
100
AcDbEntity
  8
LOGO
 62
     5
100
AcDbTrace
 10
239.9974869555059
 20
102.0487199182002
 30
0.0
 11
242.1193687659731
 21
102.0487199182002
 31
0.0
 12
248.0947530983395
 22
112.6581289705423
 32
0.0
 13
250.2166349088062
 23
112.6581289705423
 33
0.0
  0
LINE
  5
100A
330
1E
100
AcDbEntity
  8
LOGO
 62
     1
100
AcDbLine
 10
227.0
 20
42.68199137803134
 30
0.0
 11
227.0
 21
185.0
 31
0.0
  0
TEXT
  5
100B
330
1E
100
AcDbEntity
  8
LOGO
 62
     6
100
AcDbText
 10
343.1014218848949
 20
163.6593025457117
 30
0.0
 40
14.23180086219686
  1
比例 Scale:
 41
0.9
  7
CHINESET
 72
     4
 11
388.2937431048978
 21
170.7681991378031
 31
0.0
100
AcDbText
  0
TEXT
  5
100C
330
1E
100
AcDbEntity
  8
LOGO
 62
     6
100
AcDbText
 10
348.0761987041361
 20
135.3888900472607
 30
0.0
 40
14.23180086219686
  1
投影 View:
 41
0.9
  7
CHINESET
 72
     4
 11
388.2937431048978
 21
142.3045974134094
 31
0.0
100
AcDbText
  0
TEXT
  5
100D
330
1E
100
AcDbEntity
  8
LOGO
 62
     6
100
AcDbText
 10
349.467611377717
 20
106.7250952579172
 30
0.0
 40
14.23180086219686
  1
單位 Unit:
 41
0.9
  7
CHINESET
 72
     4
 11
388.2937431048978
 21
113.8409956890156
 31
0.0
100
AcDbText
  0
POLYLINE
  5
100E
330
1E
100
AcDbEntity
  8
LOGO
 62
     5
100
AcDb2dPolyline
 66
     1
 10
0.0
 20
0.0
 30
0.0
 70
     1
 40
2.125282262088065
 41
2.125282262088065
  0
VERTEX
  5
1890
330
100E
100
AcDbEntity
  8
LOGO
 62
     5
100
AcDbVertex
100
AcDb2dVertex
 10
299.7571651725893
 20
107.3534244443702
 30
0.0
 42
1.0
  0
VERTEX
  5
1891
330
100E
100
AcDbEntity
  8
LOGO
 62
     5
100
AcDbVertex
100
AcDb2dVertex
 10
308.2582942209414
 20
107.3534244443702
 30
0.0
 42
1.0
  0
SEQEND
  5
1892
330
100E
100
AcDbEntity
  8
LOGO
 62
     5
  0
LINE
  5
100F
330
1E
100
AcDbEntity
  8
LOGO
 62
     5
100
AcDbLine
 10
320.2753487849057
 20
102.0487199182002
 30
0.0
 11
320.2753487849057
 21
108.4143653496046
 31
0.0
  0
SOLID
  5
1010
330
1E
100
AcDbEntity
  8
LOGO
 62
     5
100
AcDbTrace
 10
307.1903402242921
 20
112.6581289705423
 30
0.0
 11
309.3122220347591
 21
112.6581289705423
 31
0.0
 12
307.1903402242921
 22
102.0487199182002
 32
0.0
 13
309.3122220347591
 23
102.0487199182002
 33
0.0
  0
SOLID
  5
1011
330
1E
100
AcDbEntity
  8
LOGO
 62
     5
100
AcDbTrace
 10
311.7878215430304
 20
102.0487199182002
 30
0.0
 11
313.9097033535012
 21
102.0487199182002
 31
0.0
 12
311.7878215430304
 22
112.6581289705423
 32
0.0
 13
313.9097033535012
 23
112.6581289705423
 33
0.0
  0
SOLID
  5
1012
330
1E
100
AcDbEntity
  8
LOGO
 62
     5
100
AcDbTrace
 10
318.1534669744391
 20
108.4143653496046
 30
0.0
 11
320.2753487849057
 21
108.4143653496043
 31
0.0
 12
318.1534669744391
 22
102.0487199182002
 32
0.0
 13
320.2753487849057
 23
102.0487199182002
 33
0.0
  0
SOLID
  5
1013
330
1E
100
AcDbEntity
  8
LOGO
 62
     5
100
AcDbTrace
 10
276.7765594821178
 20
115.8409516862464
 30
0.0
 11
278.8984412925844
 21
115.8409516862464
 31
0.0
 12
276.7765594821178
 22
102.0487199182002
 32
0.0
 13
278.8984412925844
 23
102.0487199182002
 33
0.0
  0
SOLID
  5
1014
330
1E
100
AcDbEntity
  8
LOGO
 62
     5
100
AcDbTrace
 10
281.3740408008619
 20
112.6581289705423
 30
0.0
 11
283.4959226113288
 21
112.6581289705423
 31
0.0
 12
281.3740408008619
 22
102.0487199182002
 32
0.0
 13
283.4959226113288
 23
102.0487199182002
 33
0.0
  0
SOLID
  5
1015
330
1E
100
AcDbEntity
  8
LOGO
 62
     5
100
AcDbTrace
 10
287.7396862322664
 20
108.4143653496046
 30
0.0
 11
289.8615680427333
 21
108.4143653496046
 31
0.0
 12
287.7396862322664
 22
102.0487199182002
 32
0.0
 13
289.8615680427333
 23
102.0487199182002
 33
0.0
  0
SOLID
  5
1016
330
1E
100
AcDbEntity
  8
LOGO
 62
     5
100
AcDbTrace
 10
294.1053316636712
 20
108.4143653496046
 30
0.0
 11
296.2272134741379
 21
108.4143653496046
 31
0.0
 12
294.1053316636712
 22
102.0487199181962
 32
0.0
 13
296.2272134741379
 23
102.0487199181962
 33
0.0
  0
LINE
  5
1017
330
1E
100
AcDbEntity
  8
LOGO
 62
     1
100
AcDbLine
 10
331.3665396561103
 20
99.60919482681878
 30
0.0
 11
331.3665396561103
 21
185.0
 31
0.0
  0
SOLID
  5
1018
330
1E
100
AcDbEntity
  8
LOGO
 62
     5
100
AcDbTrace
 10
257.3259054900941
 20
112.6581289705423
 30
0.0
 11
259.4477873005607
 21
112.6581289705423
 31
0.0
 12
257.3259054900941
 22
102.0487199182002
 32
0.0
 13
259.4477873005607
 23
102.0487199182002
 33
0.0
  0
SOLID
  5
1019
330
1E
100
AcDbEntity
  8
LOGO
 62
     5
100
AcDbTrace
 10
263.691550921498
 20
108.4143653496046
 30
0.0
 11
265.8134327319688
 21
108.4143653496046
 31
0.0
 12
263.691550921498
 22
102.0487199182002
 32
0.0
 13
265.8134327319688
 23
102.0487199182002
 33
0.0
  0
SOLID
  5
101A
330
1E
100
AcDbEntity
  8
LOGO
 62
     5
100
AcDbTrace
 10
252.7284241713494
 20
112.6581289705423
 30
0.0
 11
254.8503059818223
 21
112.6581289705423
 31
0.0
 12
252.7284241713494
 22
102.0487199181962
 32
0.0
 13
254.8503059818223
 23
102.0487199182002
 33
0.0
  0
POLYLINE
  5
101B
330
1E
100
AcDbEntity
  8
LOGO
 62
     5
100
AcDb2dPolyline
 66
     1
 10
0.0
 20
0.0
 30
0.0
 70
     1
 40
2.125282262088065
 41
2.125282262088065
  0
VERTEX
  5
1893
330
101B
100
AcDbEntity
  8
LOGO
 62
     5
100
AcDbVertex
100
AcDb2dVertex
 10
269.3433844304167
 20
107.3534244443702
 30
0.0
 42
1.0
  0
VERTEX
  5
1894
330
101B
100
AcDbEntity
  8
LOGO
 62
     5
100
AcDbVertex
100
AcDb2dVertex
 10
277.8445134787692
 20
107.3534244443702
 30
0.0
 42
1.0
  0
SEQEND
  5
1895
330
101B
100
AcDbEntity
  8
LOGO
 62
     5
  0
POLYLINE
  5
101C
330
1E
100
AcDbEntity
  8
LOGO
 62
     5
100
AcDb2dPolyline
 66
     1
 10
0.0
 20
0.0
 30
0.0
 40
2.125282262088065
 41
2.125282262088065
  0
VERTEX
  5
1896
330
101C
100
AcDbEntity
  8
LOGO
 62
     5
100
AcDbVertex
100
AcDb2dVertex
 10
319.2195085571024
 20
108.4143653496046
 30
0.0
 42
1.0
  0
VERTEX
  5
1897
330
101C
100
AcDbEntity
  8
LOGO
 62
     5
100
AcDbVertex
100
AcDb2dVertex
 10
312.8436617708381
 20
108.4143653496046
 30
0.0
 42
1.0
  0
SEQEND
  5
1898
330
101C
100
AcDbEntity
  8
LOGO
 62
     5
  0
SOLID
  5
101D
330
1E
100
AcDbEntity
  8
LOGO
 62
     5
100
AcDbTrace
 10
314.1218915345472
 20
123.2675380228842
 30
0.0
 11
320.2753487849057
 21
123.2675380228842
 31
0.0
 12
314.1218915345472
 22
181.6192878107733
 32
0.0
 13
320.2753487849057
 23
181.6192878107774
 33
0.0
  0
SOLID
  5
101E
330
1E
100
AcDbEntity
  8
LOGO
 62
     5
100
AcDbTrace
 10
282.2936643775171
 20
181.6192878107733
 30
0.0
 11
288.4471216278754
 21
181.6192878107774
 31
0.0
 12
282.2936643775171
 22
127.9356780059156
 32
0.0
 13
288.4471216278754
 23
150.4983545905676
 33
0.0
  0
SOLID
  5
101F
330
1E
100
AcDbEntity
  8
LOGO
 62
     5
100
AcDbTrace
 10
282.2936643775171
 20
127.9356780059156
 30
0.0
 11
288.4471216278754
 21
150.4983545905676
 31
0.0
 12
311.5756333619828
 22
181.6192878107774
 32
0.0
 13
305.4221761116238
 23
181.6192878107774
 33
0.0
  0
SOLID
  5
1020
330
1E
100
AcDbEntity
  8
LOGO
 62
     5
100
AcDbTrace
 10
311.5756333619828
 20
176.9511478277439
 30
0.0
 11
305.4221761116238
 21
154.388471243092
 31
0.0
 12
311.5756333619828
 22
123.2675380228842
 32
0.0
 13
305.4221761116238
 23
123.2675380228842
 33
0.0
  0
SOLID
  5
1021
330
1E
100
AcDbEntity
  8
LOGO
 62
     2
100
AcDbTrace
 10
311.5756333619828
 20
181.6192878107774
 30
0.0
 11
314.1218915345472
 21
181.6192878107733
 31
0.0
 12
311.5756333619828
 22
123.2675380228842
 32
0.0
 13
314.1218915345472
 23
123.2675380228842
 33
0.0
  0
SOLID
  5
1022
330
1E
100
AcDbEntity
  8
LOGO
 62
     5
100
AcDbTrace
 10
273.5939489545943
 20
123.2675380228863
 30
0.0
 11
279.7474062049528
 21
123.2675380228863
 31
0.0
 12
273.5939489545943
 22
154.388471243092
 32
0.0
 13
279.7474062049528
 23
176.9511478277439
 33
0.0
  0
SOLID
  5
1023
330
1E
100
AcDbEntity
  8
LOGO
 62
     2
100
AcDbTrace
 10
279.7474062049528
 20
181.6192878107733
 30
0.0
 11
282.2936643775171
 21
181.6192878107733
 31
0.0
 12
279.7474062049528
 22
123.2675380228863
 32
0.0
 13
282.2936643775171
 23
123.2675380228863
 33
0.0
  0
SOLID
  5
1024
330
1E
100
AcDbEntity
  8
LOGO
 62
     5
100
AcDbTrace
 10
282.2936643775171
 20
123.2675380228863
 30
0.0
 11
288.4471216278754
 21
123.2675380228863
 31
0.0
 12
311.5756333619828
 22
176.9511478277439
 32
0.0
 13
305.4221761116238
 23
154.388471243092
 33
0.0
  0
SOLID
  5
1025
330
1E
100
AcDbEntity
  8
LOGO
 62
     2
100
AcDbTrace
 10
279.7474062049528
 20
123.2675380228863
 30
0.0
 11
282.2936643775171
 21
123.2675380228863
 31
0.0
 12
311.5756333619828
 22
181.6192878107774
 32
0.0
 13
314.1218915345472
 23
181.6192878107733
 33
0.0
  0
POLYLINE
  5
1026
330
1E
100
AcDbEntity
  8
LOGO
 62
     5
100
AcDb2dPolyline
 66
     1
 10
0.0
 20
0.0
 30
0.0
 40
2.125282262088065
 41
2.125282262088065
  0
VERTEX
  5
1899
330
1026
100
AcDbEntity
  8
LOGO
 62
     5
100
AcDbVertex
100
AcDb2dVertex
 10
288.8057278149298
 20
108.4143653496046
 30
0.0
 42
1.0
  0
VERTEX
  5
189A
330
1026
100
AcDbEntity
  8
LOGO
 62
     5
100
AcDbVertex
100
AcDb2dVertex
 10
282.4298810286654
 20
108.4143653496046
 30
0.0
 42
1.0
  0
SEQEND
  5
189B
330
1026
100
AcDbEntity
  8
LOGO
 62
     5
  0
POLYLINE
  5
1027
330
1E
100
AcDbEntity
  8
LOGO
 62
     5
100
AcDb2dPolyline
 66
     1
 10
0.0
 20
0.0
 30
0.0
 40
2.125282262088065
 41
2.125282262088065
  0
VERTEX
  5
189C
330
1027
100
AcDbEntity
  8
LOGO
 62
     5
100
AcDbVertex
100
AcDb2dVertex
 10
264.7575925041621
 20
108.4143653496046
 30
0.0
 42
1.0
  0
VERTEX
  5
189D
330
1027
100
AcDbEntity
  8
LOGO
 62
     5
100
AcDbVertex
100
AcDb2dVertex
 10
258.3817457178976
 20
108.4143653496046
 30
0.0
 42
1.0
  0
SEQEND
  5
189E
330
1027
100
AcDbEntity
  8
LOGO
 62
     5
  0
SOLID
  5
1028
330
1E
100
AcDbEntity
  8
LOGO
 62
     5
100
AcDbTrace
 10
252.7284241713494
 20
114.1434462378694
 30
0.0
 11
254.8503059818223
 21
114.1434462378694
 31
0.0
 12
252.7284241713494
 22
115.8409516862464
 32
0.0
 13
254.8503059818223
 23
115.8409516862464
 33
0.0
  0
POLYLINE
  5
1029
330
1E
100
AcDbEntity
  8
LOGO
 62
     5
100
AcDb2dPolyline
 66
     1
 10
0.0
 20
0.0
 30
0.0
 70
     1
  0
VERTEX
  5
189F
330
1029
100
AcDbEntity
  8
LOGO
 62
     5
100
AcDbVertex
100
AcDb2dVertex
 10
300.8249069810631
 20
107.3534244443712
 30
0.0
 42
1.000000057330635
  0
VERTEX
  5
18A0
330
1029
100
AcDbEntity
  8
LOGO
 62
     5
100
AcDbVertex
100
AcDb2dVertex
 10
307.1905524124703
 20
107.3534244443712
 30
0.0
 42
1.000000057330635
  0
SEQEND
  5
18A1
330
1029
100
AcDbEntity
  8
LOGO
 62
     5
  0
CIRCLE
  5
102A
330
1E
100
AcDbEntity
  8
LOGO
 62
     5
100
AcDbCircle
 10
304.0077296967666
 20
107.3534244443712
 30
0.0
 40
3.182822715703087
  0
POLYLINE
  5
102B
330
1E
100
AcDbEntity
  8
LOGO
 62
     5
100
AcDb2dPolyline
 66
     1
 10
0.0
 20
0.0
 30
0.0
 40
2.125282262088065
 41
2.125282262088065
  0
VERTEX
  5
18A2
330
102B
100
AcDbEntity
  8
LOGO
 62
     5
100
AcDbVertex
100
AcDb2dVertex
 10
295.1713732463344
 20
108.4143653496046
 30
0.0
 42
1.0
  0
VERTEX
  5
18A3
330
102B
100
AcDbEntity
  8
LOGO
 62
     5
100
AcDbVertex
100
AcDb2dVertex
 10
288.7955264600699
 20
108.4143653496046
 30
0.0
 42
1.0
  0
SEQEND
  5
18A4
330
102B
100
AcDbEntity
  8
LOGO
 62
     5
  0
LINE
  5
102C
330
1E
100
AcDbEntity
  8
LOGO
 62
     1
100
AcDbLine
 10
445.2209465536852
 20
99.60919482681878
 30
0.0
 11
445.2209465536852
 21
185.0
 31
0.0
  0
CIRCLE
  5
102D
330
1E
100
AcDbEntity
  8
LOGO
  6
CONTINUOUS
 62
     6
100
AcDbCircle
 10
471.5729059355557
 20
142.3350393395992
 30
0.0
 40
8.263318559422829
  0
CIRCLE
  5
102E
330
1E
100
AcDbEntity
  8
LOGO
  6
CONTINUOUS
 62
     6
100
AcDbCircle
 10
471.5729059355557
 20
142.3350393395992
 30
0.0
 40
4.841573165617572
  0
LINE
  5
102F
330
1E
100
AcDbEntity
  8
LOGO
 62
     6
100
AcDbLine
 10
497.5955292512352
 20
137.4934661739817
 30
0.0
 11
497.5955292512349
 21
147.1766125052169
 31
0.0
  0
TEXT
  5
1030
330
1E
100
AcDbEntity
  8
LOGO
  6
CONTINUOUS
 62
     6
100
AcDbText
 10
770.1887667840373
 20
60.47174245577739
 30
0.0
 40
11.85983405183072
  1
Model
  7
CHINESET
 72
     4
 11
792.7789268827624
 21
66.40165948169275
 31
0.0
100
AcDbText
  0
TEXT
  5
1031
330
1E
100
AcDbEntity
  8
LOGO
  6
CONTINUOUS
 62
     7
100
AcDbText
 10
749.2928686927164
 20
137.5606637926771
 30
0.0
 40
23.71966810366144
  1
MRTH
  7
CHINESET
 72
     1
 11
792.7789268827624
 21
149.4204978445078
 31
0.0
100
AcDbText
 73
     2
  0
LINE
  5
1032
330
1E
100
AcDbEntity
  8
LOGO
 62
     6
100
AcDbLine
 10
849.7061303315499
 20
170.7681991378031
 30
0.0
 11
735.8517234339749
 21
170.7681991378031
 31
0.0
  0
LINE
  5
1033
330
1E
100
AcDbEntity
  8
LOGO
 62
     6
100
AcDbLine
 10
849.7061303315499
 20
128.0727965512125
 30
0.0
 11
735.8517234339749
 21
128.0727965512125
 31
0.0
  0
LINE
  5
1034
330
1E
100
AcDbEntity
  8
LOGO
 62
     6
100
AcDbLine
 10
840.2182630900851
 20
106.7250952579172
 30
0.0
 11
745.3395906754395
 21
106.7250952579172
 31
0.0
  0
LINE
  5
1035
330
1E
100
AcDbEntity
  8
LOGO
 62
     6
100
AcDbLine
 10
840.2182630900851
 20
54.54182542986206
 30
0.0
 11
745.3395906754395
 21
54.54182542986188
 31
0.0
  0
TEXT
  5
1036
330
1E
100
AcDbEntity
  8
LOGO
 62
     7
100
AcDbText
 10
551.7490436523326
 20
149.3668073465767
 30
0.0
 40
28.46360172439373
  1
訂購代號:
  7
CHINESET
100
AcDbText
  0
TEXT
  5
1037
330
1E
100
AcDbEntity
  8
LOGO
 62
     7
100
AcDbText
 10
548.3446399631556
 20
122.6529021705706
 30
0.0
 40
18.97573448292915
  1
Order example:
 41
0.8
  7
CHINESET
100
AcDbText
  0
LINE
  5
1038
330
1E
100
AcDbEntity
  8
LOGO
 62
     1
100
AcDbLine
 10
540.099618968331
 20
42.68199137803134
 30
0.0
 11
540.099618968331
 21
185.0
 31
0.0
  0
LINE
  5
1039
330
1E
100
AcDbEntity
  8
LOGO
 62
     6
100
AcDbLine
 10
523.5005585979081
 20
134.0717207801764
 30
0.0
 11
523.5005585979081
 21
150.598357899022
 31
0.0
  0
LINE
  5
103A
330
1E
100
AcDbEntity
  8
LOGO
 62
     6
100
AcDbLine
 10
745.3395906754395
 20
106.7250952579172
 30
0.0
 11
745.3395906754395
 21
54.54182542986188
 31
0.0
  0
LINE
  5
103B
330
1E
100
AcDbEntity
  8
LOGO
 62
     6
100
AcDbLine
 10
735.8517234339749
 20
170.7681991378031
 30
0.0
 11
735.8517234339749
 21
128.0727965512125
 31
0.0
  0
TEXT
  5
103C
330
1E
100
AcDbEntity
  8
LOGO
  6
CONTINUOUS
 62
     7
100
AcDbText
 10
905.0405508043743
 20
137.2916812617396
 30
0.0
 40
23.71966810366144
  1
63
  7
CHINESET
 72
     1
 11
924.2421868882908
 21
149.1515153135703
 31
0.0
100
AcDbText
 73
     2
  0
LINE
  5
103D
330
1E
100
AcDbEntity
  8
LOGO
 62
     6
100
AcDbLine
 10
960.111236043293
 20
54.54182542986228
 30
0.0
 11
883.945465131989
 21
54.5418254298622
 31
0.0
  0
LINE
  5
103E
330
1E
100
AcDbEntity
  8
LOGO
 62
     6
100
AcDbLine
 10
960.111236043293
 20
128.0727965512127
 30
0.0
 11
883.945465131989
 21
128.0727965512127
 31
0.0
  0
LINE
  5
103F
330
1E
100
AcDbEntity
  8
LOGO
 62
     6
100
AcDbLine
 10
960.111236043293
 20
106.7250952579174
 30
0.0
 11
883.945465131989
 21
106.7250952579174
 31
0.0
  0
LINE
  5
1040
330
1E
100
AcDbEntity
  8
LOGO
 62
     6
100
AcDbLine
 10
960.111236043293
 20
170.7681991378037
 30
0.0
 11
883.945465131989
 21
170.7681991378033
 31
0.0
  0
LINE
  5
1041
330
1E
100
AcDbEntity
  8
LOGO
 62
     6
100
AcDbLine
 10
883.945465131989
 20
106.7250952579174
 30
0.0
 11
883.945465131989
 21
54.54182542986228
 31
0.0
  0
LINE
  5
1042
330
1E
100
AcDbEntity
  8
LOGO
 62
     6
100
AcDbLine
 10
840.2182630900854
 20
106.7250952579172
 30
0.0
 11
840.2182630900854
 21
54.54182542986206
 31
0.0
  0
TEXT
  5
1043
330
1E
100
AcDbEntity
  8
LOGO
 62
     6
100
AcDbText
 10
773.8031923998333
 20
81.11905984837406
 30
0.0
 40
18.97573448292915
  1
型式
  7
CHINESET
 72
     4
 11
792.7789268827624
 21
90.12132758535424
 31
0.0
100
AcDbText
  0
LINE
  5
1044
330
1E
100
AcDbEntity
  8
LOGO
 62
     6
100
AcDbLine
 10
792.7789268827624
 20
128.0727965512125
 30
0.0
 11
792.7789268827624
 21
106.7250952579172
 31
0.0
  0
LINE
  5
1045
330
1E
100
AcDbEntity
  8
LOGO
 62
     6
100
AcDbLine
 10
883.945465131989
 20
170.7681991378033
 30
0.0
 11
883.945465131989
 21
128.0727965512127
 31
0.0
  0
LINE
  5
1046
330
1E
100
AcDbEntity
  8
LOGO
 62
     6
100
AcDbLine
 10
849.7061303315499
 20
170.7681991378031
 30
0.0
 11
849.7061303315499
 21
128.0727965512125
 31
0.0
  0
LINE
  5
1047
330
1E
100
AcDbEntity
  8
LOGO
  6
CONTINUOUS
 62
     7
100
AcDbLine
 10
857.7092227670531
 20
149.2692639810778
 30
0.0
 11
876.5619546632759
 21
149.2692639810778
 31
0.0
  0
LINE
  5
1048
330
1E
100
AcDbEntity
  8
LOGO
 62
     6
100
AcDbLine
 10
984.215387384817
 20
106.7250952579172
 30
0.0
 11
984.215387384817
 21
54.54182542986188
 31
0.0
  0
LINE
  5
1049
330
1E
100
AcDbEntity
  8
LOGO
 62
     6
100
AcDbLine
 10
960.111236043293
 20
106.7250952579174
 30
0.0
 11
960.111236043293
 21
54.54182542986245
 31
0.0
  0
TEXT
  5
104A
330
1E
100
AcDbEntity
  8
LOGO
  6
CONTINUOUS
 62
     6
100
AcDbText
 10
907.3447465234696
 20
60.47174245577756
 30
0.0
 40
11.85983405183072
  1
Bore
 41
0.8
  7
CHINESET
 72
     4
 11
922.0283505876411
 21
66.40165948169292
 31
0.0
100
AcDbText
  0
TEXT
  5
104B
330
1E
100
AcDbEntity
  8
LOGO
 62
     6
100
AcDbText
 10
903.88280448834
 20
80.63346034388983
 30
0.0
 40
18.97573448292915
  1
內徑
 41
0.9
  7
CHINESET
 72
     4
 11
922.0283505876411
 21
90.1213275853544
 31
0.0
100
AcDbText
  0
LINE
  5
104C
330
1E
100
AcDbEntity
  8
LOGO
  6
CONTINUOUS
 62
     7
100
AcDbLine
 10
967.4670122613461
 20
149.2692639810781
 30
0.0
 11
986.3197441575689
 21
149.2692639810781
 31
0.0
  0
LINE
  5
104D
330
1E
100
AcDbEntity
  8
LOGO
 62
     6
100
AcDbLine
 10
960.111236043293
 20
170.7681991378037
 30
0.0
 11
960.111236043293
 21
128.0727965512127
 31
0.0
  0
LINE
  5
104E
330
1E
100
AcDbEntity
  8
LOGO
 62
     6
100
AcDbLine
 10
922.0283494937634
 20
128.0727965512127
 30
0.0
 11
922.0283494937634
 21
106.7250952579174
 31
0.0
  0
LINE
  5
104F
330
1E
100
AcDbEntity
  8
LOGO
 62
     6
100
AcDbLine
 10
993.7032546262818
 20
170.7681991378031
 30
0.0
 11
993.7032546262816
 21
128.0727965512125
 31
0.0
  0
LINE
  5
1050
330
1E
100
AcDbEntity
  8
LOGO
 62
     6
100
AcDbLine
 10
1034.221191680956
 20
128.0727965512125
 30
0.0
 11
1034.221191680956
 21
106.7250952579172
 31
0.0
  0
LINE
  5
1056
330
1E
100
AcDbEntity
  8
LOGO
 62
     6
100
AcDbLine
 10
1082.217551843807
 20
106.7250952579172
 30
0.0
 11
1082.217551843807
 21
54.34505990103025
 31
0.0
  0
LINE
  5
1057
330
1E
100
AcDbEntity
  8
LOGO
 62
     6
100
AcDbLine
 10
1072.729684602343
 20
170.7681991378031
 30
0.0
 11
1072.729684602343
 21
128.0727965512124
 31
0.0
  0
LINE
  5
1060
330
1E
100
AcDbEntity
  8
LOGO
 62
     1
100
AcDbLine
 10
1107.0
 20
42.68199137803134
 30
0.0
 11
1107.0
 21
185.0
 31
0.0
  0
ENDSEC
  0
SECTION
  2
OBJECTS
  0
DICTIONARY
  5
C
330
0
100
AcDbDictionary
  3
ACAD_GROUP
350
D
  3
ACAD_LAYOUT
350
19
  3
ACAD_MLINESTYLE
350
16
  3
ACAD_PLOTSETTINGS
350
18
  3
ACMDICTIONARY
350
18C6
  3
AMG
350
18AC
  3
AMGSNAPSETTINGS
350
18FB
  3
DWGPROPS
350
18C9
1001
ACAD
1000
TREAT_AS_HARD
1070
     0
  0
DICTIONARY
  5
146E
330
1E
100
AcDbDictionary
  3
ACAD_INDEX
350
1902
  3
ACAD_LAYOUTSELFREF
350
1962
1001
ACAD
1000
TREAT_AS_HARD
1070
     1
  0
DICTIONARY
  5
1470
330
1A
100
AcDbDictionary
  3
ACAD_LAYOUTSELFREF
350
1961
1001
ACAD
1000
TREAT_AS_HARD
1070
     1
  0
DICTIONARY
  5
D
102
{ACAD_REACTORS
330
C
102
}
330
C
100
AcDbDictionary
1001
ACAD
1000
TREAT_AS_HARD
1070
     0
  0
DICTIONARY
  5
19
102
{ACAD_REACTORS
330
C
102
}
330
C
100
AcDbDictionary
1001
ACAD
1000
TREAT_AS_HARD
1070
     0
  0
DICTIONARY
  5
16
102
{ACAD_REACTORS
330
C
102
}
330
C
100
AcDbDictionary
  3
STANDARD
350
17
1001
ACAD
1000
TREAT_AS_HARD
1070
     0
  0
DICTIONARY
  5
18
102
{ACAD_REACTORS
330
C
102
}
330
C
100
AcDbDictionary
1001
ACAD
1000
TREAT_AS_HARD
1070
     0
  0
DICTIONARY
  5
18C6
102
{ACAD_REACTORS
330
C
102
}
330
C
100
AcDbDictionary
  3
ACMSTDDICTIONARY
350
18CC
1001
ACAD
1000
TREAT_AS_HARD
1070
     0
  0
DICTIONARY
  5
18AC
102
{ACAD_REACTORS
330
C
102
}
330
C
100
AcDbDictionary
  3
ACMGSETTINGS
350
18AD
1001
ACAD
1000
TREAT_AS_HARD
1070
     0
  0
DICTIONARY
  5
18FB
102
{ACAD_REACTORS
330
C
102
}
330
C
100
AcDbDictionary
1001
ACAD
1000
TREAT_AS_HARD
1070
     0
  0
XRECORD
  5
18C9
102
{ACAD_REACTORS
330
C
102
}
330
C
100
AcDbXrecord
  1
DWGPROPS COOKIE
  2

  3

  4

  6

  7

  8

  9

300
AmdtFileType=84
301
=
302
=
303
=
304
=
305
=
306
=
307
=
308
=
309
=
 40
0.0937934606481482
 41
2450580.703446064
 42
2451939.422241828
  1

 90
        1
  0
DICTIONARY
  5
1902
102
{ACAD_REACTORS
330
146E
102
}
330
146E
100
AcDbDictionary
  3
*A1
350
1903
1001
ACAD
1000
TREAT_AS_HARD
1070
     0
  0
XRECORD
  5
1962
102
{ACAD_REACTORS
330
146E
102
}
330
146E
100
AcDbXrecord
340
1E
  0
XRECORD
  5
1961
102
{ACAD_REACTORS
330
1470
102
}
330
1470
100
AcDbXrecord
340
1A
  0
MLINESTYLE
  5
17
102
{ACAD_REACTORS
330
16
102
}
330
16
100
AcDbMlineStyle
  2
STANDARD
 70
     0
  3

 62
   256
 51
90.0
 52
90.0
 71
     2
 49
0.5
 62
   256
  6
BYLAYER
 49
-0.5
 62
   256
  6
BYLAYER
  0
DICTIONARY
  5
18CC
102
{ACAD_REACTORS
330
18C6
102
}
330
18C6
100
AcDbDictionary
1001
ACAD
1000
TREAT_AS_HARD
1070
     0
  0
DICTIONARY
  5
18AD
102
{ACAD_REACTORS
330
18AC
102
}
330
18AC
100
AcDbDictionary
  3
DWGSETTINGS
350
18AE
1001
ACAD
1000
TREAT_AS_HARD
1070
     0
  0
LAYER_INDEX
  5
1903
102
{ACAD_REACTORS
330
1902
102
}
330
1902
100
AcDbIndex
 40
2452705.781509386
100
AcDbLayerIndex
  8
0
360
1904
 90
      688
  8
DIM
360
1905
 90
      145
  8
HIDDEN
360
1906
 90
      108
  8
CENTER
360
1907
 90
      106
  8
LOGO
360
1908
 90
       99
  0
XRECORD
  5
18AE
102
{ACAD_REACTORS
330
18AD
102
}
330
18AD
100
AcDbXrecord
  1
VERSION
140
15.0
  1
PRODUCT
  2
AutoCAD Mechanical 2000
  0
IDBUFFER
  5
1904
330
0
100
AcDbIdBuffer
330
B29
330
B2B
330
B2E
330
B2F
330
B33
330
B34
330
B35
330
B36
330
B38
330
B42
330
B43
330
B44
330
B45
330
B47
330
B48
330
B49
330
B4A
330
B4B
330
B4C
330
B4D
330
B4E
330
B4F
330
B50
330
B51
330
B55
330
B56
330
B57
330
B58
330
B59
330
B5A
330
B5B
330
B5C
330
B5D
330
B5F
330
B60
330
B61
330
B62
330
B63
330
B64
330
B65
330
B66
330
B67
330
B68
330
B6A
330
B6C
330
B6D
330
B6E
330
B6F
330
B70
330
B71
330
B72
330
B73
330
B75
330
B76
330
B77
330
B78
330
B7A
330
B7C
330
B7D
330
B7E
330
B86
330
B87
330
B88
330
B89
330
B8A
330
B8B
330
B8C
330
B8D
330
B8E
330
B8F
330
B91
330
B92
330
B93
330
B94
330
B95
330
B96
330
B97
330
B98
330
B99
330
B9A
330
B9B
330
B9C
330
B9D
330
B9E
330
BA0
330
BA4
330
BA5
330
BA6
330
BA7
330
BA8
330
BA9
330
BAA
330
BAB
330
BAC
330
BAD
330
BAE
330
BAF
330
BB0
330
BB1
330
BB2
330
BB3
330
BB4
330
BB5
330
BB7
330
BBE
330
BBF
330
BC0
330
BC1
330
BC2
330
BC3
330
BC4
330
BC5
330
BC7
330
BC8
330
BC9
330
BCA
330
BD3
330
BD4
330
BD5
330
BD6
330
BD7
330
BD9
330
BDA
330
BDB
330
BDC
330
BDD
330
BDE
330
BDF
330
BE0
330
BE1
330
BE2
330
BE3
330
BE4
330
BE5
330
BE6
330
BE7
330
BE8
330
BE9
330
BEA
330
BEB
330
BEE
330
BEF
330
BF2
330
BF3
330
BF6
330
BF7
330
BF8
330
BF9
330
BFA
330
BFB
330
BFC
330
BFD
330
BFE
330
BFF
330
C00
330
C01
330
C02
330
C03
330
C06
330
C07
330
C08
330
C09
330
C0A
330
C0B
330
C0C
330
C0D
330
C0E
330
C0F
330
C10
330
C14
330
C1C
330
C1D
330
C25
330
C26
330
C29
330
C2A
330
C2C
330
C2D
330
C2E
330
C2F
330
C31
330
C32
330
C33
330
C34
330
C35
330
C36
330
C37
330
C39
330
C3A
330
C3C
330
C3D
330
C3E
330
C3F
330
C40
330
C41
330
C42
330
C43
330
C44
330
C45
330
C46
330
C47
330
C48
330
C49
330
C4B
330
C4C
330
C4D
330
C55
330
C56
330
C57
330
C58
330
C59
330
C5A
330
C5B
330
C5C
330
C5D
330
C5E
330
C5F
330
C60
330
C61
330
C62
330
C64
330
C65
330
C66
330
C67
330
C68
330
C69
330
C6A
330
C6B
330
C6C
330
C6D
330
C6E
330
C6F
330
C70
330
C71
330
C72
330
C73
330
C74
330
C75
330
C76
330
C77
330
C78
330
C7A
330
C7B
330
C7C
330
C7D
330
C7E
330
C7F
330
C80
330
C81
330
C82
330
C83
330
C84
330
C86
330
C87
330
C88
330
C89
330
C8A
330
C8B
330
C8C
330
C8D
330
C8E
330
C8F
330
C90
330
C91
330
C93
330
C94
330
C95
330
C96
330
C9E
330
C9F
330
CA0
330
CA1
330
CA2
330
CA3
330
CA5
330
CA6
330
CA7
330
CA8
330
CA9
330
CAB
330
CAC
330
CAD
330
CAE
330
CB6
330
CB7
330
CB8
330
CB9
330
CBA
330
CBB
330
CBC
330
CBD
330
CBF
330
CC0
330
CC1
330
CC2
330
CC3
330
CC4
330
CC5
330
CC6
330
CC9
330
CCB
330
CCC
330
CD8
330
CE1
330
CE3
330
CEA
330
CED
330
CEE
330
CEF
330
CF0
330
CF3
330
CF4
330
CF5
330
CF6
330
CF7
330
CF8
330
CF9
330
CFA
330
CFB
330
CFC
330
CFD
330
CFE
330
CFF
330
D00
330
D03
330
D07
330
D08
330
D09
330
D0A
330
D0B
330
D0C
330
D0D
330
D0E
330
D0F
330
D10
330
D11
330
D13
330
D14
330
D16
330
D19
330
D1B
330
D1C
330
D26
330
D27
330
D29
330
D2A
330
D2F
330
D32
330
D35
330
D36
330
D37
330
D43
330
D44
330
D45
330
D46
330
D47
330
D48
330
D49
330
D4A
330
D4B
330
D4C
330
D4D
330
D50
330
D51
330
D52
330
D53
330
D54
330
D58
330
D59
330
D5A
330
D5B
330
D5C
330
D5D
330
D60
330
D61
330
D62
330
D63
330
D64
330
D65
330
D66
330
D67
330
D6A
330
D6B
330
D6E
330
D6F
330
D72
330
D73
330
D74
330
D75
330
D76
330
D77
330
D78
330
D79
330
D7A
330
D7B
330
D7C
330
D7D
330
D7E
330
D7F
330
D80
330
D81
330
D82
330
D83
330
D84
330
D85
330
D86
330
D87
330
D88
330
D89
330
D8A
330
D8D
330
D95
330
D98
330
D99
330
D9A
330
D9B
330
D9C
330
DA4
330
DA5
330
DA6
330
DA7
330
DA8
330
DA9
330
DAA
330
DAB
330
DAC
330
DAF
330
DB3
330
DB4
330
DB5
330
DB6
330
DBE
330
DBF
330
DC0
330
DC2
330
DC3
330
DC4
330
DC5
330
DC6
330
DC7
330
DC8
330
DC9
330
DCA
330
DCB
330
DCC
330
DCD
330
DCE
330
DCF
330
DD0
330
DD1
330
DD2
330
DD4
330
DE3
330
DEB
330
DEC
330
DED
330
DEE
330
DEF
330
DF1
330
DF2
330
DF3
330
DF6
330
DF8
330
DF9
330
DFB
330
DFC
330
DFD
330
DFE
330
DFF
330
E00
330
E01
330
E02
330
E03
330
E0A
330
E0B
330
E0C
330
E0D
330
E0E
330
E10
330
E11
330
E12
330
E13
330
E14
330
E15
330
E16
330
E17
330
E18
330
E19
330
E1A
330
E1B
330
E1C
330
E1D
330
E1E
330
E1F
330
E20
330
E21
330
E22
330
E23
330
E24
330
E34
330
E3C
330
E3D
330
E3E
330
E3F
330
E41
330
E43
330
E44
330
E45
330
E46
330
E47
330
E48
330
E49
330
E4A
330
E4B
330
E4C
330
E4D
330
E4E
330
E4F
330
E50
330
E51
330
E52
330
E54
330
E55
330
E5B
330
E5C
330
E5D
330
E5E
330
E5F
330
E62
330
E63
330
E64
330
E65
330
E66
330
E68
330
E69
330
E6A
330
E6B
330
E6C
330
E6D
330
E6E
330
E70
330
E71
330
E76
330
E78
330
E79
330
E7A
330
E7B
330
E7C
330
E7D
330
E7E
330
E7F
330
E80
330
E81
330
E82
330
E83
330
E84
330
E85
330
E86
330
E87
330
E88
330
E89
330
E8A
330
E8B
330
E8C
330
E8D
330
E8E
330
E8F
330
E90
330
E93
330
E94
330
E96
330
E97
330
E99
330
E9A
330
E9B
330
E9C
330
E9E
330
EA1
330
EA3
330
EA7
330
EA9
330
EB1
330
EB2
330
EB3
330
EB4
330
EB6
330
EB7
330
EB8
330
EB9
330
EBA
330
EBB
330
EBF
330
EC0
330
EC1
330
EC3
330
EC4
330
EC5
330
EC6
330
EC7
330
EC8
330
EC9
330
ECA
330
ECB
330
ECC
330
ECD
330
ECE
330
ECF
330
ED0
330
ED2
330
ED3
330
ED4
330
ED5
330
ED6
330
ED7
330
EDA
330
EDB
330
EDD
330
EDE
330
EE0
330
EE5
330
EE6
330
EF0
330
EF1
330
EF3
330
EF6
330
EF7
330
EF9
330
EFA
330
EFB
330
EFC
330
EFD
330
EFE
330
EFF
330
F00
330
F01
330
F02
330
F03
330
F04
330
F05
330
F06
330
F07
330
F08
330
F09
330
F0A
330
F12
330
F14
330
F15
330
F16
330
F17
330
F18
330
F19
330
F1A
330
F1B
330
F1C
330
F1E
330
F1F
330
F21
330
F22
330
F23
330
F24
330
F2C
330
F2D
330
F2E
330
F2F
330
F9D
330
F9E
330
F9F
330
FA7
330
FA8
330
FA9
330
FB1
330
FB2
330
FB3
330
FBB
330
FBC
330
FBD
330
FC5
330
FC6
330
FC7
330
FCF
330
FD0
330
FD1
330
FD9
330
FDA
330
FDB
330
FE3
330
FE4
330
FE5
  0
IDBUFFER
  5
1905
330
0
100
AcDbIdBuffer
330
B3A
330
B3B
330
B3C
330
B3D
330
B3E
330
B3F
330
B40
330
B41
330
BB6
330
BB8
330
BB9
330
BBA
330
BBC
330
BF4
330
BF5
330
C04
330
C05
330
C11
330
C12
330
C13
330
CD6
330
CD7
330
CD9
330
CDA
330
CDB
330
CDC
330
CDD
330
CDE
330
CDF
330
CE0
330
CE7
330
CE8
330
CE9
330
CEB
330
CEC
330
CF1
330
D01
330
D02
330
D04
330
D05
330
D06
330
D24
330
D25
330
D2C
330
D2E
330
D30
330
D31
330
D33
330
D34
330
D38
330
D39
330
D3A
330
D3B
330
D3C
330
D3D
330
D3E
330
D3F
330
D40
330
D41
330
D56
330
D57
330
D70
330
D71
330
D8B
330
D8C
330
DAD
330
DAE
330
DB0
330
DB1
330
DB2
330
DD3
330
DD5
330
DD6
330
DD7
330
DD8
330
DD9
330
DDA
330
DE0
330
DE1
330
DF4
330
DF7
330
E04
330
E25
330
E26
330
E27
330
E28
330
E29
330
E2A
330
E2B
330
E2C
330
E2D
330
E2E
330
E2F
330
E30
330
E31
330
E32
330
E33
330
E56
330
E57
330
E58
330
E59
330
E5A
330
E61
330
E67
330
E73
330
E74
330
E75
330
E77
330
E98
330
E9F
330
EA0
330
EA2
330
EA4
330
EA5
330
EA6
330
EBC
330
EBD
330
EC2
330
ED8
330
ED9
330
EDC
330
EDF
330
EE1
330
EE2
330
EE3
330
EE4
330
EE9
330
EEA
330
EEB
330
EEC
330
EED
330
EEE
330
EEF
330
EF2
330
EF4
330
EF5
330
EF8
330
F25
330
F26
330
F27
330
F28
330
F29
330
F2A
330
F2B
330
F30
  0
IDBUFFER
  5
1906
330
0
100
AcDbIdBuffer
330
CC7
330
CC8
330
CCD
330
CCE
330
CCF
330
CD0
330
CD2
330
CD4
330
CD5
330
D17
330
D18
330
D1D
330
D1E
330
D1F
330
D20
330
D21
330
D22
330
D23
330
F33
330
F34
330
F36
330
F37
330
F38
330
F39
330
F3B
330
F3D
330
F3E
330
F3F
330
F40
330
F42
330
F43
330
F44
330
F45
330
F46
330
F47
330
F48
330
F49
330
F4A
330
F4C
330
F4D
330
F4E
330
F4F
330
F50
330
F51
330
F52
330
F53
330
F54
330
F56
330
F57
330
F58
330
F59
330
F5A
330
F5B
330
F5C
330
F5D
330
F5E
330
F60
330
F61
330
F62
330
F63
330
F64
330
F65
330
F66
330
F67
330
F68
330
F6A
330
F6B
330
F6C
330
F6D
330
F6E
330
F6F
330
F70
330
F71
330
F72
330
F74
330
F75
330
F76
330
F77
330
F78
330
F79
330
F7A
330
F7B
330
F7C
330
F7E
330
F7F
330
F80
330
F81
330
F82
330
F83
330
F84
330
F85
330
F86
330
F88
330
F89
330
F8A
330
F8B
330
F8C
330
F8D
330
F8E
330
F8F
330
F90
330
F92
330
F93
330
F94
330
F95
330
F96
330
F97
330
F98
  0
IDBUFFER
  5
1907
330
0
100
AcDbIdBuffer
330
B30
330
B31
330
B32
330
B37
330
B39
330
B46
330
B52
330
B53
330
B54
330
B5E
330
B69
330
B6B
330
B74
330
B79
330
B7B
330
B90
330
B9F
330
BA1
330
BA2
330
BA3
330
BBD
330
BC6
330
BD2
330
BD8
330
BEC
330
BED
330
BF0
330
BF1
330
C27
330
C28
330
C2B
330
C30
330
C38
330
C3B
330
C4A
330
C63
330
C79
330
C85
330
C92
330
CA4
330
CAA
330
CBE
330
CCA
330
CD1
330
CD3
330
CE2
330
CF2
330
D12
330
D15
330
D1A
330
D28
330
D2B
330
D2D
330
D42
330
D4E
330
D4F
330
D55
330
D5E
330
D5F
330
D68
330
D69
330
D6C
330
D6D
330
D96
330
D97
330
DC1
330
DE2
330
DF0
330
DF5
330
DFA
330
E0F
330
E40
330
E42
330
E53
330
E60
330
E6F
330
E72
330
E91
330
E92
330
E95
330
E9D
330
EA8
330
EB5
330
EBE
330
ED1
330
EE7
330
EE8
330
F13
330
F1D
330
F20
330
F35
330
F3A
330
F3C
330
F41
330
F4B
330
F55
330
F5F
330
F69
330
F73
330
F7D
330
F87
330
F91
330
F99
330
F9A
330
F9B
330
F9C
  0
IDBUFFER
  5
1908
330
0
100
AcDbIdBuffer
330
FF1
330
FF2
330
FF3
330
FF4
330
FF5
330
FF6
330
FF7
330
FF8
330
FF9
330
FFA
330
FFB
330
FFC
330
FFD
330
FFE
330
FFF
330
1000
330
1001
330
1002
330
1003
330
1004
330
1005
330
1006
330
1007
330
1008
330
1009
330
100A
330
100B
330
100C
330
100D
330
100E
330
100F
330
1010
330
1011
330
1012
330
1013
330
1014
330
1015
330
1016
330
1017
330
1018
330
1019
330
101A
330
101B
330
101C
330
101D
330
101E
330
101F
330
1020
330
1021
330
1022
330
1023
330
1024
330
1025
330
1026
330
1027
330
1028
330
1029
330
102A
330
102B
330
102C
330
102D
330
102E
330
102F
330
1030
330
1031
330
1032
330
1033
330
1034
330
1035
330
1036
330
1037
330
1038
330
1039
330
103A
330
103B
330
103C
330
103D
330
103E
330
103F
330
1040
330
1041
330
1042
330
1043
330
1044
330
1045
330
1046
330
1047
330
1048
330
1049
330
104A
330
104B
330
104C
330
104D
330
104E
330
104F
330
1050
330
1056
330
1057
330
1060
  0
ENDSEC
  0
EOF
