  0
SECTION
  2
HEADER
  9
$ACADVER
  1
AC1009
  9
$INSBASE
 10
0.0
 20
0.0
 30
0.0
  9
$EXTMIN
 10
226.91931455363419
 20
42.65625200543581
 30
-0.0015258207003583
  9
$EXTMAX
 10
1107.0065944686139
 20
765.0439471810173
 30
0.0000000349246037
  9
$LIMMIN
 10
0.0
 20
0.0
  9
$LIMMAX
 10
1188.0
 20
840.0
  9
$ORTHOMODE
 70
     0
  9
$REGENMODE
 70
     1
  9
$FILLMODE
 70
     1
  9
$QTEXTMODE
 70
     0
  9
$MIRRTEXT
 70
     1
  9
$DRAGMODE
 70
     2
  9
$LTSCALE
 40
1.0
  9
$OSMODE
 70
    39
  9
$ATTMODE
 70
     1
  9
$TEXTSIZE
 40
3.0
  9
$TRACEWID
 40
0.05
  9
$TEXTSTYLE
  7
ITALICT
  9
$CLAYER
  8
0
  9
$CELTYPE
  6
CONTINUOUS
  9
$CECOLOR
 62
   256
  9
$DIMSCALE
 40
1.0
  9
$DIMASZ
 40
3.0
  9
$DIMEXO
 40
1.0
  9
$DIMDLI
 40
1.4824161510814720E+016
  9
$DIMRND
 40
0.0
  9
$DIMDLE
 40
0.0
  9
$DIMEXE
 40
1.0
  9
$DIMTP
 40
0.15
  9
$DIMTM
 40
-0.1
  9
$DIMTXT
 40
3.0
  9
$DIMCEN
 40
2.0
  9
$DIMTSZ
 40
0.0
  9
$DIMTOL
 70
     0
  9
$DIMLIM
 70
     0
  9
$DIMTIH
 70
     0
  9
$DIMTOH
 70
     0
  9
$DIMSE1
 70
     0
  9
$DIMSE2
 70
     0
  9
$DIMTAD
 70
     1
  9
$DIMZIN
 70
     0
  9
$DIMBLK
  1

  9
$DIMASO
 70
     0
  9
$DIMSHO
 70
     0
  9
$DIMPOST
  1

  9
$DIMAPOST
  1

  9
$DIMALT
 70
     0
  9
$DIMALTD
 70
     2
  9
$DIMALTF
 40
25.399999999999999
  9
$DIMLFAC
 40
1.0
  9
$DIMTOFL
 70
     1
  9
$DIMTVP
 40
1.0
  9
$DIMTIX
 70
     0
  9
$DIMSOXD
 70
     0
  9
$DIMSAH
 70
     0
  9
$DIMBLK1
  1

  9
$DIMBLK2
  1

  9
$DIMSTYLE
  2
STANDARD
  9
$DIMCLRD
 70
     0
  9
$DIMCLRE
 70
     0
  9
$DIMCLRT
 70
     0
  9
$DIMTFAC
 40
1.0
  9
$DIMGAP
 40
0.09
  9
$LUNITS
 70
     2
  9
$LUPREC
 70
     2
  9
$SKETCHINC
 40
0.1
  9
$FILLETRAD
 40
0.75
  9
$AUNITS
 70
     0
  9
$AUPREC
 70
     2
  9
$MENU
  1
ACAD
  9
$ELEVATION
 40
0.0
  9
$PELEVATION
 40
0.0
  9
$THICKNESS
 40
0.0
  9
$LIMCHECK
 70
     0
  9
$BLIPMODE
 70
     0
  9
$CHAMFERA
 40
0.0
  9
$CHAMFERB
 40
0.0
  9
$SKPOLY
 70
     1
  9
$TDCREATE
 40
2450580.7034460641
  9
$TDUPDATE
 40
2451939.426311689
  9
$TDINDWG
 40
0.0936063889
  9
$TDUSRTIMER
 40
0.0936063889
  9
$USRTIMER
 70
     1
  9
$ANGBASE
 50
0.0
  9
$ANGDIR
 70
     0
  9
$PDMODE
 70
     0
  9
$PDSIZE
 40
0.0
  9
$PLINEWID
 40
0.0
  9
$COORDS
 70
     2
  9
$SPLFRAME
 70
     0
  9
$SPLINETYPE
 70
     6
  9
$SPLINESEGS
 70
     8
  9
$ATTDIA
 70
     0
  9
$ATTREQ
 70
     1
  9
$HANDLING
 70
 12289
  9
$HANDSEED
  5
146D
  9
$SURFTAB1
 70
     6
  9
$SURFTAB2
 70
     6
  9
$SURFTYPE
 70
     6
  9
$SURFU
 70
     6
  9
$SURFV
 70
     6
  9
$UCSNAME
  2

  9
$UCSORG
 10
0.0
 20
0.0
 30
0.0
  9
$UCSXDIR
 10
1.0
 20
0.0
 30
0.0
  9
$UCSYDIR
 10
0.0
 20
1.0
 30
0.0
  9
$PUCSNAME
  2

  9
$PUCSORG
 10
0.0
 20
0.0
 30
0.0
  9
$PUCSXDIR
 10
1.0
 20
0.0
 30
0.0
  9
$PUCSYDIR
 10
0.0
 20
1.0
 30
0.0
  9
$USERI1
 70
     0
  9
$USERI2
 70
-31485
  9
$USERI3
 70
     0
  9
$USERI4
 70
     0
  9
$USERI5
 70
     0
  9
$USERR1
 40
0.0
  9
$USERR2
 40
0.0
  9
$USERR3
 40
0.0
  9
$USERR4
 40
0.0
  9
$USERR5
 40
0.0
  9
$WORLDVIEW
 70
     1
  9
$SHADEDGE
 70
     3
  9
$SHADEDIF
 70
    70
  9
$TILEMODE
 70
     1
  9
$MAXACTVP
 70
    64
  9
$PLIMCHECK
 70
     0
  9
$PEXTMIN
 10
1.0000000000000000E+020
 20
1.0000000000000000E+020
 30
1.0000000000000000E+020
  9
$PEXTMAX
 10
-1.0000000000000000E+020
 20
-1.0000000000000000E+020
 30
-1.0000000000000000E+020
  9
$PLIMMIN
 10
0.0
 20
0.0
  9
$PLIMMAX
 10
12.0
 20
9.0
  9
$UNITMODE
 70
     0
  9
$VISRETAIN
 70
     1
  9
$PLINEGEN
 70
     0
  9
$PSLTSCALE
 70
     0
  0
ENDSEC
  0
SECTION
  2
TABLES
  0
TABLE
  2
VPORT
 70
     2
  0
VPORT
  2
*ACTIVE
 70
     0
 10
0.0
 20
0.0
 11
1.0
 21
1.0
 12
666.96295451112417
 22
403.85009959322662
 13
0.0
 23
0.0
 14
1.0
 24
1.0
 15
0.0
 25
0.0
 16
0.0
 26
0.0
 36
1.0
 17
0.0
 27
0.0
 37
0.0
 40
730.35520651942977
 41
1.7274401473296499
 42
1.0
 43
0.0
 44
0.0
 50
0.0
 51
0.0
 71
     0
 72
   100
 73
     1
 74
     1
 75
     0
 76
     0
 77
     0
 78
     0
  0
ENDTAB
  0
TABLE
  2
LTYPE
 70
     3
  0
LTYPE
  2
CONTINUOUS
 70
     0
  3
Solid line
 72
    65
 73
     0
 40
0.0
  0
LTYPE
  2
CENTER
 70
     0
  3
_______________ _ _______________ _ ___________
 72
    65
 73
     4
 40
18.0
 49
15.0
 49
-1.0
 49
1.0
 49
-1.0
  0
LTYPE
  2
HIDDEN
 70
     0
  3
___ ___ ___ ___ ___ ___ ___ ___ ___ ___ 
 72
    65
 73
     2
 40
4.0
 49
3.0
 49
-1.0
  0
ENDTAB
  0
TABLE
  2
LAYER
 70
     5
  0
LAYER
  2
0
 70
     0
 62
     7
  6
CONTINUOUS
  0
LAYER
  2
DIM
 70
     0
 62
     5
  6
CONTINUOUS
  0
LAYER
  2
HIDDEN
 70
     0
 62
     6
  6
HIDDEN
  0
LAYER
  2
CENTER
 70
     0
 62
     1
  6
CENTER
  0
LAYER
  2
LOGO
 70
     0
 62
     7
  6
CONTINUOUS
  0
ENDTAB
  0
TABLE
  2
STYLE
 70
     8
  0
STYLE
  2
STANDARD
 70
     0
 40
0.0
 41
1.0
 50
0.0
 71
     0
 42
3.0
  3
txt
  4

  0
STYLE
  2
ITALICT
 70
     0
 40
0.0
 41
1.0
 50
0.0
 71
     0
 42
3.0
  3
ITALICT.SHX
  4

  0
STYLE
  2
ROMANSS
 70
     0
 40
0.0
 41
1.0
 50
0.0
 71
     0
 42
3.0
  3
ROMANSS.SHX
  4
LMP
  0
STYLE
  2
CHINESET
 70
     0
 40
0.0
 41
1.0
 50
0.0
 71
     0
 42
4.0
  3
C:\r13\com\fonts\simplex.shx
  4
C:\r13\com\fonts\chineset.shx
  0
STYLE
  2
LOGO
 70
     0
 40
0.0
 41
1.0
 50
0.0
 71
     0
 42
5.0
  3
txt
  4

  0
ENDTAB
  0
TABLE
  2
VIEW
 70
     0
  0
ENDTAB
  0
TABLE
  2
UCS
 70
     0
  0
ENDTAB
  0
TABLE
  2
APPID
 70
     2
  0
APPID
  2
ACAD
 70
     0
  0
APPID
  2
TCAD
 70
     0
  0
ENDTAB
  0
TABLE
  2
DIMSTYLE
 70
     1
  0
DIMSTYLE
  2
STANDARD
 70
     0
  3

  4

  5

  6

  7

 40
1.0
 41
0.18
 42
0.0625
 43
0.38
 44
0.18
 45
0.0
 46
0.0
 47
0.0
 48
0.0
140
0.18
141
0.09
142
0.0
143
25.399999999999999
144
1.0
145
0.0
146
1.0
147
0.09
 71
     0
 72
     0
 73
     1
 74
     1
 75
     0
 76
     0
 77
     0
 78
     0
170
     0
171
     2
172
     0
173
     0
174
     0
175
     0
176
     0
177
     0
178
     0
  0
ENDTAB
  0
ENDSEC
  0
SECTION
  2
BLOCKS
  0
BLOCK
  8
0
  2
$MODEL_SPACE
 70
     0
 10
0.0
 20
0.0
 30
0.0
  3
$MODEL_SPACE
  1

  0
ENDBLK
  5
3F
  8
0
  0
BLOCK
 67
     1
  8
0
  2
$PAPER_SPACE
 70
     0
 10
0.0
 20
0.0
 30
0.0
  3
$PAPER_SPACE
  1

  0
ENDBLK
  5
3D
 67
     1
  8
0
  0
ENDSEC
  0
SECTION
  2
ENTITIES
  0
LINE
  5
B29
  8
0
 62
     4
 10
227.0
 20
185.0
 30
0.0
 11
227.0
 21
765.00000000000023
 31
0.0
  0
LINE
  5
B2B
  8
0
 62
     4
 10
1107.0
 20
185.0
 30
0.0
 11
227.0
 21
185.0
 31
0.0
  0
LINE
  5
B2E
  8
0
 62
     4
 10
227.0
 20
765.00000000000023
 30
0.0
 11
1107.0
 21
764.99999999999977
 31
0.0
  0
LINE
  5
B2F
  8
0
 62
     4
 10
1107.0
 20
764.99999999999977
 30
0.0
 11
1107.0
 21
185.0
 31
0.0
  0
LINE
  5
B30
  8
CENTER
  6
CENTER
 10
1026.2026900792559
 20
433.67700054068689
 30
0.0
 11
996.20269007925594
 21
433.67700054068689
 31
0.0
  0
LINE
  5
B31
  8
CENTER
  6
CENTER
 10
496.44710100783038
 20
302.40798219805322
 30
0.0
 11
818.44710100783038
 21
302.40798219805322
 31
0.0
  0
LINE
  5
B32
  8
CENTER
  6
CENTER
 10
609.44710100783038
 20
272.40798219805322
 30
0.0
 11
705.44710100783038
 21
272.40798219805322
 31
0.0
  0
LINE
  5
B33
  8
0
 10
612.44710100783038
 20
229.90798219805311
 30
0.0
 11
702.4471010078305
 21
229.90798219805311
 31
0.0
  0
LINE
  5
B34
  8
0
 10
612.4471010078305
 20
339.90798219805322
 30
0.0
 11
702.4471010078305
 21
339.90798219805322
 31
0.0
  0
CIRCLE
  5
B35
  8
0
  6
CONTINUOUS
 10
657.4471010078305
 20
272.40798219805322
 30
0.0
 40
41.0
  0
CIRCLE
  5
B36
  8
0
  6
CONTINUOUS
 10
657.4471010078305
 20
272.40798219805322
 30
0.0
 40
40.0
  0
CIRCLE
  5
B37
  8
CENTER
  6
CENTER
 10
657.4471010078305
 20
272.40798219805322
 30
0.0
 40
33.5
  0
ARC
  5
B38
  8
0
  6
CONTINUOUS
 10
657.4471010078305
 20
663.37190021428137
 30
0.0
 40
15.00000000000005
 50
195.4660099534203
 51
164.53399004657959
  0
CIRCLE
  5
B39
  8
CENTER
  6
CENTER
 10
657.4471010078305
 20
663.37190021428137
 30
0.0
 40
33.5
  0
LINE
  5
B3A
  8
DIM
  6
CONTINUOUS
 10
664.19890833297859
 20
665.15322471431932
 30
0.0
 11
725.79383777897715
 21
686.86158022608788
 31
0.0
  0
LINE
  5
B3B
  8
DIM
  6
CONTINUOUS
 10
666.44710100783016
 20
559.67700054068678
 30
0.0
 11
645.44710100783016
 21
559.67700054068678
 31
0.0
  0
LINE
  5
B3C
  8
DIM
  6
CONTINUOUS
 10
666.44710100783016
 20
551.67700054068678
 30
0.0
 11
648.44710100783016
 21
551.67700054068678
 31
0.0
  0
LINE
  5
B3D
  8
DIM
  6
CONTINUOUS
 10
625.44710100783038
 20
713.87190021428148
 30
0.0
 11
689.4471010078305
 21
713.87190021428148
 31
0.0
  0
LINE
  5
B3E
  8
DIM
  6
CONTINUOUS
 10
490.59037499111378
 20
381.67700054068689
 30
0.0
 11
823.92312073605842
 21
381.67700054068689
 31
0.0
  0
LINE
  5
B3F
  8
DIM
  6
CONTINUOUS
 10
615.4471010078305
 20
389.67700054068689
 30
0.0
 11
699.4471010078305
 21
389.67700054068689
 31
0.0
  0
LINE
  5
B40
  8
DIM
  6
CONTINUOUS
 10
619.4471010078305
 20
397.67700054068689
 30
0.0
 11
695.4471010078305
 21
397.67700054068689
 31
0.0
  0
CIRCLE
  5
B41
  8
0
  6
CONTINUOUS
 10
657.4471010078305
 20
663.37190021428137
 30
0.0
 40
40.0
  0
CIRCLE
  5
B42
  8
0
  6
CONTINUOUS
 10
657.4471010078305
 20
663.37190021428137
 30
0.0
 40
41.0
  0
LINE
  5
B43
  8
0
 10
612.4471010078305
 20
595.87190021428125
 30
0.0
 11
702.4471010078305
 21
595.87190021428125
 31
0.0
  0
LINE
  5
B44
  8
0
 10
612.44710100783038
 20
705.87190021428148
 30
0.0
 11
702.4471010078305
 21
705.87190021428148
 31
0.0
  0
LINE
  5
B45
  8
CENTER
  6
CENTER
 10
609.44710100783038
 20
663.37190021428137
 30
0.0
 11
705.44710100783038
 21
663.37190021428137
 31
0.0
  0
CIRCLE
  5
B46
  8
0
  6
CONTINUOUS
 10
657.4471010078305
 20
663.37190021428137
 30
0.0
 40
11.00000000000005
  0
CIRCLE
  5
B47
  8
0
  6
CONTINUOUS
 10
657.4471010078305
 20
663.37190021428137
 30
0.0
 40
12.00000000000005
  0
LINE
  5
B48
  8
0
  6
CONTINUOUS
 10
616.4471010078305
 20
406.67700054068678
 30
0.0
 11
698.4471010078305
 21
406.67700054068678
 31
0.0
  0
LINE
  5
B49
  8
0
  6
CONTINUOUS
 10
616.4471010078305
 20
499.67700054068689
 30
0.0
 11
698.4471010078305
 21
499.67700054068689
 31
0.0
  0
LINE
  5
B4A
  8
0
  6
CONTINUOUS
 10
642.44710100783038
 20
501.67700054068678
 30
0.0
 11
672.44710100783027
 21
501.67700054068678
 31
0.0
  0
LINE
  5
B4B
  8
0
  6
CONTINUOUS
 10
645.44710100783016
 20
542.67700054068689
 30
0.0
 11
669.44710100783016
 21
542.67700054068689
 31
0.0
  0
LINE
  5
B4C
  8
0
  6
CONTINUOUS
 10
646.44710100783027
 20
543.67700054068678
 30
0.0
 11
668.44710100783016
 21
543.67700054068678
 31
0.0
  0
LINE
  5
B4D
  8
0
  6
CONTINUOUS
 10
617.44710100783038
 20
405.67700054068678
 30
0.0
 11
697.44710100783038
 21
405.67700054068678
 31
0.0
  0
LINE
  5
B4E
  8
0
  6
CONTINUOUS
 10
617.44710100783038
 20
500.67700054068689
 30
0.0
 11
697.44710100783038
 21
500.67700054068689
 31
0.0
  0
LINE
  5
B4F
  8
0
  6
CONTINUOUS
 10
612.4471010078305
 20
415.67700054068678
 30
0.0
 11
702.4471010078305
 21
415.67700054068678
 31
0.0
  0
LINE
  5
B50
  8
0
  6
CONTINUOUS
 10
612.44710100783038
 20
490.67700054068678
 30
0.0
 11
702.4471010078305
 21
490.67700054068678
 31
0.0
  0
LINE
  5
B51
  8
CENTER
  6
CENTER
 10
496.44710100783038
 20
633.37190021428137
 30
0.0
 11
818.44710100783038
 21
633.37190021428137
 31
0.0
  0
LINE
  5
B52
  8
CENTER
  6
CENTER
 10
496.44710100783038
 20
453.17700054068689
 30
0.0
 11
817.44710100783027
 21
453.17700054068678
 31
0.0
  0
LINE
  5
B53
  8
CENTER
  6
CENTER
 10
355.19151193640482
 20
493.67700054068672
 30
0.0
 11
355.19151193640482
 21
412.67700054068678
 31
0.0
  0
CIRCLE
  5
B54
  8
0
 10
355.19151193640482
 20
453.17700054068672
 30
0.0
 40
22.999999999999979
  0
CIRCLE
  5
B55
  8
0
 10
355.19151193640482
 20
453.17700054068672
 30
0.0
 40
22.499999999999979
  0
LINE
  5
B56
  8
0
 10
389.69151193640482
 20
450.67700054068678
 30
0.0
 11
389.69151193640482
 21
434.84856795717877
 31
0.0
  0
LINE
  5
B57
  8
0
 10
392.19151193640488
 20
481.17700054068672
 30
0.0
 11
392.19151193640488
 21
425.17700054068672
 31
0.0
  0
LINE
  5
B58
  8
0
 10
320.69151193640482
 20
450.67700054068661
 30
0.0
 11
320.69151193640482
 21
434.84856795717877
 31
0.0
  0
LINE
  5
B59
  8
0
 10
317.69151193640482
 20
481.17700054068672
 30
0.0
 11
317.69151193640482
 21
425.17700054068672
 31
0.0
  0
LINE
  5
B5A
  8
0
 10
318.19151193640482
 20
481.17700054068672
 30
0.0
 11
318.19151193640482
 21
425.17700054068672
 31
0.0
  0
LINE
  5
B5B
  8
0
 10
392.69151193640482
 20
490.67700054068678
 30
0.0
 11
392.69151193640482
 21
415.67700054068672
 31
0.0
  0
LINE
  5
B5C
  8
0
 10
282.69151193640471
 20
490.67700054068678
 30
0.0
 11
282.69151193640482
 21
415.67700054068672
 31
0.0
  0
LINE
  5
B5D
  8
CENTER
  6
CENTER
 10
325.19151193640488
 20
548.11720981922815
 30
0.0
 11
325.19151193640482
 21
402.67700054068661
 31
0.0
  0
CIRCLE
  5
B5E
  8
0
  6
CONTINUOUS
 10
657.44710100783038
 20
453.17700054068678
 30
0.0
 40
4.0
  0
LINE
  5
B5F
  8
0
 10
499.44710100783038
 20
431.677000540687
 30
0.0
 11
499.44710100783038
 21
474.677000540687
 31
0.0
  0
LINE
  5
B60
  8
0
 10
504.4471010078305
 20
416.17700054068689
 30
0.0
 11
504.44710100783038
 21
490.17700054068689
 31
0.0
  0
LINE
  5
B61
  8
0
 10
536.4471010078305
 20
415.67700054068678
 30
0.0
 11
536.44710100783027
 21
490.67700054068689
 31
0.0
  0
LINE
  5
B62
  8
0
 10
536.4471010078305
 20
418.17700054068678
 30
0.0
 11
536.4471010078305
 21
488.17700054068689
 31
0.0
  0
ARC
  5
B63
  8
0
 62
     2
 10
520.44710100783038
 20
446.17700054068689
 30
0.0
 40
8.25
 50
77.924803836954695
 51
18.66239316544431
  0
CIRCLE
  5
B64
  8
0
 10
520.44710100783038
 20
446.17700054068689
 30
0.0
 40
11.5
  0
CIRCLE
  5
B65
  8
0
 10
520.44710100783038
 20
446.17700054068689
 30
0.0
 40
8.4999999999999574
  0
CIRCLE
  5
B66
  8
0
 10
520.44710100783038
 20
446.17700054068678
 30
0.0
 40
6.5
  0
CIRCLE
  5
B67
  8
0
 10
520.44710100783038
 20
446.17700054068689
 30
0.0
 40
7.5
  0
LINE
  5
B68
  8
CENTER
  6
CENTER
 10
520.4471010078305
 20
458.677000540687
 30
0.0
 11
520.44710100783038
 21
433.677000540687
 31
0.0
  0
LINE
  5
B69
  8
0
 10
612.44710100783038
 20
490.67700054068678
 30
0.0
 11
612.4471010078305
 21
415.67700054068678
 31
0.0
  0
LINE
  5
B6A
  8
CENTER
  6
CENTER
 10
657.44710100783038
 20
546.67700054068689
 30
0.0
 11
657.4471010078305
 21
402.67700054068678
 31
0.0
  0
ARC
  5
B6B
  8
0
 10
366.69151193640488
 20
431.54369288790292
 30
0.0
 40
1.5
 50
117.99456173225229
 51
180.0
  0
ARC
  5
B6C
  8
0
 10
366.69151193640488
 20
420.17700054068678
 30
0.0
 40
1.5
 50
180.0
 51
270.0
  0
LINE
  5
B6D
  8
0
  6
CONTINUOUS
 10
365.19151193640482
 20
405.67700054068672
 30
0.0
 11
366.19151193640482
 21
406.67700054068661
 31
0.0
  0
LINE
  5
B6E
  8
0
 10
357.69151193640488
 20
418.67700054068672
 30
0.0
 11
373.51994451991271
 21
418.67700054068678
 31
0.0
  0
LINE
  5
B6F
  8
0
 10
383.19151193640482
 20
416.17700054068672
 30
0.0
 11
327.19151193640482
 21
416.17700054068672
 31
0.0
  0
LINE
  5
B70
  8
0
  6
CONTINUOUS
 10
366.19151193640482
 20
406.67700054068661
 30
0.0
 11
284.19151193640482
 21
406.67700054068661
 31
0.0
  0
LINE
  5
B71
  8
0
  6
CONTINUOUS
 10
392.69151193640482
 20
415.67700054068672
 30
0.0
 11
282.69151193640471
 21
415.67700054068672
 31
0.0
  0
LINE
  5
B72
  8
0
  6
CONTINUOUS
 10
365.19151193640482
 20
405.67700054068672
 30
0.0
 11
285.19151193640482
 21
405.67700054068672
 31
0.0
  0
LINE
  5
B73
  8
CENTER
  6
CENTER
 10
290.19151193640482
 20
413.39681917790409
 30
0.0
 11
290.19151193640482
 21
427.39681917790409
 31
0.0
  0
LINE
  5
B74
  8
0
 10
284.19151193640482
 20
406.67700054068661
 30
0.0
 11
284.19151193640482
 21
415.67700054068672
 31
0.0
  0
LINE
  5
B75
  8
0
  6
CONTINUOUS
 10
285.19151193640482
 20
405.67700054068672
 30
0.0
 11
284.19151193640482
 21
406.67700054068661
 31
0.0
  0
ARC
  5
B76
  8
0
 10
332.52815345383777
 20
434.40272935464571
 30
0.0
 40
1.5
 50
239.4775121859314
 51
315.0
  0
LINE
  5
B77
  8
0
 10
322.19151193640482
 20
443.17700054068672
 30
0.0
 11
333.5582042836208
 21
443.17700054068672
 31
0.0
  0
LINE
  5
B78
  8
CENTER
  6
CENTER
 10
334.44151193640482
 20
424.92700054068672
 30
0.0
 11
319.44151193640482
 21
424.92700054068672
 31
0.0
  0
CIRCLE
  5
B79
  8
0
 10
326.94151193640482
 20
424.92700054068672
 30
0.0
 40
6.5
  0
LINE
  5
B7A
  8
CENTER
  6
CENTER
 10
326.94151193640482
 20
432.42700054068678
 30
0.0
 11
326.94151193640482
 21
417.42700054068672
 31
0.0
  0
ARC
  5
B7B
  8
0
  6
CONTINUOUS
 62
     2
 10
326.94151193640482
 20
424.92700054068672
 30
0.0
 40
4.0
 50
165.54611884332431
 51
122.22581883937571
  0
CIRCLE
  5
B7C
  8
0
  6
CONTINUOUS
 10
326.94151193640482
 20
424.92700054068672
 30
0.0
 40
3.399999999999999
  0
POLYLINE
  5
B7D
  8
0
  6
CONTINUOUS
 66
     1
 10
0.0
 20
0.0
 30
0.0
 70
     1
  0
VERTEX
  5
13B1
  8
0
  6
CONTINUOUS
 10
329.25091301316331
 20
428.92700054068672
 30
0.0
  0
VERTEX
  5
13B2
  8
0
  6
CONTINUOUS
 10
331.56031408992169
 20
424.92700054068672
 30
0.0
  0
VERTEX
  5
13B3
  8
0
  6
CONTINUOUS
 10
329.25091301316331
 20
420.92700054068672
 30
0.0
  0
VERTEX
  5
13B4
  8
0
  6
CONTINUOUS
 10
324.63211085964628
 20
420.92700054068672
 30
0.0
  0
VERTEX
  5
13B5
  8
0
  6
CONTINUOUS
 10
322.32270978288778
 20
424.92700054068672
 30
0.0
  0
VERTEX
  5
13B6
  8
0
  6
CONTINUOUS
 10
324.63211085964628
 20
428.92700054068672
 30
0.0
  0
SEQEND
  5
13B7
  8
0
  6
CONTINUOUS
  0
ARC
  5
B85
  8
0
 10
327.19151193640482
 20
425.17700054068672
 30
0.0
 40
9.5
 50
180.0
 51
270.0
  0
ARC
  5
B86
  8
0
 10
327.19151193640482
 20
425.17700054068672
 30
0.0
 40
9.0
 50
180.0
 51
270.0
  0
ARC
  5
B87
  8
0
 10
326.94151193640482
 20
424.92700054068672
 30
0.0
 40
9.5
 50
59.477512185930138
 51
115.58300197739329
  0
ARC
  5
B88
  8
0
 10
322.19151193640482
 20
434.84856795717877
 30
0.0
 40
1.5
 50
180.0
 51
295.58300197742682
  0
ARC
  5
B89
  8
0
 10
322.19151193640482
 20
441.67700054068661
 30
0.0
 40
1.5
 50
90.0
 51
180.0
  0
LINE
  5
B8A
  8
0
 10
345.19151193640482
 20
420.17700054068678
 30
0.0
 11
345.19151193640482
 21
431.54369288790292
 31
0.0
  0
ARC
  5
B8B
  8
0
 10
326.94151193640482
 20
424.92700054068672
 30
0.0
 40
9.5
 50
334.41699802262252
 51
30.52248781407032
  0
LINE
  5
B8C
  8
0
 10
356.19151193640488
 20
420.17700054068678
 30
0.0
 11
356.19151193640488
 21
428.8048853267789
 31
0.0
  0
LINE
  5
B8D
  8
0
 10
365.19151193640488
 20
420.17700054068678
 30
0.0
 11
365.19151193640488
 21
431.54369288790292
 31
0.0
  0
LINE
  5
B8E
  8
0
 10
354.19151193640482
 20
420.17700054068678
 30
0.0
 11
354.19151193640482
 21
428.8048853267789
 31
0.0
  0
LINE
  5
B8F
  8
CENTER
  6
CENTER
 10
360.19151193640482
 20
413.39681917790398
 30
0.0
 11
360.19151193640482
 21
427.39681917790398
 31
0.0
  0
LINE
  5
B90
  8
0
 10
352.69151193640482
 20
418.67700054068672
 30
0.0
 11
336.86307935289682
 21
418.67700054068678
 31
0.0
  0
ARC
  5
B91
  8
0
 10
336.86307935289682
 20
420.17700054068678
 30
0.0
 40
1.5
 50
154.41699802259049
 51
270.0
  0
ARC
  5
B92
  8
0
 10
343.69151193640482
 20
420.17700054068678
 30
0.0
 40
1.5
 50
270.0
 51
0.0
  0
ARC
  5
B93
  8
0
 10
357.69151193640488
 20
420.17700054068678
 30
0.0
 40
1.5
 50
180.0
 51
270.0
  0
ARC
  5
B94
  8
0
 10
352.69151193640482
 20
420.17700054068678
 30
0.0
 40
1.5
 50
270.0
 51
0.0
  0
ARC
  5
B95
  8
0
 10
336.03233062131881
 20
437.90690652212669
 30
0.0
 40
1.5
 50
315.0
 51
38.555259660229609
  0
ARC
  5
B96
  8
0
 10
339.92141791784468
 20
434.01781922560087
 30
0.0
 40
1.5
 50
51.444740339770391
 51
135.0
  0
LINE
  5
B97
  8
0
 10
337.09299079309881
 20
436.84624635034692
 30
0.0
 11
333.5888136256176
 21
433.34206918286583
 31
0.0
  0
LINE
  5
B98
  8
0
 10
338.86075774606502
 20
435.0784793973807
 30
0.0
 11
335.35658057858382
 21
431.5743022298995
 31
0.0
  0
ARC
  5
B99
  8
0
 10
336.41724075036382
 20
430.51364205811979
 30
0.0
 40
1.5
 50
135.0
 51
210.52248781406999
  0
ARC
  5
B9A
  8
0
 10
343.69151193640482
 20
431.54369288790292
 30
0.0
 40
1.5
 50
0.0
 51
62.005438267747621
  0
ARC
  5
B9B
  8
0
 10
333.5582042836208
 20
441.67700054068661
 30
0.0
 40
1.5
 50
27.994561732252372
 51
90.0
  0
ARC
  5
B9C
  8
0
 10
357.69151193640488
 20
428.8048853267789
 30
0.0
 40
1.5
 50
95.856701909919025
 51
180.0
  0
ARC
  5
B9D
  8
0
 10
352.69151193640482
 20
428.8048853267789
 30
0.0
 40
1.5
 50
0.0
 51
84.143298090080961
  0
LINE
  5
B9E
  8
CENTER
  6
CENTER
 10
657.4471010078305
 20
226.90798219805311
 30
0.0
 11
657.4471010078305
 21
342.90798219805322
 31
0.0
  0
LINE
  5
B9F
  8
0
 10
612.44710100783038
 20
229.90798219805311
 30
0.0
 11
612.4471010078305
 21
339.90798219805322
 31
0.0
  0
LINE
  5
BA0
  8
CENTER
  6
CENTER
 10
629.51638315096181
 20
244.47726434118451
 30
0.0
 11
638.00166452520034
 21
252.962545715423
 31
0.0
  0
LINE
  5
BA1
  8
CENTER
  6
CENTER
 10
615.4471010078305
 20
237.40798219805319
 30
0.0
 11
629.4471010078305
 21
237.40798219805319
 31
0.0
  0
LINE
  5
BA2
  8
CENTER
  6
CENTER
 10
622.44710100783038
 20
230.40798219805319
 30
0.0
 11
622.44710100783038
 21
244.40798219805319
 31
0.0
  0
ARC
  5
BA3
  8
0
  6
CONTINUOUS
 62
     2
 10
622.44710100783038
 20
237.40798219805319
 30
0.0
 40
4.0
 50
335.22857957427379
 51
294.32248297488059
  0
CIRCLE
  5
BA4
  8
0
  6
CONTINUOUS
 10
622.44710100783038
 20
237.40798219805319
 30
0.0
 40
3.399999999999999
  0
LINE
  5
BA5
  8
0
 10
612.44710100783016
 20
267.40798219805322
 30
0.0
 11
536.4471010078305
 21
267.40798219805322
 31
0.0
  0
LINE
  5
BA6
  8
0
 10
612.4471010078305
 20
337.40798219805311
 30
0.0
 11
536.4471010078305
 21
337.40798219805311
 31
0.0
  0
LINE
  5
BA7
  8
0
 10
612.4471010078305
 20
321.1980916566265
 30
0.0
 11
536.4471010078305
 21
321.1980916566265
 31
0.0
  0
LINE
  5
BA8
  8
0
 10
612.4471010078305
 20
283.61787273947971
 30
0.0
 11
536.4471010078305
 21
283.61787273947971
 31
0.0
  0
LINE
  5
BA9
  8
0
 10
612.4471010078305
 20
434.38689108211349
 30
0.0
 11
536.4471010078305
 21
434.38689108211349
 31
0.0
  0
LINE
  5
BAA
  8
0
 10
612.4471010078305
 20
418.17700054068689
 30
0.0
 11
536.4471010078305
 21
418.17700054068689
 31
0.0
  0
LINE
  5
BAB
  8
0
 10
536.4471010078305
 20
264.90798219805311
 30
0.0
 11
536.44710100783027
 21
339.90798219805311
 31
0.0
  0
LINE
  5
BAC
  8
0
 10
504.4471010078305
 20
265.40798219805311
 30
0.0
 11
504.44710100783038
 21
339.40798219805311
 31
0.0
  0
LINE
  5
BAD
  8
0
 10
536.44710100783027
 20
264.90798219805311
 30
0.0
 11
504.44710100783038
 21
265.40798219805311
 31
0.0
  0
LINE
  5
BAE
  8
0
 10
499.44710100783038
 20
280.90798219805322
 30
0.0
 11
499.44710100783038
 21
323.90798219805322
 31
0.0
  0
ARC
  5
BAF
  8
0
 10
500.44710100783038
 20
280.90798219805322
 30
0.0
 40
1.0
 50
180.0
 51
270.0
  0
LINE
  5
BB0
  8
0
 10
504.4471010078305
 20
279.90798219805322
 30
0.0
 11
500.44710100783038
 21
279.90798219805322
 31
0.0
  0
ARC
  5
BB1
  8
0
 10
500.44710100783038
 20
323.90798219805322
 30
0.0
 40
1.0
 50
90.0
 51
180.0
  0
LINE
  5
BB2
  8
0
 10
504.44710100783038
 20
324.90798219805322
 30
0.0
 11
500.44710100783038
 21
324.90798219805322
 31
0.0
  0
LINE
  5
BB3
  8
0
 10
536.4471010078305
 20
267.40798219805311
 30
0.0
 11
536.4471010078305
 21
337.40798219805311
 31
0.0
  0
LINE
  5
BB4
  8
0
 10
536.44710100783027
 20
339.90798219805311
 30
0.0
 11
504.44710100783038
 21
339.40798219805311
 31
0.0
  0
SOLID
  5
BB5
  8
DIM
  6
CONTINUOUS
 10
507.4471010078305
 20
382.17700054068678
 30
0.0
 11
507.4471010078305
 21
381.17700054068678
 31
0.0
 12
504.4471010078305
 22
381.67700054068689
 32
0.0
 13
504.4471010078305
 23
381.67700054068689
 33
0.0
  0
LINE
  5
BB6
  8
0
 10
536.44710100783027
 20
415.67700054068678
 30
0.0
 11
504.44710100783038
 21
416.17700054068689
 31
0.0
  0
LINE
  5
BB7
  8
DIM
  6
CONTINUOUS
 10
499.44710100783038
 20
429.59927761649698
 30
0.0
 11
499.44710100783038
 21
380.67700054068689
 31
0.0
  0
LINE
  5
BB8
  8
DIM
  6
CONTINUOUS
 10
504.4471010078305
 20
415.17700054068678
 30
0.0
 11
504.4471010078305
 21
380.67700054068689
 31
0.0
  0
TEXT
  5
BB9
  8
DIM
  6
CONTINUOUS
 10
492.22623237728959
 20
383.17700054068678
 30
0.0
 40
3.0
  1
5
  7
ROMANSS
 72
     1
 11
493.22623237728959
 21
384.67700054068678
 31
0.0
 73
     2
  0
SOLID
  5
BBB
  8
DIM
  6
CONTINUOUS
 10
496.44710100783038
 20
382.17700054068678
 30
0.0
 11
496.44710100783038
 21
381.17700054068678
 31
0.0
 12
499.44710100783038
 22
381.67700054068689
 32
0.0
 13
499.44710100783038
 23
381.67700054068689
 33
0.0
  0
LINE
  5
BBC
  8
CENTER
  6
CENTER
 10
381.55449210810548
 20
433.67700054068689
 30
0.0
 11
403.69151193640482
 21
433.67700054068689
 31
0.0
  0
LINE
  5
BBD
  8
0
  6
CONTINUOUS
 10
397.69151193640482
 20
428.67700054068689
 30
0.0
 11
399.19151193640482
 21
428.67700054068689
 31
0.0
  0
LINE
  5
BBE
  8
0
  6
CONTINUOUS
 10
397.69151193640482
 20
438.67700054068689
 30
0.0
 11
399.19151193640482
 21
438.67700054068689
 31
0.0
  0
LINE
  5
BBF
  8
0
  6
CONTINUOUS
 62
     2
 10
397.69151193640482
 20
429.67700054068689
 30
0.0
 11
400.19151193640471
 21
429.67700054068689
 31
0.0
  0
LINE
  5
BC0
  8
0
  6
CONTINUOUS
 62
     2
 10
397.69151193640482
 20
437.67700054068689
 30
0.0
 11
400.19151193640471
 21
437.67700054068689
 31
0.0
  0
ARC
  5
BC1
  8
0
  6
CONTINUOUS
 10
402.86373415863272
 20
429.427000540687
 30
0.0
 40
10.19983357405331
 50
155.3752531507763
 51
204.62474684922361
  0
ARC
  5
BC2
  8
0
  6
CONTINUOUS
 10
387.51928971417681
 20
429.42700054068678
 30
0.0
 40
10.19983357405331
 50
335.37525315077369
 51
24.624746849226248
  0
LINE
  5
BC3
  8
0
  6
CONTINUOUS
 10
397.69151193640482
 20
425.17700054068689
 30
0.0
 11
397.69151193640482
 21
442.17700054068689
 31
0.0
  0
ARC
  5
BC4
  8
0
 10
383.44151193640482
 20
424.92700054068672
 30
0.0
 40
9.5
 50
149.47751218592961
 51
205.58300197738259
  0
LINE
  5
BC5
  8
CENTER
  6
CENTER
 10
383.44151193640482
 20
432.42700054068678
 30
0.0
 11
383.44151193640482
 21
417.42700054068672
 31
0.0
  0
CIRCLE
  5
BC6
  8
0
 10
383.44151193640482
 20
424.92700054068672
 30
0.0
 40
6.5
  0
ARC
  5
BC7
  8
0
  6
CONTINUOUS
 62
     2
 10
383.44151193640482
 20
424.92700054068672
 30
0.0
 40
4.0
 50
165.54611884332431
 51
122.22581883937571
  0
CIRCLE
  5
BC8
  8
0
  6
CONTINUOUS
 10
383.44151193640482
 20
424.92700054068672
 30
0.0
 40
3.399999999999999
  0
POLYLINE
  5
BC9
  8
0
  6
CONTINUOUS
 66
     1
 10
0.0
 20
0.0
 30
0.0
 70
     1
  0
VERTEX
  5
13B8
  8
0
  6
CONTINUOUS
 10
385.75091301316331
 20
428.92700054068672
 30
0.0
  0
VERTEX
  5
13B9
  8
0
  6
CONTINUOUS
 10
388.0603140899218
 20
424.92700054068672
 30
0.0
  0
VERTEX
  5
13BA
  8
0
  6
CONTINUOUS
 10
385.75091301316331
 20
420.92700054068672
 30
0.0
  0
VERTEX
  5
13BB
  8
0
  6
CONTINUOUS
 10
381.13211085964628
 20
420.92700054068672
 30
0.0
  0
VERTEX
  5
13BC
  8
0
  6
CONTINUOUS
 10
378.82270978288778
 20
424.92700054068672
 30
0.0
  0
VERTEX
  5
13BD
  8
0
  6
CONTINUOUS
 10
381.13211085964628
 20
428.92700054068672
 30
0.0
  0
SEQEND
  5
13BE
  8
0
  6
CONTINUOUS
  0
LINE
  5
BD1
  8
CENTER
  6
CENTER
 10
390.94151193640482
 20
424.92700054068672
 30
0.0
 11
375.94151193640482
 21
424.92700054068672
 31
0.0
  0
LINE
  5
BD2
  8
0
 10
366.19151193640482
 20
406.67700054068661
 30
0.0
 11
366.19151193640482
 21
415.67700054068672
 31
0.0
  0
ARC
  5
BD3
  8
0
 10
373.51994451991271
 20
420.17700054068678
 30
0.0
 40
1.5
 50
270.0
 51
25.583001977414259
  0
ARC
  5
BD4
  8
0
 10
383.19151193640482
 20
425.17700054068672
 30
0.0
 40
9.5
 50
270.0
 51
0.0
  0
ARC
  5
BD5
  8
0
 10
383.19151193640482
 20
425.17700054068672
 30
0.0
 40
9.0
 50
270.0
 51
0.0
  0
LINE
  5
BD6
  8
0
  6
CONTINUOUS
 10
397.69151193640482
 20
425.17700054068689
 30
0.0
 11
392.69151193640488
 21
425.17700054068689
 31
0.0
  0
LINE
  5
BD7
  8
CENTER
  6
CENTER
 10
395.88280601974469
 20
446.17700054068689
 30
0.0
 11
372.2181485986473
 21
446.17700054068689
 31
0.0
  0
ARC
  5
BD8
  8
0
 10
383.44151193640482
 20
424.92700054068672
 30
0.0
 40
9.5
 50
64.416998022611963
 51
120.52248781407
  0
ARC
  5
BD9
  8
0
 10
374.35069325149072
 20
437.9069065221268
 30
0.0
 40
1.5
 50
141.44474033977031
 51
225.0
  0
LINE
  5
BDA
  8
0
 10
373.29003307971089
 20
436.84624635034692
 30
0.0
 11
376.79421024719198
 21
433.34206918286583
 31
0.0
  0
LINE
  5
BDB
  8
0
 10
371.52226612674463
 20
435.0784793973807
 30
0.0
 11
375.02644329422571
 21
431.5743022298995
 31
0.0
  0
ARC
  5
BDC
  8
0
 10
370.4616059549648
 20
434.01781922560087
 30
0.0
 40
1.5
 50
45.0
 51
128.55525966023259
  0
ARC
  5
BDD
  8
0
 10
377.85487041897181
 20
434.40272935464571
 30
0.0
 40
1.5
 50
225.0
 51
300.52248781406939
  0
ARC
  5
BDE
  8
0
 10
373.96578312244588
 20
430.51364205811979
 30
0.0
 40
1.5
 50
329.47751218592941
 51
45.0
  0
ARC
  5
BDF
  8
0
  6
CONTINUOUS
 10
402.86373415863272
 20
437.927000540687
 30
0.0
 40
10.19983357405331
 50
155.3752531507763
 51
204.62474684922361
  0
ARC
  5
BE0
  8
0
  6
CONTINUOUS
 10
387.51928971417681
 20
437.92700054068678
 30
0.0
 40
10.19983357405331
 50
335.37525315077369
 51
24.624746849225819
  0
ARC
  5
BE1
  8
0
 10
388.19151193640482
 20
434.84856795717877
 30
0.0
 40
1.5
 50
244.4169980225808
 51
0.0
  0
LINE
  5
BE2
  8
0
  6
CONTINUOUS
 10
390.69151193640482
 20
433.67700054068689
 30
0.0
 11
396.79151193640519
 21
433.67700054068689
 31
0.0
  0
LINE
  5
BE3
  8
0
  6
CONTINUOUS
 10
390.69151193640482
 20
433.67700054068689
 30
0.0
 11
396.79151193640519
 21
433.67700054068689
 31
0.0
  0
LINE
  5
BE4
  8
0
  6
CONTINUOUS
 10
397.69151193640482
 20
442.17700054068689
 30
0.0
 11
392.69151193640488
 21
442.17700054068689
 31
0.0
  0
LINE
  5
BE5
  8
0
  6
CONTINUOUS
 10
399.19151193640482
 20
438.67700054068689
 30
0.0
 11
400.69151193640482
 21
437.17700054068689
 31
0.0
  0
LINE
  5
BE6
  8
0
  6
CONTINUOUS
 10
399.19151193640482
 20
428.67700054068689
 30
0.0
 11
399.19151193640482
 21
438.67700054068689
 31
0.0
  0
LINE
  5
BE7
  8
0
  6
CONTINUOUS
 10
400.69151193640482
 20
430.17700054068689
 30
0.0
 11
400.69151193640482
 21
437.17700054068689
 31
0.0
  0
LINE
  5
BE8
  8
0
  6
CONTINUOUS
 10
399.19151193640482
 20
428.67700054068689
 30
0.0
 11
400.69151193640482
 21
430.17700054068689
 31
0.0
  0
LINE
  5
BE9
  8
0
 10
504.4471010078305
 20
430.67700054068689
 30
0.0
 11
501.44710100783033
 21
430.67700054068689
 31
0.0
  0
ARC
  5
BEA
  8
0
 10
501.33590979498479
 20
432.95461811499581
 30
0.0
 40
2.2803300858899109
 50
214.074988904782
 51
272.79490874106079
  0
LINE
  5
BEB
  8
CENTER
  6
CENTER
 10
532.94710100783038
 20
446.17700054068689
 30
0.0
 11
507.94710100783038
 21
446.177000540687
 31
0.0
  0
LINE
  5
BEC
  8
CENTER
  6
CENTER
 10
635.9471010078305
 20
327.08161426335488
 30
0.0
 11
635.9471010078305
 21
351.67642266890499
 31
0.0
  0
CIRCLE
  5
BED
  8
0
  6
CONTINUOUS
 10
633.75902383808102
 20
248.7199050283038
 30
0.0
 40
2.5
  0
ARC
  5
BEE
  8
0
  6
CONTINUOUS
 62
     2
 10
633.75902383808102
 20
248.7199050283038
 30
0.0
 40
3.0
 50
206.96359889101501
 51
149.15498767399501
  0
LINE
  5
BEF
  8
CENTER
  6
CENTER
 10
615.4471010078305
 20
307.40798219805322
 30
0.0
 11
629.4471010078305
 21
307.40798219805322
 31
0.0
  0
LINE
  5
BF0
  8
CENTER
  6
CENTER
 10
622.44710100783038
 20
300.40798219805322
 30
0.0
 11
622.44710100783038
 21
314.40798219805322
 31
0.0
  0
ARC
  5
BF1
  8
0
  6
CONTINUOUS
 62
     2
 10
622.44710100783038
 20
307.40798219805322
 30
0.0
 40
4.0
 50
335.22857957427448
 51
294.32248297488059
  0
CIRCLE
  5
BF2
  8
0
  6
CONTINUOUS
 10
622.44710100783038
 20
307.40798219805322
 30
0.0
 40
3.399999999999999
  0
LINE
  5
BF3
  8
DIM
  6
CONTINUOUS
 10
612.4471010078305
 20
414.67700054068678
 30
0.0
 11
612.4471010078305
 21
388.67700054068689
 31
0.0
  0
LINE
  5
BF4
  8
DIM
  6
CONTINUOUS
 10
616.4471010078305
 20
405.67700054068678
 30
0.0
 11
616.4471010078305
 21
396.67700054068689
 31
0.0
  0
LINE
  5
BF5
  8
0
  6
CONTINUOUS
 10
639.44710100782822
 20
347.90798219805322
 30
0.0
 11
632.44710100782811
 21
347.90798219805322
 31
0.0
  0
ARC
  5
BF6
  8
0
  6
CONTINUOUS
 10
635.95314079868297
 20
329.90798341402228
 30
0.0
 40
14.999999999999989
 50
90.023070302298393
 51
109.4956922330535
  0
LINE
  5
BF7
  8
0
  6
CONTINUOUS
 10
644.19710100782822
 20
344.90798219805322
 30
0.0
 11
627.697101007828
 21
344.90798219805322
 31
0.0
  0
LINE
  5
BF8
  8
0
  6
CONTINUOUS
 10
640.94710100782822
 20
346.40798219805322
 30
0.0
 11
630.94710100782811
 21
346.40798219805322
 31
0.0
  0
ARC
  5
BF9
  8
0
  6
CONTINUOUS
 10
635.95314079862783
 20
354.90798098208398
 30
0.0
 40
14.999999999999989
 50
250.50430776694591
 51
269.97692969770111
  0
LINE
  5
BFA
  8
0
  6
CONTINUOUS
 62
     2
 10
631.94710100782822
 20
344.90798219805322
 30
0.0
 11
631.94710100782822
 21
347.40798219805322
 31
0.0
  0
LINE
  5
BFB
  8
0
  6
CONTINUOUS
 10
626.14710100782895
 20
344.0130630294617
 30
0.0
 11
627.69710100782822
 21
344.90798219805322
 31
0.0
  0
ARC
  5
BFC
  8
0
  6
CONTINUOUS
 10
628.64064179433069
 20
341.38620411466297
 30
0.0
 40
3.5220472269320542
 50
49.090720066529649
 51
119.2051441578367
  0
LINE
  5
BFD
  8
0
  6
CONTINUOUS
 10
630.94710100782822
 20
344.90798219805322
 30
0.0
 11
630.94710100782822
 21
346.40798219805322
 31
0.0
  0
ARC
  5
BFE
  8
0
  6
CONTINUOUS
 10
628.64064179427544
 20
343.42976028144318
 30
0.0
 40
3.5220472269320542
 50
240.79485584216269
 51
310.90927993347032
  0
LINE
  5
BFF
  8
0
  6
CONTINUOUS
 10
626.14710100777359
 20
340.80290136664468
 30
0.0
 11
627.69710100777274
 21
339.90798219805322
 31
0.0
  0
LINE
  5
C00
  8
0
  6
CONTINUOUS
 10
626.14710100782895
 20
340.80290136661267
 30
0.0
 11
626.14710100782895
 21
344.0130630294617
 31
0.0
  0
LINE
  5
C01
  8
0
  6
CONTINUOUS
 10
630.94710100782822
 20
340.76798219803408
 30
0.0
 11
630.94710100782822
 21
344.04798219805258
 31
0.0
  0
LINE
  5
C02
  8
0
  6
CONTINUOUS
 10
630.94710100782822
 20
346.40798219805322
 30
0.0
 11
632.44710100782822
 21
347.90798219805322
 31
0.0
  0
SOLID
  5
C03
  8
DIM
  6
CONTINUOUS
 10
619.4471010078305
 20
398.17700054068689
 30
0.0
 11
619.4471010078305
 21
397.17700054068689
 31
0.0
 12
616.4471010078305
 22
397.67700054068689
 32
0.0
 13
616.4471010078305
 23
397.67700054068689
 33
0.0
  0
SOLID
  5
C04
  8
DIM
  6
CONTINUOUS
 10
615.4471010078305
 20
390.17700054068689
 30
0.0
 11
615.4471010078305
 21
389.17700054068689
 31
0.0
 12
612.4471010078305
 22
389.67700054068689
 32
0.0
 13
612.4471010078305
 23
389.67700054068689
 33
0.0
  0
ARC
  5
C05
  8
0
  6
CONTINUOUS
 10
643.25356022132564
 20
341.38620411466297
 30
0.0
 40
3.5220472269320542
 50
60.794855842163209
 51
130.90927993347029
  0
ARC
  5
C06
  8
0
  6
CONTINUOUS
 10
643.25356022127016
 20
343.42976028144318
 30
0.0
 40
3.5220472269320542
 50
229.0907200665296
 51
299.2051441578372
  0
LINE
  5
C07
  8
0
  6
CONTINUOUS
 62
     2
 10
639.94710100782822
 20
344.90798219805322
 30
0.0
 11
639.94710100782822
 21
347.40798219805322
 31
0.0
  0
LINE
  5
C08
  8
0
  6
CONTINUOUS
 10
640.94710100782822
 20
344.90798219805322
 30
0.0
 11
640.94710100782822
 21
346.40798219805322
 31
0.0
  0
LINE
  5
C09
  8
0
  6
CONTINUOUS
 10
640.94710100782822
 20
346.40798219805322
 30
0.0
 11
639.44710100782822
 21
347.90798219805322
 31
0.0
  0
LINE
  5
C0A
  8
0
  6
CONTINUOUS
 10
640.94710100782822
 20
340.7679821980733
 30
0.0
 11
640.94710100782822
 21
344.04798219805258
 31
0.0
  0
ARC
  5
C0B
  8
0
  6
CONTINUOUS
 10
635.94106121697314
 20
329.90798341402228
 30
0.0
 40
14.999999999999989
 50
70.504307766945473
 51
89.976929697700726
  0
ARC
  5
C0C
  8
0
  6
CONTINUOUS
 10
635.94106121691777
 20
354.90798098208398
 30
0.0
 40
14.999999999999989
 50
270.02307030229878
 51
289.49569223305389
  0
LINE
  5
C0D
  8
0
  6
CONTINUOUS
 10
645.7471010078275
 20
344.0130630294617
 30
0.0
 11
644.19710100782822
 21
344.90798219805322
 31
0.0
  0
LINE
  5
C0E
  8
0
  6
CONTINUOUS
 10
645.74710100777213
 20
340.80290136664468
 30
0.0
 11
644.19710100777274
 21
339.90798219805322
 31
0.0
  0
LINE
  5
C0F
  8
0
  6
CONTINUOUS
 10
645.7471010078275
 20
340.80290136667662
 30
0.0
 11
645.7471010078275
 21
344.0130630294617
 31
0.0
  0
TEXT
  5
C10
  8
DIM
  6
CONTINUOUS
 10
655.01852957925905
 20
391.17700054068689
 30
0.0
 40
3.0
  1
90
  7
ROMANSS
 72
     1
 11
657.4471010078305
 21
392.67700054068689
 31
0.0
 73
     2
  0
TEXT
  5
C11
  8
DIM
  6
CONTINUOUS
 10
653.66138672211605
 20
383.17700054068678
 30
0.0
 40
3.0
  1
306
  7
ROMANSS
 72
     1
 11
657.4471010078305
 21
384.67700054068678
 31
0.0
 73
     2
  0
TEXT
  5
C12
  8
DIM
  6
CONTINUOUS
 10
653.66138672211605
 20
399.17700054068689
 30
0.0
 40
3.0
  1
%%c82
  7
ROMANSS
 72
     1
 11
657.4471010078305
 21
400.67700054068689
 31
0.0
 73
     2
  0
POLYLINE
  5
C13
  8
0
  6
CONTINUOUS
 66
     1
 10
0.0
 20
0.0
 30
0.0
 70
     1
  0
VERTEX
  5
13BF
  8
0
  6
CONTINUOUS
 10
631.04710100783075
 20
442.1640494977745
 30
0.0
  0
VERTEX
  5
13C0
  8
0
  6
CONTINUOUS
 10
626.14710100783122
 20
433.67700054068689
 30
0.0
  0
VERTEX
  5
13C1
  8
0
  6
CONTINUOUS
 10
631.04710100783075
 20
425.18995158359928
 30
0.0
  0
VERTEX
  5
13C2
  8
0
  6
CONTINUOUS
 10
640.84710100783013
 20
425.18995158359928
 30
0.0
  0
VERTEX
  5
13C3
  8
0
  6
CONTINUOUS
 10
645.74710100782977
 20
433.67700054068689
 30
0.0
  0
VERTEX
  5
13C4
  8
0
  6
CONTINUOUS
 10
640.84710100783013
 20
442.1640494977745
 30
0.0
  0
SEQEND
  5
13C5
  8
0
  6
CONTINUOUS
  0
CIRCLE
  5
C1B
  8
0
  6
CONTINUOUS
 10
635.9471010078305
 20
433.67700054068689
 30
0.0
 40
8.25
  0
POLYLINE
  5
C1C
  8
0
  6
CONTINUOUS
 66
     1
 10
0.0
 20
0.0
 30
0.0
 70
     1
  0
VERTEX
  5
13C6
  8
0
  6
CONTINUOUS
 10
634.50372533485643
 20
436.17700054068689
 30
0.0
  0
VERTEX
  5
13C7
  8
0
  6
CONTINUOUS
 10
633.06034966188236
 20
433.67700054068689
 30
0.0
  0
VERTEX
  5
13C8
  8
0
  6
CONTINUOUS
 10
634.50372533485643
 20
431.17700054068689
 30
0.0
  0
VERTEX
  5
13C9
  8
0
  6
CONTINUOUS
 10
637.39047668080445
 20
431.17700054068689
 30
0.0
  0
VERTEX
  5
13CA
  8
0
  6
CONTINUOUS
 10
638.83385235377864
 20
433.67700054068689
 30
0.0
  0
VERTEX
  5
13CB
  8
0
  6
CONTINUOUS
 10
637.39047668080445
 20
436.17700054068689
 30
0.0
  0
SEQEND
  5
13CC
  8
0
  6
CONTINUOUS
  0
ARC
  5
C24
  8
0
  6
CONTINUOUS
 62
     2
 10
635.9471010078305
 20
433.67700054068689
 30
0.0
 40
4.25
 50
69.487813016515403
 51
22.414620147484769
  0
CIRCLE
  5
C25
  8
0
  6
CONTINUOUS
 10
635.9471010078305
 20
433.67700054068689
 30
0.0
 40
5.0
  0
LINE
  5
C26
  8
CENTER
  6
CENTER
 10
620.9471010078305
 20
433.67700054068689
 30
0.0
 11
650.94710100783038
 21
433.67700054068689
 31
0.0
  0
LINE
  5
C27
  8
CENTER
  6
CENTER
 10
622.44710100783038
 20
413.39681917790421
 30
0.0
 11
622.44710100783038
 21
431.52985620274421
 31
0.0
  0
LINE
  5
C28
  8
0
  6
CONTINUOUS
 10
616.4471010078305
 20
406.67700054068678
 30
0.0
 11
617.44710100783038
 21
405.67700054068678
 31
0.0
  0
LINE
  5
C29
  8
0
 10
616.4471010078305
 20
415.67700054068678
 30
0.0
 11
616.4471010078305
 21
406.67700054068678
 31
0.0
  0
LINE
  5
C2A
  8
CENTER
  6
CENTER
 10
635.9471010078305
 20
448.67700054068689
 30
0.0
 11
635.9471010078305
 21
418.67700054068689
 31
0.0
  0
LINE
  5
C2B
  8
0
  6
CONTINUOUS
 10
365.19151193640482
 20
500.67700054068689
 30
0.0
 11
366.19151193640482
 21
499.67700054068689
 31
0.0
  0
ARC
  5
C2C
  8
0
 10
366.69151193640488
 20
486.17700054068672
 30
0.0
 40
1.5
 50
90.0
 51
180.0
  0
ARC
  5
C2D
  8
0
 10
366.69151193640488
 20
474.81030819347058
 30
0.0
 40
1.5
 50
180.0
 51
242.00543826774759
  0
LINE
  5
C2E
  8
0
 10
357.69151193640488
 20
487.67700054068672
 30
0.0
 11
373.51994451991271
 21
487.67700054068672
 31
0.0
  0
LINE
  5
C2F
  8
CENTER
  6
CENTER
 10
395.69151193640488
 20
453.17700054068678
 30
0.0
 11
279.69151193640482
 21
453.17700054068672
 31
0.0
  0
LINE
  5
C30
  8
0
 10
383.19151193640482
 20
490.17700054068672
 30
0.0
 11
327.19151193640482
 21
490.17700054068672
 31
0.0
  0
LINE
  5
C31
  8
0
  6
CONTINUOUS
 10
366.19151193640482
 20
499.67700054068689
 30
0.0
 11
284.19151193640482
 21
499.67700054068689
 31
0.0
  0
LINE
  5
C32
  8
0
  6
CONTINUOUS
 10
392.69151193640482
 20
490.67700054068678
 30
0.0
 11
282.69151193640471
 21
490.67700054068678
 31
0.0
  0
LINE
  5
C33
  8
0
 10
313.19151193640488
 20
542.67700054068689
 30
0.0
 11
313.19151193640482
 21
501.67700054068678
 31
0.0
  0
LINE
  5
C34
  8
0
 10
337.19151193640488
 20
542.67700054068689
 30
0.0
 11
337.19151193640488
 21
501.67700054068678
 31
0.0
  0
LINE
  5
C35
  8
0
  6
CONTINUOUS
 10
365.19151193640482
 20
500.67700054068689
 30
0.0
 11
285.19151193640482
 21
500.67700054068689
 31
0.0
  0
LINE
  5
C36
  8
0
 10
284.19151193640482
 20
499.67700054068689
 30
0.0
 11
284.19151193640482
 21
490.67700054068678
 31
0.0
  0
LINE
  5
C37
  8
CENTER
  6
CENTER
 10
290.19151193640482
 20
492.95718190346952
 30
0.0
 11
290.19151193640482
 21
478.95718190346952
 31
0.0
  0
LINE
  5
C38
  8
0
  6
CONTINUOUS
 10
285.19151193640482
 20
500.67700054068689
 30
0.0
 11
284.19151193640482
 21
499.67700054068689
 31
0.0
  0
ARC
  5
C39
  8
0
 10
332.5281534538376
 20
471.95127172672773
 30
0.0
 40
1.5
 50
45.0
 51
120.5224878140705
  0
LINE
  5
C3A
  8
CENTER
  6
CENTER
 10
334.44151193640482
 20
481.42700054068672
 30
0.0
 11
319.44151193640482
 21
481.42700054068672
 31
0.0
  0
CIRCLE
  5
C3B
  8
0
 10
326.94151193640482
 20
481.42700054068672
 30
0.0
 40
6.5
  0
ARC
  5
C3C
  8
0
 10
330.819396722497
 20
450.67700054068661
 30
0.0
 40
1.5
 50
5.8567019099191491
 51
90.0
  0
ARC
  5
C3D
  8
0
 10
330.819396722497
 20
455.67700054068678
 30
0.0
 40
1.5
 50
270.0
 51
354.1432980900808
  0
LINE
  5
C3E
  8
0
 10
322.19151193640482
 20
463.17700054068678
 30
0.0
 11
333.5582042836208
 21
463.17700054068678
 31
0.0
  0
ARC
  5
C3F
  8
0
 10
326.94151193640482
 20
481.42700054068672
 30
0.0
 40
9.5
 50
244.41699802261189
 51
300.52248781407019
  0
ARC
  5
C40
  8
0
 10
322.19151193640482
 20
471.50543312419472
 30
0.0
 40
1.5
 50
64.416998022577985
 51
180.0
  0
LINE
  5
C41
  8
0
 10
320.69151193640482
 20
455.67700054068678
 30
0.0
 11
320.69151193640482
 21
471.50543312419472
 31
0.0
  0
LINE
  5
C42
  8
0
 10
322.19151193640482
 20
452.17700054068672
 30
0.0
 11
330.819396722497
 21
452.17700054068672
 31
0.0
  0
LINE
  5
C43
  8
0
 10
322.19151193640482
 20
454.17700054068672
 30
0.0
 11
330.819396722497
 21
454.17700054068672
 31
0.0
  0
ARC
  5
C44
  8
0
 10
322.19151193640482
 20
450.67700054068661
 30
0.0
 40
1.5
 50
90.0
 51
180.0
  0
ARC
  5
C45
  8
0
 10
322.19151193640482
 20
455.67700054068678
 30
0.0
 40
1.5
 50
180.0
 51
270.0
  0
ARC
  5
C46
  8
0
 10
322.19151193640482
 20
464.67700054068672
 30
0.0
 40
1.5
 50
180.0
 51
270.0
  0
ARC
  5
C47
  8
0
 10
327.19151193640482
 20
481.17700054068672
 30
0.0
 40
9.5
 50
90.0
 51
180.0
  0
ARC
  5
C48
  8
0
 10
327.19151193640482
 20
481.17700054068672
 30
0.0
 40
9.0
 50
90.0
 51
180.0
  0
LINE
  5
C49
  8
CENTER
  6
CENTER
 10
326.94151193640482
 20
488.92700054068672
 30
0.0
 11
326.94151193640482
 21
473.92700054068678
 31
0.0
  0
ARC
  5
C4A
  8
0
  6
CONTINUOUS
 62
     2
 10
326.94151193640482
 20
481.42700054068672
 30
0.0
 40
4.0
 50
165.54611884332431
 51
122.22581883937571
  0
CIRCLE
  5
C4B
  8
0
  6
CONTINUOUS
 10
326.94151193640482
 20
481.42700054068672
 30
0.0
 40
3.399999999999999
  0
POLYLINE
  5
C4C
  8
0
  6
CONTINUOUS
 66
     1
 10
0.0
 20
0.0
 30
0.0
 70
     1
  0
VERTEX
  5
13CD
  8
0
  6
CONTINUOUS
 10
329.25091301316331
 20
485.42700054068672
 30
0.0
  0
VERTEX
  5
13CE
  8
0
  6
CONTINUOUS
 10
331.56031408992169
 20
481.42700054068672
 30
0.0
  0
VERTEX
  5
13CF
  8
0
  6
CONTINUOUS
 10
329.25091301316331
 20
477.42700054068678
 30
0.0
  0
VERTEX
  5
13D0
  8
0
  6
CONTINUOUS
 10
324.63211085964628
 20
477.42700054068678
 30
0.0
  0
VERTEX
  5
13D1
  8
0
  6
CONTINUOUS
 10
322.32270978288778
 20
481.42700054068672
 30
0.0
  0
VERTEX
  5
13D2
  8
0
  6
CONTINUOUS
 10
324.63211085964628
 20
485.42700054068672
 30
0.0
  0
SEQEND
  5
13D3
  8
0
  6
CONTINUOUS
  0
LINE
  5
C54
  8
0
 10
338.86075774606502
 20
471.27552168399291
 30
0.0
 11
335.35658057858382
 21
474.779698851474
 31
0.0
  0
LINE
  5
C55
  8
0
 10
337.09299079309852
 20
469.50775473102652
 30
0.0
 11
333.5888136256176
 21
473.01193189850761
 31
0.0
  0
ARC
  5
C56
  8
0
 10
339.92141791784468
 20
472.33618185577268
 30
0.0
 40
1.5
 50
225.0
 51
308.55525966022958
  0
ARC
  5
C57
  8
0
 10
336.03233062131881
 20
468.44709455924658
 30
0.0
 40
1.5
 50
321.44474033977031
 51
45.0
  0
ARC
  5
C58
  8
0
 10
333.5582042836208
 20
464.67700054068672
 30
0.0
 40
1.5
 50
270.0
 51
332.00543826774759
  0
LINE
  5
C59
  8
0
 10
352.69151193640482
 20
487.67700054068672
 30
0.0
 11
336.86307935289682
 21
487.67700054068672
 31
0.0
  0
LINE
  5
C5A
  8
0
 10
345.19151193640482
 20
486.17700054068672
 30
0.0
 11
345.19151193640482
 21
474.81030819347058
 31
0.0
  0
ARC
  5
C5B
  8
0
 10
326.94151193640482
 20
481.42700054068672
 30
0.0
 40
9.5
 50
329.47751218592958
 51
25.583001977382661
  0
ARC
  5
C5C
  8
0
 10
336.41724075036382
 20
475.84035902325382
 30
0.0
 40
1.5
 50
149.4775121859299
 51
225.0
  0
ARC
  5
C5D
  8
0
 10
343.69151193640482
 20
474.81030819347058
 30
0.0
 40
1.5
 50
297.99456173225229
 51
0.0
  0
ARC
  5
C5E
  8
0
 10
336.86307935289682
 20
486.17700054068672
 30
0.0
 40
1.5
 50
90.0
 51
205.5830019774171
  0
ARC
  5
C5F
  8
0
 10
343.69151193640482
 20
486.17700054068672
 30
0.0
 40
1.5
 50
0.0
 51
90.0
  0
LINE
  5
C60
  8
0
 10
354.19151193640482
 20
486.17700054068672
 30
0.0
 11
354.19151193640482
 21
477.54911575459448
 31
0.0
  0
LINE
  5
C61
  8
0
 10
356.19151193640488
 20
486.17700054068672
 30
0.0
 11
356.19151193640488
 21
477.54911575459448
 31
0.0
  0
LINE
  5
C62
  8
CENTER
  6
CENTER
 10
360.19151193640482
 20
492.95718190346952
 30
0.0
 11
360.19151193640482
 21
478.95718190346952
 31
0.0
  0
LINE
  5
C63
  8
0
 10
365.19151193640488
 20
486.17700054068672
 30
0.0
 11
365.19151193640488
 21
474.81030819347058
 31
0.0
  0
ARC
  5
C64
  8
0
 10
357.69151193640488
 20
477.54911575459448
 30
0.0
 40
1.5
 50
180.0
 51
264.14329809008092
  0
ARC
  5
C65
  8
0
 10
352.69151193640482
 20
477.54911575459448
 30
0.0
 40
1.5
 50
275.85670190991902
 51
0.0
  0
ARC
  5
C66
  8
0
 10
357.69151193640488
 20
486.17700054068672
 30
0.0
 40
1.5
 50
90.0
 51
180.0
  0
ARC
  5
C67
  8
0
 10
352.69151193640482
 20
486.17700054068672
 30
0.0
 40
1.5
 50
0.0
 51
90.0
  0
LINE
  5
C68
  8
0
  6
CONTINUOUS
 10
340.19151193640482
 20
501.67700054068678
 30
0.0
 11
310.19151193640482
 21
501.67700054068678
 31
0.0
  0
LINE
  5
C69
  8
0
 10
321.19151193640488
 20
536.67700054068689
 30
0.0
 11
321.19151193640488
 21
508.67700054068689
 31
0.0
  0
LINE
  5
C6A
  8
0
 10
329.19151193640488
 20
536.67700054068689
 30
0.0
 11
329.19151193640488
 21
508.67700054068689
 31
0.0
  0
LINE
  5
C6B
  8
0
 10
310.19151193640482
 20
501.67700054068678
 30
0.0
 11
310.19151193640482
 21
500.67700054068689
 31
0.0
  0
ARC
  5
C6C
  8
0
  6
CONTINUOUS
 10
325.19151193640488
 20
508.67700054068689
 30
0.0
 40
4.0
 50
180.0
 51
0.0
  0
ARC
  5
C6D
  8
0
  6
CONTINUOUS
 10
325.19151193640488
 20
536.67700054068689
 30
0.0
 40
4.0
 50
0.0
 51
180.0
  0
LINE
  5
C6E
  8
0
 10
340.19151193640482
 20
501.67700054068689
 30
0.0
 11
340.19151193640488
 21
500.677000540687
 31
0.0
  0
LINE
  5
C6F
  8
0
  6
CONTINUOUS
 10
337.19151193640488
 20
542.67700054068689
 30
0.0
 11
313.19151193640488
 21
542.67700054068689
 31
0.0
  0
LINE
  5
C70
  8
0
  6
CONTINUOUS
 10
336.19151193640488
 20
543.67700054068678
 30
0.0
 11
314.19151193640488
 21
543.67700054068678
 31
0.0
  0
LINE
  5
C71
  8
0
  6
CONTINUOUS
 10
314.19151193640488
 20
543.67700054068678
 30
0.0
 11
313.19151193640488
 21
542.67700054068689
 31
0.0
  0
LINE
  5
C72
  8
0
  6
CONTINUOUS
 10
336.19151193640488
 20
543.67700054068678
 30
0.0
 11
337.19151193640488
 21
542.67700054068689
 31
0.0
  0
LINE
  5
C73
  8
0
 10
504.4471010078305
 20
670.3719002142816
 30
0.0
 11
504.44710100783038
 21
596.37190021428148
 31
0.0
  0
LINE
  5
C74
  8
0
 10
499.44710100783038
 20
654.87190021428137
 30
0.0
 11
499.44710100783038
 21
611.87190021428125
 31
0.0
  0
LINE
  5
C75
  8
0
 10
536.4471010078305
 20
670.8719002142816
 30
0.0
 11
536.44710100783027
 21
595.8719002142816
 31
0.0
  0
LINE
  5
C76
  8
0
 10
536.4471010078305
 20
668.37190021428148
 30
0.0
 11
536.4471010078305
 21
598.3719002142816
 31
0.0
  0
LINE
  5
C77
  8
0
 10
612.44710100783038
 20
705.87190021428148
 30
0.0
 11
612.4471010078305
 21
595.87190021428125
 31
0.0
  0
LINE
  5
C78
  8
CENTER
  6
CENTER
 10
657.4471010078305
 20
708.87190021428148
 30
0.0
 11
657.4471010078305
 21
592.87190021428125
 31
0.0
  0
LINE
  5
C79
  8
0
 10
612.4471010078305
 20
652.16200967285499
 30
0.0
 11
536.4471010078305
 21
652.16200967285499
 31
0.0
  0
LINE
  5
C7A
  8
0
 10
612.4471010078305
 20
614.5817907557082
 30
0.0
 11
536.4471010078305
 21
614.5817907557082
 31
0.0
  0
LINE
  5
C7B
  8
0
 10
612.4471010078305
 20
598.3719002142816
 30
0.0
 11
536.4471010078305
 21
598.3719002142816
 31
0.0
  0
LINE
  5
C7C
  8
0
 10
612.4471010078305
 20
488.17700054068689
 30
0.0
 11
536.4471010078305
 21
488.17700054068689
 31
0.0
  0
LINE
  5
C7D
  8
0
 10
612.4471010078305
 20
471.96710999926017
 30
0.0
 11
536.4471010078305
 21
471.96710999926017
 31
0.0
  0
LINE
  5
C7E
  8
0
 10
536.44710100783027
 20
490.67700054068689
 30
0.0
 11
504.44710100783038
 21
490.17700054068689
 31
0.0
  0
LINE
  5
C7F
  8
0
 10
366.19151193640482
 20
499.67700054068689
 30
0.0
 11
366.19151193640482
 21
490.67700054068678
 31
0.0
  0
LINE
  5
C80
  8
0
 10
371.52226612674463
 20
471.27552168399291
 30
0.0
 11
375.02644329422571
 21
474.779698851474
 31
0.0
  0
LINE
  5
C81
  8
0
 10
373.60305213020189
 20
469.8207737815174
 30
0.0
 11
376.79421024719198
 21
473.01193189850761
 31
0.0
  0
ARC
  5
C82
  8
0
 10
388.19151193640488
 20
471.50543312419472
 30
0.0
 40
1.5
 50
0.0
 51
115.5830019773997
  0
ARC
  5
C83
  8
0
 10
383.44151193640482
 20
481.42700054068672
 30
0.0
 40
9.5
 50
239.47751218592961
 51
295.58300197739902
  0
LINE
  5
C84
  8
CENTER
  6
CENTER
 10
395.74623386817302
 20
462.17700054068689
 30
0.0
 11
372.2181485986473
 21
462.17700054068689
 31
0.0
  0
LINE
  5
C85
  8
0
 10
388.19151193640482
 20
452.17700054068672
 30
0.0
 11
379.56362715031258
 21
452.17700054068672
 31
0.0
  0
LINE
  5
C86
  8
0
 10
388.19151193640488
 20
454.17700054068672
 30
0.0
 11
380.01085922838638
 21
454.17700054068672
 31
0.0
  0
LINE
  5
C87
  8
0
 10
388.19151193640482
 20
458.67700054068689
 30
0.0
 11
379.03999197182839
 21
458.67700054068689
 31
0.0
  0
ARC
  5
C88
  8
0
 10
379.56362715031258
 20
450.67700054068678
 30
0.0
 40
1.5
 50
90.0
 51
174.14329809008089
  0
ARC
  5
C89
  8
0
 10
380.01085922838638
 20
456.17700054068672
 30
0.0
 40
2.0
 50
186.89210257934661
 51
270.0
  0
ARC
  5
C8A
  8
0
 10
379.03999197182839
 20
460.67700054068678
 30
0.0
 40
2.0
 50
197.45760312372269
 51
270.0
  0
ARC
  5
C8B
  8
0
 10
375.01726569257499
 20
468.4065602191443
 30
0.0
 40
2.0
 50
134.99999999999881
 51
217.53040768358301
  0
ARC
  5
C8C
  8
0
 10
370.4616059549648
 20
472.33618185577268
 30
0.0
 40
1.5
 50
231.44474033976729
 51
315.0
  0
LINE
  5
C8D
  8
0
 10
389.69151193640488
 20
471.50543312419472
 30
0.0
 11
389.69151193640488
 21
455.67700054068678
 31
0.0
  0
ARC
  5
C8E
  8
0
 10
388.19151193640488
 20
455.67700054068678
 30
0.0
 40
1.5
 50
270.0
 51
0.0
  0
ARC
  5
C8F
  8
0
 10
388.19151193640482
 20
450.67700054068678
 30
0.0
 40
1.5
 50
0.0
 51
90.0
  0
ARC
  5
C90
  8
0
 10
388.19151193640482
 20
460.17700054068678
 30
0.0
 40
1.5
 50
270.0
 51
0.0
  0
LINE
  5
C91
  8
CENTER
  6
CENTER
 10
390.94151193640482
 20
481.42700054068672
 30
0.0
 11
375.94151193640482
 21
481.42700054068672
 31
0.0
  0
CIRCLE
  5
C92
  8
0
 10
383.44151193640482
 20
481.42700054068672
 30
0.0
 40
6.5
  0
ARC
  5
C93
  8
0
  6
CONTINUOUS
 62
     2
 10
383.44151193640482
 20
481.42700054068672
 30
0.0
 40
4.0
 50
165.54611884332431
 51
122.22581883937571
  0
CIRCLE
  5
C94
  8
0
  6
CONTINUOUS
 10
383.44151193640482
 20
481.42700054068672
 30
0.0
 40
3.399999999999999
  0
POLYLINE
  5
C95
  8
0
  6
CONTINUOUS
 66
     1
 10
0.0
 20
0.0
 30
0.0
 70
     1
  0
VERTEX
  5
13D4
  8
0
  6
CONTINUOUS
 10
385.75091301316331
 20
485.42700054068672
 30
0.0
  0
VERTEX
  5
13D5
  8
0
  6
CONTINUOUS
 10
388.0603140899218
 20
481.42700054068672
 30
0.0
  0
VERTEX
  5
13D6
  8
0
  6
CONTINUOUS
 10
385.75091301316331
 20
477.42700054068678
 30
0.0
  0
VERTEX
  5
13D7
  8
0
  6
CONTINUOUS
 10
381.13211085964628
 20
477.42700054068678
 30
0.0
  0
VERTEX
  5
13D8
  8
0
  6
CONTINUOUS
 10
378.82270978288778
 20
481.42700054068672
 30
0.0
  0
VERTEX
  5
13D9
  8
0
  6
CONTINUOUS
 10
381.13211085964628
 20
485.42700054068672
 30
0.0
  0
SEQEND
  5
13DA
  8
0
  6
CONTINUOUS
  0
ARC
  5
C9D
  8
0
 10
383.44151193640482
 20
481.42700054068672
 30
0.0
 40
9.5
 50
154.41699802261189
 51
210.5224878140703
  0
ARC
  5
C9E
  8
0
 10
377.85487041897181
 20
471.9512717267279
 30
0.0
 40
1.5
 50
59.477512185929427
 51
135.00000000000151
  0
ARC
  5
C9F
  8
0
 10
373.96578312244588
 20
475.84035902325382
 30
0.0
 40
1.5
 50
315.0
 51
30.522487814070569
  0
ARC
  5
CA0
  8
0
 10
373.51994451991271
 20
486.17700054068672
 30
0.0
 40
1.5
 50
334.4169980225779
 51
90.0
  0
ARC
  5
CA1
  8
0
 10
383.19151193640482
 20
481.17700054068672
 30
0.0
 40
9.5
 50
0.0
 51
90.0
  0
ARC
  5
CA2
  8
0
 10
383.19151193640482
 20
481.17700054068672
 30
0.0
 40
9.0
 50
0.0
 51
90.0
  0
LINE
  5
CA3
  8
CENTER
  6
CENTER
 10
383.44151193640482
 20
488.92700054068672
 30
0.0
 11
383.44151193640482
 21
473.92700054068678
 31
0.0
  0
LINE
  5
CA4
  8
0
 10
392.69151193640488
 20
478.17700054068672
 30
0.0
 11
392.19151193640488
 21
478.17700054068672
 31
0.0
  0
ARC
  5
CA5
  8
0
 10
501.33590979498479
 20
473.39938296637808
 30
0.0
 40
2.2803300858899109
 50
87.205091258939149
 51
145.92501109521791
  0
LINE
  5
CA6
  8
0
 10
504.44710100783038
 20
475.677000540687
 30
0.0
 11
501.44710100783033
 21
475.677000540687
 31
0.0
  0
ARC
  5
CA7
  8
0
  6
CONTINUOUS
 10
529.44710100783038
 20
462.17700054068689
 30
0.0
 40
3.5
 50
158.2132107017386
 51
201.78678929826131
  0
ARC
  5
CA8
  8
0
  6
CONTINUOUS
 10
529.44710100783038
 20
462.17700054068689
 30
0.0
 40
3.5
 50
338.21321070173769
 51
21.786789298262239
  0
LINE
  5
CA9
  8
CENTER
  6
CENTER
 10
529.44710100783038
 20
468.67700054068678
 30
0.0
 11
529.44710100783038
 21
455.67700054068678
 31
0.0
  0
CIRCLE
  5
CAA
  8
0
  6
CONTINUOUS
 10
529.44710100783038
 20
462.17700054068689
 30
0.0
 40
2.5
  0
CIRCLE
  5
CAB
  8
0
 10
529.44710100783038
 20
462.17700054068689
 30
0.0
 40
5.0
  0
CIRCLE
  5
CAC
  8
0
 10
529.44710100783038
 20
462.17700054068689
 30
0.0
 40
5.2999999999999989
  0
POLYLINE
  5
CAD
  8
0
  6
CONTINUOUS
 66
     1
 10
0.0
 20
0.0
 30
0.0
 70
     1
  0
VERTEX
  5
13DB
  8
0
  6
CONTINUOUS
 10
530.3131264116148
 20
460.67700054068678
 30
0.0
  0
VERTEX
  5
13DC
  8
0
  6
CONTINUOUS
 10
531.17915181539922
 20
462.17700054068689
 30
0.0
  0
VERTEX
  5
13DD
  8
0
  6
CONTINUOUS
 10
530.3131264116148
 20
463.67700054068689
 30
0.0
  0
VERTEX
  5
13DE
  8
0
  6
CONTINUOUS
 10
528.58107560404596
 20
463.67700054068689
 30
0.0
  0
VERTEX
  5
13DF
  8
0
  6
CONTINUOUS
 10
527.71505020026154
 20
462.17700054068689
 30
0.0
  0
VERTEX
  5
13E0
  8
0
  6
CONTINUOUS
 10
528.58107560404596
 20
460.67700054068678
 30
0.0
  0
SEQEND
  5
13E1
  8
0
  6
CONTINUOUS
  0
LINE
  5
CB5
  8
0
  6
CONTINUOUS
 10
526.19710100783038
 20
460.8779624350102
 30
0.0
 11
524.88867902292679
 21
460.12254464981248
 31
0.0
  0
LINE
  5
CB6
  8
0
  6
CONTINUOUS
 10
526.69710100783038
 20
460.01193703122573
 30
0.0
 11
525.38867902292679
 21
459.25651924602812
 31
0.0
  0
LINE
  5
CB7
  8
0
  6
CONTINUOUS
 10
528.94710100783038
 20
457.20206335515371
 30
0.0
 11
528.94710100783038
 21
458.71289892554898
 31
0.0
  0
ARC
  5
CB8
  8
0
  6
CONTINUOUS
 10
529.44710100783038
 20
462.17700054068689
 30
0.0
 40
3.5
 50
218.21321070173829
 51
261.78678929826179
  0
LINE
  5
CB9
  8
0
  6
CONTINUOUS
 10
529.94710100783038
 20
457.20206335515371
 30
0.0
 11
529.94710100783038
 21
458.71289892554898
 31
0.0
  0
LINE
  5
CBA
  8
0
  6
CONTINUOUS
 10
532.69710100783027
 20
460.8779624350102
 30
0.0
 11
534.00552299273375
 21
460.12254464981248
 31
0.0
  0
ARC
  5
CBB
  8
0
  6
CONTINUOUS
 10
529.44710100783038
 20
462.17700054068689
 30
0.0
 40
3.5
 50
278.21321070173809
 51
321.78678929826242
  0
LINE
  5
CBC
  8
0
  6
CONTINUOUS
 10
532.19710100783027
 20
460.01193703122573
 30
0.0
 11
533.50552299273386
 21
459.25651924602812
 31
0.0
  0
LINE
  5
CBD
  8
CENTER
  6
CENTER
 10
535.94710100783072
 20
462.17700054068689
 30
0.0
 11
522.9471010078305
 21
462.17700054068689
 31
0.0
  0
LINE
  5
CBE
  8
0
  6
CONTINUOUS
 10
524.88867902292679
 20
464.23145643156118
 30
0.0
 11
526.19710100783038
 21
463.47603864636358
 31
0.0
  0
LINE
  5
CBF
  8
0
  6
CONTINUOUS
 10
525.38867902292679
 20
465.0974818353456
 30
0.0
 11
526.69710100783038
 21
464.342064050148
 31
0.0
  0
LINE
  5
CC0
  8
0
  6
CONTINUOUS
 10
528.94710100783038
 20
465.64110215582468
 30
0.0
 11
528.94710100783038
 21
467.15193772622001
 31
0.0
  0
ARC
  5
CC1
  8
0
  6
CONTINUOUS
 10
529.44710100783038
 20
462.17700054068689
 30
0.0
 40
3.5
 50
98.213210701738234
 51
141.7867892982616
  0
ARC
  5
CC2
  8
0
  6
CONTINUOUS
 10
529.44710100783038
 20
462.17700054068689
 30
0.0
 40
3.5
 50
38.213210701738312
 51
81.786789298261766
  0
LINE
  5
CC3
  8
0
  6
CONTINUOUS
 10
533.50552299273386
 20
465.0974818353456
 30
0.0
 11
532.19710100783027
 21
464.342064050148
 31
0.0
  0
LINE
  5
CC4
  8
0
  6
CONTINUOUS
 10
529.94710100783038
 20
465.64110215582468
 30
0.0
 11
529.94710100783038
 21
467.15193772622001
 31
0.0
  0
LINE
  5
CC5
  8
0
  6
CONTINUOUS
 10
534.00552299273375
 20
464.23145643156118
 30
0.0
 11
532.69710100783027
 21
463.47603864636358
 31
0.0
  0
LINE
  5
CC6
  8
HIDDEN
  6
HIDDEN
 10
504.4471010078305
 20
601.1219002142816
 30
0.0
 11
522.44710100783038
 21
601.1219002142816
 31
0.0
  0
LINE
  5
CC7
  8
HIDDEN
  6
HIDDEN
 10
504.44710100783038
 20
609.1219002142816
 30
0.0
 11
522.44710100783038
 21
609.1219002142816
 31
0.0
  0
LINE
  5
CC8
  8
0
 10
536.44710100783027
 20
595.8719002142816
 30
0.0
 11
504.44710100783038
 21
596.37190021428148
 31
0.0
  0
LINE
  5
CC9
  8
CENTER
  6
CENTER
 10
536.4471010078305
 20
605.12190021428125
 30
0.0
 11
501.44710100783033
 21
605.12190021428125
 31
0.0
  0
LINE
  5
CCA
  8
0
 10
504.44710100783038
 20
610.87190021428125
 30
0.0
 11
500.44710100783038
 21
610.87190021428125
 31
0.0
  0
ARC
  5
CCB
  8
0
 10
500.44710100783038
 20
611.87190021428125
 30
0.0
 40
1.0
 50
180.0
 51
270.0
  0
LINE
  5
CCC
  8
HIDDEN
  6
HIDDEN
 10
510.4471010078305
 20
601.1219002142816
 30
0.0
 11
510.4471010078305
 21
609.1219002142816
 31
0.0
  0
LINE
  5
CCD
  8
HIDDEN
  6
HIDDEN
 10
525.44710100783038
 20
608.52190021428135
 30
0.0
 11
527.41009192307524
 21
605.1219002142816
 31
0.0
  0
LINE
  5
CCE
  8
HIDDEN
  6
HIDDEN
 10
525.44710100783038
 20
601.7219002142815
 30
0.0
 11
525.44710100783038
 21
608.52190021428135
 31
0.0
  0
LINE
  5
CCF
  8
HIDDEN
  6
HIDDEN
 10
522.44710100783038
 20
601.1219002142816
 30
0.0
 11
522.44710100783038
 21
609.1219002142816
 31
0.0
  0
LINE
  5
CD0
  8
CENTER
  6
CENTER
 10
520.44710100783061
 20
593.11756953082397
 30
0.0
 11
520.4471010078305
 21
612.89199403458736
 31
0.0
  0
LINE
  5
CD1
  8
HIDDEN
  6
HIDDEN
 10
510.4471010078305
 20
601.7219002142815
 30
0.0
 11
525.44710100783038
 21
601.7219002142815
 31
0.0
  0
LINE
  5
CD2
  8
CENTER
  6
CENTER
 10
529.44710100783038
 20
593.33943132349305
 30
0.0
 11
529.4471010078305
 21
613.08441037847865
 31
0.0
  0
LINE
  5
CD3
  8
HIDDEN
  6
HIDDEN
 10
525.44710100783038
 20
601.7219002142815
 30
0.0
 11
527.41009192307524
 21
605.1219002142816
 31
0.0
  0
LINE
  5
CD4
  8
HIDDEN
  6
HIDDEN
 10
510.4471010078305
 20
608.52190021428135
 30
0.0
 11
525.44710100783038
 21
608.52190021428135
 31
0.0
  0
LINE
  5
CD5
  8
DIM
  6
CONTINUOUS
 10
642.44710100783027
 20
541.67700054068689
 30
0.0
 11
642.44710100783027
 21
560.67700054068678
 31
0.0
  0
SOLID
  5
CD6
  8
DIM
  6
CONTINUOUS
 10
595.94710100783038
 20
540.67700054068678
 30
0.0
 11
596.94710100783027
 21
540.67700054068678
 31
0.0
 12
596.44710100783038
 22
543.67700054068678
 32
0.0
 13
596.44710100783038
 23
543.67700054068678
 33
0.0
  0
LINE
  5
CD7
  8
0
 10
645.44710100783016
 20
542.67700054068689
 30
0.0
 11
645.44710100783016
 21
501.67700054068678
 31
0.0
  0
LINE
  5
CD8
  8
DIM
  6
CONTINUOUS
 10
616.45362763541402
 20
500.67700054068689
 30
0.0
 11
595.44710100783016
 21
500.67700054068689
 31
0.0
  0
LINE
  5
CD9
  8
DIM
  6
CONTINUOUS
 10
641.44710100783038
 20
501.67700054068678
 30
0.0
 11
595.44710100783038
 21
501.67700054068678
 31
0.0
  0
TEXT
  5
CDA
  8
DIM
  6
CONTINUOUS
 10
602.94710100783027
 20
520.319857683544
 30
0.0
 40
3.0
  1
36
 50
90.0
  7
ROMANSS
 72
     1
 11
601.44710100783027
 21
522.67700054068678
 31
0.0
 73
     2
  0
LINE
  5
CDB
  8
DIM
  6
CONTINUOUS
 10
596.44710100783038
 20
540.67700054068678
 30
0.0
 11
596.44710100783038
 21
493.61782347684658
 31
0.0
  0
TEXT
  5
CDC
  8
DIM
  6
CONTINUOUS
 10
594.94710100783038
 20
494.83821155022417
 30
0.0
 40
3.0
  1
1
 50
90.0
  7
ROMANSS
 72
     1
 11
593.44710100783027
 21
495.19535440736701
 31
0.0
 73
     2
  0
SOLID
  5
CDD
  8
DIM
  6
CONTINUOUS
 10
595.94710100783016
 20
497.67700054068678
 30
0.0
 11
596.94710100783027
 21
497.67700054068678
 31
0.0
 12
596.44710100783027
 22
500.67700054068689
 32
0.0
 13
596.44710100783027
 23
500.67700054068689
 33
0.0
  0
SOLID
  5
CDE
  8
DIM
  6
CONTINUOUS
 10
595.94710100783038
 20
504.67700054068689
 30
0.0
 11
596.94710100783027
 21
504.67700054068689
 31
0.0
 12
596.44710100783038
 22
501.67700054068678
 32
0.0
 13
596.44710100783038
 23
501.67700054068678
 33
0.0
  0
TEXT
  5
CDF
  8
DIM
  6
CONTINUOUS
 10
594.94710100783038
 20
520.24842911211545
 30
0.0
 40
3.0
  1
42
 50
90.0
  7
ROMANSS
 72
     1
 11
593.44710100783027
 21
522.67700054068678
 31
0.0
 73
     2
  0
LINE
  5
CE0
  8
0
 10
616.4471010078305
 20
499.67700054068689
 30
0.0
 11
616.4471010078305
 21
490.67700054068678
 31
0.0
  0
LINE
  5
CE1
  8
CENTER
  6
CENTER
 10
622.44710100783038
 20
492.95718190346952
 30
0.0
 11
622.44710100783038
 21
475.2736320902477
 31
0.0
  0
POLYLINE
  5
CE2
  8
0
  6
CONTINUOUS
 66
     1
 10
0.0
 20
0.0
 30
0.0
 70
     1
 40
1.0
 41
1.0
  0
VERTEX
  5
13E2
  8
0
  6
CONTINUOUS
 10
657.94710100783038
 20
453.17700054068678
 30
0.0
 42
1.0
  0
VERTEX
  5
13E3
  8
0
  6
CONTINUOUS
 10
656.94710100783027
 20
453.17700054068678
 30
0.0
 42
1.0
  0
SEQEND
  5
13E4
  8
0
  6
CONTINUOUS
  0
LINE
  5
CE6
  8
DIM
  6
CONTINUOUS
 10
641.44710100783016
 20
504.67700054068689
 30
0.0
 11
603.44710100783038
 21
504.67700054068689
 31
0.0
  0
LINE
  5
CE7
  8
DIM
  6
CONTINUOUS
 10
641.44710100783016
 20
540.67700054068678
 30
0.0
 11
603.44710100783038
 21
540.67700054068678
 31
0.0
  0
LINE
  5
CE8
  8
DIM
  6
CONTINUOUS
 10
604.44710100783038
 20
537.67700054068689
 30
0.0
 11
604.44710100783038
 21
507.67700054068689
 31
0.0
  0
LINE
  5
CE9
  8
0
  6
CONTINUOUS
 10
617.44710100783038
 20
500.67700054068689
 30
0.0
 11
616.4471010078305
 21
499.67700054068689
 31
0.0
  0
SOLID
  5
CEA
  8
DIM
  6
CONTINUOUS
 10
603.94710100783038
 20
507.67700054068689
 30
0.0
 11
604.94710100783038
 21
507.67700054068689
 31
0.0
 12
604.44710100783038
 22
504.67700054068689
 32
0.0
 13
604.44710100783038
 23
504.67700054068689
 33
0.0
  0
SOLID
  5
CEB
  8
DIM
  6
CONTINUOUS
 10
603.94710100783038
 20
537.67700054068689
 30
0.0
 11
604.94710100783038
 21
537.67700054068689
 31
0.0
 12
604.44710100783038
 22
540.67700054068678
 32
0.0
 13
604.44710100783038
 23
540.67700054068678
 33
0.0
  0
LINE
  5
CEC
  8
0
 10
642.44710100783027
 20
540.67700054068678
 30
0.0
 11
642.44710100783027
 21
504.67700054068689
 31
0.0
  0
LINE
  5
CED
  8
0
  6
CONTINUOUS
 10
642.44710100783027
 20
504.67700054068689
 30
0.0
 11
645.44710100783016
 21
504.67700054068689
 31
0.0
  0
LINE
  5
CEE
  8
0
 10
642.44710100783038
 20
501.67700054068678
 30
0.0
 11
642.44710100783027
 21
500.67700054068689
 31
0.0
  0
LINE
  5
CEF
  8
0
  6
CONTINUOUS
 10
642.44710100783027
 20
540.67700054068678
 30
0.0
 11
645.44710100783038
 21
540.67700054068678
 31
0.0
  0
LINE
  5
CF0
  8
DIM
  6
CONTINUOUS
 10
645.44710100783016
 20
543.67700054068678
 30
0.0
 11
595.44710100783038
 21
543.67700054068678
 31
0.0
  0
LINE
  5
CF1
  8
CENTER
  6
CENTER
 10
635.9471010078305
 20
608.69826814897965
 30
0.0
 11
635.9471010078305
 21
584.10345974342954
 31
0.0
  0
ARC
  5
CF2
  8
0
  6
CONTINUOUS
 10
635.95314079862783
 20
580.87190143025055
 30
0.0
 40
14.999999999999989
 50
90.023070302298805
 51
109.495692233054
  0
LINE
  5
CF3
  8
0
  6
CONTINUOUS
 10
639.44710100782822
 20
587.87190021428137
 30
0.0
 11
632.44710100782811
 21
587.87190021428137
 31
0.0
  0
ARC
  5
CF4
  8
0
  6
CONTINUOUS
 10
635.95314079868297
 20
605.87189899831208
 30
0.0
 40
14.999999999999989
 50
250.50430776694631
 51
269.97692969770151
  0
LINE
  5
CF5
  8
0
  6
CONTINUOUS
 10
644.19710100782822
 20
590.87190021428125
 30
0.0
 11
627.697101007828
 21
590.87190021428125
 31
0.0
  0
LINE
  5
CF6
  8
0
  6
CONTINUOUS
 10
640.94710100782822
 20
589.37190021428125
 30
0.0
 11
630.94710100782811
 21
589.37190021428125
 31
0.0
  0
LINE
  5
CF7
  8
0
  6
CONTINUOUS
 10
626.14710100777359
 20
594.97698104568985
 30
0.0
 11
627.69710100777274
 21
595.87190021428125
 31
0.0
  0
ARC
  5
CF8
  8
0
  6
CONTINUOUS
 10
628.64064179427544
 20
592.35012213089135
 30
0.0
 40
3.5220472269320542
 50
49.090720066529038
 51
119.2051441578367
  0
LINE
  5
CF9
  8
0
  6
CONTINUOUS
 10
630.94710100782822
 20
589.37190021428125
 30
0.0
 11
632.44710100782822
 21
587.87190021428137
 31
0.0
  0
LINE
  5
CFA
  8
0
  6
CONTINUOUS
 10
630.94710100782822
 20
590.87190021428125
 30
0.0
 11
630.94710100782822
 21
589.37190021428125
 31
0.0
  0
ARC
  5
CFB
  8
0
  6
CONTINUOUS
 10
628.64064179433069
 20
594.39367829767161
 30
0.0
 40
3.5220472269320542
 50
240.79485584216471
 51
310.90927993346833
  0
LINE
  5
CFC
  8
0
  6
CONTINUOUS
 10
626.14710100782895
 20
591.76681938287277
 30
0.0
 11
627.69710100782822
 21
590.87190021428125
 31
0.0
  0
LINE
  5
CFD
  8
0
  6
CONTINUOUS
 10
626.14710100782895
 20
594.97698104572191
 30
0.0
 11
626.14710100782895
 21
591.76681938287277
 31
0.0
  0
LINE
  5
CFE
  8
0
  6
CONTINUOUS
 62
     2
 10
631.94710100782822
 20
590.87190021428125
 30
0.0
 11
631.94710100782822
 21
588.37190021428137
 31
0.0
  0
LINE
  5
CFF
  8
0
  6
CONTINUOUS
 10
630.94710100782822
 20
595.01190021430045
 30
0.0
 11
630.94710100782822
 21
591.73190021428195
 31
0.0
  0
SOLID
  5
D00
  8
DIM
  6
CONTINUOUS
 10
648.44710100783016
 20
552.17700054068678
 30
0.0
 11
648.44710100783016
 21
551.17700054068689
 31
0.0
 12
645.44710100783016
 22
551.67700054068678
 32
0.0
 13
645.44710100783016
 23
551.67700054068678
 33
0.0
  0
LINE
  5
D01
  8
DIM
  6
CONTINUOUS
 10
645.44710100783016
 20
543.67700054068678
 30
0.0
 11
645.44710100783016
 21
552.67700054068678
 31
0.0
  0
LINE
  5
D02
  8
0
  6
CONTINUOUS
 10
646.44710100783027
 20
543.67700054068678
 30
0.0
 11
645.44710100783016
 21
542.67700054068689
 31
0.0
  0
SOLID
  5
D03
  8
DIM
  6
CONTINUOUS
 10
645.44710100783016
 20
560.17700054068678
 30
0.0
 11
645.44710100783016
 21
559.17700054068689
 31
0.0
 12
642.44710100783027
 22
559.67700054068678
 32
0.0
 13
642.44710100783027
 23
559.67700054068678
 33
0.0
  0
TEXT
  5
D04
  8
DIM
  6
CONTINUOUS
 10
650.94710100783027
 20
553.17700054068678
 30
0.0
 40
3.0
  1
%%c24h6
  7
ROMANSS
 72
     1
 11
657.44710100783016
 21
554.67700054068689
 31
0.0
 73
     2
  0
TEXT
  5
D05
  8
DIM
  6
CONTINUOUS
 10
653.51852957925882
 20
561.17700054068678
 30
0.0
 40
3.0
  1
27
  7
ROMANSS
 72
     1
 11
655.94710100783016
 21
562.67700054068689
 31
0.0
 73
     2
  0
ARC
  5
D06
  8
0
  6
CONTINUOUS
 10
643.25356022127016
 20
592.35012213089135
 30
0.0
 40
3.5220472269320542
 50
60.794855842163209
 51
130.90927993347091
  0
ARC
  5
D07
  8
0
  6
CONTINUOUS
 10
643.25356022132564
 20
594.39367829767161
 30
0.0
 40
3.5220472269320542
 50
229.09072006653159
 51
299.20514415783521
  0
ARC
  5
D08
  8
0
  6
CONTINUOUS
 10
635.94106121691777
 20
580.87190143025055
 30
0.0
 40
14.999999999999989
 50
70.504307766945956
 51
89.976929697701195
  0
LINE
  5
D09
  8
0
  6
CONTINUOUS
 10
640.94710100782822
 20
589.37190021428125
 30
0.0
 11
639.44710100782822
 21
587.87190021428137
 31
0.0
  0
LINE
  5
D0A
  8
0
  6
CONTINUOUS
 10
640.94710100782822
 20
590.87190021428125
 30
0.0
 11
640.94710100782822
 21
589.37190021428125
 31
0.0
  0
ARC
  5
D0B
  8
0
  6
CONTINUOUS
 10
635.94106121697314
 20
605.87189899831208
 30
0.0
 40
14.999999999999989
 50
270.02307030229929
 51
289.4956922330544
  0
LINE
  5
D0C
  8
0
  6
CONTINUOUS
 62
     2
 10
639.94710100782822
 20
590.87190021428125
 30
0.0
 11
639.94710100782822
 21
588.37190021428137
 31
0.0
  0
LINE
  5
D0D
  8
0
  6
CONTINUOUS
 10
640.94710100782822
 20
595.01190021426123
 30
0.0
 11
640.94710100782822
 21
591.73190021428195
 31
0.0
  0
LINE
  5
D0E
  8
0
  6
CONTINUOUS
 10
645.74710100777213
 20
594.97698104568985
 30
0.0
 11
644.19710100777274
 21
595.87190021428125
 31
0.0
  0
LINE
  5
D0F
  8
0
  6
CONTINUOUS
 10
645.7471010078275
 20
591.76681938287277
 30
0.0
 11
644.19710100782822
 21
590.87190021428125
 31
0.0
  0
LINE
  5
D10
  8
0
  6
CONTINUOUS
 10
645.7471010078275
 20
594.97698104565791
 30
0.0
 11
645.7471010078275
 21
591.76681938287277
 31
0.0
  0
LINE
  5
D11
  8
CENTER
  6
CENTER
 10
622.44710100783038
 20
635.37190021428125
 30
0.0
 11
622.44710100783038
 21
621.37190021428137
 31
0.0
  0
CIRCLE
  5
D12
  8
0
  6
CONTINUOUS
 10
622.44710100783038
 20
628.37190021428125
 30
0.0
 40
3.399999999999999
  0
ARC
  5
D13
  8
0
  6
CONTINUOUS
 62
     2
 10
622.44710100783038
 20
628.37190021428125
 30
0.0
 40
4.0
 50
65.677517025119315
 51
24.771420425728412
  0
LINE
  5
D14
  8
CENTER
  6
CENTER
 10
615.4471010078305
 20
628.37190021428125
 30
0.0
 11
629.4471010078305
 21
628.37190021428125
 31
0.0
  0
LINE
  5
D15
  8
0
 10
612.44710100783016
 20
668.37190021428125
 30
0.0
 11
536.4471010078305
 21
668.37190021428125
 31
0.0
  0
LINE
  5
D16
  8
HIDDEN
  6
HIDDEN
 10
504.44710100783038
 20
657.62190021428125
 30
0.0
 11
522.44710100783038
 21
657.62190021428125
 31
0.0
  0
LINE
  5
D17
  8
HIDDEN
  6
HIDDEN
 10
504.4471010078305
 20
665.62190021428137
 30
0.0
 11
522.44710100783038
 21
665.62190021428137
 31
0.0
  0
LINE
  5
D18
  8
0
 10
536.44710100783027
 20
670.8719002142816
 30
0.0
 11
504.44710100783038
 21
670.3719002142816
 31
0.0
  0
LINE
  5
D19
  8
CENTER
  6
CENTER
 10
536.4471010078305
 20
661.62190021428125
 30
0.0
 11
501.44710100783038
 21
661.62190021428125
 31
0.0
  0
ARC
  5
D1A
  8
0
 10
500.44710100783038
 20
654.87190021428137
 30
0.0
 40
1.0
 50
90.0
 51
180.0
  0
LINE
  5
D1B
  8
0
 10
504.4471010078305
 20
655.87190021428125
 30
0.0
 11
500.44710100783038
 21
655.87190021428125
 31
0.0
  0
LINE
  5
D1C
  8
HIDDEN
  6
HIDDEN
 10
510.4471010078305
 20
665.02190021428135
 30
0.0
 11
525.44710100783038
 21
665.02190021428135
 31
0.0
  0
LINE
  5
D1D
  8
HIDDEN
  6
HIDDEN
 10
510.4471010078305
 20
658.2219002142815
 30
0.0
 11
525.44710100783038
 21
658.2219002142815
 31
0.0
  0
LINE
  5
D1E
  8
HIDDEN
  6
HIDDEN
 10
510.4471010078305
 20
665.62190021428137
 30
0.0
 11
510.4471010078305
 21
657.62190021428125
 31
0.0
  0
LINE
  5
D1F
  8
HIDDEN
  6
HIDDEN
 10
525.44710100783038
 20
658.2219002142815
 30
0.0
 11
527.41009192307524
 21
661.62190021428125
 31
0.0
  0
LINE
  5
D20
  8
HIDDEN
  6
HIDDEN
 10
522.44710100783038
 20
665.62190021428137
 30
0.0
 11
522.44710100783038
 21
657.62190021428125
 31
0.0
  0
LINE
  5
D21
  8
HIDDEN
  6
HIDDEN
 10
525.44710100783038
 20
665.02190021428135
 30
0.0
 11
525.44710100783038
 21
658.2219002142815
 31
0.0
  0
LINE
  5
D22
  8
HIDDEN
  6
HIDDEN
 10
525.44710100783038
 20
665.02190021428135
 30
0.0
 11
527.41009192307524
 21
661.62190021428125
 31
0.0
  0
LINE
  5
D23
  8
DIM
  6
CONTINUOUS
 10
608.4471010078305
 20
663.37190021428137
 30
0.0
 11
588.75168980259855
 21
663.37190021428137
 31
0.0
  0
SOLID
  5
D24
  8
DIM
  6
CONTINUOUS
 10
590.31804126751672
 20
666.36008461591814
 30
0.0
 11
589.31828678780096
 21
666.38224269093826
 31
0.0
 12
589.75168980259855
 22
663.37190021428137
 32
0.0
 13
589.75168980259855
 23
663.37190021428137
 33
0.0
  0
ARC
  5
D25
  8
0
  6
CONTINUOUS
 62
     2
 10
622.44710100783038
 20
698.37190021428125
 30
0.0
 40
4.0
 50
65.677517025119315
 51
24.771420425728412
  0
CIRCLE
  5
D26
  8
0
  6
CONTINUOUS
 10
622.44710100783038
 20
698.37190021428125
 30
0.0
 40
3.399999999999999
  0
LINE
  5
D27
  8
CENTER
  6
CENTER
 10
622.44710100783038
 20
705.37190021428125
 30
0.0
 11
622.44710100783038
 21
691.37190021428125
 31
0.0
  0
CIRCLE
  5
D28
  8
0
  6
CONTINUOUS
 10
633.75902383808102
 20
687.05997738403084
 30
0.0
 40
2.5
  0
ARC
  5
D29
  8
0
  6
CONTINUOUS
 62
     2
 10
633.75902383808102
 20
687.05997738403084
 30
0.0
 40
3.0
 50
210.845012326004
 51
153.036401108983
  0
LINE
  5
D2A
  8
CENTER
  6
CENTER
 10
629.51638315096181
 20
691.30261807115016
 30
0.0
 11
638.00166452520034
 21
682.81733669691152
 31
0.0
  0
TEXT
  5
D2B
  8
DIM
  6
CONTINUOUS
 10
632.94710100783016
 20
671.50478019983655
 30
0.0
 40
3.0
  1
8
 50
90.0
  7
ROMANSS
 72
     1
 11
631.44710100783016
 21
672.50478019983655
 31
0.0
 73
     2
  0
LINE
  5
D2C
  8
CENTER
  6
CENTER
 10
615.4471010078305
 20
698.37190021428125
 30
0.0
 11
629.4471010078305
 21
698.37190021428125
 31
0.0
  0
LINE
  5
D2D
  8
DIM
  6
CONTINUOUS
 10
634.44710100783027
 20
654.9851657351752
 30
0.0
 11
634.44710100783027
 21
674.46540379139742
 31
0.0
  0
LINE
  5
D2E
  8
0
 10
642.44710100783027
 20
667.37190021428137
 30
0.0
 11
642.44710100783027
 21
659.37190021428137
 31
0.0
  0
SOLID
  5
D2F
  8
DIM
  6
CONTINUOUS
 10
633.94710100783027
 20
656.37190021428125
 30
0.0
 11
634.94710100783016
 21
656.37190021428125
 31
0.0
 12
634.44710100783027
 22
659.37190021428137
 32
0.0
 13
634.44710100783027
 23
659.37190021428137
 33
0.0
  0
LINE
  5
D30
  8
DIM
  6
CONTINUOUS
 10
641.44710100783016
 20
659.37190021428137
 30
0.0
 11
633.44710100783027
 21
659.37190021428137
 31
0.0
  0
LINE
  5
D31
  8
0
 10
642.44710100783027
 20
659.37190021428137
 30
0.0
 11
646.13339250884565
 21
659.37190021428137
 31
0.0
  0
SOLID
  5
D32
  8
DIM
  6
CONTINUOUS
 10
633.94710100783027
 20
670.37190021428125
 30
0.0
 11
634.94710100783016
 21
670.37190021428125
 31
0.0
 12
634.44710100783027
 22
667.37190021428137
 32
0.0
 13
634.44710100783027
 23
667.37190021428137
 33
0.0
  0
LINE
  5
D33
  8
DIM
  6
CONTINUOUS
 10
641.44710100783016
 20
667.37190021428137
 30
0.0
 11
633.44710100783027
 21
667.37190021428137
 31
0.0
  0
LINE
  5
D34
  8
0
 10
642.44710100783027
 20
667.37190021428137
 30
0.0
 11
646.13339250884565
 21
667.37190021428137
 31
0.0
  0
CIRCLE
  5
D35
  8
0
  6
CONTINUOUS
 10
657.4471010078305
 20
663.37190021428137
 30
0.0
 40
3.399999999999999
  0
ARC
  5
D36
  8
0
  6
CONTINUOUS
 62
     2
 10
657.4471010078305
 20
663.37190021428137
 30
0.0
 40
4.0
 50
155.67751702511919
 51
114.77142042572839
  0
SOLID
  5
D37
  8
DIM
  6
CONTINUOUS
 10
664.36510711572021
 20
664.68165503270779
 30
0.0
 11
664.03270955023663
 21
665.62479439593062
 31
0.0
 12
661.36949024330966
 22
664.15603201786826
 32
0.0
 13
661.36949024330966
 23
664.15603201786826
 33
0.0
  0
LINE
  5
D38
  8
DIM
  6
CONTINUOUS
 10
622.44710100783038
 20
706.37190021428125
 30
0.0
 11
622.44710100783038
 21
714.8719002142816
 31
0.0
  0
SOLID
  5
D39
  8
DIM
  6
CONTINUOUS
 10
625.44710100783038
 20
714.3719002142816
 30
0.0
 11
625.44710100783038
 21
713.37190021428148
 31
0.0
 12
622.44710100783038
 22
713.87190021428148
 32
0.0
 13
622.44710100783038
 23
713.87190021428148
 33
0.0
  0
TEXT
  5
D3A
  8
DIM
  6
CONTINUOUS
 10
655.01852957925905
 20
715.3719002142816
 30
0.0
 40
3.0
  1
70
  7
ROMANSS
 72
     1
 11
657.4471010078305
 21
716.87190021428148
 31
0.0
 73
     2
  0
TEXT
  5
D3B
  8
DIM
  6
CONTINUOUS
 10
904.70269007925594
 20
448.60557196925822
 30
0.0
 40
3.0
  1
56.5
 50
90.0
  7
ROMANSS
 72
     1
 11
903.20269007925583
 21
453.17700054068672
 31
0.0
 73
     2
  0
LINE
  5
D3C
  8
DIM
  6
CONTINUOUS
 10
906.20269007925594
 20
427.92700054068678
 30
0.0
 11
906.20269007925594
 21
478.42700054068678
 31
0.0
  0
LINE
  5
D3D
  8
DIM
  6
CONTINUOUS
 10
1048.2026900792559
 20
408.67700054068672
 30
0.0
 11
1048.2026900792559
 21
540.67700054068678
 31
0.0
  0
LINE
  5
D3E
  8
DIM
  6
CONTINUOUS
 10
1040.2026900792559
 20
398.70977217961678
 30
0.0
 11
1040.2026900792559
 21
508.28863590062087
 31
0.0
  0
TEXT
  5
D3F
  8
DIM
  6
CONTINUOUS
 10
821.94710100783038
 20
449.39128625497261
 30
0.0
 40
3.0
  1
%%c45
 50
90.0
  7
ROMANSS
 72
     1
 11
820.44710100783038
 21
453.17700054068678
 31
0.0
 73
     2
  0
LINE
  5
D40
  8
DIM
  6
CONTINUOUS
 10
823.4471010078305
 20
433.67700054068689
 30
0.0
 11
823.4471010078305
 21
472.67700054068678
 31
0.0
  0
LINE
  5
D41
  8
CENTER
  6
CENTER
 10
989.70269007925594
 20
548.11720981922815
 30
0.0
 11
989.70269007925594
 21
402.67700054068661
 31
0.0
  0
LINE
  5
D42
  8
0
 10
1032.2026900792559
 20
490.67700054068678
 30
0.0
 11
1032.2026900792559
 21
415.67700054068672
 31
0.0
  0
LINE
  5
D43
  8
0
 10
922.20269007925594
 20
490.67700054068678
 30
0.0
 11
922.20269007925594
 21
415.67700054068672
 31
0.0
  0
LINE
  5
D44
  8
0
 10
702.4471010078305
 20
490.67700054068678
 30
0.0
 11
702.4471010078305
 21
415.67700054068678
 31
0.0
  0
LINE
  5
D45
  8
0
 10
996.70269007925594
 20
481.17700054068672
 30
0.0
 11
996.70269007925594
 21
425.17700054068672
 31
0.0
  0
LINE
  5
D46
  8
0
 10
997.20269007925594
 20
481.17700054068672
 30
0.0
 11
997.20269007925594
 21
425.17700054068672
 31
0.0
  0
LINE
  5
D47
  8
0
 10
994.20269007925594
 20
450.67700054068661
 30
0.0
 11
994.20269007925594
 21
434.84856795717877
 31
0.0
  0
LINE
  5
D48
  8
0
 10
922.70269007925594
 20
481.17700054068672
 30
0.0
 11
922.70269007925594
 21
425.17700054068672
 31
0.0
  0
LINE
  5
D49
  8
0
 10
922.20269007925594
 20
481.17700054068672
 30
0.0
 11
922.20269007925594
 21
425.17700054068672
 31
0.0
  0
LINE
  5
D4A
  8
0
 10
925.20269007925594
 20
450.67700054068678
 30
0.0
 11
925.20269007925594
 21
434.84856795717877
 31
0.0
  0
CIRCLE
  5
D4B
  8
0
 10
959.70269007925594
 20
453.17700054068672
 30
0.0
 40
22.499999999999979
  0
CIRCLE
  5
D4C
  8
0
 10
959.70269007925594
 20
453.17700054068672
 30
0.0
 40
22.999999999999979
  0
LINE
  5
D4D
  8
CENTER
  6
CENTER
 10
785.4471010078305
 20
437.67700054068689
 30
0.0
 11
785.4471010078305
 21
450.67700054068689
 31
0.0
  0
LINE
  5
D4E
  8
CENTER
  6
CENTER
 10
794.44710100783016
 20
447.67700054068678
 30
0.0
 11
794.4471010078305
 21
472.67700054068678
 31
0.0
  0
CIRCLE
  5
D4F
  8
0
 10
794.4471010078305
 20
460.17700054068678
 30
0.0
 40
11.5
  0
LINE
  5
D50
  8
0
 10
778.44710100783016
 20
490.67700054068678
 30
0.0
 11
778.4471010078305
 21
415.67700054068678
 31
0.0
  0
LINE
  5
D51
  8
0
 10
815.4471010078305
 20
474.67700054068689
 30
0.0
 11
815.4471010078305
 21
431.67700054068678
 31
0.0
  0
LINE
  5
D52
  8
0
 10
810.44710100783016
 20
490.17700054068678
 30
0.0
 11
810.44710100783038
 21
416.17700054068689
 31
0.0
  0
LINE
  5
D53
  8
0
 10
778.44710100783016
 20
488.17700054068689
 30
0.0
 11
778.44710100783016
 21
418.17700054068689
 31
0.0
  0
LINE
  5
D54
  8
CENTER
  6
CENTER
 10
959.70269007925594
 20
493.67700054068672
 30
0.0
 11
959.70269007925594
 21
412.67700054068678
 31
0.0
  0
LINE
  5
D55
  8
DIM
  6
CONTINUOUS
 10
925.20269007925594
 20
389.67700054068689
 30
0.0
 11
994.20269007925594
 21
389.67700054068689
 31
0.0
  0
LINE
  5
D56
  8
DIM
  6
CONTINUOUS
 10
925.20269007925594
 20
381.67700054068689
 30
0.0
 11
1029.2026900792559
 21
381.67700054068689
 31
0.0
  0
LINE
  5
D57
  8
0
  6
CONTINUOUS
 10
922.20269007925594
 20
415.67700054068672
 30
0.0
 11
1032.2026900792559
 21
415.67700054068672
 31
0.0
  0
LINE
  5
D58
  8
0
  6
CONTINUOUS
 10
948.70269007925583
 20
406.67700054068661
 30
0.0
 11
1030.702690079255
 21
406.67700054068661
 31
0.0
  0
LINE
  5
D59
  8
0
  6
CONTINUOUS
 10
949.70269007925594
 20
405.67700054068672
 30
0.0
 11
1029.7026900792559
 21
405.67700054068672
 31
0.0
  0
LINE
  5
D5A
  8
0
 10
962.20269007925594
 20
418.67700054068672
 30
0.0
 11
978.03112266276378
 21
418.67700054068678
 31
0.0
  0
LINE
  5
D5B
  8
0
 10
931.70269007925594
 20
416.17700054068672
 30
0.0
 11
987.70269007925594
 21
416.17700054068672
 31
0.0
  0
LINE
  5
D5C
  8
0
 10
702.4471010078305
 20
229.90798219805311
 30
0.0
 11
702.4471010078305
 21
339.90798219805322
 31
0.0
  0
LINE
  5
D5D
  8
CENTER
  6
CENTER
 10
685.4471010078305
 20
237.40798219805319
 30
0.0
 11
699.4471010078305
 21
237.40798219805319
 31
0.0
  0
LINE
  5
D5E
  8
CENTER
  6
CENTER
 10
692.44710100783038
 20
230.40798219805319
 30
0.0
 11
692.44710100783038
 21
244.40798219805319
 31
0.0
  0
ARC
  5
D5F
  8
0
  6
CONTINUOUS
 62
     2
 10
692.44710100783038
 20
237.40798219805319
 30
0.0
 40
4.0
 50
245.22857957427141
 51
204.3224829748799
  0
CIRCLE
  5
D60
  8
0
  6
CONTINUOUS
 10
692.44710100783038
 20
237.40798219805319
 30
0.0
 40
3.399999999999999
  0
LINE
  5
D61
  8
0
 10
702.4471010078305
 20
267.40798219805322
 30
0.0
 11
778.44710100783016
 21
267.40798219805322
 31
0.0
  0
LINE
  5
D62
  8
0
 10
702.4471010078305
 20
337.40798219805311
 30
0.0
 11
778.44710100783016
 21
337.40798219805311
 31
0.0
  0
LINE
  5
D63
  8
0
 10
702.4471010078305
 20
321.1980916566265
 30
0.0
 11
778.44710100783016
 21
321.1980916566265
 31
0.0
  0
LINE
  5
D64
  8
0
 10
702.4471010078305
 20
283.61787273947971
 30
0.0
 11
778.44710100783016
 21
283.61787273947971
 31
0.0
  0
LINE
  5
D65
  8
0
 10
702.4471010078305
 20
434.38689108211349
 30
0.0
 11
778.44710100783016
 21
434.38689108211349
 31
0.0
  0
LINE
  5
D66
  8
0
 10
702.4471010078305
 20
418.17700054068689
 30
0.0
 11
778.44710100783016
 21
418.17700054068689
 31
0.0
  0
LINE
  5
D67
  8
CENTER
  6
CENTER
 10
689.6207330731321
 20
250.90798219805311
 30
0.0
 11
714.21554147868233
 21
250.90798219805311
 31
0.0
  0
LINE
  5
D68
  8
CENTER
  6
CENTER
 10
685.4471010078305
 20
307.40798219805322
 30
0.0
 11
699.4471010078305
 21
307.40798219805322
 31
0.0
  0
ARC
  5
D69
  8
0
  6
CONTINUOUS
 62
     2
 10
681.13517817757975
 20
296.09605936780252
 30
0.0
 40
3.0
 50
206.96359889101501
 51
149.15498767399501
  0
CIRCLE
  5
D6A
  8
0
  6
CONTINUOUS
 10
681.13517817757975
 20
296.09605936780252
 30
0.0
 40
2.5
  0
LINE
  5
D6B
  8
CENTER
  6
CENTER
 10
676.89253749046043
 20
291.85341868068321
 30
0.0
 11
685.37781886469895
 21
300.33870005492179
 31
0.0
  0
LINE
  5
D6C
  8
CENTER
  6
CENTER
 10
692.44710100783038
 20
300.40798219805322
 30
0.0
 11
692.44710100783038
 21
314.40798219805322
 31
0.0
  0
ARC
  5
D6D
  8
0
  6
CONTINUOUS
 62
     2
 10
692.44710100783038
 20
307.40798219805322
 30
0.0
 40
4.0
 50
335.22857957427448
 51
294.32248297488059
  0
CIRCLE
  5
D6E
  8
0
  6
CONTINUOUS
 10
692.44710100783038
 20
307.40798219805322
 30
0.0
 40
3.399999999999999
  0
LINE
  5
D6F
  8
DIM
  6
CONTINUOUS
 10
702.4471010078305
 20
414.67700054068678
 30
0.0
 11
702.4471010078305
 21
388.67700054068689
 31
0.0
  0
LINE
  5
D70
  8
DIM
  6
CONTINUOUS
 10
698.4471010078305
 20
405.67700054068678
 30
0.0
 11
698.4471010078305
 21
396.67700054068689
 31
0.0
  0
ARC
  5
D71
  8
0
  6
CONTINUOUS
 10
717.44709979186121
 20
250.91402198886189
 30
0.0
 40
14.999999999999989
 50
180.02307030229881
 51
199.495692233054
  0
LINE
  5
D72
  8
0
  6
CONTINUOUS
 10
708.94710100783038
 20
245.9079821979517
 30
0.0
 11
710.4471010078305
 21
247.4079821979517
 31
0.0
  0
ARC
  5
D73
  8
0
  6
CONTINUOUS
 10
692.44710222379956
 20
250.91402198880661
 30
0.0
 40
14.999999999999989
 50
340.50430776694651
 51
359.97692969770151
  0
LINE
  5
D74
  8
0
  6
CONTINUOUS
 10
708.94710100783038
 20
245.9079821979517
 30
0.0
 11
708.94710100783038
 21
255.9079821979517
 31
0.0
  0
LINE
  5
D75
  8
0
  6
CONTINUOUS
 10
707.4471010078305
 20
242.6579821979517
 30
0.0
 11
707.4471010078305
 21
259.1579821979517
 31
0.0
  0
LINE
  5
D76
  8
0
  6
CONTINUOUS
 10
708.94710100783038
 20
255.9079821979517
 30
0.0
 11
710.4471010078305
 21
254.4079821979517
 31
0.0
  0
ARC
  5
D77
  8
0
  6
CONTINUOUS
 10
717.44709979186121
 20
250.90194240715201
 30
0.0
 40
14.999999999999989
 50
160.50430776694591
 51
179.97692969770111
  0
ARC
  5
D78
  8
0
  6
CONTINUOUS
 10
692.44710222379956
 20
250.90194240709661
 30
0.0
 40
14.999999999999989
 50
0.0230703022992633
 51
19.495692233054459
  0
LINE
  5
D79
  8
0
  6
CONTINUOUS
 10
703.30710100781153
 20
255.90798219795161
 30
0.0
 11
706.58710100782992
 21
255.9079821979517
 31
0.0
  0
LINE
  5
D7A
  8
0
  6
CONTINUOUS
 10
703.34202017639018
 20
260.70798219795103
 30
0.0
 11
706.55218183923887
 21
260.70798219795103
 31
0.0
  0
LINE
  5
D7B
  8
0
  6
CONTINUOUS
 10
703.34202017642201
 20
260.70798219800622
 30
0.0
 11
702.4471010078305
 21
259.15798219800701
 31
0.0
  0
ARC
  5
D7C
  8
0
  6
CONTINUOUS
 10
705.96887909122051
 20
258.21444141150442
 30
0.0
 40
3.5220472269320542
 50
150.79485584216229
 51
220.90927993347091
  0
LINE
  5
D7D
  8
0
  6
CONTINUOUS
 10
707.4471010078305
 20
255.9079821979517
 30
0.0
 11
708.94710100783038
 21
255.9079821979517
 31
0.0
  0
ARC
  5
D7E
  8
0
  6
CONTINUOUS
 10
703.92532292444048
 20
258.21444141144912
 30
0.0
 40
3.5220472269320542
 50
319.090720066529
 51
29.20514415783769
  0
LINE
  5
D7F
  8
0
  6
CONTINUOUS
 10
706.55218183923887
 20
260.70798219795103
 30
0.0
 11
707.4471010078305
 21
259.1579821979517
 31
0.0
  0
LINE
  5
D80
  8
0
  6
CONTINUOUS
 62
     2
 10
707.4471010078305
 20
254.9079821979517
 30
0.0
 11
709.94710100783038
 21
254.9079821979517
 31
0.0
  0
LINE
  5
D81
  8
0
  6
CONTINUOUS
 10
710.4471010078305
 20
247.4079821979517
 30
0.0
 11
710.4471010078305
 21
254.4079821979517
 31
0.0
  0
LINE
  5
D82
  8
0
  6
CONTINUOUS
 10
703.34202017645396
 20
241.1079821979524
 30
0.0
 11
706.55218183923887
 21
241.1079821979524
 31
0.0
  0
LINE
  5
D83
  8
0
  6
CONTINUOUS
 10
703.34202017642201
 20
241.1079821980077
 30
0.0
 11
702.4471010078305
 21
242.65798219800701
 31
0.0
  0
LINE
  5
D84
  8
0
  6
CONTINUOUS
 10
706.55218183923887
 20
241.1079821979524
 30
0.0
 11
707.4471010078305
 21
242.6579821979517
 31
0.0
  0
LINE
  5
D85
  8
0
  6
CONTINUOUS
 10
703.30710100785063
 20
245.90798219795161
 30
0.0
 11
706.58710100782992
 21
245.9079821979517
 31
0.0
  0
LINE
  5
D86
  8
0
  6
CONTINUOUS
 10
707.4471010078305
 20
245.9079821979517
 30
0.0
 11
708.94710100783038
 21
245.9079821979517
 31
0.0
  0
LINE
  5
D87
  8
0
  6
CONTINUOUS
 62
     2
 10
707.4471010078305
 20
246.9079821979517
 30
0.0
 11
709.94710100783038
 21
246.9079821979517
 31
0.0
  0
ARC
  5
D88
  8
0
  6
CONTINUOUS
 10
705.96887909122051
 20
243.60152298450959
 30
0.0
 40
3.5220472269320542
 50
139.090720066529
 51
209.20514415783771
  0
ARC
  5
D89
  8
0
  6
CONTINUOUS
 10
703.92532292444048
 20
243.60152298445431
 30
0.0
 40
3.5220472269320542
 50
330.79485584216218
 51
40.909279933470948
  0
SOLID
  5
D8A
  8
DIM
  6
CONTINUOUS
 10
695.4471010078305
 20
398.17700054068689
 30
0.0
 11
695.4471010078305
 21
397.17700054068689
 31
0.0
 12
698.4471010078305
 22
397.67700054068689
 32
0.0
 13
698.4471010078305
 23
397.67700054068689
 33
0.0
  0
SOLID
  5
D8B
  8
DIM
  6
CONTINUOUS
 10
699.4471010078305
 20
390.17700054068689
 30
0.0
 11
699.4471010078305
 21
389.17700054068689
 31
0.0
 12
702.4471010078305
 22
389.67700054068689
 32
0.0
 13
702.4471010078305
 23
389.67700054068689
 33
0.0
  0
POLYLINE
  5
D8C
  8
0
  6
CONTINUOUS
 66
     1
 10
0.0
 20
0.0
 30
0.0
 70
     1
  0
VERTEX
  5
13E5
  8
0
  6
CONTINUOUS
 10
1006.302690079256
 20
442.1640494977745
 30
0.0
  0
VERTEX
  5
13E6
  8
0
  6
CONTINUOUS
 10
1001.402690079256
 20
433.67700054068689
 30
0.0
  0
VERTEX
  5
13E7
  8
0
  6
CONTINUOUS
 10
1006.302690079256
 20
425.18995158359928
 30
0.0
  0
VERTEX
  5
13E8
  8
0
  6
CONTINUOUS
 10
1016.102690079255
 20
425.18995158359928
 30
0.0
  0
VERTEX
  5
13E9
  8
0
  6
CONTINUOUS
 10
1021.002690079255
 20
433.67700054068689
 30
0.0
  0
VERTEX
  5
13EA
  8
0
  6
CONTINUOUS
 10
1016.102690079255
 20
442.1640494977745
 30
0.0
  0
SEQEND
  5
13EB
  8
0
  6
CONTINUOUS
  0
CIRCLE
  5
D94
  8
0
  6
CONTINUOUS
 10
1011.2026900792559
 20
433.67700054068689
 30
0.0
 40
8.25
  0
LINE
  5
D95
  8
CENTER
  6
CENTER
 10
1011.2026900792559
 20
448.67700054068689
 30
0.0
 11
1011.2026900792559
 21
418.67700054068689
 31
0.0
  0
LINE
  5
D96
  8
CENTER
  6
CENTER
 10
692.44710100783027
 20
413.39681917790421
 30
0.0
 11
692.44710100783038
 21
430.51218141065169
 31
0.0
  0
LINE
  5
D97
  8
0
 10
698.4471010078305
 20
415.67700054068678
 30
0.0
 11
698.4471010078305
 21
406.67700054068678
 31
0.0
  0
LINE
  5
D98
  8
0
  6
CONTINUOUS
 10
698.4471010078305
 20
406.67700054068678
 30
0.0
 11
697.44710100783038
 21
405.67700054068678
 31
0.0
  0
CIRCLE
  5
D99
  8
0
  6
CONTINUOUS
 10
1011.2026900792559
 20
433.67700054068689
 30
0.0
 40
5.0
  0
ARC
  5
D9A
  8
0
  6
CONTINUOUS
 62
     2
 10
1011.2026900792559
 20
433.67700054068689
 30
0.0
 40
4.25
 50
69.487813016515403
 51
22.414620147484769
  0
POLYLINE
  5
D9B
  8
0
  6
CONTINUOUS
 66
     1
 10
0.0
 20
0.0
 30
0.0
 70
     1
  0
VERTEX
  5
13EC
  8
0
  6
CONTINUOUS
 10
1009.759314406281
 20
436.17700054068689
 30
0.0
  0
VERTEX
  5
13ED
  8
0
  6
CONTINUOUS
 10
1008.315938733308
 20
433.67700054068689
 30
0.0
  0
VERTEX
  5
13EE
  8
0
  6
CONTINUOUS
 10
1009.759314406281
 20
431.17700054068689
 30
0.0
  0
VERTEX
  5
13EF
  8
0
  6
CONTINUOUS
 10
1012.64606575223
 20
431.17700054068689
 30
0.0
  0
VERTEX
  5
13F0
  8
0
  6
CONTINUOUS
 10
1014.089441425204
 20
433.67700054068689
 30
0.0
  0
VERTEX
  5
13F1
  8
0
  6
CONTINUOUS
 10
1012.64606575223
 20
436.17700054068689
 30
0.0
  0
SEQEND
  5
13F2
  8
0
  6
CONTINUOUS
  0
LINE
  5
DA3
  8
0
 10
810.44710100783016
 20
265.40798219805311
 30
0.0
 11
810.44710100783038
 21
339.40798219805311
 31
0.0
  0
LINE
  5
DA4
  8
0
 10
778.44710100783016
 20
264.90798219805311
 30
0.0
 11
778.4471010078305
 21
339.90798219805311
 31
0.0
  0
LINE
  5
DA5
  8
0
 10
778.44710100783016
 20
267.40798219805311
 30
0.0
 11
778.44710100783016
 21
337.40798219805311
 31
0.0
  0
LINE
  5
DA6
  8
0
 10
815.4471010078305
 20
280.90798219805322
 30
0.0
 11
815.4471010078305
 21
323.90798219805322
 31
0.0
  0
LINE
  5
DA7
  8
0
 10
778.4471010078305
 20
264.90798219805311
 30
0.0
 11
810.44710100783038
 21
265.40798219805311
 31
0.0
  0
LINE
  5
DA8
  8
0
 10
810.44710100783016
 20
279.90798219805322
 30
0.0
 11
814.4471010078305
 21
279.90798219805322
 31
0.0
  0
ARC
  5
DA9
  8
0
 10
814.4471010078305
 20
280.90798219805322
 30
0.0
 40
1.0
 50
270.0
 51
0.0
  0
LINE
  5
DAA
  8
0
 10
810.44710100783038
 20
324.90798219805322
 30
0.0
 11
814.4471010078305
 21
324.90798219805322
 31
0.0
  0
ARC
  5
DAB
  8
0
 10
814.4471010078305
 20
323.90798219805322
 30
0.0
 40
1.0
 50
0.0
 51
90.0
  0
LINE
  5
DAC
  8
DIM
  6
CONTINUOUS
 10
815.4471010078305
 20
429.59927761649698
 30
0.0
 11
815.4471010078305
 21
380.67700054068689
 31
0.0
  0
LINE
  5
DAD
  8
DIM
  6
CONTINUOUS
 10
810.44710100783038
 20
415.17700054068678
 30
0.0
 11
810.44710100783038
 21
380.67700054068689
 31
0.0
  0
LINE
  5
DAE
  8
0
 10
778.4471010078305
 20
339.90798219805311
 30
0.0
 11
810.44710100783038
 21
339.40798219805311
 31
0.0
  0
SOLID
  5
DAF
  8
DIM
  6
CONTINUOUS
 10
807.4471010078305
 20
382.17700054068678
 30
0.0
 11
807.4471010078305
 21
381.17700054068678
 31
0.0
 12
810.44710100783038
 22
381.67700054068689
 32
0.0
 13
810.44710100783038
 23
381.67700054068689
 33
0.0
  0
SOLID
  5
DB0
  8
DIM
  6
CONTINUOUS
 10
818.44710100783038
 20
382.17700054068678
 30
0.0
 11
818.44710100783038
 21
381.17700054068678
 31
0.0
 12
815.4471010078305
 22
381.67700054068689
 32
0.0
 13
815.4471010078305
 23
381.67700054068689
 33
0.0
  0
TEXT
  5
DB1
  8
DIM
  6
CONTINUOUS
 10
820.82235272790786
 20
383.17700054068678
 30
0.0
 40
3.0
  1
5
  7
ROMANSS
 72
     1
 11
821.82235272790786
 21
384.67700054068678
 31
0.0
 73
     2
  0
LINE
  5
DB2
  8
0
 10
778.4471010078305
 20
415.67700054068678
 30
0.0
 11
810.44710100783038
 21
416.17700054068689
 31
0.0
  0
ARC
  5
DB3
  8
0
  6
CONTINUOUS
 10
785.4471010078305
 20
444.17700054068678
 30
0.0
 40
3.5
 50
38.213210701738312
 51
81.786789298261766
  0
ARC
  5
DB4
  8
0
  6
CONTINUOUS
 10
785.4471010078305
 20
444.17700054068678
 30
0.0
 40
3.5
 50
278.21321070173809
 51
321.78678929826162
  0
POLYLINE
  5
DB5
  8
0
  6
CONTINUOUS
 66
     1
 10
0.0
 20
0.0
 30
0.0
 70
     1
  0
VERTEX
  5
13F3
  8
0
  6
CONTINUOUS
 10
784.58107560404585
 20
445.67700054068689
 30
0.0
  0
VERTEX
  5
13F4
  8
0
  6
CONTINUOUS
 10
783.71505020026154
 20
444.17700054068678
 30
0.0
  0
VERTEX
  5
13F5
  8
0
  6
CONTINUOUS
 10
784.58107560404585
 20
442.67700054068689
 30
0.0
  0
VERTEX
  5
13F6
  8
0
  6
CONTINUOUS
 10
786.3131264116148
 20
442.67700054068689
 30
0.0
  0
VERTEX
  5
13F7
  8
0
  6
CONTINUOUS
 10
787.17915181539934
 20
444.17700054068678
 30
0.0
  0
VERTEX
  5
13F8
  8
0
  6
CONTINUOUS
 10
786.3131264116148
 20
445.67700054068689
 30
0.0
  0
SEQEND
  5
13F9
  8
0
  6
CONTINUOUS
  0
CIRCLE
  5
DBD
  8
0
 10
785.4471010078305
 20
444.17700054068678
 30
0.0
 40
5.2999999999999989
  0
CIRCLE
  5
DBE
  8
0
 10
785.4471010078305
 20
444.17700054068678
 30
0.0
 40
5.0
  0
CIRCLE
  5
DBF
  8
0
  6
CONTINUOUS
 10
785.4471010078305
 20
444.17700054068678
 30
0.0
 40
2.5
  0
LINE
  5
DC0
  8
CENTER
  6
CENTER
 10
778.94710100783004
 20
444.17700054068678
 30
0.0
 11
791.94710100783027
 21
444.17700054068678
 31
0.0
  0
LINE
  5
DC1
  8
0
  6
CONTINUOUS
 10
784.94710100783038
 20
449.15193772622001
 30
0.0
 11
784.94710100783038
 21
447.64110215582468
 31
0.0
  0
LINE
  5
DC2
  8
0
  6
CONTINUOUS
 10
785.9471010078305
 20
449.15193772622001
 30
0.0
 11
785.9471010078305
 21
447.64110215582468
 31
0.0
  0
LINE
  5
DC3
  8
0
  6
CONTINUOUS
 10
784.94710100783038
 20
440.7128989255491
 30
0.0
 11
784.94710100783038
 21
439.20206335515383
 31
0.0
  0
LINE
  5
DC4
  8
0
  6
CONTINUOUS
 10
785.9471010078305
 20
440.7128989255491
 30
0.0
 11
785.9471010078305
 21
439.20206335515383
 31
0.0
  0
LINE
  5
DC5
  8
0
  6
CONTINUOUS
 10
782.69710100783038
 20
446.342064050148
 30
0.0
 11
781.38867902292691
 21
447.09748183534572
 31
0.0
  0
ARC
  5
DC6
  8
0
  6
CONTINUOUS
 10
785.4471010078305
 20
444.17700054068678
 30
0.0
 40
3.5
 50
158.21321070173769
 51
201.78678929826219
  0
LINE
  5
DC7
  8
0
  6
CONTINUOUS
 10
782.19710100783038
 20
445.47603864636352
 30
0.0
 11
780.88867902292679
 21
446.23145643156118
 31
0.0
  0
LINE
  5
DC8
  8
0
  6
CONTINUOUS
 10
781.38867902292691
 20
441.25651924602812
 30
0.0
 11
782.69710100783038
 21
442.01193703122578
 31
0.0
  0
LINE
  5
DC9
  8
0
  6
CONTINUOUS
 10
780.88867902292679
 20
442.12254464981248
 30
0.0
 11
782.19710100783038
 21
442.87796243501009
 31
0.0
  0
ARC
  5
DCA
  8
0
  6
CONTINUOUS
 10
785.4471010078305
 20
444.17700054068678
 30
0.0
 40
3.5
 50
98.213210701738234
 51
141.78678929826239
  0
ARC
  5
DCB
  8
0
  6
CONTINUOUS
 10
785.4471010078305
 20
444.17700054068678
 30
0.0
 40
3.5
 50
218.21321070173829
 51
261.78678929826179
  0
ARC
  5
DCC
  8
0
  6
CONTINUOUS
 10
785.4471010078305
 20
444.17700054068678
 30
0.0
 40
3.5
 50
338.21321070173849
 51
21.786789298261379
  0
LINE
  5
DCD
  8
0
  6
CONTINUOUS
 10
788.1971010078305
 20
446.342064050148
 30
0.0
 11
789.50552299273409
 21
447.09748183534572
 31
0.0
  0
LINE
  5
DCE
  8
0
  6
CONTINUOUS
 10
788.6971010078305
 20
445.47603864636352
 30
0.0
 11
790.00552299273409
 21
446.23145643156118
 31
0.0
  0
LINE
  5
DCF
  8
0
  6
CONTINUOUS
 10
789.50552299273409
 20
441.25651924602812
 30
0.0
 11
788.1971010078305
 21
442.01193703122578
 31
0.0
  0
LINE
  5
DD0
  8
0
  6
CONTINUOUS
 10
790.00552299273409
 20
442.12254464981248
 30
0.0
 11
788.6971010078305
 21
442.87796243501009
 31
0.0
  0
LINE
  5
DD1
  8
0
 10
810.44710100783038
 20
430.67700054068678
 30
0.0
 11
814.4471010078305
 21
430.67700054068678
 31
0.0
  0
LINE
  5
DD2
  8
DIM
  6
CONTINUOUS
 10
816.07158884506543
 20
430.67700054068678
 30
0.0
 11
824.4471010078305
 21
430.67700054068678
 31
0.0
  0
ARC
  5
DD3
  8
0
 10
814.4471010078305
 20
431.67700054068678
 30
0.0
 40
1.0
 50
270.0
 51
0.0
  0
SOLID
  5
DD4
  8
DIM
  6
CONTINUOUS
 10
822.94710100783038
 20
433.67700054068689
 30
0.0
 11
823.94710100783038
 21
433.67700054068689
 31
0.0
 12
823.4471010078305
 22
430.67700054068678
 32
0.0
 13
823.4471010078305
 23
430.67700054068678
 33
0.0
  0
LINE
  5
DD5
  8
DIM
  6
CONTINUOUS
 10
922.20269007925594
 20
414.67700054068672
 30
0.0
 11
922.20269007925594
 21
380.67700054068678
 31
0.0
  0
LINE
  5
DD6
  8
DIM
  6
CONTINUOUS
 10
959.70269007925594
 20
411.67700054068678
 30
0.0
 11
959.70269007925594
 21
396.67700054068689
 31
0.0
  0
SOLID
  5
DD7
  8
DIM
  6
CONTINUOUS
 10
925.20269007925594
 20
390.17700054068689
 30
0.0
 11
925.20269007925594
 21
389.17700054068689
 31
0.0
 12
922.20269007925594
 22
389.67700054068689
 32
0.0
 13
922.20269007925594
 23
389.67700054068689
 33
0.0
  0
SOLID
  5
DD8
  8
DIM
  6
CONTINUOUS
 10
925.20269007925594
 20
382.17700054068678
 30
0.0
 11
925.20269007925594
 21
381.17700054068678
 31
0.0
 12
922.20269007925594
 22
381.67700054068689
 32
0.0
 13
922.20269007925594
 23
381.67700054068689
 33
0.0
  0
POLYLINE
  5
DD9
  8
DIM
  6
CONTINUOUS
 66
     1
 10
0.0
 20
0.0
 30
0.0
 70
     1
  0
VERTEX
  5
13FA
  8
DIM
  6
CONTINUOUS
 10
953.52982355697054
 20
393.71269835860181
 30
0.0
  0
VERTEX
  5
13FB
  8
DIM
  6
CONTINUOUS
 10
953.52982355697054
 20
391.06867729844839
 30
0.0
  0
VERTEX
  5
13FC
  8
DIM
  6
CONTINUOUS
 10
955.93519474087736
 20
391.06867729844839
 30
0.0
  0
VERTEX
  5
13FD
  8
DIM
  6
CONTINUOUS
 10
955.93519474087736
 20
393.71269835860181
 30
0.0
  0
SEQEND
  5
13FE
  8
DIM
  6
CONTINUOUS
  0
TEXT
  5
DDF
  8
DIM
  6
CONTINUOUS
 10
957.27411865068439
 20
391.17700054068689
 30
0.0
 40
3.0
  1
75
  7
ROMANSS
 72
     1
 11
959.70269007925594
 21
392.67700054068689
 31
0.0
 73
     2
  0
SOLID
  5
DE0
  8
DIM
  6
CONTINUOUS
 10
962.70269007925594
 20
398.17700054068689
 30
0.0
 11
962.70269007925594
 21
397.17700054068689
 31
0.0
 12
959.70269007925594
 22
397.67700054068689
 32
0.0
 13
959.70269007925594
 23
397.67700054068689
 33
0.0
  0
LINE
  5
DE1
  8
CENTER
  6
CENTER
 10
919.01139599591613
 20
444.17700054068678
 30
0.0
 11
942.67605341701369
 21
444.17700054068678
 31
0.0
  0
POLYLINE
  5
DE2
  8
0
  6
CONTINUOUS
 66
     1
 10
0.0
 20
0.0
 30
0.0
 70
     1
  0
VERTEX
  5
13FF
  8
0
  6
CONTINUOUS
 10
929.14328900249757
 20
428.92700054068672
 30
0.0
  0
VERTEX
  5
1400
  8
0
  6
CONTINUOUS
 10
926.83388792573896
 20
424.92700054068672
 30
0.0
  0
VERTEX
  5
1401
  8
0
  6
CONTINUOUS
 10
929.14328900249757
 20
420.92700054068672
 30
0.0
  0
VERTEX
  5
1402
  8
0
  6
CONTINUOUS
 10
933.76209115601455
 20
420.92700054068672
 30
0.0
  0
VERTEX
  5
1403
  8
0
  6
CONTINUOUS
 10
936.07149223277281
 20
424.92700054068672
 30
0.0
  0
VERTEX
  5
1404
  8
0
  6
CONTINUOUS
 10
933.76209115601455
 20
428.92700054068672
 30
0.0
  0
SEQEND
  5
1405
  8
0
  6
CONTINUOUS
  0
CIRCLE
  5
DEA
  8
0
  6
CONTINUOUS
 10
931.45269007925594
 20
424.92700054068672
 30
0.0
 40
3.399999999999999
  0
ARC
  5
DEB
  8
0
  6
CONTINUOUS
 62
     2
 10
931.45269007925594
 20
424.92700054068672
 30
0.0
 40
4.0
 50
57.77418116062497
 51
14.453881156675809
  0
CIRCLE
  5
DEC
  8
0
 10
931.45269007925594
 20
424.92700054068672
 30
0.0
 40
6.5
  0
LINE
  5
DED
  8
0
 10
926.70269007925594
 20
447.67700054068678
 30
0.0
 11
935.85421004383238
 21
447.67700054068678
 31
0.0
  0
ARC
  5
DEE
  8
0
 10
931.45269007925594
 20
424.92700054068672
 30
0.0
 40
9.5
 50
59.477512185929669
 51
115.58300197738799
  0
LINE
  5
DEF
  8
CENTER
  6
CENTER
 10
923.95269007925594
 20
424.92700054068672
 30
0.0
 11
938.95269007925583
 21
424.92700054068672
 31
0.0
  0
ARC
  5
DF0
  8
0
  6
CONTINUOUS
 10
927.37491230148407
 20
429.42700054068678
 30
0.0
 40
10.19983357405331
 50
155.3752531507763
 51
204.62474684922361
  0
LINE
  5
DF1
  8
0
  6
CONTINUOUS
 10
917.20269007925594
 20
425.17700054068689
 30
0.0
 11
917.20269007925594
 21
442.17700054068689
 31
0.0
  0
ARC
  5
DF2
  8
0
  6
CONTINUOUS
 10
912.03046785702793
 20
429.427000540687
 30
0.0
 40
10.19983357405331
 50
335.3752531507788
 51
24.624746849221388
  0
SOLID
  5
DF3
  8
DIM
  6
CONTINUOUS
 10
905.70269007925594
 20
427.92700054068678
 30
0.0
 11
906.70269007925594
 21
427.92700054068678
 31
0.0
 12
906.20269007925594
 22
424.92700054068672
 32
0.0
 13
906.20269007925594
 23
424.92700054068672
 33
0.0
  0
LINE
  5
DF4
  8
CENTER
  6
CENTER
 10
931.45269007925594
 20
432.42700054068678
 30
0.0
 11
931.45269007925594
 21
417.42700054068672
 31
0.0
  0
LINE
  5
DF5
  8
0
  6
CONTINUOUS
 10
917.20269007925594
 20
425.17700054068689
 30
0.0
 11
922.20269007925594
 21
425.17700054068689
 31
0.0
  0
LINE
  5
DF6
  8
DIM
  6
CONTINUOUS
 10
922.95269007925594
 20
424.92700054068672
 30
0.0
 11
904.7595434563143
 21
424.92700054068672
 31
0.0
  0
ARC
  5
DF7
  8
0
 10
931.70269007925594
 20
425.17700054068672
 30
0.0
 40
9.0
 50
180.0
 51
270.0
  0
ARC
  5
DF8
  8
0
 10
931.70269007925594
 20
425.17700054068672
 30
0.0
 40
9.5
 50
180.0
 51
270.0
  0
LINE
  5
DF9
  8
CENTER
  6
CENTER
 10
933.33970990755518
 20
433.67700054068689
 30
0.0
 11
911.20269007925583
 21
433.67700054068689
 31
0.0
  0
ARC
  5
DFA
  8
0
  6
CONTINUOUS
 10
927.37491230148407
 20
437.92700054068678
 30
0.0
 40
10.19983357405331
 50
155.3752531507763
 51
204.62474684922361
  0
LINE
  5
DFB
  8
0
  6
CONTINUOUS
 10
917.20269007925594
 20
442.17700054068689
 30
0.0
 11
922.20269007925594
 21
442.17700054068689
 31
0.0
  0
LINE
  5
DFC
  8
0
  6
CONTINUOUS
 10
915.70269007925583
 20
438.67700054068689
 30
0.0
 11
914.20269007925594
 21
437.17700054068689
 31
0.0
  0
LINE
  5
DFD
  8
0
  6
CONTINUOUS
 10
915.70269007925583
 20
428.67700054068689
 30
0.0
 11
915.70269007925583
 21
438.67700054068689
 31
0.0
  0
LINE
  5
DFE
  8
0
  6
CONTINUOUS
 10
915.70269007925583
 20
428.67700054068689
 30
0.0
 11
914.20269007925594
 21
430.17700054068689
 31
0.0
  0
LINE
  5
DFF
  8
0
  6
CONTINUOUS
 62
     2
 10
917.20269007925594
 20
429.67700054068689
 30
0.0
 11
914.70269007925594
 21
429.67700054068689
 31
0.0
  0
LINE
  5
E00
  8
0
  6
CONTINUOUS
 62
     2
 10
917.20269007925594
 20
437.67700054068689
 30
0.0
 11
914.70269007925594
 21
437.67700054068689
 31
0.0
  0
LINE
  5
E01
  8
0
  6
CONTINUOUS
 10
917.20269007925594
 20
428.67700054068689
 30
0.0
 11
915.70269007925583
 21
428.67700054068689
 31
0.0
  0
LINE
  5
E02
  8
0
  6
CONTINUOUS
 10
914.20269007925594
 20
430.17700054068689
 30
0.0
 11
914.20269007925594
 21
437.17700054068689
 31
0.0
  0
POLYLINE
  5
E03
  8
DIM
  6
CONTINUOUS
 66
     1
 10
0.0
 20
0.0
 30
0.0
 70
     1
  0
VERTEX
  5
1406
  8
DIM
  6
CONTINUOUS
 10
901.99261121351492
 20
447.79495132798837
 30
0.0
  0
VERTEX
  5
1407
  8
DIM
  6
CONTINUOUS
 10
901.99261121351492
 20
445.15093026783501
 30
0.0
  0
VERTEX
  5
1408
  8
DIM
  6
CONTINUOUS
 10
904.39798239742186
 20
445.15093026783501
 30
0.0
  0
VERTEX
  5
1409
  8
DIM
  6
CONTINUOUS
 10
904.39798239742186
 20
447.79495132798837
 30
0.0
  0
SEQEND
  5
140A
  8
DIM
  6
CONTINUOUS
  0
LINE
  5
E09
  8
0
  6
CONTINUOUS
 10
917.20269007925594
 20
438.67700054068689
 30
0.0
 11
915.70269007925583
 21
438.67700054068689
 31
0.0
  0
ARC
  5
E0A
  8
0
  6
CONTINUOUS
 10
912.03046785702793
 20
437.927000540687
 30
0.0
 40
10.19983357405331
 50
335.3752531507788
 51
24.624746849221388
  0
ARC
  5
E0B
  8
0
 10
926.70269007925594
 20
434.84856795717877
 30
0.0
 40
1.5
 50
180.0
 51
295.58300197742682
  0
LINE
  5
E0C
  8
0
 10
922.20269007925594
 20
428.17700054068672
 30
0.0
 11
922.70269007925594
 21
428.17700054068672
 31
0.0
  0
ARC
  5
E0D
  8
0
 10
926.70269007925594
 20
446.17700054068678
 30
0.0
 40
1.5
 50
90.0
 51
180.0
  0
LINE
  5
E0E
  8
CENTER
  6
CENTER
 10
954.70269007925594
 20
413.39681917790398
 30
0.0
 11
954.70269007925594
 21
427.39681917790398
 31
0.0
  0
LINE
  5
E0F
  8
0
 10
960.70269007925594
 20
420.17700054068678
 30
0.0
 11
960.70269007925594
 21
428.8048853267789
 31
0.0
  0
LINE
  5
E10
  8
0
 10
949.70269007925594
 20
420.17700054068678
 30
0.0
 11
949.70269007925594
 21
431.54369288790292
 31
0.0
  0
LINE
  5
E11
  8
0
 10
958.70269007925594
 20
420.17700054068678
 30
0.0
 11
958.70269007925594
 21
428.8048853267789
 31
0.0
  0
ARC
  5
E12
  8
0
 10
931.45269007925594
 20
424.92700054068672
 30
0.0
 40
9.5
 50
334.4169980226124
 51
30.522487814069859
  0
LINE
  5
E13
  8
0
 10
957.20269007925594
 20
418.67700054068672
 30
0.0
 11
941.37425749574788
 21
418.67700054068678
 31
0.0
  0
LINE
  5
E14
  8
0
 10
948.70269007925583
 20
406.67700054068661
 30
0.0
 11
948.70269007925583
 21
415.67700054068672
 31
0.0
  0
LINE
  5
E15
  8
0
  6
CONTINUOUS
 10
949.70269007925594
 20
405.67700054068672
 30
0.0
 11
948.70269007925583
 21
406.67700054068661
 31
0.0
  0
ARC
  5
E16
  8
0
 10
941.37425749574788
 20
420.17700054068678
 30
0.0
 40
1.5
 50
154.4169980225779
 51
270.0
  0
ARC
  5
E17
  8
0
 10
948.20269007925594
 20
420.17700054068678
 30
0.0
 40
1.5
 50
270.0
 51
0.0
  0
ARC
  5
E18
  8
0
 10
957.20269007925594
 20
420.17700054068678
 30
0.0
 40
1.5
 50
270.0
 51
0.0
  0
ARC
  5
E19
  8
0
 10
962.20269007925594
 20
420.17700054068678
 30
0.0
 40
1.5
 50
180.0
 51
270.0
  0
ARC
  5
E1A
  8
0
 10
940.54350876417016
 20
437.9069065221268
 30
0.0
 40
1.5
 50
314.99999999999841
 51
38.5552596602313
  0
LINE
  5
E1B
  8
0
 10
943.37193588891614
 20
435.0784793973807
 30
0.0
 11
939.86775872143505
 21
431.5743022298995
 31
0.0
  0
ARC
  5
E1C
  8
0
 10
940.92841889321494
 20
430.51364205811979
 30
0.0
 40
1.5
 50
134.99999999999841
 51
210.52248781406951
  0
ARC
  5
E1D
  8
0
 10
937.03933159668895
 20
434.40272935464571
 30
0.0
 40
1.5
 50
239.47751218593231
 51
314.99999999999841
  0
LINE
  5
E1E
  8
0
 10
941.60416893594993
 20
436.84624635034692
 30
0.0
 11
938.09999176846884
 21
433.34206918286583
 31
0.0
  0
ARC
  5
E1F
  8
0
 10
948.20269007925594
 20
431.54369288790292
 30
0.0
 40
1.5
 50
0.0
 51
62.005438267749533
  0
ARC
  5
E20
  8
0
 10
944.4325960606958
 20
434.01781922560087
 30
0.0
 40
1.5
 50
51.444740339770391
 51
134.99999999999841
  0
ARC
  5
E21
  8
0
 10
935.85421004383238
 20
445.67700054068678
 30
0.0
 40
2.0
 50
17.457603123720698
 51
90.0
  0
ARC
  5
E22
  8
0
 10
957.20269007925594
 20
428.8048853267789
 30
0.0
 40
1.5
 50
0.0
 51
84.143298090078574
  0
ARC
  5
E23
  8
0
 10
962.20269007925594
 20
428.8048853267789
 30
0.0
 40
1.5
 50
95.856701909921412
 51
180.0
  0
LINE
  5
E24
  8
DIM
  6
CONTINUOUS
 10
1030.702690079255
 20
405.67700054068672
 30
0.0
 11
1049.2026900792559
 21
405.67700054068672
 31
0.0
  0
LINE
  5
E25
  8
DIM
  6
CONTINUOUS
 10
997.20269007925594
 20
422.03375708644859
 30
0.0
 11
997.20269007925594
 21
399.35955912970121
 31
0.0
  0
LINE
  5
E26
  8
DIM
  6
CONTINUOUS
 10
1032.2026900792559
 20
414.67700054068672
 30
0.0
 11
1032.2026900792559
 21
380.67700054068678
 31
0.0
  0
LINE
  5
E27
  8
DIM
  6
CONTINUOUS
 10
959.70269007925583
 20
397.67700054068689
 30
0.0
 11
1029.2026900792559
 21
397.67700054068689
 31
0.0
  0
TEXT
  5
E28
  8
DIM
  6
CONTINUOUS
 10
973.91697579354161
 20
383.17700054068678
 30
0.0
 40
3.0
  1
110
  7
ROMANSS
 72
     1
 11
977.20269007925594
 21
384.67700054068678
 31
0.0
 73
     2
  0
TEXT
  5
E29
  8
DIM
  6
CONTINUOUS
 10
972.27411865068439
 20
399.17700054068689
 30
0.0
 40
3.0
  1
30
  7
ROMANSS
 72
     1
 11
974.70269007925594
 21
400.67700054068689
 31
0.0
 73
     2
  0
LINE
  5
E2A
  8
DIM
  6
CONTINUOUS
 10
997.20269007925594
 20
395.75407559840869
 30
0.0
 11
997.20269007925594
 21
388.67700054068689
 31
0.0
  0
SOLID
  5
E2B
  8
DIM
  6
CONTINUOUS
 10
994.20269007925594
 20
390.17700054068689
 30
0.0
 11
994.20269007925594
 21
389.17700054068689
 31
0.0
 12
997.20269007925594
 22
389.67700054068689
 32
0.0
 13
997.20269007925594
 23
389.67700054068689
 33
0.0
  0
SOLID
  5
E2C
  8
DIM
  6
CONTINUOUS
 10
992.70269007925594
 20
398.17700054068689
 30
0.0
 11
992.70269007925594
 21
397.17700054068689
 31
0.0
 12
989.70269007925594
 22
397.67700054068689
 32
0.0
 13
989.70269007925594
 23
397.67700054068689
 33
0.0
  0
LINE
  5
E2D
  8
DIM
  6
CONTINUOUS
 10
989.70269007925594
 20
401.67700054068672
 30
0.0
 11
989.70269007925594
 21
396.67700054068689
 31
0.0
  0
SOLID
  5
E2E
  8
DIM
  6
CONTINUOUS
 10
986.70269007925594
 20
398.17700054068689
 30
0.0
 11
986.70269007925594
 21
397.17700054068689
 31
0.0
 12
989.70269007925594
 22
397.67700054068689
 32
0.0
 13
989.70269007925594
 23
397.67700054068689
 33
0.0
  0
LINE
  5
E2F
  8
DIM
  6
CONTINUOUS
 10
989.70269007925594
 20
401.67700054068672
 30
0.0
 11
989.70269007925594
 21
396.67700054068689
 31
0.0
  0
TEXT
  5
E30
  8
DIM
  6
CONTINUOUS
 10
1006.381261507827
 20
399.17700054068689
 30
0.0
 40
3.0
  1
42.5
  7
ROMANSS
 72
     1
 11
1010.9526900792559
 21
400.67700054068689
 31
0.0
 73
     2
  0
SOLID
  5
E31
  8
DIM
  6
CONTINUOUS
 10
1029.2026900792559
 20
382.17700054068678
 30
0.0
 11
1029.2026900792559
 21
381.17700054068678
 31
0.0
 12
1032.2026900792559
 22
381.67700054068689
 32
0.0
 13
1032.2026900792559
 23
381.67700054068689
 33
0.0
  0
SOLID
  5
E32
  8
DIM
  6
CONTINUOUS
 10
1029.2026900792559
 20
398.17700054068689
 30
0.0
 11
1029.2026900792559
 21
397.17700054068689
 31
0.0
 12
1032.2026900792559
 22
397.67700054068689
 32
0.0
 13
1032.2026900792559
 23
397.67700054068689
 33
0.0
  0
POLYLINE
  5
E33
  8
0
  6
CONTINUOUS
 66
     1
 10
0.0
 20
0.0
 30
0.0
 70
     1
  0
VERTEX
  5
140B
  8
0
  6
CONTINUOUS
 10
985.64328900249757
 20
428.92700054068672
 30
0.0
  0
VERTEX
  5
140C
  8
0
  6
CONTINUOUS
 10
983.33388792573885
 20
424.92700054068672
 30
0.0
  0
VERTEX
  5
140D
  8
0
  6
CONTINUOUS
 10
985.64328900249757
 20
420.92700054068672
 30
0.0
  0
VERTEX
  5
140E
  8
0
  6
CONTINUOUS
 10
990.26209115601455
 20
420.92700054068672
 30
0.0
  0
VERTEX
  5
140F
  8
0
  6
CONTINUOUS
 10
992.57149223277293
 20
424.92700054068672
 30
0.0
  0
VERTEX
  5
1410
  8
0
  6
CONTINUOUS
 10
990.26209115601455
 20
428.92700054068672
 30
0.0
  0
SEQEND
  5
1411
  8
0
  6
CONTINUOUS
  0
CIRCLE
  5
E3B
  8
0
  6
CONTINUOUS
 10
987.95269007925594
 20
424.92700054068672
 30
0.0
 40
3.399999999999999
  0
ARC
  5
E3C
  8
0
  6
CONTINUOUS
 62
     2
 10
987.95269007925594
 20
424.92700054068672
 30
0.0
 40
4.0
 50
57.77418116062497
 51
14.453881156675809
  0
CIRCLE
  5
E3D
  8
0
 10
987.95269007925594
 20
424.92700054068672
 30
0.0
 40
6.5
  0
ARC
  5
E3E
  8
0
 10
987.95269007925594
 20
424.92700054068672
 30
0.0
 40
9.5
 50
149.4775121859295
 51
205.58300197738259
  0
LINE
  5
E3F
  8
CENTER
  6
CENTER
 10
987.95269007925594
 20
432.42700054068678
 30
0.0
 11
987.95269007925594
 21
417.42700054068672
 31
0.0
  0
LINE
  5
E40
  8
0
 10
969.70269007925594
 20
420.17700054068678
 30
0.0
 11
969.70269007925594
 21
431.54369288790292
 31
0.0
  0
LINE
  5
E41
  8
CENTER
  6
CENTER
 10
980.45269007925594
 20
424.92700054068672
 30
0.0
 11
995.45269007925594
 21
424.92700054068672
 31
0.0
  0
ARC
  5
E42
  8
0
 10
971.20269007925594
 20
420.17700054068678
 30
0.0
 40
1.5
 50
180.0
 51
270.0
  0
ARC
  5
E43
  8
0
 10
978.03112266276378
 20
420.17700054068678
 30
0.0
 40
1.5
 50
270.0
 51
25.583001977414259
  0
ARC
  5
E44
  8
0
 10
987.70269007925594
 20
425.17700054068672
 30
0.0
 40
9.0
 50
270.0
 51
0.0
  0
ARC
  5
E45
  8
0
 10
987.70269007925594
 20
425.17700054068672
 30
0.0
 40
9.5
 50
270.0
 51
0.0
  0
LINE
  5
E46
  8
0
 10
992.70269007925594
 20
443.17700054068672
 30
0.0
 11
981.3359977320398
 21
443.17700054068672
 31
0.0
  0
ARC
  5
E47
  8
0
 10
987.95269007925594
 20
424.92700054068672
 30
0.0
 40
9.5
 50
64.416998022605981
 51
120.5224878140703
  0
ARC
  5
E48
  8
0
 10
978.86187139434185
 20
437.90690652212669
 30
0.0
 40
1.5
 50
141.44474033976871
 51
225.00000000000151
  0
ARC
  5
E49
  8
0
 10
974.97278409781597
 20
434.01781922560087
 30
0.0
 40
1.5
 50
45.000000000001521
 51
128.55525966022961
  0
ARC
  5
E4A
  8
0
 10
971.20269007925594
 20
431.54369288790292
 30
0.0
 40
1.5
 50
117.9945617322504
 51
180.0
  0
ARC
  5
E4B
  8
0
 10
982.36604856182305
 20
434.40272935464571
 30
0.0
 40
1.5
 50
225.00000000000151
 51
300.52248781406757
  0
ARC
  5
E4C
  8
0
 10
978.47696126529695
 20
430.51364205811979
 30
0.0
 40
1.5
 50
329.47751218593049
 51
45.000000000001521
  0
LINE
  5
E4D
  8
0
 10
976.03344426959575
 20
435.0784793973807
 30
0.0
 11
979.53762143707695
 21
431.5743022298995
 31
0.0
  0
LINE
  5
E4E
  8
0
 10
977.80121122256185
 20
436.84624635034692
 30
0.0
 11
981.30538839004305
 21
433.34206918286583
 31
0.0
  0
ARC
  5
E4F
  8
0
 10
981.3359977320398
 20
441.67700054068661
 30
0.0
 40
1.5
 50
90.0
 51
152.0054382677456
  0
ARC
  5
E50
  8
0
 10
992.70269007925594
 20
434.84856795717877
 30
0.0
 40
1.5
 50
244.4169980225731
 51
0.0
  0
ARC
  5
E51
  8
0
 10
992.70269007925594
 20
441.67700054068661
 30
0.0
 40
1.5
 50
0.0
 51
90.0
  0
LINE
  5
E52
  8
CENTER
  6
CENTER
 10
1024.7026900792559
 20
413.39681917790409
 30
0.0
 11
1024.7026900792559
 21
427.39681917790409
 31
0.0
  0
LINE
  5
E53
  8
0
 10
1030.702690079255
 20
406.67700054068661
 30
0.0
 11
1030.702690079255
 21
415.67700054068672
 31
0.0
  0
LINE
  5
E54
  8
0
  6
CONTINUOUS
 10
1029.7026900792559
 20
405.67700054068672
 30
0.0
 11
1030.702690079255
 21
406.67700054068661
 31
0.0
  0
SOLID
  5
E55
  8
DIM
  6
CONTINUOUS
 10
1039.7026900792559
 20
402.67700054068661
 30
0.0
 11
1040.7026900792559
 21
402.67700054068661
 31
0.0
 12
1040.2026900792559
 22
405.67700054068672
 32
0.0
 13
1040.2026900792559
 23
405.67700054068672
 33
0.0
  0
TEXT
  5
E56
  8
DIM
  6
CONTINUOUS
 10
1038.7026900792559
 20
408.52623946584339
 30
0.0
 40
3.0
  1
10
 50
90.0
  7
ROMANSS
 72
     1
 11
1037.2026900792559
 21
410.6690966087005
 31
0.0
 73
     2
  0
SOLID
  5
E57
  8
DIM
  6
CONTINUOUS
 10
1047.7026900792559
 20
408.67700054068672
 30
0.0
 11
1048.7026900792559
 21
408.67700054068672
 31
0.0
 12
1048.2026900792559
 22
405.67700054068672
 32
0.0
 13
1048.2026900792559
 23
405.67700054068672
 33
0.0
  0
LINE
  5
E58
  8
DIM
  6
CONTINUOUS
 10
1033.202690079255
 20
415.67700054068672
 30
0.0
 11
1041.2026900792559
 21
415.67700054068672
 31
0.0
  0
SOLID
  5
E59
  8
DIM
  6
CONTINUOUS
 10
1039.7026900792559
 20
418.67700054068672
 30
0.0
 11
1040.7026900792559
 21
418.67700054068672
 31
0.0
 12
1040.2026900792559
 22
415.67700054068672
 32
0.0
 13
1040.2026900792559
 23
415.67700054068672
 33
0.0
  0
LINE
  5
E5A
  8
0
  6
CONTINUOUS
 10
922.20269007925594
 20
490.67700054068678
 30
0.0
 11
1032.2026900792559
 21
490.67700054068678
 31
0.0
  0
LINE
  5
E5B
  8
0
  6
CONTINUOUS
 10
949.70269007925594
 20
500.67700054068689
 30
0.0
 11
1029.7026900792559
 21
500.67700054068689
 31
0.0
  0
LINE
  5
E5C
  8
0
  6
CONTINUOUS
 10
948.70269007925583
 20
499.67700054068689
 30
0.0
 11
1030.702690079255
 21
499.67700054068689
 31
0.0
  0
LINE
  5
E5D
  8
0
 10
962.20269007925594
 20
487.67700054068672
 30
0.0
 11
978.03112266276378
 21
487.67700054068672
 31
0.0
  0
LINE
  5
E5E
  8
0
 10
931.70269007925594
 20
490.17700054068672
 30
0.0
 11
987.70269007925594
 21
490.17700054068672
 31
0.0
  0
LINE
  5
E5F
  8
CENTER
  6
CENTER
 10
919.20269007925594
 20
453.17700054068678
 30
0.0
 11
1035.202690079255
 21
453.17700054068672
 31
0.0
  0
LINE
  5
E60
  8
DIM
  6
CONTINUOUS
 10
751.90721201802978
 20
631.37190021428125
 30
0.0
 11
751.90721201802978
 21
695.37190021428125
 31
0.0
  0
LINE
  5
E61
  8
0
 10
702.4471010078305
 20
705.87190021428148
 30
0.0
 11
702.4471010078305
 21
595.87190021428125
 31
0.0
  0
LINE
  5
E62
  8
0
 10
778.44710100783016
 20
670.8719002142816
 30
0.0
 11
778.4471010078305
 21
595.8719002142816
 31
0.0
  0
LINE
  5
E63
  8
0
 10
815.4471010078305
 20
654.87190021428137
 30
0.0
 11
815.4471010078305
 21
611.87190021428125
 31
0.0
  0
LINE
  5
E64
  8
0
 10
810.44710100783016
 20
670.3719002142816
 30
0.0
 11
810.44710100783038
 21
596.37190021428148
 31
0.0
  0
LINE
  5
E65
  8
0
 10
778.44710100783016
 20
668.37190021428148
 30
0.0
 11
778.44710100783016
 21
598.3719002142816
 31
0.0
  0
LINE
  5
E66
  8
DIM
  6
CONTINUOUS
 10
700.44710100783038
 20
628.37190021428125
 30
0.0
 11
753.22415510305336
 21
628.37190021428125
 31
0.0
  0
LINE
  5
E67
  8
0
 10
702.4471010078305
 20
652.16200967285499
 30
0.0
 11
778.44710100783016
 21
652.16200967285499
 31
0.0
  0
LINE
  5
E68
  8
0
 10
702.4471010078305
 20
614.5817907557082
 30
0.0
 11
778.44710100783016
 21
614.5817907557082
 31
0.0
  0
LINE
  5
E69
  8
0
 10
702.4471010078305
 20
598.3719002142816
 30
0.0
 11
778.44710100783016
 21
598.3719002142816
 31
0.0
  0
LINE
  5
E6A
  8
0
 10
702.4471010078305
 20
471.96710999926017
 30
0.0
 11
778.44710100783016
 21
471.96710999926017
 31
0.0
  0
LINE
  5
E6B
  8
0
 10
702.4471010078305
 20
488.17700054068689
 30
0.0
 11
778.44710100783016
 21
488.17700054068689
 31
0.0
  0
LINE
  5
E6C
  8
0
 10
669.44710100783016
 20
542.67700054068689
 30
0.0
 11
669.44710100783027
 21
501.67700054068678
 31
0.0
  0
LINE
  5
E6D
  8
0
 10
698.4471010078305
 20
499.67700054068689
 30
0.0
 11
698.4471010078305
 21
490.67700054068678
 31
0.0
  0
LINE
  5
E6E
  8
CENTER
  6
CENTER
 10
692.44710100783038
 20
492.95718190346952
 30
0.0
 11
692.44710100783038
 21
474.94343253181
 31
0.0
  0
LINE
  5
E6F
  8
0
 10
672.44710100783027
 20
501.67700054068678
 30
0.0
 11
672.44710100783027
 21
500.67700054068689
 31
0.0
  0
LINE
  5
E70
  8
0
  6
CONTINUOUS
 10
697.44710100783038
 20
500.67700054068689
 30
0.0
 11
698.4471010078305
 21
499.67700054068689
 31
0.0
  0
LINE
  5
E71
  8
CENTER
  6
CENTER
 10
689.62073307313199
 20
684.87190021428125
 30
0.0
 11
714.21554147868221
 21
684.87190021428125
 31
0.0
  0
LINE
  5
E72
  8
DIM
  6
CONTINUOUS
 10
669.44710100783016
 20
543.67700054068678
 30
0.0
 11
669.44710100783016
 21
560.67700054068678
 31
0.0
  0
SOLID
  5
E73
  8
DIM
  6
CONTINUOUS
 10
666.44710100783016
 20
552.17700054068678
 30
0.0
 11
666.44710100783016
 21
551.17700054068689
 31
0.0
 12
669.44710100783016
 22
551.67700054068678
 32
0.0
 13
669.44710100783016
 23
551.67700054068678
 33
0.0
  0
LINE
  5
E74
  8
DIM
  6
CONTINUOUS
 10
669.44710100783016
 20
543.67700054068678
 30
0.0
 11
669.44710100783016
 21
552.67700054068678
 31
0.0
  0
LINE
  5
E75
  8
0
  6
CONTINUOUS
 10
668.44710100783016
 20
543.67700054068678
 30
0.0
 11
669.44710100783016
 21
542.67700054068689
 31
0.0
  0
SOLID
  5
E76
  8
DIM
  6
CONTINUOUS
 10
666.44710100783016
 20
560.17700054068678
 30
0.0
 11
666.44710100783016
 21
559.17700054068689
 31
0.0
 12
669.44710100783016
 22
559.67700054068678
 32
0.0
 13
669.44710100783016
 23
559.67700054068678
 33
0.0
  0
ARC
  5
E77
  8
0
  6
CONTINUOUS
 10
717.44709979186121
 20
684.86586042352451
 30
0.0
 40
14.999999999999989
 50
160.50430776694631
 51
179.97692969770159
  0
ARC
  5
E78
  8
0
  6
CONTINUOUS
 10
692.44710222379945
 20
684.86586042357965
 30
0.0
 40
14.999999999999989
 50
0.023070302298829
 51
19.495692233054051
  0
LINE
  5
E79
  8
0
  6
CONTINUOUS
 10
708.94710100783038
 20
689.87190021443473
 30
0.0
 11
710.44710100783027
 21
688.37190021443473
 31
0.0
  0
LINE
  5
E7A
  8
0
  6
CONTINUOUS
 10
708.94710100783038
 20
689.87190021443473
 30
0.0
 11
708.94710100783038
 21
679.87190021443462
 31
0.0
  0
LINE
  5
E7B
  8
0
  6
CONTINUOUS
 10
707.44710100783038
 20
693.12190021443473
 30
0.0
 11
707.44710100783038
 21
676.62190021443462
 31
0.0
  0
LINE
  5
E7C
  8
0
  6
CONTINUOUS
 10
708.94710100783038
 20
679.87190021443473
 30
0.0
 11
710.44710100783027
 21
681.37190021443473
 31
0.0
  0
ARC
  5
E7D
  8
0
  6
CONTINUOUS
 10
717.44709979186121
 20
684.87794000523445
 30
0.0
 40
14.999999999999989
 50
180.0230703022992
 51
199.4956922330544
  0
ARC
  5
E7E
  8
0
  6
CONTINUOUS
 10
692.44710222379945
 20
684.87794000528959
 30
0.0
 40
14.999999999999989
 50
340.50430776694589
 51
359.97692969770111
  0
LINE
  5
E7F
  8
0
  6
CONTINUOUS
 10
703.3071010078113
 20
679.87190021443485
 30
0.0
 11
706.58710100782969
 21
679.87190021443473
 31
0.0
  0
LINE
  5
E80
  8
0
  6
CONTINUOUS
 10
703.34202017638984
 20
675.07190021443546
 30
0.0
 11
706.55218183923876
 21
675.07190021443546
 31
0.0
  0
LINE
  5
E81
  8
0
  6
CONTINUOUS
 10
703.3420201764219
 20
675.07190021437998
 30
0.0
 11
702.44710100783027
 21
676.62190021437937
 31
0.0
  0
ARC
  5
E82
  8
0
  6
CONTINUOUS
 10
705.9688790912204
 20
677.56544100088195
 30
0.0
 40
3.5220472269320542
 50
139.090720066529
 51
209.20514415783671
  0
LINE
  5
E83
  8
0
  6
CONTINUOUS
 10
707.44710100783038
 20
679.87190021443473
 30
0.0
 11
708.94710100783038
 21
679.87190021443473
 31
0.0
  0
ARC
  5
E84
  8
0
  6
CONTINUOUS
 10
703.92532292444025
 20
677.56544100093731
 30
0.0
 40
3.5220472269320542
 50
330.7948558421632
 51
40.909279933470948
  0
LINE
  5
E85
  8
0
  6
CONTINUOUS
 10
706.55218183923876
 20
675.07190021443546
 30
0.0
 11
707.44710100783038
 21
676.62190021443473
 31
0.0
  0
LINE
  5
E86
  8
0
  6
CONTINUOUS
 62
     2
 10
707.44710100783038
 20
680.87190021443473
 30
0.0
 11
709.94710100783027
 21
680.87190021443473
 31
0.0
  0
LINE
  5
E87
  8
0
  6
CONTINUOUS
 10
710.44710100783027
 20
688.37190021443473
 30
0.0
 11
710.44710100783027
 21
681.3719002144345
 31
0.0
  0
LINE
  5
E88
  8
0
  6
CONTINUOUS
 10
703.34202017645384
 20
694.671900214434
 30
0.0
 11
706.55218183923876
 21
694.671900214434
 31
0.0
  0
LINE
  5
E89
  8
0
  6
CONTINUOUS
 10
703.3420201764219
 20
694.67190021437864
 30
0.0
 11
702.44710100783027
 21
693.12190021437937
 31
0.0
  0
LINE
  5
E8A
  8
0
  6
CONTINUOUS
 10
706.55218183923876
 20
694.671900214434
 30
0.0
 11
707.44710100783038
 21
693.12190021443473
 31
0.0
  0
LINE
  5
E8B
  8
0
  6
CONTINUOUS
 10
703.30710100785052
 20
689.87190021443485
 30
0.0
 11
706.58710100782969
 21
689.87190021443473
 31
0.0
  0
LINE
  5
E8C
  8
0
  6
CONTINUOUS
 10
707.44710100783038
 20
689.87190021443473
 30
0.0
 11
708.94710100783038
 21
689.87190021443473
 31
0.0
  0
LINE
  5
E8D
  8
0
  6
CONTINUOUS
 62
     2
 10
707.44710100783038
 20
688.87190021443473
 30
0.0
 11
709.94710100783027
 21
688.87190021443473
 31
0.0
  0
ARC
  5
E8E
  8
0
  6
CONTINUOUS
 10
705.9688790912204
 20
692.17835942787667
 30
0.0
 40
3.5220472269320542
 50
150.7948558421632
 51
220.90927993347091
  0
ARC
  5
E8F
  8
0
  6
CONTINUOUS
 10
703.92532292444025
 20
692.17835942793215
 30
0.0
 40
3.5220472269320542
 50
319.090720066529
 51
29.205144157836791
  0
LINE
  5
E90
  8
CENTER
  6
CENTER
 10
685.4471010078305
 20
628.37190021428125
 30
0.0
 11
699.4471010078305
 21
628.37190021428125
 31
0.0
  0
LINE
  5
E91
  8
CENTER
  6
CENTER
 10
692.44710100783038
 20
635.37190021428125
 30
0.0
 11
692.44710100783038
 21
621.37190021428137
 31
0.0
  0
CIRCLE
  5
E92
  8
0
  6
CONTINUOUS
 10
692.44710100783038
 20
628.37190021428125
 30
0.0
 40
3.399999999999999
  0
ARC
  5
E93
  8
0
  6
CONTINUOUS
 62
     2
 10
692.44710100783038
 20
628.37190021428125
 30
0.0
 40
4.0
 50
65.677517025119315
 51
24.771420425728412
  0
LINE
  5
E94
  8
CENTER
  6
CENTER
 10
676.89253749046043
 20
643.92646373165144
 30
0.0
 11
685.37781886469895
 21
635.44118235741269
 31
0.0
  0
CIRCLE
  5
E95
  8
0
  6
CONTINUOUS
 10
681.13517817757975
 20
639.68382304453212
 30
0.0
 40
2.5
  0
ARC
  5
E96
  8
0
  6
CONTINUOUS
 62
     2
 10
681.13517817757975
 20
639.68382304453212
 30
0.0
 40
3.0
 50
210.845012326004
 51
153.036401108983
  0
LINE
  5
E97
  8
DIM
  6
CONTINUOUS
 10
800.05612682426499
 20
469.05268522188481
 30
0.0
 11
821.68949145721513
 21
504.5160975969078
 31
0.0
  0
CIRCLE
  5
E98
  8
0
 10
794.4471010078305
 20
460.17700054068689
 30
0.0
 40
6.5
  0
CIRCLE
  5
E99
  8
0
 10
794.4471010078305
 20
460.17700054068678
 30
0.0
 40
7.5
  0
ARC
  5
E9A
  8
0
 62
     2
 10
794.4471010078305
 20
460.17700054068678
 30
0.0
 40
8.25
 50
257.92480383695369
 51
198.6623931654444
  0
LINE
  5
E9B
  8
0
 10
778.4471010078305
 20
490.67700054068678
 30
0.0
 11
810.44710100783038
 21
490.17700054068678
 31
0.0
  0
LINE
  5
E9C
  8
CENTER
  6
CENTER
 10
781.9471010078305
 20
460.17700054068678
 30
0.0
 11
806.94710100783038
 21
460.17700054068678
 31
0.0
  0
CIRCLE
  5
E9D
  8
0
 10
794.4471010078305
 20
460.17700054068678
 30
0.0
 40
8.4999999999999574
  0
SOLID
  5
E9E
  8
DIM
  6
CONTINUOUS
 10
822.94710100783038
 20
472.67700054068678
 30
0.0
 11
823.94710100783038
 21
472.67700054068678
 31
0.0
 12
823.4471010078305
 22
475.67700054068689
 32
0.0
 13
823.4471010078305
 23
475.67700054068689
 33
0.0
  0
SOLID
  5
E9F
  8
DIM
  6
CONTINUOUS
 10
800.48297497395879
 20
468.79229962876758
 30
0.0
 11
799.6292786745712
 21
469.31307081500182
 31
0.0
 12
798.49381326556238
 22
466.49159632372169
 32
0.0
 13
798.49381326556238
 23
466.49159632372169
 33
0.0
  0
LINE
  5
EA0
  8
0
 10
810.44710100783016
 20
475.67700054068689
 30
0.0
 11
814.4471010078305
 21
475.67700054068689
 31
0.0
  0
LINE
  5
EA1
  8
DIM
  6
CONTINUOUS
 10
816.07158884506543
 20
475.67700054068689
 30
0.0
 11
824.4471010078305
 21
475.67700054068689
 31
0.0
  0
ARC
  5
EA2
  8
0
 10
814.4471010078305
 20
474.67700054068689
 30
0.0
 40
1.0
 50
0.0
 51
90.0
  0
TEXT
  5
EA3
  8
DIM
  6
CONTINUOUS
 10
804.6868997004583
 20
506.01609759690791
 30
0.0
 40
3.0
  1
2-G3/8
  7
ROMANSS
 11
804.6868997004583
 21
507.51609759690791
 31
0.0
 73
     2
  0
LINE
  5
EA4
  8
DIM
  6
CONTINUOUS
 10
804.14767902471203
 20
504.5160975969078
 30
0.0
 11
821.68949145721513
 21
504.5160975969078
 31
0.0
  0
LINE
  5
EA5
  8
DIM
  6
CONTINUOUS
 10
927.94864307018304
 20
487.48378769251661
 30
0.0
 11
913.76475292229486
 21
510.29896028166451
 31
0.0
  0
LINE
  5
EA6
  8
0
 10
948.70269007925583
 20
499.67700054068689
 30
0.0
 11
948.70269007925583
 21
490.67700054068678
 31
0.0
  0
LINE
  5
EA7
  8
CENTER
  6
CENTER
 10
919.14796814748775
 20
460.17700054068678
 30
0.0
 11
942.67605341701369
 21
460.17700054068678
 31
0.0
  0
POLYLINE
  5
EA8
  8
0
  6
CONTINUOUS
 66
     1
 10
0.0
 20
0.0
 30
0.0
 70
     1
  0
VERTEX
  5
1412
  8
0
  6
CONTINUOUS
 10
929.14328900249757
 20
485.42700054068672
 30
0.0
  0
VERTEX
  5
1413
  8
0
  6
CONTINUOUS
 10
926.83388792573896
 20
481.42700054068672
 30
0.0
  0
VERTEX
  5
1414
  8
0
  6
CONTINUOUS
 10
929.14328900249757
 20
477.42700054068678
 30
0.0
  0
VERTEX
  5
1415
  8
0
  6
CONTINUOUS
 10
933.76209115601455
 20
477.42700054068678
 30
0.0
  0
VERTEX
  5
1416
  8
0
  6
CONTINUOUS
 10
936.07149223277281
 20
481.42700054068672
 30
0.0
  0
VERTEX
  5
1417
  8
0
  6
CONTINUOUS
 10
933.76209115601455
 20
485.42700054068672
 30
0.0
  0
SEQEND
  5
1418
  8
0
  6
CONTINUOUS
  0
CIRCLE
  5
EB0
  8
0
  6
CONTINUOUS
 10
931.45269007925594
 20
481.42700054068672
 30
0.0
 40
3.399999999999999
  0
ARC
  5
EB1
  8
0
  6
CONTINUOUS
 62
     2
 10
931.45269007925594
 20
481.42700054068672
 30
0.0
 40
4.0
 50
57.77418116062497
 51
14.453881156675809
  0
CIRCLE
  5
EB2
  8
0
 10
931.45269007925594
 20
481.42700054068672
 30
0.0
 40
6.5
  0
ARC
  5
EB3
  8
0
 10
931.45269007925594
 20
481.42700054068672
 30
0.0
 40
9.5
 50
244.41699802260129
 51
300.52248781407019
  0
LINE
  5
EB4
  8
CENTER
  6
CENTER
 10
923.95269007925594
 20
481.42700054068672
 30
0.0
 11
938.95269007925583
 21
481.42700054068672
 31
0.0
  0
LINE
  5
EB5
  8
0
 10
926.70269007925594
 20
454.17700054068672
 30
0.0
 11
934.88334278727439
 21
454.17700054068672
 31
0.0
  0
LINE
  5
EB6
  8
0
 10
926.70269007925594
 20
452.17700054068672
 30
0.0
 11
935.33057486534813
 21
452.17700054068672
 31
0.0
  0
ARC
  5
EB7
  8
0
 10
926.70269007925594
 20
471.50543312419472
 30
0.0
 40
1.5
 50
64.416998022602257
 51
180.0
  0
LINE
  5
EB8
  8
0
 10
925.20269007925594
 20
471.50543312419472
 30
0.0
 11
925.20269007925594
 21
455.67700054068678
 31
0.0
  0
ARC
  5
EB9
  8
0
 10
926.70269007925594
 20
450.67700054068678
 30
0.0
 40
1.5
 50
90.0
 51
180.0
  0
ARC
  5
EBA
  8
0
 10
926.70269007925594
 20
455.67700054068678
 30
0.0
 40
1.5
 50
180.0
 51
270.0
  0
LINE
  5
EBB
  8
DIM
  6
CONTINUOUS
 10
922.95269007925594
 20
481.42700054068672
 30
0.0
 11
904.7595434563143
 21
481.42700054068672
 31
0.0
  0
SOLID
  5
EBC
  8
DIM
  6
CONTINUOUS
 10
905.70269007925594
 20
478.42700054068678
 30
0.0
 11
906.70269007925594
 21
478.42700054068678
 31
0.0
 12
906.20269007925594
 22
481.42700054068672
 32
0.0
 13
906.20269007925594
 23
481.42700054068672
 33
0.0
  0
LINE
  5
EBD
  8
CENTER
  6
CENTER
 10
931.45269007925594
 20
488.92700054068672
 30
0.0
 11
931.45269007925594
 21
473.92700054068678
 31
0.0
  0
ARC
  5
EBE
  8
0
 10
931.70269007925594
 20
481.17700054068672
 30
0.0
 40
9.0
 50
90.0
 51
180.0
  0
ARC
  5
EBF
  8
0
 10
931.70269007925594
 20
481.17700054068672
 30
0.0
 40
9.5
 50
90.0
 51
180.0
  0
LINE
  5
EC0
  8
0
 10
922.20269007925594
 20
478.17700054068672
 30
0.0
 11
922.70269007925594
 21
478.17700054068672
 31
0.0
  0
SOLID
  5
EC1
  8
DIM
  6
CONTINUOUS
 10
928.37327333548114
 20
487.747774695592
 30
0.0
 11
927.52401280488482
 21
487.21980068944117
 31
0.0
 12
929.53256508863558
 22
484.9360061007273
 32
0.0
 13
929.53256508863558
 23
484.9360061007273
 33
0.0
  0
LINE
  5
EC2
  8
0
 10
941.29114988545882
 20
469.8207737815174
 30
0.0
 11
938.09999176846884
 21
473.01193189850761
 31
0.0
  0
LINE
  5
EC3
  8
0
 10
943.37193588891614
 20
471.27552168399291
 30
0.0
 11
939.86775872143505
 21
474.779698851474
 31
0.0
  0
ARC
  5
EC4
  8
0
 10
934.88334278727439
 20
456.17700054068672
 30
0.0
 40
2.0
 50
270.0
 51
353.10789742065339
  0
ARC
  5
EC5
  8
0
 10
935.33057486534813
 20
450.67700054068678
 30
0.0
 40
1.5
 50
5.8567019099190381
 51
90.0
  0
ARC
  5
EC6
  8
0
 10
939.87693632308583
 20
468.4065602191443
 30
0.0
 40
2.0
 50
322.46959231641563
 51
45.0
  0
ARC
  5
EC7
  8
0
 10
944.4325960606958
 20
472.33618185577268
 30
0.0
 40
1.5
 50
225.00000000000151
 51
308.55525966022958
  0
LINE
  5
EC8
  8
0
 10
957.20269007925594
 20
487.67700054068672
 30
0.0
 11
941.37425749574788
 21
487.67700054068672
 31
0.0
  0
LINE
  5
EC9
  8
0
 10
949.70269007925594
 20
486.17700054068672
 30
0.0
 11
949.70269007925594
 21
474.81030819347058
 31
0.0
  0
ARC
  5
ECA
  8
0
 10
931.45269007925594
 20
481.42700054068672
 30
0.0
 40
9.5
 50
329.4775121859301
 51
25.583001977393081
  0
ARC
  5
ECB
  8
0
 10
940.92841889321494
 20
475.84035902325382
 30
0.0
 40
1.5
 50
149.47751218593049
 51
225.00000000000151
  0
ARC
  5
ECC
  8
0
 10
937.03933159668895
 20
471.9512717267279
 30
0.0
 40
1.5
 50
44.999999999995389
 51
120.5224878140676
  0
ARC
  5
ECD
  8
0
 10
948.20269007925594
 20
474.81030819347058
 30
0.0
 40
1.5
 50
297.99456173225042
 51
0.0
  0
ARC
  5
ECE
  8
0
 10
941.37425749574788
 20
486.17700054068672
 30
0.0
 40
1.5
 50
90.0
 51
205.58300197742781
  0
ARC
  5
ECF
  8
0
 10
948.20269007925594
 20
486.17700054068672
 30
0.0
 40
1.5
 50
0.0
 51
90.0
  0
LINE
  5
ED0
  8
CENTER
  6
CENTER
 10
954.70269007925594
 20
492.95718190346952
 30
0.0
 11
954.70269007925594
 21
478.95718190346952
 31
0.0
  0
LINE
  5
ED1
  8
0
 10
958.70269007925594
 20
486.17700054068672
 30
0.0
 11
958.70269007925594
 21
477.54911575459448
 31
0.0
  0
LINE
  5
ED2
  8
0
 10
960.70269007925594
 20
486.17700054068672
 30
0.0
 11
960.70269007925594
 21
477.54911575459448
 31
0.0
  0
ARC
  5
ED3
  8
0
 10
957.20269007925594
 20
477.54911575459448
 30
0.0
 40
1.5
 50
275.8567019099213
 51
0.0
  0
ARC
  5
ED4
  8
0
 10
962.20269007925594
 20
477.54911575459448
 30
0.0
 40
1.5
 50
180.0
 51
264.14329809007847
  0
ARC
  5
ED5
  8
0
 10
957.20269007925594
 20
486.17700054068672
 30
0.0
 40
1.5
 50
0.0
 51
90.0
  0
ARC
  5
ED6
  8
0
 10
962.20269007925594
 20
486.17700054068672
 30
0.0
 40
1.5
 50
90.0
 51
180.0
  0
TEXT
  5
ED7
  8
DIM
  6
CONTINUOUS
 10
912.22708603975502
 20
511.79896028166439
 30
0.0
 40
3.0
  1
2x4-M8x15L
  7
ROMANSS
 72
     2
 11
939.65565746832658
 21
513.29896028166445
 31
0.0
 73
     2
  0
LINE
  5
ED8
  8
DIM
  6
CONTINUOUS
 10
939.80620581725248
 20
510.29896028166451
 30
0.0
 11
913.76475292229486
 21
510.29896028166451
 31
0.0
  0
LINE
  5
ED9
  8
0
  6
CONTINUOUS
 10
949.70269007925594
 20
500.67700054068689
 30
0.0
 11
948.70269007925583
 21
499.67700054068689
 31
0.0
  0
LINE
  5
EDA
  8
0
 10
778.4471010078305
 20
595.8719002142816
 30
0.0
 11
810.44710100783038
 21
596.37190021428148
 31
0.0
  0
SOLID
  5
EDB
  8
DIM
  6
CONTINUOUS
 10
751.40721201802978
 20
631.37190021428125
 30
0.0
 11
752.40721201802978
 21
631.37190021428125
 31
0.0
 12
751.90721201802978
 22
628.37190021428125
 32
0.0
 13
751.90721201802978
 23
628.37190021428125
 33
0.0
  0
LINE
  5
EDC
  8
0
 10
810.44710100783038
 20
610.87190021428125
 30
0.0
 11
814.4471010078305
 21
610.87190021428125
 31
0.0
  0
ARC
  5
EDD
  8
0
 10
814.4471010078305
 20
611.87190021428125
 30
0.0
 40
1.0
 50
270.0
 51
0.0
  0
LINE
  5
EDE
  8
DIM
  6
CONTINUOUS
 10
700.44710100783038
 20
698.37190021428125
 30
0.0
 11
753.22415510305336
 21
698.37190021428125
 31
0.0
  0
LINE
  5
EDF
  8
0
 10
702.4471010078305
 20
668.37190021428125
 30
0.0
 11
778.44710100783016
 21
668.37190021428125
 31
0.0
  0
LINE
  5
EE0
  8
DIM
  6
CONTINUOUS
 10
725.79383777897715
 20
686.86158022608788
 30
0.0
 11
745.16878748948375
 21
686.86158022608788
 31
0.0
  0
TEXT
  5
EE1
  8
DIM
  6
CONTINUOUS
 10
728.56379730519529
 20
688.36158022608777
 30
0.0
 40
3.0
  1
M8x15L
  7
ROMANSS
 11
728.56379730519529
 21
689.86158022608777
 31
0.0
 73
     2
  0
TEXT
  5
EE2
  8
DIM
  6
CONTINUOUS
 10
710.4042938590859
 20
715.91636438216415
 30
0.0
 40
3.0
  1
2x4-M8x15L
  7
ROMANSS
 11
710.4042938590859
 21
717.41636438216415
 31
0.0
 73
     2
  0
LINE
  5
EE3
  8
DIM
  6
CONTINUOUS
 10
710.31429385908609
 20
714.41636438216415
 30
0.0
 11
735.02929385908601
 21
714.41636438216415
 31
0.0
  0
CIRCLE
  5
EE4
  8
0
  6
CONTINUOUS
 10
692.44710100783038
 20
698.37190021428125
 30
0.0
 40
3.399999999999999
  0
ARC
  5
EE5
  8
0
  6
CONTINUOUS
 62
     2
 10
692.44710100783038
 20
698.37190021428125
 30
0.0
 40
4.0
 50
155.67751702511919
 51
114.77142042572839
  0
LINE
  5
EE6
  8
CENTER
  6
CENTER
 10
692.44710100783038
 20
705.37190021428125
 30
0.0
 11
692.44710100783038
 21
691.37190021428125
 31
0.0
  0
LINE
  5
EE7
  8
CENTER
  6
CENTER
 10
685.4471010078305
 20
698.37190021428125
 30
0.0
 11
699.4471010078305
 21
698.37190021428125
 31
0.0
  0
LINE
  5
EE8
  8
DIM
  6
CONTINUOUS
 10
657.44710100783061
 20
719.87159011940741
 30
0.0
 11
657.4471010078305
 21
732.06731141951298
 31
0.0
  0
SOLID
  5
EE9
  8
DIM
  6
CONTINUOUS
 10
654.45891660619372
 20
730.50095995459515
 30
0.0
 11
654.43675853117361
 21
731.50071443431068
 31
0.0
 12
657.4471010078305
 22
731.06731141951309
 32
0.0
 13
657.4471010078305
 23
731.06731141951309
 33
0.0
  0
LINE
  5
EEA
  8
DIM
  6
CONTINUOUS
 10
697.46806974890546
 20
703.22472331341714
 30
0.0
 11
707.31429385908598
 21
714.41636438216415
 31
0.0
  0
LINE
  5
EEB
  8
DIM
  6
CONTINUOUS
 10
692.44710100783038
 20
706.37190021428125
 30
0.0
 11
692.44710100783038
 21
714.8719002142816
 31
0.0
  0
SOLID
  5
EEC
  8
DIM
  6
CONTINUOUS
 10
697.84346676228188
 20
702.89445511581403
 30
0.0
 11
697.09267273552905
 21
703.55499151102015
 31
0.0
 12
695.48646056328653
 22
700.97234123315843
 32
0.0
 13
695.48646056328653
 23
700.97234123315843
 33
0.0
  0
SOLID
  5
EED
  8
DIM
  6
CONTINUOUS
 10
689.4471010078305
 20
714.3719002142816
 30
0.0
 11
689.4471010078305
 21
713.37190021428148
 31
0.0
 12
692.44710100783038
 22
713.87190021428148
 32
0.0
 13
692.44710100783038
 23
713.87190021428148
 33
0.0
  0
LINE
  5
EEE
  8
DIM
  6
CONTINUOUS
 10
707.31429385908598
 20
714.41636438216415
 30
0.0
 11
710.31429385908609
 21
714.41636438216415
 31
0.0
  0
LINE
  5
EEF
  8
0
 10
778.4471010078305
 20
670.8719002142816
 30
0.0
 11
810.44710100783038
 21
670.3719002142816
 31
0.0
  0
LINE
  5
EF0
  8
0
 10
810.44710100783016
 20
655.87190021428125
 30
0.0
 11
814.4471010078305
 21
655.87190021428125
 31
0.0
  0
TEXT
  5
EF1
  8
DIM
  6
CONTINUOUS
 10
750.40721201802967
 20
670.78988990619143
 30
0.0
 40
3.0
  1
70
 50
90.0
  7
ROMANSS
 72
     1
 11
748.90721201802967
 21
673.21846133476276
 31
0.0
 73
     2
  0
ARC
  5
EF2
  8
0
 10
814.4471010078305
 20
654.87190021428137
 30
0.0
 40
1.0
 50
0.0
 51
90.0
  0
SOLID
  5
EF3
  8
DIM
  6
CONTINUOUS
 10
751.40721201802978
 20
695.37190021428125
 30
0.0
 11
752.40721201802978
 21
695.37190021428125
 31
0.0
 12
751.90721201802978
 22
698.37190021428125
 32
0.0
 13
751.90721201802978
 23
698.37190021428125
 33
0.0
  0
SOLID
  5
EF4
  8
DIM
  6
CONTINUOUS
 10
1047.7026900792559
 20
540.67700054068678
 30
0.0
 11
1048.7026900792559
 21
540.67700054068678
 31
0.0
 12
1048.2026900792559
 22
543.67700054068678
 32
0.0
 13
1048.2026900792559
 23
543.67700054068678
 33
0.0
  0
LINE
  5
EF5
  8
0
 10
977.70269007925594
 20
542.67700054068689
 30
0.0
 11
977.70269007925594
 21
501.67700054068678
 31
0.0
  0
LINE
  5
EF6
  8
0
 10
1001.7026900792559
 20
542.67700054068689
 30
0.0
 11
1001.7026900792559
 21
501.67700054068678
 31
0.0
  0
LINE
  5
EF7
  8
DIM
  6
CONTINUOUS
 10
1030.702690079255
 20
500.677000540687
 30
0.0
 11
1041.2026900792559
 21
500.677000540687
 31
0.0
  0
LINE
  5
EF8
  8
0
 10
1030.702690079255
 20
499.67700054068689
 30
0.0
 11
1030.702690079255
 21
490.67700054068678
 31
0.0
  0
ARC
  5
EF9
  8
0
 10
992.70269007925594
 20
471.50543312419472
 30
0.0
 40
1.5
 50
0.0
 51
115.5830019774171
  0
LINE
  5
EFA
  8
0
 10
977.80121122256219
 20
469.50775473102652
 30
0.0
 11
981.30538839004305
 21
473.01193189850761
 31
0.0
  0
LINE
  5
EFB
  8
0
 10
976.03344426959575
 20
471.27552168399291
 30
0.0
 11
979.53762143707695
 21
474.779698851474
 31
0.0
  0
ARC
  5
EFC
  8
0
 10
987.95269007925594
 20
481.42700054068672
 30
0.0
 40
9.5
 50
239.47751218592961
 51
295.58300197738799
  0
LINE
  5
EFD
  8
0
 10
992.70269007925594
 20
463.17700054068678
 30
0.0
 11
981.3359977320398
 21
463.17700054068678
 31
0.0
  0
ARC
  5
EFE
  8
0
 10
984.07480529316365
 20
455.67700054068678
 30
0.0
 40
1.5
 50
185.856701909919
 51
270.0
  0
ARC
  5
EFF
  8
0
 10
984.07480529316365
 20
450.67700054068661
 30
0.0
 40
1.5
 50
90.0
 51
174.14329809008089
  0
ARC
  5
F00
  8
0
 10
974.97278409781597
 20
472.33618185577268
 30
0.0
 40
1.5
 50
231.44474033977039
 51
314.99999999999841
  0
ARC
  5
F01
  8
0
 10
981.3359977320398
 20
464.67700054068672
 30
0.0
 40
1.5
 50
207.99456173225431
 51
270.0
  0
ARC
  5
F02
  8
0
 10
978.86187139434185
 20
468.44709455924658
 30
0.0
 40
1.5
 50
134.99999999999841
 51
218.5552596602312
  0
LINE
  5
F03
  8
0
 10
994.20269007925594
 20
455.67700054068678
 30
0.0
 11
994.20269007925594
 21
471.50543312419472
 31
0.0
  0
LINE
  5
F04
  8
0
 10
992.70269007925594
 20
454.17700054068672
 30
0.0
 11
984.07480529316365
 21
454.17700054068672
 31
0.0
  0
LINE
  5
F05
  8
0
 10
992.70269007925594
 20
452.17700054068672
 30
0.0
 11
984.07480529316365
 21
452.17700054068672
 31
0.0
  0
ARC
  5
F06
  8
0
 10
992.70269007925594
 20
455.67700054068678
 30
0.0
 40
1.5
 50
270.0
 51
0.0
  0
ARC
  5
F07
  8
0
 10
992.70269007925594
 20
450.67700054068661
 30
0.0
 40
1.5
 50
0.0
 51
90.0
  0
ARC
  5
F08
  8
0
 10
992.70269007925594
 20
464.67700054068672
 30
0.0
 40
1.5
 50
270.0
 51
0.0
  0
POLYLINE
  5
F09
  8
0
  6
CONTINUOUS
 66
     1
 10
0.0
 20
0.0
 30
0.0
 70
     1
  0
VERTEX
  5
1419
  8
0
  6
CONTINUOUS
 10
985.64328900249757
 20
485.42700054068672
 30
0.0
  0
VERTEX
  5
141A
  8
0
  6
CONTINUOUS
 10
983.33388792573885
 20
481.42700054068672
 30
0.0
  0
VERTEX
  5
141B
  8
0
  6
CONTINUOUS
 10
985.64328900249757
 20
477.42700054068678
 30
0.0
  0
VERTEX
  5
141C
  8
0
  6
CONTINUOUS
 10
990.26209115601455
 20
477.42700054068678
 30
0.0
  0
VERTEX
  5
141D
  8
0
  6
CONTINUOUS
 10
992.57149223277293
 20
481.42700054068672
 30
0.0
  0
VERTEX
  5
141E
  8
0
  6
CONTINUOUS
 10
990.26209115601455
 20
485.42700054068672
 30
0.0
  0
SEQEND
  5
141F
  8
0
  6
CONTINUOUS
  0
CIRCLE
  5
F11
  8
0
 10
987.95269007925594
 20
481.42700054068672
 30
0.0
 40
6.5
  0
LINE
  5
F12
  8
CENTER
  6
CENTER
 10
980.45269007925594
 20
481.42700054068672
 30
0.0
 11
995.45269007925594
 21
481.42700054068672
 31
0.0
  0
ARC
  5
F13
  8
0
 10
987.95269007925594
 20
481.42700054068672
 30
0.0
 40
9.5
 50
154.41699802261181
 51
210.5224878140705
  0
LINE
  5
F14
  8
0
 10
969.70269007925594
 20
486.17700054068672
 30
0.0
 11
969.70269007925594
 21
474.81030819347058
 31
0.0
  0
ARC
  5
F15
  8
0
 10
971.20269007925594
 20
474.81030819347058
 30
0.0
 40
1.5
 50
180.0
 51
242.0054382677495
  0
ARC
  5
F16
  8
0
 10
978.47696126529695
 20
475.84035902325382
 30
0.0
 40
1.5
 50
314.99999999999841
 51
30.522487814069471
  0
ARC
  5
F17
  8
0
 10
982.36604856182316
 20
471.95127172672773
 30
0.0
 40
1.5
 50
59.47751218593239
 51
134.99999999999841
  0
ARC
  5
F18
  8
0
 10
971.20269007925594
 20
486.17700054068672
 30
0.0
 40
1.5
 50
90.0
 51
180.0
  0
ARC
  5
F19
  8
0
 10
978.03112266276378
 20
486.17700054068672
 30
0.0
 40
1.5
 50
334.41699802257989
 51
90.0
  0
CIRCLE
  5
F1A
  8
0
  6
CONTINUOUS
 10
987.95269007925594
 20
481.42700054068672
 30
0.0
 40
3.399999999999999
  0
ARC
  5
F1B
  8
0
  6
CONTINUOUS
 62
     2
 10
987.95269007925594
 20
481.42700054068672
 30
0.0
 40
4.0
 50
57.77418116062497
 51
14.453881156675809
  0
LINE
  5
F1C
  8
CENTER
  6
CENTER
 10
987.95269007925594
 20
488.92700054068672
 30
0.0
 11
987.95269007925594
 21
473.92700054068678
 31
0.0
  0
ARC
  5
F1D
  8
0
 10
987.70269007925594
 20
481.17700054068672
 30
0.0
 40
9.0
 50
0.0
 51
90.0
  0
ARC
  5
F1E
  8
0
 10
987.70269007925594
 20
481.17700054068672
 30
0.0
 40
9.5
 50
0.0
 51
90.0
  0
LINE
  5
F1F
  8
CENTER
  6
CENTER
 10
1024.7026900792559
 20
492.95718190346952
 30
0.0
 11
1024.7026900792559
 21
478.95718190346952
 31
0.0
  0
LINE
  5
F20
  8
0
  6
CONTINUOUS
 10
974.70269007925594
 20
501.67700054068678
 30
0.0
 11
1004.702690079255
 21
501.67700054068678
 31
0.0
  0
LINE
  5
F21
  8
0
 10
974.70269007925594
 20
501.67700054068689
 30
0.0
 11
974.70269007925594
 21
500.677000540687
 31
0.0
  0
LINE
  5
F22
  8
0
 10
1004.702690079255
 20
501.67700054068678
 30
0.0
 11
1004.702690079255
 21
500.67700054068689
 31
0.0
  0
LINE
  5
F23
  8
0
  6
CONTINUOUS
 10
1029.7026900792559
 20
500.67700054068689
 30
0.0
 11
1030.702690079255
 21
499.67700054068689
 31
0.0
  0
TEXT
  5
F24
  8
DIM
  6
CONTINUOUS
 10
1038.7026900792559
 20
493.2563655140728
 30
0.0
 40
3.0
  1
10
 50
90.0
  7
ROMANSS
 72
     1
 11
1037.2026900792559
 21
495.39922265692991
 31
0.0
 73
     2
  0
TEXT
  5
F25
  8
DIM
  6
CONTINUOUS
 10
1046.7026900792559
 20
471.10557196925811
 30
0.0
 40
3.0
  1
138
 50
90.0
  7
ROMANSS
 72
     1
 11
1045.2026900792559
 21
474.67700054068672
 31
0.0
 73
     2
  0
TEXT
  5
F26
  8
DIM
  6
CONTINUOUS
 10
1038.7026900792559
 20
450.60558722360491
 30
0.0
 40
3.0
  1
75
 50
90.0
  7
ROMANSS
 72
     1
 11
1037.2026900792559
 21
453.03415865217642
 31
0.0
 73
     2
  0
LINE
  5
F27
  8
DIM
  6
CONTINUOUS
 10
1033.202690079255
 20
490.67700054068678
 30
0.0
 11
1041.2026900792559
 21
490.67700054068678
 31
0.0
  0
SOLID
  5
F28
  8
DIM
  6
CONTINUOUS
 10
1039.7026900792559
 20
487.67700054068689
 30
0.0
 11
1040.7026900792559
 21
487.67700054068689
 31
0.0
 12
1040.2026900792559
 22
490.67700054068678
 32
0.0
 13
1040.2026900792559
 23
490.67700054068678
 33
0.0
  0
SOLID
  5
F29
  8
DIM
  6
CONTINUOUS
 10
1039.7026900792559
 20
503.67700054068689
 30
0.0
 11
1040.7026900792559
 21
503.67700054068689
 31
0.0
 12
1040.2026900792559
 22
500.677000540687
 32
0.0
 13
1040.2026900792559
 23
500.677000540687
 33
0.0
  0
LINE
  5
F2A
  8
DIM
  6
CONTINUOUS
 10
1001.7026900792559
 20
543.67700054068678
 30
0.0
 11
1049.2026900792559
 21
543.67700054068678
 31
0.0
  0
LINE
  5
F2B
  8
0
  6
CONTINUOUS
 10
978.70269007925594
 20
543.67700054068678
 30
0.0
 11
1000.7026900792559
 21
543.67700054068678
 31
0.0
  0
LINE
  5
F2C
  8
0
  6
CONTINUOUS
 10
977.70269007925594
 20
542.67700054068689
 30
0.0
 11
1001.7026900792559
 21
542.67700054068689
 31
0.0
  0
LINE
  5
F2D
  8
0
  6
CONTINUOUS
 10
978.70269007925594
 20
543.67700054068678
 30
0.0
 11
977.70269007925594
 21
542.67700054068689
 31
0.0
  0
LINE
  5
F2E
  8
0
  6
CONTINUOUS
 10
1000.7026900792559
 20
543.67700054068678
 30
0.0
 11
1001.7026900792559
 21
542.67700054068689
 31
0.0
  0
TEXT
  5
F2F
  8
DIM
  6
CONTINUOUS
 10
604.24717611303333
 20
708.68055520305893
 30
0.0
 40
3.0
  1
90%%p5%%d
 50
45.000000000000007
  7
ROMANSS
 72
     1
 11
607.7322023917385
 21
714.28690182532364
 31
0.0
 73
     2
  0
LINE
  5
F32
  8
HIDDEN
  6
HIDDEN
 10
810.44710100783084
 20
601.1219002142816
 30
0.0
 11
792.44710100783072
 21
601.1219002142816
 31
0.0
  0
LINE
  5
F33
  8
HIDDEN
  6
HIDDEN
 10
810.44710100783084
 20
609.1219002142816
 30
0.0
 11
792.44710100783072
 21
609.1219002142816
 31
0.0
  0
LINE
  5
F34
  8
CENTER
  6
CENTER
 10
778.44710100783061
 20
605.12190021428125
 30
0.0
 11
813.44710100783095
 21
605.12190021428125
 31
0.0
  0
LINE
  5
F35
  8
HIDDEN
  6
HIDDEN
 10
804.44710100783072
 20
601.1219002142816
 30
0.0
 11
804.44710100783072
 21
609.1219002142816
 31
0.0
  0
LINE
  5
F36
  8
HIDDEN
  6
HIDDEN
 10
789.44710100783072
 20
608.52190021428135
 30
0.0
 11
787.48411009258587
 21
605.1219002142816
 31
0.0
  0
LINE
  5
F37
  8
HIDDEN
  6
HIDDEN
 10
789.44710100783072
 20
601.7219002142815
 30
0.0
 11
789.44710100783072
 21
608.52190021428135
 31
0.0
  0
LINE
  5
F38
  8
HIDDEN
  6
HIDDEN
 10
792.44710100783072
 20
601.1219002142816
 30
0.0
 11
792.44710100783072
 21
609.1219002142816
 31
0.0
  0
LINE
  5
F39
  8
CENTER
  6
CENTER
 10
794.44710100783061
 20
593.11756953082397
 30
0.0
 11
794.44710100783072
 21
612.89199403458736
 31
0.0
  0
LINE
  5
F3A
  8
HIDDEN
  6
HIDDEN
 10
804.44710100783072
 20
601.7219002142815
 30
0.0
 11
789.44710100783072
 21
601.7219002142815
 31
0.0
  0
LINE
  5
F3B
  8
CENTER
  6
CENTER
 10
785.44710100783084
 20
593.33943132349305
 30
0.0
 11
785.44710100783072
 21
613.08441037847865
 31
0.0
  0
LINE
  5
F3C
  8
HIDDEN
  6
HIDDEN
 10
789.44710100783072
 20
601.7219002142815
 30
0.0
 11
787.48411009258587
 21
605.1219002142816
 31
0.0
  0
LINE
  5
F3D
  8
HIDDEN
  6
HIDDEN
 10
804.44710100783072
 20
608.52190021428135
 30
0.0
 11
789.44710100783072
 21
608.52190021428135
 31
0.0
  0
LINE
  5
F3E
  8
HIDDEN
  6
HIDDEN
 10
810.44710100783084
 20
657.62190021428125
 30
0.0
 11
792.44710100783072
 21
657.62190021428125
 31
0.0
  0
LINE
  5
F3F
  8
HIDDEN
  6
HIDDEN
 10
810.44710100783084
 20
665.62190021428137
 30
0.0
 11
792.44710100783072
 21
665.62190021428137
 31
0.0
  0
LINE
  5
F40
  8
CENTER
  6
CENTER
 10
778.44710100783061
 20
661.62190021428125
 30
0.0
 11
813.44710100783072
 21
661.62190021428125
 31
0.0
  0
LINE
  5
F41
  8
HIDDEN
  6
HIDDEN
 10
804.44710100783072
 20
665.02190021428135
 30
0.0
 11
789.44710100783072
 21
665.02190021428135
 31
0.0
  0
LINE
  5
F42
  8
HIDDEN
  6
HIDDEN
 10
804.44710100783072
 20
658.2219002142815
 30
0.0
 11
789.44710100783072
 21
658.2219002142815
 31
0.0
  0
LINE
  5
F43
  8
HIDDEN
  6
HIDDEN
 10
804.44710100783072
 20
665.62190021428137
 30
0.0
 11
804.44710100783072
 21
657.62190021428125
 31
0.0
  0
LINE
  5
F44
  8
HIDDEN
  6
HIDDEN
 10
789.44710100783072
 20
658.2219002142815
 30
0.0
 11
787.48411009258587
 21
661.62190021428125
 31
0.0
  0
LINE
  5
F45
  8
HIDDEN
  6
HIDDEN
 10
792.44710100783072
 20
665.62190021428137
 30
0.0
 11
792.44710100783072
 21
657.62190021428125
 31
0.0
  0
LINE
  5
F46
  8
HIDDEN
  6
HIDDEN
 10
789.44710100783072
 20
665.02190021428135
 30
0.0
 11
789.44710100783072
 21
658.2219002142815
 31
0.0
  0
LINE
  5
F47
  8
HIDDEN
  6
HIDDEN
 10
789.44710100783072
 20
665.02190021428135
 30
0.0
 11
787.48411009258587
 21
661.62190021428125
 31
0.0
  0
LINE
  5
F48
  8
HIDDEN
  6
HIDDEN
 10
504.44710100783038
 20
420.927000540687
 30
0.0
 11
522.44710100783038
 21
420.927000540687
 31
0.0
  0
LINE
  5
F49
  8
HIDDEN
  6
HIDDEN
 10
504.44710100783033
 20
428.927000540687
 30
0.0
 11
522.44710100783038
 21
428.927000540687
 31
0.0
  0
LINE
  5
F4A
  8
CENTER
  6
CENTER
 10
536.4471010078305
 20
424.92700054068678
 30
0.0
 11
501.44710100783021
 21
424.92700054068678
 31
0.0
  0
LINE
  5
F4B
  8
HIDDEN
  6
HIDDEN
 10
510.44710100783038
 20
420.927000540687
 30
0.0
 11
510.44710100783038
 21
428.927000540687
 31
0.0
  0
LINE
  5
F4C
  8
HIDDEN
  6
HIDDEN
 10
525.44710100783038
 20
428.32700054068692
 30
0.0
 11
527.41009192307524
 21
424.927000540687
 31
0.0
  0
LINE
  5
F4D
  8
HIDDEN
  6
HIDDEN
 10
525.44710100783038
 20
421.52700054068691
 30
0.0
 11
525.44710100783038
 21
428.32700054068692
 31
0.0
  0
LINE
  5
F4E
  8
HIDDEN
  6
HIDDEN
 10
522.44710100783038
 20
420.927000540687
 30
0.0
 11
522.44710100783038
 21
428.927000540687
 31
0.0
  0
LINE
  5
F4F
  8
HIDDEN
  6
HIDDEN
 10
510.44710100783038
 20
421.52700054068691
 30
0.0
 11
525.44710100783038
 21
421.52700054068691
 31
0.0
  0
LINE
  5
F50
  8
HIDDEN
  6
HIDDEN
 10
525.44710100783038
 20
421.52700054068691
 30
0.0
 11
527.41009192307524
 21
424.927000540687
 31
0.0
  0
LINE
  5
F51
  8
HIDDEN
  6
HIDDEN
 10
510.44710100783038
 20
428.32700054068692
 30
0.0
 11
525.44710100783038
 21
428.32700054068692
 31
0.0
  0
LINE
  5
F52
  8
HIDDEN
  6
HIDDEN
 10
504.44710100783033
 20
477.42700054068678
 30
0.0
 11
522.44710100783038
 21
477.42700054068678
 31
0.0
  0
LINE
  5
F53
  8
HIDDEN
  6
HIDDEN
 10
504.44710100783038
 20
485.42700054068678
 30
0.0
 11
522.44710100783038
 21
485.42700054068678
 31
0.0
  0
LINE
  5
F54
  8
CENTER
  6
CENTER
 10
536.4471010078305
 20
481.42700054068678
 30
0.0
 11
501.44710100783038
 21
481.42700054068678
 31
0.0
  0
LINE
  5
F55
  8
HIDDEN
  6
HIDDEN
 10
510.44710100783038
 20
484.82700054068692
 30
0.0
 11
525.44710100783038
 21
484.82700054068692
 31
0.0
  0
LINE
  5
F56
  8
HIDDEN
  6
HIDDEN
 10
510.44710100783038
 20
478.02700054068691
 30
0.0
 11
525.44710100783038
 21
478.02700054068691
 31
0.0
  0
LINE
  5
F57
  8
HIDDEN
  6
HIDDEN
 10
510.44710100783038
 20
485.42700054068678
 30
0.0
 11
510.44710100783038
 21
477.42700054068678
 31
0.0
  0
LINE
  5
F58
  8
HIDDEN
  6
HIDDEN
 10
525.44710100783038
 20
478.02700054068691
 30
0.0
 11
527.41009192307524
 21
481.42700054068678
 31
0.0
  0
LINE
  5
F59
  8
HIDDEN
  6
HIDDEN
 10
522.44710100783038
 20
485.42700054068678
 30
0.0
 11
522.44710100783038
 21
477.42700054068678
 31
0.0
  0
LINE
  5
F5A
  8
HIDDEN
  6
HIDDEN
 10
525.44710100783038
 20
484.82700054068692
 30
0.0
 11
525.44710100783038
 21
478.02700054068691
 31
0.0
  0
LINE
  5
F5B
  8
HIDDEN
  6
HIDDEN
 10
525.44710100783038
 20
484.82700054068692
 30
0.0
 11
527.41009192307524
 21
481.42700054068678
 31
0.0
  0
LINE
  5
F5C
  8
HIDDEN
  6
HIDDEN
 10
810.44710100783084
 20
420.927000540687
 30
0.0
 11
792.44710100783072
 21
420.927000540687
 31
0.0
  0
LINE
  5
F5D
  8
HIDDEN
  6
HIDDEN
 10
810.44710100783084
 20
428.927000540687
 30
0.0
 11
792.44710100783072
 21
428.927000540687
 31
0.0
  0
LINE
  5
F5E
  8
CENTER
  6
CENTER
 10
778.44710100783061
 20
424.92700054068678
 30
0.0
 11
813.44710100783072
 21
424.92700054068678
 31
0.0
  0
LINE
  5
F5F
  8
HIDDEN
  6
HIDDEN
 10
804.44710100783072
 20
420.927000540687
 30
0.0
 11
804.44710100783072
 21
428.927000540687
 31
0.0
  0
LINE
  5
F60
  8
HIDDEN
  6
HIDDEN
 10
789.44710100783072
 20
428.32700054068692
 30
0.0
 11
787.48411009258587
 21
424.927000540687
 31
0.0
  0
LINE
  5
F61
  8
HIDDEN
  6
HIDDEN
 10
789.44710100783072
 20
421.52700054068691
 30
0.0
 11
789.44710100783072
 21
428.32700054068692
 31
0.0
  0
LINE
  5
F62
  8
HIDDEN
  6
HIDDEN
 10
792.44710100783072
 20
420.927000540687
 30
0.0
 11
792.44710100783072
 21
428.927000540687
 31
0.0
  0
LINE
  5
F63
  8
HIDDEN
  6
HIDDEN
 10
804.44710100783072
 20
421.52700054068691
 30
0.0
 11
789.44710100783072
 21
421.52700054068691
 31
0.0
  0
LINE
  5
F64
  8
HIDDEN
  6
HIDDEN
 10
789.44710100783072
 20
421.52700054068691
 30
0.0
 11
787.48411009258587
 21
424.927000540687
 31
0.0
  0
LINE
  5
F65
  8
HIDDEN
  6
HIDDEN
 10
804.44710100783072
 20
428.32700054068692
 30
0.0
 11
789.44710100783072
 21
428.32700054068692
 31
0.0
  0
LINE
  5
F66
  8
HIDDEN
  6
HIDDEN
 10
810.44710100783084
 20
477.42700054068678
 30
0.0
 11
792.44710100783072
 21
477.42700054068678
 31
0.0
  0
LINE
  5
F67
  8
HIDDEN
  6
HIDDEN
 10
810.44710100783084
 20
485.42700054068678
 30
0.0
 11
792.44710100783072
 21
485.42700054068678
 31
0.0
  0
LINE
  5
F68
  8
CENTER
  6
CENTER
 10
778.44710100783061
 20
481.42700054068678
 30
0.0
 11
813.44710100783072
 21
481.42700054068678
 31
0.0
  0
LINE
  5
F69
  8
HIDDEN
  6
HIDDEN
 10
804.44710100783072
 20
484.82700054068692
 30
0.0
 11
789.44710100783072
 21
484.82700054068692
 31
0.0
  0
LINE
  5
F6A
  8
HIDDEN
  6
HIDDEN
 10
804.44710100783072
 20
478.02700054068691
 30
0.0
 11
789.44710100783072
 21
478.02700054068691
 31
0.0
  0
LINE
  5
F6B
  8
HIDDEN
  6
HIDDEN
 10
804.44710100783072
 20
485.42700054068678
 30
0.0
 11
804.44710100783072
 21
477.42700054068678
 31
0.0
  0
LINE
  5
F6C
  8
HIDDEN
  6
HIDDEN
 10
789.44710100783072
 20
478.02700054068691
 30
0.0
 11
787.48411009258587
 21
481.42700054068678
 31
0.0
  0
LINE
  5
F6D
  8
HIDDEN
  6
HIDDEN
 10
792.44710100783072
 20
485.42700054068678
 30
0.0
 11
792.44710100783072
 21
477.42700054068678
 31
0.0
  0
LINE
  5
F6E
  8
HIDDEN
  6
HIDDEN
 10
789.44710100783072
 20
484.82700054068692
 30
0.0
 11
789.44710100783072
 21
478.02700054068691
 31
0.0
  0
LINE
  5
F6F
  8
HIDDEN
  6
HIDDEN
 10
789.44710100783072
 20
484.82700054068692
 30
0.0
 11
787.48411009258587
 21
481.42700054068678
 31
0.0
  0
LINE
  5
F70
  8
HIDDEN
  6
HIDDEN
 10
504.4471010078305
 20
270.15798219805328
 30
0.0
 11
522.44710100783038
 21
270.15798219805328
 31
0.0
  0
LINE
  5
F71
  8
HIDDEN
  6
HIDDEN
 10
504.44710100783038
 20
278.15798219805328
 30
0.0
 11
522.44710100783038
 21
278.15798219805328
 31
0.0
  0
LINE
  5
F72
  8
CENTER
  6
CENTER
 10
536.4471010078305
 20
274.15798219805299
 30
0.0
 11
501.44710100783033
 21
274.15798219805299
 31
0.0
  0
LINE
  5
F73
  8
HIDDEN
  6
HIDDEN
 10
510.4471010078305
 20
270.15798219805328
 30
0.0
 11
510.4471010078305
 21
278.15798219805328
 31
0.0
  0
LINE
  5
F74
  8
HIDDEN
  6
HIDDEN
 10
525.44710100783038
 20
277.5579821980532
 30
0.0
 11
527.41009192307524
 21
274.15798219805328
 31
0.0
  0
LINE
  5
F75
  8
HIDDEN
  6
HIDDEN
 10
525.44710100783038
 20
270.75798219805318
 30
0.0
 11
525.44710100783038
 21
277.5579821980532
 31
0.0
  0
LINE
  5
F76
  8
HIDDEN
  6
HIDDEN
 10
522.44710100783038
 20
270.15798219805328
 30
0.0
 11
522.44710100783038
 21
278.15798219805328
 31
0.0
  0
LINE
  5
F77
  8
HIDDEN
  6
HIDDEN
 10
510.4471010078305
 20
270.75798219805318
 30
0.0
 11
525.44710100783038
 21
270.75798219805318
 31
0.0
  0
LINE
  5
F78
  8
HIDDEN
  6
HIDDEN
 10
525.44710100783038
 20
270.75798219805318
 30
0.0
 11
527.41009192307524
 21
274.15798219805328
 31
0.0
  0
LINE
  5
F79
  8
HIDDEN
  6
HIDDEN
 10
510.4471010078305
 20
277.5579821980532
 30
0.0
 11
525.44710100783038
 21
277.5579821980532
 31
0.0
  0
LINE
  5
F7A
  8
HIDDEN
  6
HIDDEN
 10
504.44710100783038
 20
326.65798219805311
 30
0.0
 11
522.44710100783038
 21
326.65798219805311
 31
0.0
  0
LINE
  5
F7B
  8
HIDDEN
  6
HIDDEN
 10
504.4471010078305
 20
334.65798219805299
 30
0.0
 11
522.44710100783038
 21
334.65798219805299
 31
0.0
  0
LINE
  5
F7C
  8
CENTER
  6
CENTER
 10
536.4471010078305
 20
330.65798219805299
 30
0.0
 11
501.44710100783038
 21
330.65798219805299
 31
0.0
  0
LINE
  5
F7D
  8
HIDDEN
  6
HIDDEN
 10
510.4471010078305
 20
334.0579821980532
 30
0.0
 11
525.44710100783038
 21
334.0579821980532
 31
0.0
  0
LINE
  5
F7E
  8
HIDDEN
  6
HIDDEN
 10
510.4471010078305
 20
327.25798219805318
 30
0.0
 11
525.44710100783038
 21
327.25798219805318
 31
0.0
  0
LINE
  5
F7F
  8
HIDDEN
  6
HIDDEN
 10
510.4471010078305
 20
334.65798219805299
 30
0.0
 11
510.4471010078305
 21
326.65798219805311
 31
0.0
  0
LINE
  5
F80
  8
HIDDEN
  6
HIDDEN
 10
525.44710100783038
 20
327.25798219805318
 30
0.0
 11
527.41009192307524
 21
330.65798219805299
 31
0.0
  0
LINE
  5
F81
  8
HIDDEN
  6
HIDDEN
 10
522.44710100783038
 20
334.65798219805299
 30
0.0
 11
522.44710100783038
 21
326.65798219805311
 31
0.0
  0
LINE
  5
F82
  8
HIDDEN
  6
HIDDEN
 10
525.44710100783038
 20
334.0579821980532
 30
0.0
 11
525.44710100783038
 21
327.25798219805318
 31
0.0
  0
LINE
  5
F83
  8
HIDDEN
  6
HIDDEN
 10
525.44710100783038
 20
334.0579821980532
 30
0.0
 11
527.41009192307524
 21
330.65798219805299
 31
0.0
  0
LINE
  5
F84
  8
HIDDEN
  6
HIDDEN
 10
810.44710100783084
 20
270.15798219805328
 30
0.0
 11
792.44710100783072
 21
270.15798219805328
 31
0.0
  0
LINE
  5
F85
  8
HIDDEN
  6
HIDDEN
 10
810.44710100783084
 20
278.15798219805328
 30
0.0
 11
792.44710100783072
 21
278.15798219805328
 31
0.0
  0
LINE
  5
F86
  8
CENTER
  6
CENTER
 10
778.44710100783061
 20
274.15798219805299
 30
0.0
 11
813.44710100783095
 21
274.15798219805299
 31
0.0
  0
LINE
  5
F87
  8
HIDDEN
  6
HIDDEN
 10
804.44710100783072
 20
270.15798219805328
 30
0.0
 11
804.44710100783072
 21
278.15798219805328
 31
0.0
  0
LINE
  5
F88
  8
HIDDEN
  6
HIDDEN
 10
789.44710100783072
 20
277.5579821980532
 30
0.0
 11
787.48411009258587
 21
274.15798219805328
 31
0.0
  0
LINE
  5
F89
  8
HIDDEN
  6
HIDDEN
 10
789.44710100783072
 20
270.75798219805318
 30
0.0
 11
789.44710100783072
 21
277.5579821980532
 31
0.0
  0
LINE
  5
F8A
  8
HIDDEN
  6
HIDDEN
 10
792.44710100783072
 20
270.15798219805328
 30
0.0
 11
792.44710100783072
 21
278.15798219805328
 31
0.0
  0
LINE
  5
F8B
  8
HIDDEN
  6
HIDDEN
 10
804.44710100783072
 20
270.75798219805318
 30
0.0
 11
789.44710100783072
 21
270.75798219805318
 31
0.0
  0
LINE
  5
F8C
  8
HIDDEN
  6
HIDDEN
 10
789.44710100783072
 20
270.75798219805318
 30
0.0
 11
787.48411009258587
 21
274.15798219805328
 31
0.0
  0
LINE
  5
F8D
  8
HIDDEN
  6
HIDDEN
 10
804.44710100783072
 20
277.5579821980532
 30
0.0
 11
789.44710100783072
 21
277.5579821980532
 31
0.0
  0
LINE
  5
F8E
  8
HIDDEN
  6
HIDDEN
 10
810.44710100783084
 20
326.65798219805311
 30
0.0
 11
792.44710100783072
 21
326.65798219805311
 31
0.0
  0
LINE
  5
F8F
  8
HIDDEN
  6
HIDDEN
 10
810.44710100783084
 20
334.65798219805299
 30
0.0
 11
792.44710100783072
 21
334.65798219805299
 31
0.0
  0
LINE
  5
F90
  8
CENTER
  6
CENTER
 10
778.44710100783061
 20
330.65798219805299
 30
0.0
 11
813.44710100783072
 21
330.65798219805299
 31
0.0
  0
LINE
  5
F91
  8
HIDDEN
  6
HIDDEN
 10
804.44710100783072
 20
334.0579821980532
 30
0.0
 11
789.44710100783072
 21
334.0579821980532
 31
0.0
  0
LINE
  5
F92
  8
HIDDEN
  6
HIDDEN
 10
804.44710100783072
 20
327.25798219805318
 30
0.0
 11
789.44710100783072
 21
327.25798219805318
 31
0.0
  0
LINE
  5
F93
  8
HIDDEN
  6
HIDDEN
 10
804.44710100783072
 20
334.65798219805299
 30
0.0
 11
804.44710100783072
 21
326.65798219805311
 31
0.0
  0
LINE
  5
F94
  8
HIDDEN
  6
HIDDEN
 10
789.44710100783072
 20
327.25798219805318
 30
0.0
 11
787.48411009258587
 21
330.65798219805299
 31
0.0
  0
LINE
  5
F95
  8
HIDDEN
  6
HIDDEN
 10
792.44710100783072
 20
334.65798219805299
 30
0.0
 11
792.44710100783072
 21
326.65798219805311
 31
0.0
  0
LINE
  5
F96
  8
HIDDEN
  6
HIDDEN
 10
789.44710100783072
 20
334.0579821980532
 30
0.0
 11
789.44710100783072
 21
327.25798219805318
 31
0.0
  0
LINE
  5
F97
  8
HIDDEN
  6
HIDDEN
 10
789.44710100783072
 20
334.0579821980532
 30
0.0
 11
787.48411009258587
 21
330.65798219805299
 31
0.0
  0
LINE
  5
F98
  8
CENTER
  6
CENTER
 10
520.44710100783061
 20
342.6623128815105
 30
0.0
 11
520.4471010078305
 21
322.88788837774717
 31
0.0
  0
LINE
  5
F99
  8
CENTER
  6
CENTER
 10
529.44710100783038
 20
342.4404510888416
 30
0.0
 11
529.4471010078305
 21
322.69547203385599
 31
0.0
  0
LINE
  5
F9A
  8
CENTER
  6
CENTER
 10
794.44710100783061
 20
342.6623128815105
 30
0.0
 11
794.44710100783072
 21
322.88788837774717
 31
0.0
  0
LINE
  5
F9B
  8
CENTER
  6
CENTER
 10
785.44710100783084
 20
342.4404510888416
 30
0.0
 11
785.44710100783072
 21
322.69547203385599
 31
0.0
  0
CIRCLE
  5
F9C
  8
0
  6
CONTINUOUS
 10
657.4471010078305
 20
629.87190021428137
 30
0.0
 40
5.0
  0
CIRCLE
  5
F9D
  8
0
  6
CONTINUOUS
 10
657.4471010078305
 20
629.87190021428137
 30
0.0
 40
4.5381062355658202
  0
POLYLINE
  5
F9E
  8
0
  6
CONTINUOUS
 66
     1
 10
0.0
 20
0.0
 30
0.0
 70
     1
  0
VERTEX
  5
1420
  8
0
  6
CONTINUOUS
 10
656.00372533485643
 20
632.37190021428125
 30
0.0
  0
VERTEX
  5
1421
  8
0
  6
CONTINUOUS
 10
654.56034966188236
 20
629.87190021428137
 30
0.0
  0
VERTEX
  5
1422
  8
0
  6
CONTINUOUS
 10
656.00372533485643
 20
627.37190021428125
 30
0.0
  0
VERTEX
  5
1423
  8
0
  6
CONTINUOUS
 10
658.89047668080445
 20
627.37190021428125
 30
0.0
  0
VERTEX
  5
1424
  8
0
  6
CONTINUOUS
 10
660.33385235377864
 20
629.87190021428137
 30
0.0
  0
VERTEX
  5
1425
  8
0
  6
CONTINUOUS
 10
658.89047668080445
 20
632.37190021428125
 30
0.0
  0
SEQEND
  5
1426
  8
0
  6
CONTINUOUS
  0
CIRCLE
  5
FA6
  8
0
  6
CONTINUOUS
 10
657.4471010078305
 20
696.87190021428137
 30
0.0
 40
5.0
  0
CIRCLE
  5
FA7
  8
0
  6
CONTINUOUS
 10
657.4471010078305
 20
696.87190021428137
 30
0.0
 40
4.5381062355658202
  0
POLYLINE
  5
FA8
  8
0
  6
CONTINUOUS
 66
     1
 10
0.0
 20
0.0
 30
0.0
 70
     1
  0
VERTEX
  5
1427
  8
0
  6
CONTINUOUS
 10
656.00372533485643
 20
699.37190021428125
 30
0.0
  0
VERTEX
  5
1428
  8
0
  6
CONTINUOUS
 10
654.56034966188236
 20
696.87190021428137
 30
0.0
  0
VERTEX
  5
1429
  8
0
  6
CONTINUOUS
 10
656.00372533485643
 20
694.37190021428125
 30
0.0
  0
VERTEX
  5
142A
  8
0
  6
CONTINUOUS
 10
658.89047668080445
 20
694.37190021428125
 30
0.0
  0
VERTEX
  5
142B
  8
0
  6
CONTINUOUS
 10
660.33385235377864
 20
696.87190021428137
 30
0.0
  0
VERTEX
  5
142C
  8
0
  6
CONTINUOUS
 10
658.89047668080445
 20
699.37190021428125
 30
0.0
  0
SEQEND
  5
142D
  8
0
  6
CONTINUOUS
  0
CIRCLE
  5
FB0
  8
0
  6
CONTINUOUS
 10
623.9471010078305
 20
663.37190021428137
 30
0.0
 40
5.0
  0
CIRCLE
  5
FB1
  8
0
  6
CONTINUOUS
 10
623.9471010078305
 20
663.37190021428137
 30
0.0
 40
4.5381062355658202
  0
POLYLINE
  5
FB2
  8
0
  6
CONTINUOUS
 66
     1
 10
0.0
 20
0.0
 30
0.0
 70
     1
  0
VERTEX
  5
142E
  8
0
  6
CONTINUOUS
 10
622.50372533485643
 20
665.87190021428125
 30
0.0
  0
VERTEX
  5
142F
  8
0
  6
CONTINUOUS
 10
621.06034966188236
 20
663.37190021428137
 30
0.0
  0
VERTEX
  5
1430
  8
0
  6
CONTINUOUS
 10
622.50372533485643
 20
660.87190021428125
 30
0.0
  0
VERTEX
  5
1431
  8
0
  6
CONTINUOUS
 10
625.39047668080445
 20
660.87190021428125
 30
0.0
  0
VERTEX
  5
1432
  8
0
  6
CONTINUOUS
 10
626.83385235377864
 20
663.37190021428137
 30
0.0
  0
VERTEX
  5
1433
  8
0
  6
CONTINUOUS
 10
625.39047668080445
 20
665.87190021428125
 30
0.0
  0
SEQEND
  5
1434
  8
0
  6
CONTINUOUS
  0
CIRCLE
  5
FBA
  8
0
  6
CONTINUOUS
 10
690.9471010078305
 20
663.37190021428137
 30
0.0
 40
5.0
  0
CIRCLE
  5
FBB
  8
0
  6
CONTINUOUS
 10
690.9471010078305
 20
663.37190021428137
 30
0.0
 40
4.5381062355658202
  0
POLYLINE
  5
FBC
  8
0
  6
CONTINUOUS
 66
     1
 10
0.0
 20
0.0
 30
0.0
 70
     1
  0
VERTEX
  5
1435
  8
0
  6
CONTINUOUS
 10
689.50372533485643
 20
665.87190021428125
 30
0.0
  0
VERTEX
  5
1436
  8
0
  6
CONTINUOUS
 10
688.06034966188236
 20
663.37190021428137
 30
0.0
  0
VERTEX
  5
1437
  8
0
  6
CONTINUOUS
 10
689.50372533485643
 20
660.87190021428125
 30
0.0
  0
VERTEX
  5
1438
  8
0
  6
CONTINUOUS
 10
692.39047668080445
 20
660.87190021428125
 30
0.0
  0
VERTEX
  5
1439
  8
0
  6
CONTINUOUS
 10
693.83385235377864
 20
663.37190021428137
 30
0.0
  0
VERTEX
  5
143A
  8
0
  6
CONTINUOUS
 10
692.39047668080445
 20
665.87190021428125
 30
0.0
  0
SEQEND
  5
143B
  8
0
  6
CONTINUOUS
  0
CIRCLE
  5
FC4
  8
0
  6
CONTINUOUS
 10
657.4471010078305
 20
238.90798219805319
 30
0.0
 40
5.0
  0
CIRCLE
  5
FC5
  8
0
  6
CONTINUOUS
 10
657.4471010078305
 20
238.90798219805319
 30
0.0
 40
4.5381062355658202
  0
POLYLINE
  5
FC6
  8
0
  6
CONTINUOUS
 66
     1
 10
0.0
 20
0.0
 30
0.0
 70
     1
  0
VERTEX
  5
143C
  8
0
  6
CONTINUOUS
 10
656.00372533485643
 20
236.40798219805311
 30
0.0
  0
VERTEX
  5
143D
  8
0
  6
CONTINUOUS
 10
654.56034966188236
 20
238.90798219805311
 30
0.0
  0
VERTEX
  5
143E
  8
0
  6
CONTINUOUS
 10
656.00372533485643
 20
241.40798219805319
 30
0.0
  0
VERTEX
  5
143F
  8
0
  6
CONTINUOUS
 10
658.89047668080445
 20
241.40798219805319
 30
0.0
  0
VERTEX
  5
1440
  8
0
  6
CONTINUOUS
 10
660.33385235377864
 20
238.90798219805311
 30
0.0
  0
VERTEX
  5
1441
  8
0
  6
CONTINUOUS
 10
658.89047668080445
 20
236.40798219805311
 30
0.0
  0
SEQEND
  5
1442
  8
0
  6
CONTINUOUS
  0
CIRCLE
  5
FCE
  8
0
  6
CONTINUOUS
 10
623.9471010078305
 20
272.40798219805322
 30
0.0
 40
5.0
  0
CIRCLE
  5
FCF
  8
0
  6
CONTINUOUS
 10
623.9471010078305
 20
272.40798219805322
 30
0.0
 40
4.5381062355658202
  0
POLYLINE
  5
FD0
  8
0
  6
CONTINUOUS
 66
     1
 10
0.0
 20
0.0
 30
0.0
 70
     1
  0
VERTEX
  5
1443
  8
0
  6
CONTINUOUS
 10
622.50372533485643
 20
269.90798219805322
 30
0.0
  0
VERTEX
  5
1444
  8
0
  6
CONTINUOUS
 10
621.06034966188236
 20
272.40798219805322
 30
0.0
  0
VERTEX
  5
1445
  8
0
  6
CONTINUOUS
 10
622.50372533485643
 20
274.90798219805322
 30
0.0
  0
VERTEX
  5
1446
  8
0
  6
CONTINUOUS
 10
625.39047668080445
 20
274.90798219805322
 30
0.0
  0
VERTEX
  5
1447
  8
0
  6
CONTINUOUS
 10
626.83385235377864
 20
272.40798219805322
 30
0.0
  0
VERTEX
  5
1448
  8
0
  6
CONTINUOUS
 10
625.39047668080445
 20
269.90798219805322
 30
0.0
  0
SEQEND
  5
1449
  8
0
  6
CONTINUOUS
  0
CIRCLE
  5
FD8
  8
0
  6
CONTINUOUS
 10
657.4471010078305
 20
305.90798219805322
 30
0.0
 40
5.0
  0
CIRCLE
  5
FD9
  8
0
  6
CONTINUOUS
 10
657.4471010078305
 20
305.90798219805322
 30
0.0
 40
4.5381062355658202
  0
POLYLINE
  5
FDA
  8
0
  6
CONTINUOUS
 66
     1
 10
0.0
 20
0.0
 30
0.0
 70
     1
  0
VERTEX
  5
144A
  8
0
  6
CONTINUOUS
 10
656.00372533485643
 20
303.40798219805322
 30
0.0
  0
VERTEX
  5
144B
  8
0
  6
CONTINUOUS
 10
654.56034966188236
 20
305.90798219805322
 30
0.0
  0
VERTEX
  5
144C
  8
0
  6
CONTINUOUS
 10
656.00372533485643
 20
308.40798219805322
 30
0.0
  0
VERTEX
  5
144D
  8
0
  6
CONTINUOUS
 10
658.89047668080445
 20
308.40798219805322
 30
0.0
  0
VERTEX
  5
144E
  8
0
  6
CONTINUOUS
 10
660.33385235377864
 20
305.90798219805322
 30
0.0
  0
VERTEX
  5
144F
  8
0
  6
CONTINUOUS
 10
658.89047668080445
 20
303.40798219805322
 30
0.0
  0
SEQEND
  5
1450
  8
0
  6
CONTINUOUS
  0
CIRCLE
  5
FE2
  8
0
  6
CONTINUOUS
 10
690.9471010078305
 20
272.40798219805322
 30
0.0
 40
5.0
  0
CIRCLE
  5
FE3
  8
0
  6
CONTINUOUS
 10
690.9471010078305
 20
272.40798219805322
 30
0.0
 40
4.5381062355658202
  0
POLYLINE
  5
FE4
  8
0
  6
CONTINUOUS
 66
     1
 10
0.0
 20
0.0
 30
0.0
 70
     1
  0
VERTEX
  5
1451
  8
0
  6
CONTINUOUS
 10
689.50372533485643
 20
269.90798219805322
 30
0.0
  0
VERTEX
  5
1452
  8
0
  6
CONTINUOUS
 10
688.06034966188236
 20
272.40798219805322
 30
0.0
  0
VERTEX
  5
1453
  8
0
  6
CONTINUOUS
 10
689.50372533485643
 20
274.90798219805322
 30
0.0
  0
VERTEX
  5
1454
  8
0
  6
CONTINUOUS
 10
692.39047668080445
 20
274.90798219805322
 30
0.0
  0
VERTEX
  5
1455
  8
0
  6
CONTINUOUS
 10
693.83385235377864
 20
272.40798219805322
 30
0.0
  0
VERTEX
  5
1456
  8
0
  6
CONTINUOUS
 10
692.39047668080445
 20
269.90798219805322
 30
0.0
  0
SEQEND
  5
1457
  8
0
  6
CONTINUOUS
  0
ARC
  5
FEC
  8
DIM
  6
CONTINUOUS
 10
657.4471010078305
 20
663.37190021428137
 30
0.0
 40
67.695411205231821
 50
90.0
 51
180.0
  0
TEXT
  5
FF1
  8
LOGO
 62
     6
 10
999.06014754504019
 20
81.225673842146918
 30
0.0
 40
18.975734482929148
  1
作動角度
 41
0.9
  7
CHINESET
 72
     4
 11
1033.216469614312
 21
90.121327585354067
 31
0.0
  0
LINE
  5
FF2
  8
LOGO
 62
     6
 10
1082.2175518438071
 20
54.541825429862058
 30
0.0
 11
984.21538738481695
 21
54.541825429861881
 31
0.0
  0
LINE
  5
FF3
  8
LOGO
 62
     6
 10
1082.2175518438071
 20
106.7250952579172
 30
0.0
 11
984.21538738481695
 21
106.7250952579172
 31
0.0
  0
TEXT
  5
FF4
  8
LOGO
  6
CONTINUOUS
 62
     6
 10
988.48795261883686
 20
62.44838146441576
 30
0.0
 40
11.85983405183072
  1
Rotary angle
 41
0.8
  7
CHINESET
 72
     4
 11
1033.216469614312
 21
66.401659481692676
 31
0.0
  0
TEXT
  5
FF5
  8
LOGO
  6
CONTINUOUS
 62
     7
 10
1016.228669831045
 20
137.2916812617394
 30
0.0
 40
23.719668103661441
  1
90
  7
CHINESET
 72
     1
 11
1035.430305914962
 21
149.15151531357009
 31
0.0
 73
     2
  0
LINE
  5
FF6
  8
LOGO
 62
     6
 10
1072.729684602343
 20
170.76819913780309
 30
0.0
 11
993.70325462628159
 21
170.76819913780309
 31
0.0
  0
LINE
  5
FF7
  8
LOGO
 62
     6
 10
1072.729684602343
 20
128.07279655121241
 30
0.0
 11
993.70325462628159
 21
128.07279655121249
 31
0.0
  0
LINE
  5
FF8
  8
LOGO
 62
     1
 10
1107.0
 20
185.0
 30
0.0
 11
227.0
 21
185.0
 31
0.0
  0
LINE
  5
FF9
  8
LOGO
 62
     1
 10
1107.0
 20
42.681991378031341
 30
0.0
 11
227.0
 21
42.681991378031341
 31
0.0
  0
LINE
  5
FFA
  8
LOGO
  6
CONTINUOUS
 62
     6
 10
497.59552925123489
 20
147.17661250521681
 30
0.0
 11
523.50055859790814
 21
150.59835789902201
 31
0.0
  0
LINE
  5
FFB
  8
LOGO
  6
CONTINUOUS
 62
     6
 10
497.59552925123489
 20
137.49346617398169
 30
0.0
 11
523.50055859790814
 21
134.07172078017641
 31
0.0
  0
LINE
  5
FFC
  8
LOGO
 62
     1
 10
540.09961896833101
 20
156.53639827560619
 30
0.0
 11
331.36653965611032
 21
156.53639827560619
 31
0.0
  0
LINE
  5
FFD
  8
LOGO
 62
     1
 10
540.09961896833101
 20
128.07279655121249
 30
0.0
 11
331.36653965611032
 21
128.07279655121249
 31
0.0
  0
TEXT
  5
FFE
  8
LOGO
 62
     6
 10
466.57099448216081
 20
163.6522987067047
 30
0.0
 40
14.231800862196859
  1
1 : 1
  7
CHINESET
 72
     1
 11
491.64607219174582
 21
170.76819913780309
 31
0.0
 73
     2
  0
TEXT
  5
FFF
  8
LOGO
 62
     6
 10
466.57099448216081
 20
106.7250952579172
 30
0.0
 40
14.231800862196859
  1
m/m
  7
CHINESET
 72
     1
 11
491.64607219174582
 21
113.8409956890156
 31
0.0
 73
     2
  0
LINE
  5
1000
  8
LOGO
 62
     1
 10
540.09961896833101
 20
99.609194826818936
 30
0.0
 11
226.9999999999998
 21
99.609194826818936
 31
0.0
  0
TEXT
  5
1001
  8
LOGO
  6
CONTINUOUS
 62
     5
 10
231.65830871343391
 20
70.640149395215289
 30
0.0
 40
21.347701293295302
  1
金器工業股份有限公司
 41
0.8
  7
LOGO
  0
TEXT
  5
1002
  8
LOGO
  6
CONTINUOUS
 62
     5
 10
237.77100279325779
 20
49.288265626190899
 30
0.0
 40
14.231800862196859
  1
MINDMAN INDUSTRIAL CO.,LTD
 41
0.85
  7
CHINESET
  0
SOLID
  5
1003
  8
LOGO
 62
     5
 10
241.7657217975617
 20
123.2675380228863
 30
0.0
 11
247.91917904792081
 21
123.2675380228842
 31
0.0
 12
273.59394895459428
 22
181.61928781077739
 32
0.0
 13
279.74740620495282
 23
181.6192878107733
 33
0.0
  0
SOLID
  5
1004
  8
LOGO
 62
     5
 10
250.4654372204871
 20
123.2675380228863
 30
0.0
 11
256.61889447084548
 21
123.2675380228863
 31
0.0
 12
279.74740620495282
 22
176.95114782774391
 32
0.0
 13
273.59394895459428
 23
154.388471243092
 33
0.0
  0
SOLID
  5
1005
  8
LOGO
 62
     2
 10
247.91917904792081
 20
123.2675380228842
 30
0.0
 11
250.4654372204871
 21
123.2675380228863
 31
0.0
 12
279.74740620495282
 22
181.6192878107733
 32
0.0
 13
282.29366437751708
 23
181.6192878107733
 33
0.0
  0
SOLID
  5
1006
  8
LOGO
 62
     5
 10
248.09475309833951
 20
112.65812897054229
 30
0.0
 11
250.21663490880621
 21
112.65812897054229
 31
0.0
 12
248.09475309833951
 22
102.04871991820021
 32
0.0
 13
250.21663490880621
 23
102.04871991820021
 33
0.0
  0
SOLID
  5
1007
  8
LOGO
 62
     5
 10
231.900220812675
 20
102.04871991820021
 30
0.0
 11
234.022102623146
 21
102.04871991820021
 31
0.0
 12
239.99748695550591
 22
112.65812897054229
 32
0.0
 13
242.11936876597309
 23
112.65812897054229
 33
0.0
  0
SOLID
  5
1008
  8
LOGO
 62
     5
 10
239.99748695550591
 20
112.65812897054229
 30
0.0
 11
242.11936876597309
 21
112.65812897054229
 31
0.0
 12
239.99748695550591
 22
102.04871991820021
 32
0.0
 13
242.11936876597309
 23
102.04871991820021
 33
0.0
  0
SOLID
  5
1009
  8
LOGO
 62
     5
 10
239.99748695550591
 20
102.04871991820021
 30
0.0
 11
242.11936876597309
 21
102.04871991820021
 31
0.0
 12
248.09475309833951
 22
112.65812897054229
 32
0.0
 13
250.21663490880621
 23
112.65812897054229
 33
0.0
  0
LINE
  5
100A
  8
LOGO
 62
     1
 10
227.0
 20
42.681991378031341
 30
0.0
 11
227.0
 21
185.0
 31
0.0
  0
TEXT
  5
100B
  8
LOGO
 62
     6
 10
343.10142188489488
 20
163.65930254571171
 30
0.0
 40
14.231800862196859
  1
比例 Scale:
 41
0.9
  7
CHINESET
 72
     4
 11
388.29374310489783
 21
170.76819913780309
 31
0.0
  0
TEXT
  5
100C
  8
LOGO
 62
     6
 10
348.07619870413612
 20
135.3888900472607
 30
0.0
 40
14.231800862196859
  1
投影 View:
 41
0.9
  7
CHINESET
 72
     4
 11
388.29374310489783
 21
142.3045974134094
 31
0.0
  0
TEXT
  5
100D
  8
LOGO
 62
     6
 10
349.46761137771699
 20
106.7250952579172
 30
0.0
 40
14.231800862196859
  1
單位 Unit:
 41
0.9
  7
CHINESET
 72
     4
 11
388.29374310489783
 21
113.8409956890156
 31
0.0
  0
POLYLINE
  5
100E
  8
LOGO
 62
     5
 66
     1
 10
0.0
 20
0.0
 30
0.0
 70
     1
 40
2.1252822620880649
 41
2.1252822620880649
  0
VERTEX
  5
1458
  8
LOGO
 62
     5
 10
299.75716517258928
 20
107.35342444437021
 30
0.0
 42
1.0
  0
VERTEX
  5
1459
  8
LOGO
 62
     5
 10
308.25829422094142
 20
107.35342444437021
 30
0.0
 42
1.0
  0
SEQEND
  5
145A
  8
LOGO
 62
     5
  0
LINE
  5
100F
  8
LOGO
 62
     5
 10
320.2753487849057
 20
102.04871991820021
 30
0.0
 11
320.2753487849057
 21
108.41436534960459
 31
0.0
  0
SOLID
  5
1010
  8
LOGO
 62
     5
 10
307.19034022429207
 20
112.65812897054229
 30
0.0
 11
309.31222203475909
 21
112.65812897054229
 31
0.0
 12
307.19034022429207
 22
102.04871991820021
 32
0.0
 13
309.31222203475909
 23
102.04871991820021
 33
0.0
  0
SOLID
  5
1011
  8
LOGO
 62
     5
 10
311.78782154303042
 20
102.04871991820021
 30
0.0
 11
313.90970335350119
 21
102.04871991820021
 31
0.0
 12
311.78782154303042
 22
112.65812897054229
 32
0.0
 13
313.90970335350119
 23
112.65812897054229
 33
0.0
  0
SOLID
  5
1012
  8
LOGO
 62
     5
 10
318.15346697443908
 20
108.41436534960459
 30
0.0
 11
320.2753487849057
 21
108.4143653496043
 31
0.0
 12
318.15346697443908
 22
102.04871991820021
 32
0.0
 13
320.2753487849057
 23
102.04871991820021
 33
0.0
  0
SOLID
  5
1013
  8
LOGO
 62
     5
 10
276.77655948211782
 20
115.8409516862464
 30
0.0
 11
278.89844129258438
 21
115.8409516862464
 31
0.0
 12
276.77655948211782
 22
102.04871991820021
 32
0.0
 13
278.89844129258438
 23
102.04871991820021
 33
0.0
  0
SOLID
  5
1014
  8
LOGO
 62
     5
 10
281.37404080086191
 20
112.65812897054229
 30
0.0
 11
283.49592261132881
 21
112.65812897054229
 31
0.0
 12
281.37404080086191
 22
102.04871991820021
 32
0.0
 13
283.49592261132881
 23
102.04871991820021
 33
0.0
  0
SOLID
  5
1015
  8
LOGO
 62
     5
 10
287.73968623226642
 20
108.41436534960459
 30
0.0
 11
289.86156804273332
 21
108.41436534960459
 31
0.0
 12
287.73968623226642
 22
102.04871991820021
 32
0.0
 13
289.86156804273332
 23
102.04871991820021
 33
0.0
  0
SOLID
  5
1016
  8
LOGO
 62
     5
 10
294.10533166367122
 20
108.41436534960459
 30
0.0
 11
296.2272134741379
 21
108.41436534960459
 31
0.0
 12
294.10533166367122
 22
102.0487199181962
 32
0.0
 13
296.2272134741379
 23
102.0487199181962
 33
0.0
  0
LINE
  5
1017
  8
LOGO
 62
     1
 10
331.36653965611032
 20
99.609194826818779
 30
0.0
 11
331.36653965611032
 21
185.0
 31
0.0
  0
SOLID
  5
1018
  8
LOGO
 62
     5
 10
257.3259054900941
 20
112.65812897054229
 30
0.0
 11
259.44778730056072
 21
112.65812897054229
 31
0.0
 12
257.3259054900941
 22
102.04871991820021
 32
0.0
 13
259.44778730056072
 23
102.04871991820021
 33
0.0
  0
SOLID
  5
1019
  8
LOGO
 62
     5
 10
263.69155092149799
 20
108.41436534960459
 30
0.0
 11
265.81343273196882
 21
108.41436534960459
 31
0.0
 12
263.69155092149799
 22
102.04871991820021
 32
0.0
 13
265.81343273196882
 23
102.04871991820021
 33
0.0
  0
SOLID
  5
101A
  8
LOGO
 62
     5
 10
252.72842417134939
 20
112.65812897054229
 30
0.0
 11
254.85030598182229
 21
112.65812897054229
 31
0.0
 12
252.72842417134939
 22
102.0487199181962
 32
0.0
 13
254.85030598182229
 23
102.04871991820021
 33
0.0
  0
POLYLINE
  5
101B
  8
LOGO
 62
     5
 66
     1
 10
0.0
 20
0.0
 30
0.0
 70
     1
 40
2.1252822620880649
 41
2.1252822620880649
  0
VERTEX
  5
145B
  8
LOGO
 62
     5
 10
269.34338443041668
 20
107.35342444437021
 30
0.0
 42
1.0
  0
VERTEX
  5
145C
  8
LOGO
 62
     5
 10
277.84451347876922
 20
107.35342444437021
 30
0.0
 42
1.0
  0
SEQEND
  5
145D
  8
LOGO
 62
     5
  0
POLYLINE
  5
101C
  8
LOGO
 62
     5
 66
     1
 10
0.0
 20
0.0
 30
0.0
 40
2.1252822620880649
 41
2.1252822620880649
  0
VERTEX
  5
145E
  8
LOGO
 62
     5
 10
319.21950855710242
 20
108.41436534960459
 30
0.0
 42
1.0
  0
VERTEX
  5
145F
  8
LOGO
 62
     5
 10
312.84366177083808
 20
108.41436534960459
 30
0.0
 42
1.0
  0
SEQEND
  5
1460
  8
LOGO
 62
     5
  0
SOLID
  5
101D
  8
LOGO
 62
     5
 10
314.12189153454722
 20
123.2675380228842
 30
0.0
 11
320.2753487849057
 21
123.2675380228842
 31
0.0
 12
314.12189153454722
 22
181.6192878107733
 32
0.0
 13
320.2753487849057
 23
181.61928781077739
 33
0.0
  0
SOLID
  5
101E
  8
LOGO
 62
     5
 10
282.29366437751708
 20
181.6192878107733
 30
0.0
 11
288.44712162787539
 21
181.61928781077739
 31
0.0
 12
282.29366437751708
 22
127.93567800591561
 32
0.0
 13
288.44712162787539
 23
150.4983545905676
 33
0.0
  0
SOLID
  5
101F
  8
LOGO
 62
     5
 10
282.29366437751708
 20
127.93567800591561
 30
0.0
 11
288.44712162787539
 21
150.4983545905676
 31
0.0
 12
311.5756333619828
 22
181.61928781077739
 32
0.0
 13
305.4221761116238
 23
181.61928781077739
 33
0.0
  0
SOLID
  5
1020
  8
LOGO
 62
     5
 10
311.5756333619828
 20
176.95114782774391
 30
0.0
 11
305.4221761116238
 21
154.388471243092
 31
0.0
 12
311.5756333619828
 22
123.2675380228842
 32
0.0
 13
305.4221761116238
 23
123.2675380228842
 33
0.0
  0
SOLID
  5
1021
  8
LOGO
 62
     2
 10
311.5756333619828
 20
181.61928781077739
 30
0.0
 11
314.12189153454722
 21
181.6192878107733
 31
0.0
 12
311.5756333619828
 22
123.2675380228842
 32
0.0
 13
314.12189153454722
 23
123.2675380228842
 33
0.0
  0
SOLID
  5
1022
  8
LOGO
 62
     5
 10
273.59394895459428
 20
123.2675380228863
 30
0.0
 11
279.74740620495282
 21
123.2675380228863
 31
0.0
 12
273.59394895459428
 22
154.388471243092
 32
0.0
 13
279.74740620495282
 23
176.95114782774391
 33
0.0
  0
SOLID
  5
1023
  8
LOGO
 62
     2
 10
279.74740620495282
 20
181.6192878107733
 30
0.0
 11
282.29366437751708
 21
181.6192878107733
 31
0.0
 12
279.74740620495282
 22
123.2675380228863
 32
0.0
 13
282.29366437751708
 23
123.2675380228863
 33
0.0
  0
SOLID
  5
1024
  8
LOGO
 62
     5
 10
282.29366437751708
 20
123.2675380228863
 30
0.0
 11
288.44712162787539
 21
123.2675380228863
 31
0.0
 12
311.5756333619828
 22
176.95114782774391
 32
0.0
 13
305.4221761116238
 23
154.388471243092
 33
0.0
  0
SOLID
  5
1025
  8
LOGO
 62
     2
 10
279.74740620495282
 20
123.2675380228863
 30
0.0
 11
282.29366437751708
 21
123.2675380228863
 31
0.0
 12
311.5756333619828
 22
181.61928781077739
 32
0.0
 13
314.12189153454722
 23
181.6192878107733
 33
0.0
  0
POLYLINE
  5
1026
  8
LOGO
 62
     5
 66
     1
 10
0.0
 20
0.0
 30
0.0
 40
2.1252822620880649
 41
2.1252822620880649
  0
VERTEX
  5
1461
  8
LOGO
 62
     5
 10
288.80572781492981
 20
108.41436534960459
 30
0.0
 42
1.0
  0
VERTEX
  5
1462
  8
LOGO
 62
     5
 10
282.42988102866542
 20
108.41436534960459
 30
0.0
 42
1.0
  0
SEQEND
  5
1463
  8
LOGO
 62
     5
  0
POLYLINE
  5
1027
  8
LOGO
 62
     5
 66
     1
 10
0.0
 20
0.0
 30
0.0
 40
2.1252822620880649
 41
2.1252822620880649
  0
VERTEX
  5
1464
  8
LOGO
 62
     5
 10
264.75759250416212
 20
108.41436534960459
 30
0.0
 42
1.0
  0
VERTEX
  5
1465
  8
LOGO
 62
     5
 10
258.38174571789762
 20
108.41436534960459
 30
0.0
 42
1.0
  0
SEQEND
  5
1466
  8
LOGO
 62
     5
  0
SOLID
  5
1028
  8
LOGO
 62
     5
 10
252.72842417134939
 20
114.1434462378694
 30
0.0
 11
254.85030598182229
 21
114.1434462378694
 31
0.0
 12
252.72842417134939
 22
115.8409516862464
 32
0.0
 13
254.85030598182229
 23
115.8409516862464
 33
0.0
  0
POLYLINE
  5
1029
  8
LOGO
 62
     5
 66
     1
 10
0.0
 20
0.0
 30
0.0
 70
     1
  0
VERTEX
  5
1467
  8
LOGO
 62
     5
 10
300.82490698106312
 20
107.3534244443712
 30
0.0
 42
1.0000000573306349
  0
VERTEX
  5
1468
  8
LOGO
 62
     5
 10
307.19055241247031
 20
107.3534244443712
 30
0.0
 42
1.0000000573306349
  0
SEQEND
  5
1469
  8
LOGO
 62
     5
  0
CIRCLE
  5
102A
  8
LOGO
 62
     5
 10
304.0077296967666
 20
107.3534244443712
 30
0.0
 40
3.1828227157030868
  0
POLYLINE
  5
102B
  8
LOGO
 62
     5
 66
     1
 10
0.0
 20
0.0
 30
0.0
 40
2.1252822620880649
 41
2.1252822620880649
  0
VERTEX
  5
146A
  8
LOGO
 62
     5
 10
295.17137324633438
 20
108.41436534960459
 30
0.0
 42
1.0
  0
VERTEX
  5
146B
  8
LOGO
 62
     5
 10
288.79552646006988
 20
108.41436534960459
 30
0.0
 42
1.0
  0
SEQEND
  5
146C
  8
LOGO
 62
     5
  0
LINE
  5
102C
  8
LOGO
 62
     1
 10
445.22094655368522
 20
99.609194826818779
 30
0.0
 11
445.22094655368522
 21
185.0
 31
0.0
  0
CIRCLE
  5
102D
  8
LOGO
  6
CONTINUOUS
 62
     6
 10
471.5729059355557
 20
142.33503933959921
 30
0.0
 40
8.2633185594228298
  0
CIRCLE
  5
102E
  8
LOGO
  6
CONTINUOUS
 62
     6
 10
471.5729059355557
 20
142.33503933959921
 30
0.0
 40
4.8415731656175716
  0
LINE
  5
102F
  8
LOGO
 62
     6
 10
497.59552925123518
 20
137.49346617398169
 30
0.0
 11
497.59552925123489
 21
147.17661250521689
 31
0.0
  0
TEXT
  5
1030
  8
LOGO
  6
CONTINUOUS
 62
     6
 10
770.18876678403728
 20
60.471742455777388
 30
0.0
 40
11.85983405183072
  1
Model
  7
CHINESET
 72
     4
 11
792.77892688276245
 21
66.401659481692747
 31
0.0
  0
TEXT
  5
1031
  8
LOGO
  6
CONTINUOUS
 62
     7
 10
749.29286869271641
 20
137.5606637926771
 30
0.0
 40
23.719668103661441
  1
MRTH
  7
CHINESET
 72
     1
 11
792.77892688276245
 21
149.42049784450779
 31
0.0
 73
     2
  0
LINE
  5
1032
  8
LOGO
 62
     6
 10
849.70613033154984
 20
170.76819913780309
 30
0.0
 11
735.85172343397494
 21
170.76819913780309
 31
0.0
  0
LINE
  5
1033
  8
LOGO
 62
     6
 10
849.70613033154984
 20
128.07279655121249
 30
0.0
 11
735.85172343397494
 21
128.07279655121249
 31
0.0
  0
LINE
  5
1034
  8
LOGO
 62
     6
 10
840.21826309008509
 20
106.7250952579172
 30
0.0
 11
745.33959067543947
 21
106.7250952579172
 31
0.0
  0
LINE
  5
1035
  8
LOGO
 62
     6
 10
840.21826309008509
 20
54.541825429862058
 30
0.0
 11
745.33959067543947
 21
54.541825429861881
 31
0.0
  0
TEXT
  5
1036
  8
LOGO
 62
     7
 10
551.7490436523326
 20
149.36680734657671
 30
0.0
 40
28.46360172439373
  1
訂購代號:
  7
CHINESET
  0
TEXT
  5
1037
  8
LOGO
 62
     7
 10
548.3446399631556
 20
122.6529021705706
 30
0.0
 40
18.975734482929148
  1
Order example:
 41
0.8
  7
CHINESET
  0
LINE
  5
1038
  8
LOGO
 62
     1
 10
540.09961896833101
 20
42.681991378031341
 30
0.0
 11
540.09961896833101
 21
185.0
 31
0.0
  0
LINE
  5
1039
  8
LOGO
 62
     6
 10
523.50055859790814
 20
134.07172078017641
 30
0.0
 11
523.50055859790814
 21
150.59835789902201
 31
0.0
  0
LINE
  5
103A
  8
LOGO
 62
     6
 10
745.33959067543947
 20
106.7250952579172
 30
0.0
 11
745.33959067543947
 21
54.541825429861881
 31
0.0
  0
LINE
  5
103B
  8
LOGO
 62
     6
 10
735.85172343397494
 20
170.76819913780309
 30
0.0
 11
735.85172343397494
 21
128.07279655121249
 31
0.0
  0
TEXT
  5
103C
  8
LOGO
  6
CONTINUOUS
 62
     7
 10
905.04055080437433
 20
137.2916812617396
 30
0.0
 40
23.719668103661441
  1
63
  7
CHINESET
 72
     1
 11
924.2421868882908
 21
149.15151531357029
 31
0.0
 73
     2
  0
LINE
  5
103D
  8
LOGO
 62
     6
 10
960.11123604329305
 20
54.541825429862278
 30
0.0
 11
883.94546513198895
 21
54.5418254298622
 31
0.0
  0
LINE
  5
103E
  8
LOGO
 62
     6
 10
960.11123604329305
 20
128.07279655121269
 30
0.0
 11
883.94546513198895
 21
128.07279655121269
 31
0.0
  0
LINE
  5
103F
  8
LOGO
 62
     6
 10
960.11123604329305
 20
106.7250952579174
 30
0.0
 11
883.94546513198895
 21
106.7250952579174
 31
0.0
  0
LINE
  5
1040
  8
LOGO
 62
     6
 10
960.11123604329305
 20
170.76819913780369
 30
0.0
 11
883.94546513198895
 21
170.76819913780329
 31
0.0
  0
LINE
  5
1041
  8
LOGO
 62
     6
 10
883.94546513198895
 20
106.7250952579174
 30
0.0
 11
883.94546513198895
 21
54.541825429862278
 31
0.0
  0
LINE
  5
1042
  8
LOGO
 62
     6
 10
840.21826309008543
 20
106.7250952579172
 30
0.0
 11
840.21826309008543
 21
54.541825429862058
 31
0.0
  0
TEXT
  5
1043
  8
LOGO
 62
     6
 10
773.80319239983328
 20
81.119059848374064
 30
0.0
 40
18.975734482929148
  1
型式
  7
CHINESET
 72
     4
 11
792.77892688276245
 21
90.121327585354237
 31
0.0
  0
LINE
  5
1044
  8
LOGO
 62
     6
 10
792.77892688276245
 20
128.07279655121249
 30
0.0
 11
792.77892688276245
 21
106.7250952579172
 31
0.0
  0
LINE
  5
1045
  8
LOGO
 62
     6
 10
883.94546513198895
 20
170.76819913780329
 30
0.0
 11
883.94546513198895
 21
128.07279655121269
 31
0.0
  0
LINE
  5
1046
  8
LOGO
 62
     6
 10
849.70613033154984
 20
170.76819913780309
 30
0.0
 11
849.70613033154984
 21
128.07279655121249
 31
0.0
  0
LINE
  5
1047
  8
LOGO
  6
CONTINUOUS
 62
     7
 10
857.70922276705312
 20
149.26926398107781
 30
0.0
 11
876.56195466327586
 21
149.26926398107781
 31
0.0
  0
LINE
  5
1048
  8
LOGO
 62
     6
 10
984.21538738481695
 20
106.7250952579172
 30
0.0
 11
984.21538738481695
 21
54.541825429861881
 31
0.0
  0
LINE
  5
1049
  8
LOGO
 62
     6
 10
960.11123604329305
 20
106.7250952579174
 30
0.0
 11
960.11123604329305
 21
54.541825429862449
 31
0.0
  0
TEXT
  5
104A
  8
LOGO
  6
CONTINUOUS
 62
     6
 10
907.34474652346955
 20
60.471742455777559
 30
0.0
 40
11.85983405183072
  1
Bore
 41
0.8
  7
CHINESET
 72
     4
 11
922.02835058764106
 21
66.401659481692917
 31
0.0
  0
TEXT
  5
104B
  8
LOGO
 62
     6
 10
903.88280448833996
 20
80.633460343889837
 30
0.0
 40
18.975734482929148
  1
內徑
 41
0.9
  7
CHINESET
 72
     4
 11
922.02835058764106
 21
90.121327585354393
 31
0.0
  0
LINE
  5
104C
  8
LOGO
  6
CONTINUOUS
 62
     7
 10
967.4670122613461
 20
149.2692639810781
 30
0.0
 11
986.31974415756895
 21
149.2692639810781
 31
0.0
  0
LINE
  5
104D
  8
LOGO
 62
     6
 10
960.11123604329305
 20
170.76819913780369
 30
0.0
 11
960.11123604329305
 21
128.07279655121269
 31
0.0
  0
LINE
  5
104E
  8
LOGO
 62
     6
 10
922.02834949376336
 20
128.07279655121269
 30
0.0
 11
922.02834949376336
 21
106.7250952579174
 31
0.0
  0
LINE
  5
104F
  8
LOGO
 62
     6
 10
993.70325462628182
 20
170.76819913780309
 30
0.0
 11
993.70325462628159
 21
128.07279655121249
 31
0.0
  0
LINE
  5
1050
  8
LOGO
 62
     6
 10
1034.2211916809561
 20
128.07279655121249
 30
0.0
 11
1034.2211916809561
 21
106.7250952579172
 31
0.0
  0
LINE
  5
1056
  8
LOGO
 62
     6
 10
1082.2175518438071
 20
106.7250952579172
 30
0.0
 11
1082.2175518438071
 21
54.345059901030247
 31
0.0
  0
LINE
  5
1057
  8
LOGO
 62
     6
 10
1072.729684602343
 20
170.76819913780309
 30
0.0
 11
1072.729684602343
 21
128.07279655121241
 31
0.0
  0
LINE
  5
1060
  8
LOGO
 62
     1
 10
1107.0
 20
42.681991378031341
 30
0.0
 11
1107.0
 21
185.0
 31
0.0
  0
ENDSEC
  0
EOF
