  0
SECTION
  2
HEADER
  9
$ACADVER
  1
AC1009
  9
$INSBASE
 10
0.0
 20
0.0
 30
0.0
  9
$EXTMIN
 10
26.973635609929708
 20
-31.684568393608281
 30
-0.0000000349181948
  9
$EXTMAX
 10
1007.033754996761
 20
765.0439471810173
 30
0.0000000814935746
  9
$LIMMIN
 10
0.0
 20
0.0
  9
$LIMMAX
 10
1188.0
 20
840.0
  9
$ORTHOMODE
 70
     1
  9
$REGENMODE
 70
     1
  9
$FILLMODE
 70
     1
  9
$QTEXTMODE
 70
     0
  9
$MIRRTEXT
 70
     1
  9
$DRAGMODE
 70
     2
  9
$LTSCALE
 40
1.0
  9
$OSMODE
 70
    39
  9
$ATTMODE
 70
     1
  9
$TEXTSIZE
 40
3.0
  9
$TRACEWID
 40
0.05
  9
$TEXTSTYLE
  7
ITALICT
  9
$CLAYER
  8
0
  9
$CELTYPE
  6
CONTINUOUS
  9
$CECOLOR
 62
   256
  9
$DIMSCALE
 40
1.0
  9
$DIMASZ
 40
3.0
  9
$DIMEXO
 40
1.0
  9
$DIMDLI
 40
1.4824161510814720E+016
  9
$DIMRND
 40
0.0
  9
$DIMDLE
 40
0.0
  9
$DIMEXE
 40
1.0
  9
$DIMTP
 40
0.15
  9
$DIMTM
 40
-0.1
  9
$DIMTXT
 40
3.0
  9
$DIMCEN
 40
2.0
  9
$DIMTSZ
 40
0.0
  9
$DIMTOL
 70
     0
  9
$DIMLIM
 70
     0
  9
$DIMTIH
 70
     0
  9
$DIMTOH
 70
     0
  9
$DIMSE1
 70
     0
  9
$DIMSE2
 70
     0
  9
$DIMTAD
 70
     1
  9
$DIMZIN
 70
     0
  9
$DIMBLK
  1

  9
$DIMASO
 70
     0
  9
$DIMSHO
 70
     0
  9
$DIMPOST
  1

  9
$DIMAPOST
  1

  9
$DIMALT
 70
     0
  9
$DIMALTD
 70
     2
  9
$DIMALTF
 40
25.399999999999999
  9
$DIMLFAC
 40
1.0
  9
$DIMTOFL
 70
     1
  9
$DIMTVP
 40
1.0
  9
$DIMTIX
 70
     0
  9
$DIMSOXD
 70
     0
  9
$DIMSAH
 70
     0
  9
$DIMBLK1
  1

  9
$DIMBLK2
  1

  9
$DIMSTYLE
  2
STANDARD
  9
$DIMCLRD
 70
     0
  9
$DIMCLRE
 70
     0
  9
$DIMCLRT
 70
     0
  9
$DIMTFAC
 40
1.0
  9
$DIMGAP
 40
0.09
  9
$LUNITS
 70
     2
  9
$LUPREC
 70
     2
  9
$SKETCHINC
 40
0.1
  9
$FILLETRAD
 40
0.75
  9
$AUNITS
 70
     0
  9
$AUPREC
 70
     2
  9
$MENU
  1
ACAD
  9
$ELEVATION
 40
0.0
  9
$PELEVATION
 40
0.0
  9
$THICKNESS
 40
0.0
  9
$LIMCHECK
 70
     0
  9
$BLIPMODE
 70
     0
  9
$CHAMFERA
 40
0.0
  9
$CHAMFERB
 40
0.0
  9
$SKPOLY
 70
     1
  9
$TDCREATE
 40
2450580.7034460641
  9
$TDUPDATE
 40
2451939.4301562258
  9
$TDINDWG
 40
0.0926999884
  9
$TDUSRTIMER
 40
0.0926999884
  9
$USRTIMER
 70
     1
  9
$ANGBASE
 50
0.0
  9
$ANGDIR
 70
     0
  9
$PDMODE
 70
     0
  9
$PDSIZE
 40
0.0
  9
$PLINEWID
 40
0.0
  9
$COORDS
 70
     2
  9
$SPLFRAME
 70
     0
  9
$SPLINETYPE
 70
     6
  9
$SPLINESEGS
 70
     8
  9
$ATTDIA
 70
     0
  9
$ATTREQ
 70
     1
  9
$HANDLING
 70
 12289
  9
$HANDSEED
  5
1509
  9
$SURFTAB1
 70
     6
  9
$SURFTAB2
 70
     6
  9
$SURFTYPE
 70
     6
  9
$SURFU
 70
     6
  9
$SURFV
 70
     6
  9
$UCSNAME
  2

  9
$UCSORG
 10
0.0
 20
0.0
 30
0.0
  9
$UCSXDIR
 10
1.0
 20
0.0
 30
0.0
  9
$UCSYDIR
 10
0.0
 20
1.0
 30
0.0
  9
$PUCSNAME
  2

  9
$PUCSORG
 10
0.0
 20
0.0
 30
0.0
  9
$PUCSXDIR
 10
1.0
 20
0.0
 30
0.0
  9
$PUCSYDIR
 10
0.0
 20
1.0
 30
0.0
  9
$USERI1
 70
     0
  9
$USERI2
 70
-31485
  9
$USERI3
 70
     0
  9
$USERI4
 70
     0
  9
$USERI5
 70
     0
  9
$USERR1
 40
0.0
  9
$USERR2
 40
0.0
  9
$USERR3
 40
0.0
  9
$USERR4
 40
0.0
  9
$USERR5
 40
0.0
  9
$WORLDVIEW
 70
     1
  9
$SHADEDGE
 70
     3
  9
$SHADEDIF
 70
    70
  9
$TILEMODE
 70
     1
  9
$MAXACTVP
 70
    64
  9
$PLIMCHECK
 70
     0
  9
$PEXTMIN
 10
1.0000000000000000E+020
 20
1.0000000000000000E+020
 30
1.0000000000000000E+020
  9
$PEXTMAX
 10
-1.0000000000000000E+020
 20
-1.0000000000000000E+020
 30
-1.0000000000000000E+020
  9
$PLIMMIN
 10
0.0
 20
0.0
  9
$PLIMMAX
 10
12.0
 20
9.0
  9
$UNITMODE
 70
     0
  9
$VISRETAIN
 70
     1
  9
$PLINEGEN
 70
     0
  9
$PSLTSCALE
 70
     0
  0
ENDSEC
  0
SECTION
  2
TABLES
  0
TABLE
  2
VPORT
 70
     2
  0
VPORT
  2
*ACTIVE
 70
     0
 10
0.0
 20
0.0
 11
1.0
 21
1.0
 12
517.00369530334569
 22
366.67968939370439
 13
0.0
 23
0.0
 14
1.0
 24
1.0
 15
0.0
 25
0.0
 16
0.0
 26
0.0
 36
1.0
 17
0.0
 27
0.0
 37
0.0
 40
805.51596243758115
 41
1.7274401473296499
 42
1.0
 43
0.0
 44
0.0
 50
0.0
 51
0.0
 71
     0
 72
   100
 73
     1
 74
     1
 75
     0
 76
     0
 77
     0
 78
     0
  0
ENDTAB
  0
TABLE
  2
LTYPE
 70
     3
  0
LTYPE
  2
CONTINUOUS
 70
     0
  3
Solid line
 72
    65
 73
     0
 40
0.0
  0
LTYPE
  2
CENTER
 70
     0
  3
_______________ _ _______________ _ ___________
 72
    65
 73
     4
 40
18.0
 49
15.0
 49
-1.0
 49
1.0
 49
-1.0
  0
LTYPE
  2
HIDDEN
 70
     0
  3
___ ___ ___ ___ ___ ___ ___ ___ ___ ___ 
 72
    65
 73
     2
 40
4.0
 49
3.0
 49
-1.0
  0
ENDTAB
  0
TABLE
  2
LAYER
 70
     5
  0
LAYER
  2
0
 70
     0
 62
     7
  6
CONTINUOUS
  0
LAYER
  2
DIM
 70
     0
 62
     5
  6
CONTINUOUS
  0
LAYER
  2
HIDDEN
 70
     0
 62
     6
  6
HIDDEN
  0
LAYER
  2
CENTER
 70
     0
 62
     1
  6
CENTER
  0
LAYER
  2
LOGO
 70
     0
 62
     7
  6
CONTINUOUS
  0
ENDTAB
  0
TABLE
  2
STYLE
 70
     8
  0
STYLE
  2
STANDARD
 70
     0
 40
0.0
 41
1.0
 50
0.0
 71
     0
 42
3.0
  3
txt
  4

  0
STYLE
  2
ITALICT
 70
     0
 40
0.0
 41
1.0
 50
0.0
 71
     0
 42
3.0
  3
ITALICT.SHX
  4

  0
STYLE
  2
ROMANSS
 70
     0
 40
0.0
 41
1.0
 50
0.0
 71
     0
 42
3.0
  3
ROMANSS.SHX
  4
LMP
  0
STYLE
  2
CHINESET
 70
     0
 40
0.0
 41
1.0
 50
0.0
 71
     0
 42
4.0
  3
C:\r13\com\fonts\simplex.shx
  4
C:\r13\com\fonts\chineset.shx
  0
STYLE
  2
LOGO
 70
     0
 40
0.0
 41
1.0
 50
0.0
 71
     0
 42
5.0
  3
txt
  4

  0
ENDTAB
  0
TABLE
  2
VIEW
 70
     0
  0
ENDTAB
  0
TABLE
  2
UCS
 70
     0
  0
ENDTAB
  0
TABLE
  2
APPID
 70
     2
  0
APPID
  2
ACAD
 70
     0
  0
APPID
  2
TCAD
 70
     0
  0
ENDTAB
  0
TABLE
  2
DIMSTYLE
 70
     1
  0
DIMSTYLE
  2
STANDARD
 70
     0
  3

  4

  5

  6

  7

 40
1.0
 41
0.18
 42
0.0625
 43
0.38
 44
0.18
 45
0.0
 46
0.0
 47
0.0
 48
0.0
140
0.18
141
0.09
142
0.0
143
25.399999999999999
144
1.0
145
0.0
146
1.0
147
0.09
 71
     0
 72
     0
 73
     1
 74
     1
 75
     0
 76
     0
 77
     0
 78
     0
170
     0
171
     2
172
     0
173
     0
174
     0
175
     0
176
     0
177
     0
178
     0
  0
ENDTAB
  0
ENDSEC
  0
SECTION
  2
BLOCKS
  0
BLOCK
  8
0
  2
$MODEL_SPACE
 70
     0
 10
0.0
 20
0.0
 30
0.0
  3
$MODEL_SPACE
  1

  0
ENDBLK
  5
3F
  8
0
  0
BLOCK
 67
     1
  8
0
  2
$PAPER_SPACE
 70
     0
 10
0.0
 20
0.0
 30
0.0
  3
$PAPER_SPACE
  1

  0
ENDBLK
  5
3D
 67
     1
  8
0
  0
ENDSEC
  0
SECTION
  2
ENTITIES
  0
LINE
  5
B29
  8
0
 62
     4
 10
27.0
 20
105.0
 30
0.0
 11
27.0
 21
765.00000000000023
 31
0.0
  0
LINE
  5
B2B
  8
0
 62
     4
 10
1007.0
 20
105.0
 30
0.0
 11
27.0
 21
105.0
 31
0.0
  0
LINE
  5
B2E
  8
0
 62
     4
 10
27.0
 20
765.00000000000023
 30
0.0
 11
1007.0
 21
764.99999999999977
 31
0.0
  0
LINE
  5
B2F
  8
0
 62
     4
 10
1007.0
 20
764.99999999999977
 30
0.0
 11
1007.0
 21
105.0
 31
0.0
  0
CIRCLE
  5
B32
  8
0
  6
CONTINUOUS
 10
518.88154535456874
 20
171.9534768490789
 30
0.0
 40
46.999999999999829
  0
CIRCLE
  5
B33
  8
0
  6
CONTINUOUS
 10
518.88154535456874
 20
669.94626817692927
 30
0.0
 40
46.999999999999829
  0
POLYLINE
  5
B34
  8
0
  6
CONTINUOUS
 66
     1
 10
0.0
 20
0.0
 30
0.0
  0
VERTEX
  5
142D
  8
0
  6
CONTINUOUS
 10
543.88154535456874
 20
263.45347684907881
 30
0.0
 42
0.0851703918331015
  0
VERTEX
  5
142E
  8
0
  6
CONTINUOUS
 10
537.88154535456874
 20
262.42147684907962
 30
0.0
 42
0.3910851735909245
  0
VERTEX
  5
142F
  8
0
  6
CONTINUOUS
 10
533.90654535456838
 20
262.89054382367561
 30
0.0
  0
SEQEND
  5
1430
  8
0
  6
CONTINUOUS
  0
LINE
  5
B39
  8
0
  6
CONTINUOUS
 10
552.88154535456874
 20
263.45347684907881
 30
0.0
 11
534.88154535456874
 21
263.45347684907881
 31
0.0
  0
LINE
  5
B3A
  8
0
  6
CONTINUOUS
 10
552.88154535456874
 20
578.44626817692927
 30
0.0
 11
534.88154535456874
 21
578.44626817692927
 31
0.0
  0
POLYLINE
  5
B3B
  8
0
  6
CONTINUOUS
 66
     1
 10
0.0
 20
0.0
 30
0.0
  0
VERTEX
  5
1431
  8
0
  6
CONTINUOUS
 10
543.88154535456874
 20
578.44626817692927
 30
0.0
 42
-0.0851703918331015
  0
VERTEX
  5
1432
  8
0
  6
CONTINUOUS
 10
537.88154535456874
 20
579.47826817692851
 30
0.0
 42
-0.3910851735909245
  0
VERTEX
  5
1433
  8
0
  6
CONTINUOUS
 10
533.90654535456838
 20
579.00920120233252
 30
0.0
  0
SEQEND
  5
1434
  8
0
  6
CONTINUOUS
  0
LINE
  5
B40
  8
CENTER
  6
CENTER
 10
528.38154535456874
 20
407.39008900959931
 30
0.0
 11
559.38154535456874
 21
407.39008900959931
 31
0.0
  0
CIRCLE
  5
B41
  8
0
  6
CONTINUOUS
 10
543.88154535456874
 20
407.39008900959931
 30
0.0
 40
9.5
  0
POLYLINE
  5
B42
  8
0
  6
CONTINUOUS
 66
     1
 10
0.0
 20
0.0
 30
0.0
 70
     1
  0
VERTEX
  5
1435
  8
0
  6
CONTINUOUS
 10
538.39671779726723
 20
416.89008900959942
 30
0.0
  0
VERTEX
  5
1436
  8
0
  6
CONTINUOUS
 10
532.91189023996583
 20
407.39008900959931
 30
0.0
  0
VERTEX
  5
1437
  8
0
  6
CONTINUOUS
 10
538.39671779726723
 20
397.89008900959931
 30
0.0
  0
VERTEX
  5
1438
  8
0
  6
CONTINUOUS
 10
549.36637291187014
 20
397.89008900959931
 30
0.0
  0
VERTEX
  5
1439
  8
0
  6
CONTINUOUS
 10
554.85120046917154
 20
407.39008900959931
 30
0.0
  0
VERTEX
  5
143A
  8
0
  6
CONTINUOUS
 10
549.36637291187014
 20
416.89008900959942
 30
0.0
  0
SEQEND
  5
143B
  8
0
  6
CONTINUOUS
  0
ARC
  5
B4A
  8
DIM
  6
CONTINUOUS
 10
518.88154535456874
 20
669.94626817692927
 30
0.0
 40
79.84979155910159
 50
0.0
 51
177.8472398457177
  0
LINE
  5
B4B
  8
DIM
  6
CONTINUOUS
 10
290.8642318907506
 20
279.89008900959948
 30
0.0
 11
748.8888043142988
 21
279.89008900959948
 31
0.0
  0
LINE
  5
B4C
  8
DIM
  6
CONTINUOUS
 10
466.3815453545688
 20
287.89008900959948
 30
0.0
 11
571.38154535456874
 21
287.89008900959948
 31
0.0
  0
LINE
  5
B4D
  8
DIM
  6
CONTINUOUS
 10
470.8815453545688
 20
295.89008900959948
 30
0.0
 11
566.88154535456874
 21
295.89008900959948
 31
0.0
  0
LINE
  5
B4E
  8
DIM
  6
CONTINUOUS
 10
525.49242997862621
 20
672.1274023156767
 30
0.0
 11
603.80929484939884
 21
687.78390856948863
 31
0.0
  0
LINE
  5
B4F
  8
DIM
  6
CONTINUOUS
 10
480.88154535456869
 20
729.44626817692915
 30
0.0
 11
556.88154535456874
 21
729.44626817692915
 31
0.0
  0
CIRCLE
  5
B50
  8
CENTER
  6
CENTER
 10
518.88154535456874
 20
171.9534768490789
 30
0.0
 40
39.0
  0
LINE
  5
B51
  8
CENTER
  6
CENTER
 10
295.8815453545688
 20
207.95347684907881
 30
0.0
 11
741.88154535456874
 21
207.95347684907881
 31
0.0
  0
LINE
  5
B52
  8
CENTER
  6
CENTER
 10
301.8815453545688
 20
171.95347684907881
 30
0.0
 11
735.88154535456886
 21
171.9534768490789
 31
0.0
  0
LINE
  5
B53
  8
0
 10
466.38154535456869
 20
120.4534768490788
 30
0.0
 11
571.38154535456874
 21
120.4534768490789
 31
0.0
  0
LINE
  5
B54
  8
0
 10
466.38154535456869
 20
255.45347684907881
 30
0.0
 11
571.38154535456874
 21
255.45347684907881
 31
0.0
  0
CIRCLE
  5
B55
  8
0
  6
CONTINUOUS
 10
518.88154535456874
 20
171.9534768490789
 30
0.0
 40
47.999999999999822
  0
CIRCLE
  5
B56
  8
CENTER
  6
CENTER
 10
518.88154535456874
 20
669.94626817692927
 30
0.0
 40
39.0
  0
CIRCLE
  5
B57
  8
0
  6
CONTINUOUS
 10
518.88154535456874
 20
669.94626817692927
 30
0.0
 40
47.999999999999822
  0
LINE
  5
B58
  8
0
 10
466.38154535456869
 20
586.44626817692927
 30
0.0
 11
571.38154535456874
 21
586.44626817692927
 31
0.0
  0
LINE
  5
B59
  8
0
 10
466.38154535456869
 20
721.44626817692915
 30
0.0
 11
571.38154535456874
 21
721.44626817692915
 31
0.0
  0
LINE
  5
B5A
  8
0
 10
470.88154535456869
 20
488.89008900959931
 30
0.0
 11
566.88154535456874
 21
488.89008900959942
 31
0.0
  0
LINE
  5
B5B
  8
0
 10
470.88154535456869
 20
371.89008900959931
 30
0.0
 11
566.88154535456874
 21
371.89008900959931
 31
0.0
  0
LINE
  5
B5C
  8
0
 10
471.88154535456869
 20
370.89008900959942
 30
0.0
 11
565.88154535456874
 21
370.89008900959931
 31
0.0
  0
LINE
  5
B5D
  8
0
 10
471.88154535456869
 20
489.89008900959942
 30
0.0
 11
565.88154535456874
 21
489.89008900959942
 31
0.0
  0
LINE
  5
B5E
  8
0
 10
466.38154535456869
 20
382.89008900959931
 30
0.0
 11
571.38154535456874
 21
382.89008900959931
 31
0.0
  0
LINE
  5
B5F
  8
0
 10
466.38154535456869
 20
477.89008900959931
 30
0.0
 11
571.38154535456874
 21
477.89008900959931
 31
0.0
  0
LINE
  5
B60
  8
CENTER
  6
CENTER
 10
295.88154535456869
 20
430.39008900959931
 30
0.0
 11
741.88154535456874
 21
430.39008900959931
 31
0.0
  0
LINE
  5
B61
  8
CENTER
  6
CENTER
 10
295.8815453545688
 20
633.94626817692915
 30
0.0
 11
741.88154535456874
 21
633.94626817692915
 31
0.0
  0
LINE
  5
B62
  8
CENTER
  6
CENTER
 10
301.8815453545688
 20
669.94626817692927
 30
0.0
 11
735.88154535456886
 21
669.94626817692927
 31
0.0
  0
LINE
  5
B63
  8
0
 10
342.88154535456869
 20
382.89008900959931
 30
0.0
 11
342.88154535456869
 21
477.89008900959931
 31
0.0
  0
LINE
  5
B64
  8
0
 10
304.88154535456869
 20
383.14008900959931
 30
0.0
 11
304.88154535456869
 21
477.64008900959942
 31
0.0
  0
LINE
  5
B65
  8
0
 10
466.38154535456869
 20
477.89008900959931
 30
0.0
 11
466.38154535456869
 21
382.89008900959931
 31
0.0
  0
LINE
  5
B66
  8
CENTER
  6
CENTER
 10
518.88154535456874
 20
543.89008900959936
 30
0.0
 11
518.88154535456874
 21
317.57276577571957
 31
0.0
  0
LINE
  5
B67
  8
CENTER
  6
CENTER
 10
477.88154535456869
 20
202.9534768490789
 30
0.0
 11
477.88154535456869
 21
222.95347684907881
 31
0.0
  0
LINE
  5
B68
  8
CENTER
  6
CENTER
 10
518.88154535456874
 20
117.4534768490788
 30
0.0
 11
518.88154535456874
 21
258.45347684907881
 31
0.0
  0
LINE
  5
B69
  8
0
 10
342.88154535456869
 20
160.4534768490789
 30
0.0
 11
342.88154535456869
 21
255.4534768490787
 31
0.0
  0
LINE
  5
B6A
  8
0
 10
304.8815453545688
 20
160.7034768490789
 30
0.0
 11
304.8815453545688
 21
255.2034768490787
 31
0.0
  0
LINE
  5
B6B
  8
0
 10
298.8815453545688
 20
186.4534768490789
 30
0.0
 11
298.8815453545688
 21
229.4534768490787
 31
0.0
  0
LINE
  5
B6C
  8
0
 10
466.38154535456869
 20
120.4534768490788
 30
0.0
 11
466.38154535456869
 21
255.45347684907881
 31
0.0
  0
CIRCLE
  5
B6D
  8
0
  6
CONTINUOUS
 10
477.88154535456869
 20
212.95347684907881
 30
0.0
 40
4.25
  0
ARC
  5
B6E
  8
0
  6
CONTINUOUS
 62
     2
 10
477.88154535456869
 20
212.95347684907881
 30
0.0
 40
5.0
 50
244.7996045918776
 51
198.7093473556057
  0
LINE
  5
B6F
  8
0
 62
     7
 10
466.38154535456869
 20
183.317255333698
 30
0.0
 11
342.88154535456869
 21
183.31725533369811
 31
0.0
  0
LINE
  5
B70
  8
0
 10
466.38154535456869
 20
164.4534768490789
 30
0.0
 11
342.88154535456869
 21
164.4534768490789
 31
0.0
  0
LINE
  5
B71
  8
0
 10
342.88154535456869
 20
160.4534768490789
 30
0.0
 11
304.8815453545688
 21
160.7034768490789
 31
0.0
  0
LINE
  5
B72
  8
HIDDEN
  6
HIDDEN
 10
310.88154535456891
 20
166.9534768490789
 30
0.0
 11
310.88154535456891
 21
176.9534768490789
 31
0.0
  0
LINE
  5
B73
  8
HIDDEN
  6
HIDDEN
 10
326.88154535456891
 20
166.9534768490789
 30
0.0
 11
326.88154535456891
 21
176.9534768490789
 31
0.0
  0
LINE
  5
B74
  8
HIDDEN
  6
HIDDEN
 10
304.88154535456891
 20
166.9534768490789
 30
0.0
 11
326.88154535456891
 21
166.9534768490789
 31
0.0
  0
LINE
  5
B75
  8
HIDDEN
  6
HIDDEN
 10
304.88154535456891
 20
176.9534768490789
 30
0.0
 11
326.88154535456891
 21
176.9534768490789
 31
0.0
  0
ARC
  5
B76
  8
0
 10
299.8815453545688
 20
186.4534768490789
 30
0.0
 40
1.0
 50
180.0
 51
270.0
  0
LINE
  5
B77
  8
0
 10
299.8815453545688
 20
185.4534768490789
 30
0.0
 11
304.8815453545688
 21
185.4534768490789
 31
0.0
  0
LINE
  5
B78
  8
HIDDEN
  6
HIDDEN
 10
310.88154535456891
 20
176.2034768490789
 30
0.0
 11
329.8815453545688
 21
176.2034768490789
 31
0.0
  0
LINE
  5
B79
  8
HIDDEN
  6
HIDDEN
 10
310.88154535456891
 20
167.7034768490789
 30
0.0
 11
329.8815453545688
 21
167.7034768490789
 31
0.0
  0
LINE
  5
B7A
  8
HIDDEN
  6
HIDDEN
 10
329.8815453545688
 20
167.70347684907881
 30
0.0
 11
332.33528399862467
 21
171.9534768490789
 31
0.0
  0
LINE
  5
B7B
  8
HIDDEN
  6
HIDDEN
 10
329.8815453545688
 20
176.2034768490789
 30
0.0
 11
332.33528399862479
 21
171.9534768490789
 31
0.0
  0
LINE
  5
B7C
  8
HIDDEN
  6
HIDDEN
 10
329.8815453545688
 20
167.7034768490789
 30
0.0
 11
329.8815453545688
 21
176.2034768490789
 31
0.0
  0
LINE
  5
B7D
  8
CENTER
  6
CENTER
 10
467.88154535456869
 20
130.95347684907881
 30
0.0
 11
487.88154535456869
 21
130.95347684907881
 31
0.0
  0
LINE
  5
B7E
  8
CENTER
  6
CENTER
 10
467.88154535456869
 20
212.95347684907881
 30
0.0
 11
487.88154535456869
 21
212.95347684907881
 31
0.0
  0
LINE
  5
B7F
  8
CENTER
  6
CENTER
 10
485.64752663880103
 20
138.71945813331101
 30
0.0
 11
496.96123513778571
 21
150.0331666322958
 31
0.0
  0
ARC
  5
B80
  8
0
  6
CONTINUOUS
 62
     2
 10
491.30438088829339
 20
144.37631238280341
 30
0.0
 40
4.0
 50
202.52441221510509
 51
149.49721034531461
  0
CIRCLE
  5
B81
  8
0
  6
CONTINUOUS
 10
491.30438088829339
 20
144.37631238280341
 30
0.0
 40
3.399999999999999
  0
LINE
  5
B82
  8
CENTER
  6
CENTER
 10
477.88154535456869
 20
120.9534768490788
 30
0.0
 11
477.88154535456869
 21
140.95347684907881
 31
0.0
  0
ARC
  5
B83
  8
0
  6
CONTINUOUS
 62
     2
 10
477.88154535456869
 20
130.95347684907881
 30
0.0
 40
5.0
 50
244.79960459187899
 51
198.7093473556057
  0
CIRCLE
  5
B84
  8
0
  6
CONTINUOUS
 10
477.88154535456869
 20
130.95347684907881
 30
0.0
 40
4.25
  0
LINE
  5
B85
  8
0
 10
466.38154535456869
 20
251.45347684907881
 30
0.0
 11
342.88154535456869
 21
251.45347684907881
 31
0.0
  0
LINE
  5
B86
  8
0
 62
     7
 10
466.38154535456869
 20
232.58969836445939
 30
0.0
 11
342.88154535456869
 21
232.58969836445939
 31
0.0
  0
LINE
  5
B87
  8
CENTER
  6
CENTER
 10
301.8815453545688
 20
243.95347684907861
 30
0.0
 11
466.38154535456869
 21
243.9534768490787
 31
0.0
  0
LINE
  5
B88
  8
0
 10
466.38154535456869
 20
386.89008900959931
 30
0.0
 11
342.88154535456869
 21
386.89008900959931
 31
0.0
  0
LINE
  5
B89
  8
0
 62
     7
 10
466.38154535456869
 20
405.75386749421841
 30
0.0
 11
342.88154535456869
 21
405.75386749421858
 31
0.0
  0
LINE
  5
B8A
  8
0
 62
     7
 10
466.38154535456869
 20
455.02631052498009
 30
0.0
 11
342.88154535456869
 21
455.02631052498009
 31
0.0
  0
LINE
  5
B8B
  8
CENTER
  6
CENTER
 10
301.88154535456869
 20
466.39008900959942
 30
0.0
 11
466.38154535456869
 21
466.39008900959942
 31
0.0
  0
LINE
  5
B8C
  8
CENTER
  6
CENTER
 10
301.88154535456869
 20
394.39008900959931
 30
0.0
 11
466.38154535456869
 21
394.39008900959931
 31
0.0
  0
LINE
  5
B8D
  8
DIM
  6
CONTINUOUS
 10
298.88154535456869
 20
406.61369424478329
 30
0.0
 11
298.88154535456869
 21
278.12972621181319
 31
0.0
  0
LINE
  5
B8E
  8
DIM
  6
CONTINUOUS
 10
304.88154535456869
 20
382.14008900959931
 30
0.0
 11
304.88154535456869
 21
278.40245679025122
 31
0.0
  0
LINE
  5
B8F
  8
0
 10
342.88154535456869
 20
255.4534768490787
 30
0.0
 11
304.8815453545688
 21
255.2034768490787
 31
0.0
  0
LINE
  5
B90
  8
CENTER
  6
CENTER
 10
335.88154535456869
 20
240.39732339543411
 30
0.0
 11
335.88154535456869
 21
260.56823283830499
 31
0.0
  0
LINE
  5
B91
  8
CENTER
  6
CENTER
 10
323.8815453545688
 20
240.92680885393969
 30
0.0
 11
323.8815453545688
 21
259.9647428085409
 31
0.0
  0
LINE
  5
B92
  8
HIDDEN
  6
HIDDEN
 10
304.88154535456891
 20
248.9534768490787
 30
0.0
 11
326.88154535456891
 21
248.95347684907881
 31
0.0
  0
LINE
  5
B93
  8
HIDDEN
  6
HIDDEN
 10
304.88154535456891
 20
238.95347684907881
 30
0.0
 11
326.88154535456891
 21
238.9534768490787
 31
0.0
  0
ARC
  5
B94
  8
0
 10
299.8815453545688
 20
229.4534768490787
 30
0.0
 40
1.0
 50
90.0
 51
180.0
  0
LINE
  5
B95
  8
0
 10
299.8815453545688
 20
230.4534768490787
 30
0.0
 11
304.8815453545688
 21
230.4534768490787
 31
0.0
  0
LINE
  5
B96
  8
HIDDEN
  6
HIDDEN
 10
310.88154535456891
 20
248.2034768490787
 30
0.0
 11
329.8815453545688
 21
248.20347684907881
 31
0.0
  0
LINE
  5
B97
  8
HIDDEN
  6
HIDDEN
 10
310.88154535456891
 20
239.7034768490787
 30
0.0
 11
329.8815453545688
 21
239.7034768490787
 31
0.0
  0
LINE
  5
B98
  8
HIDDEN
  6
HIDDEN
 10
310.88154535456891
 20
248.9534768490787
 30
0.0
 11
310.88154535456891
 21
238.95347684907881
 31
0.0
  0
LINE
  5
B99
  8
HIDDEN
  6
HIDDEN
 10
326.88154535456891
 20
248.95347684907881
 30
0.0
 11
326.88154535456891
 21
238.95347684907881
 31
0.0
  0
LINE
  5
B9A
  8
HIDDEN
  6
HIDDEN
 10
329.8815453545688
 20
248.2034768490789
 30
0.0
 11
332.33528399862467
 21
243.95347684907881
 31
0.0
  0
LINE
  5
B9B
  8
HIDDEN
  6
HIDDEN
 10
329.8815453545688
 20
248.20347684907881
 30
0.0
 11
329.8815453545688
 21
239.7034768490787
 31
0.0
  0
LINE
  5
B9C
  8
HIDDEN
  6
HIDDEN
 10
329.8815453545688
 20
239.7034768490787
 30
0.0
 11
332.33528399862479
 21
243.95347684907881
 31
0.0
  0
SOLID
  5
B9D
  8
DIM
  6
CONTINUOUS
 10
307.8815453545688
 20
280.39008900959948
 30
0.0
 11
307.8815453545688
 21
279.39008900959948
 31
0.0
 12
304.8815453545688
 22
279.89008900959948
 32
0.0
 13
304.8815453545688
 23
279.89008900959948
 33
0.0
  0
SOLID
  5
B9E
  8
DIM
  6
CONTINUOUS
 10
295.8815453545688
 20
280.39008900959948
 30
0.0
 11
295.8815453545688
 21
279.39008900959948
 31
0.0
 12
298.8815453545688
 22
279.89008900959948
 32
0.0
 13
298.8815453545688
 23
279.89008900959948
 33
0.0
  0
TEXT
  5
B9F
  8
DIM
  6
CONTINUOUS
 10
292.25315245079418
 20
281.39008900959948
 30
0.0
 40
3.0
  1
6
  7
ROMANSS
 72
     1
 11
293.18172387936568
 21
282.89008900959948
 31
0.0
 73
     2
  0
LINE
  5
BA1
  8
0
 10
342.88154535456869
 20
382.89008900959931
 30
0.0
 11
304.88154535456869
 21
383.14008900959931
 31
0.0
  0
LINE
  5
BA2
  8
0
  6
CONTINUOUS
 10
340.43996733947222
 20
442.4445449004736
 30
0.0
 11
339.13154535456869
 21
441.68912711527599
 31
0.0
  0
LINE
  5
BA3
  8
0
  6
CONTINUOUS
 10
339.13154535456869
 20
439.09105090392262
 30
0.0
 11
340.43996733947222
 21
438.33563311872501
 31
0.0
  0
LINE
  5
BA4
  8
CENTER
  6
CENTER
 10
342.88154535456869
 20
440.39008900959931
 30
0.0
 11
328.88154535456869
 21
440.39008900959931
 31
0.0
  0
CIRCLE
  5
BA5
  8
0
 10
335.88154535456869
 20
440.39008900959931
 30
0.0
 40
5.0
  0
CIRCLE
  5
BA6
  8
0
 10
335.88154535456869
 20
440.39008900959931
 30
0.0
 40
5.2999999999999989
  0
CIRCLE
  5
BA7
  8
0
 10
323.88154535456869
 20
423.39008900959931
 30
0.0
 40
5.5
  0
CIRCLE
  5
BA8
  8
0
 10
323.88154535456869
 20
423.39008900959931
 30
0.0
 40
7.5
  0
ARC
  5
BA9
  8
0
 62
     2
 10
323.88154535456869
 20
423.39008900959931
 30
0.0
 40
8.3000000000000007
 50
77.189608741317514
 51
29.609685868556721
  0
LINE
  5
BAA
  8
0
 10
298.88154535456869
 20
408.89008900959942
 30
0.0
 11
298.88154535456869
 21
451.89008900959931
 31
0.0
  0
LINE
  5
BAB
  8
CENTER
  6
CENTER
 10
323.88154535456869
 20
408.89008900959942
 30
0.0
 11
323.88154535456869
 21
437.89008900959942
 31
0.0
  0
CIRCLE
  5
BAC
  8
0
 10
323.88154535456869
 20
423.39008900959931
 30
0.0
 40
11.5
  0
LINE
  5
BAD
  8
HIDDEN
  6
HIDDEN
 10
304.88154535456869
 20
389.39008900959931
 30
0.0
 11
326.88154535456869
 21
389.39008900959931
 31
0.0
  0
LINE
  5
BAE
  8
HIDDEN
  6
HIDDEN
 10
304.88154535456869
 20
399.39008900959931
 30
0.0
 11
326.88154535456869
 21
399.39008900959931
 31
0.0
  0
ARC
  5
BAF
  8
0
 10
299.88154535456869
 20
408.89008900959942
 30
0.0
 40
1.0
 50
180.0
 51
270.0
  0
LINE
  5
BB0
  8
0
 10
299.88154535456869
 20
407.89008900959931
 30
0.0
 11
304.88154535456869
 21
407.89008900959931
 31
0.0
  0
LINE
  5
BB1
  8
HIDDEN
  6
HIDDEN
 10
310.88154535456869
 20
398.64008900959931
 30
0.0
 11
329.88154535456869
 21
398.64008900959931
 31
0.0
  0
LINE
  5
BB2
  8
HIDDEN
  6
HIDDEN
 10
310.88154535456869
 20
390.14008900959931
 30
0.0
 11
329.88154535456869
 21
390.14008900959931
 31
0.0
  0
LINE
  5
BB3
  8
HIDDEN
  6
HIDDEN
 10
310.88154535456869
 20
389.39008900959931
 30
0.0
 11
310.88154535456869
 21
399.39008900959931
 31
0.0
  0
LINE
  5
BB4
  8
HIDDEN
  6
HIDDEN
 10
326.88154535456869
 20
389.39008900959931
 30
0.0
 11
326.88154535456869
 21
399.39008900959931
 31
0.0
  0
LINE
  5
BB5
  8
HIDDEN
  6
HIDDEN
 10
329.88154535456869
 20
390.14008900959919
 30
0.0
 11
332.33528399862462
 21
394.39008900959931
 31
0.0
  0
LINE
  5
BB6
  8
HIDDEN
  6
HIDDEN
 10
329.88154535456869
 20
390.14008900959931
 30
0.0
 11
329.88154535456869
 21
398.64008900959931
 31
0.0
  0
LINE
  5
BB7
  8
HIDDEN
  6
HIDDEN
 10
329.88154535456869
 20
398.64008900959931
 30
0.0
 11
332.33528399862479
 21
394.39008900959919
 31
0.0
  0
LINE
  5
BB8
  8
CENTER
  6
CENTER
 10
338.38154535456869
 20
423.39008900959931
 30
0.0
 11
309.38154535456869
 21
423.39008900959931
 31
0.0
  0
LINE
  5
BB9
  8
HIDDEN
  6
HIDDEN
 10
304.88154535456869
 20
471.39008900959942
 30
0.0
 11
326.88154535456869
 21
471.39008900959942
 31
0.0
  0
LINE
  5
BBA
  8
HIDDEN
  6
HIDDEN
 10
304.88154535456869
 20
461.39008900959931
 30
0.0
 11
326.88154535456869
 21
461.39008900959931
 31
0.0
  0
ARC
  5
BBB
  8
0
 10
299.88154535456869
 20
451.89008900959931
 30
0.0
 40
1.0
 50
90.0
 51
180.0
  0
LINE
  5
BBC
  8
0
 10
299.88154535456869
 20
452.89008900959931
 30
0.0
 11
304.88154535456869
 21
452.89008900959931
 31
0.0
  0
ARC
  5
BBD
  8
0
  6
CONTINUOUS
 10
335.88154535456869
 20
440.39008900959931
 30
0.0
 40
3.5
 50
218.21321070173829
 51
261.78678929826179
  0
ARC
  5
BBE
  8
0
  6
CONTINUOUS
 10
335.88154535456869
 20
440.39008900959931
 30
0.0
 40
3.5
 50
278.21321070173809
 51
321.78678929826242
  0
LINE
  5
BBF
  8
CENTER
  6
CENTER
 10
335.88154535456869
 20
433.39008900959942
 30
0.0
 11
335.88154535456869
 21
447.39008900959931
 31
0.0
  0
LINE
  5
BC0
  8
0
  6
CONTINUOUS
 10
335.38154535456869
 20
435.41515182406619
 30
0.0
 11
335.38154535456869
 21
436.92598739446152
 31
0.0
  0
LINE
  5
BC1
  8
0
  6
CONTINUOUS
 10
336.38154535456869
 20
435.41515182406619
 30
0.0
 11
336.38154535456869
 21
436.92598739446152
 31
0.0
  0
LINE
  5
BC2
  8
0
  6
CONTINUOUS
 10
331.3231233696651
 20
442.4445449004736
 30
0.0
 11
332.63154535456869
 21
441.68912711527599
 31
0.0
  0
LINE
  5
BC3
  8
0
  6
CONTINUOUS
 10
332.63154535456869
 20
439.09105090392262
 30
0.0
 11
331.3231233696651
 21
438.33563311872501
 31
0.0
  0
LINE
  5
BC4
  8
0
  6
CONTINUOUS
 10
331.8231233696651
 20
443.31057030425808
 30
0.0
 11
333.13154535456869
 21
442.55515251906053
 31
0.0
  0
LINE
  5
BC5
  8
0
  6
CONTINUOUS
 10
333.13154535456869
 20
438.2250255001382
 30
0.0
 11
331.8231233696651
 21
437.46960771494059
 31
0.0
  0
ARC
  5
BC6
  8
0
  6
CONTINUOUS
 10
335.88154535456869
 20
440.39008900959931
 30
0.0
 40
3.5
 50
158.2132107017386
 51
201.78678929826131
  0
LINE
  5
BC7
  8
0
  6
CONTINUOUS
 10
339.93996733947228
 20
443.31057030425808
 30
0.0
 11
338.63154535456869
 21
442.55515251906053
 31
0.0
  0
ARC
  5
BC8
  8
0
  6
CONTINUOUS
 10
335.88154535456869
 20
440.39008900959931
 30
0.0
 40
3.5
 50
338.21321070173769
 51
21.786789298262239
  0
LINE
  5
BC9
  8
0
  6
CONTINUOUS
 10
338.63154535456869
 20
438.2250255001382
 30
0.0
 11
339.93996733947228
 21
437.46960771494059
 31
0.0
  0
CIRCLE
  5
BCA
  8
0
  6
CONTINUOUS
 10
335.88154535456869
 20
440.39008900959931
 30
0.0
 40
2.5
  0
POLYLINE
  5
BCB
  8
0
  6
CONTINUOUS
 66
     1
 10
0.0
 20
0.0
 30
0.0
 70
     1
  0
VERTEX
  5
143C
  8
0
  6
CONTINUOUS
 10
336.74757075835311
 20
438.89008900959931
 30
0.0
  0
VERTEX
  5
143D
  8
0
  6
CONTINUOUS
 10
337.61359616213753
 20
440.39008900959931
 30
0.0
  0
VERTEX
  5
143E
  8
0
  6
CONTINUOUS
 10
336.74757075835311
 20
441.89008900959942
 30
0.0
  0
VERTEX
  5
143F
  8
0
  6
CONTINUOUS
 10
335.01551995078432
 20
441.89008900959942
 30
0.0
  0
VERTEX
  5
1440
  8
0
  6
CONTINUOUS
 10
334.1494945469999
 20
440.39008900959931
 30
0.0
  0
VERTEX
  5
1441
  8
0
  6
CONTINUOUS
 10
335.01551995078432
 20
438.89008900959931
 30
0.0
  0
SEQEND
  5
1442
  8
0
  6
CONTINUOUS
  0
LINE
  5
BD3
  8
0
  6
CONTINUOUS
 10
335.38154535456869
 20
443.85419062473721
 30
0.0
 11
335.38154535456869
 21
445.36502619513249
 31
0.0
  0
LINE
  5
BD4
  8
0
  6
CONTINUOUS
 10
336.38154535456869
 20
443.85419062473721
 30
0.0
 11
336.38154535456869
 21
445.36502619513249
 31
0.0
  0
ARC
  5
BD5
  8
0
  6
CONTINUOUS
 10
335.88154535456869
 20
440.39008900959931
 30
0.0
 40
3.5
 50
38.213210701738312
 51
81.786789298261766
  0
ARC
  5
BD6
  8
0
  6
CONTINUOUS
 10
335.88154535456869
 20
440.39008900959931
 30
0.0
 40
3.5
 50
98.213210701738234
 51
141.7867892982616
  0
LINE
  5
BD7
  8
HIDDEN
  6
HIDDEN
 10
310.88154535456869
 20
470.64008900959931
 30
0.0
 11
329.88154535456869
 21
470.64008900959931
 31
0.0
  0
LINE
  5
BD8
  8
HIDDEN
  6
HIDDEN
 10
310.88154535456869
 20
462.14008900959931
 30
0.0
 11
329.88154535456869
 21
462.14008900959931
 31
0.0
  0
LINE
  5
BD9
  8
HIDDEN
  6
HIDDEN
 10
310.88154535456869
 20
471.39008900959942
 30
0.0
 11
310.88154535456869
 21
461.39008900959931
 31
0.0
  0
LINE
  5
BDA
  8
HIDDEN
  6
HIDDEN
 10
329.88154535456869
 20
462.14008900959931
 30
0.0
 11
332.33528399862479
 21
466.39008900959948
 31
0.0
  0
LINE
  5
BDB
  8
HIDDEN
  6
HIDDEN
 10
329.88154535456869
 20
470.64008900959942
 30
0.0
 11
332.33528399862462
 21
466.39008900959942
 31
0.0
  0
LINE
  5
BDC
  8
HIDDEN
  6
HIDDEN
 10
326.88154535456869
 20
471.39008900959942
 30
0.0
 11
326.88154535456869
 21
461.39008900959931
 31
0.0
  0
LINE
  5
BDD
  8
HIDDEN
  6
HIDDEN
 10
329.88154535456869
 20
470.64008900959931
 30
0.0
 11
329.88154535456869
 21
462.14008900959931
 31
0.0
  0
LINE
  5
BDE
  8
DIM
  6
CONTINUOUS
 10
466.3815453545688
 20
380.60864435850613
 30
0.0
 11
466.3815453545688
 21
286.89008900959948
 31
0.0
  0
LINE
  5
BDF
  8
0
 10
470.88154535456869
 20
382.89008900959931
 30
0.0
 11
470.88154535456869
 21
371.89008900959942
 31
0.0
  0
SOLID
  5
BE0
  8
DIM
  6
CONTINUOUS
 10
473.8815453545688
 20
296.39008900959948
 30
0.0
 11
473.8815453545688
 21
295.39008900959948
 31
0.0
 12
470.8815453545688
 22
295.89008900959948
 32
0.0
 13
470.8815453545688
 23
295.89008900959948
 33
0.0
  0
LINE
  5
BE1
  8
0
 10
470.88154535456869
 20
371.89008900959942
 30
0.0
 11
471.88154535456869
 21
370.89008900959942
 31
0.0
  0
SOLID
  5
BE2
  8
DIM
  6
CONTINUOUS
 10
469.3815453545688
 20
288.39008900959948
 30
0.0
 11
469.3815453545688
 21
287.39008900959948
 31
0.0
 12
466.3815453545688
 22
287.89008900959948
 32
0.0
 13
466.3815453545688
 23
287.89008900959948
 33
0.0
  0
LINE
  5
BE3
  8
DIM
  6
CONTINUOUS
 10
470.8815453545688
 20
369.60864435850618
 30
0.0
 11
470.8815453545688
 21
294.89008900959948
 31
0.0
  0
LINE
  5
BE4
  8
0
  6
CONTINUOUS
 10
532.93154535456802
 20
255.45347684907881
 30
0.0
 11
532.93154535456802
 21
262.32761079827048
 31
0.0
  0
LINE
  5
BE5
  8
CENTER
  6
CENTER
 10
493.88154535456869
 20
240.88576857236379
 30
0.0
 11
493.88154535456869
 21
269.45347684907881
 31
0.0
  0
LINE
  5
BE6
  8
0
  6
CONTINUOUS
 10
482.93154535456802
 20
255.45347684907881
 30
0.0
 11
482.93154535456802
 21
262.32761079827048
 31
0.0
  0
LINE
  5
BE7
  8
0
  6
CONTINUOUS
 10
504.83154535456941
 20
255.45347684907881
 30
0.0
 11
504.83154535456941
 21
262.32761079827048
 31
0.0
  0
LINE
  5
BE8
  8
0
  6
CONTINUOUS
 10
487.88154535456869
 20
255.45347684907881
 30
0.0
 11
487.88154535456869
 21
262.42147684907962
 31
0.0
  0
LINE
  5
BE9
  8
0
  6
CONTINUOUS
 10
499.88154535456869
 20
255.45347684907881
 30
0.0
 11
499.88154535456869
 21
262.42147684907962
 31
0.0
  0
LINE
  5
BEA
  8
0
  6
CONTINUOUS
 10
504.83154535456941
 20
262.32761079827048
 30
0.0
 11
502.88154535456869
 21
263.45347684907881
 31
0.0
  0
LINE
  5
BEB
  8
0
  6
CONTINUOUS
 10
484.88154535456869
 20
263.45347684907881
 30
0.0
 11
502.88154535456869
 21
263.45347684907881
 31
0.0
  0
POLYLINE
  5
BEC
  8
0
  6
CONTINUOUS
 66
     1
 10
0.0
 20
0.0
 30
0.0
  0
VERTEX
  5
1443
  8
0
  6
CONTINUOUS
 10
493.88154535456869
 20
263.45347684907881
 30
0.0
 42
0.0851703918331015
  0
VERTEX
  5
1444
  8
0
  6
CONTINUOUS
 10
487.88154535456869
 20
262.42147684907962
 30
0.0
 42
0.3910851735909245
  0
VERTEX
  5
1445
  8
0
  6
CONTINUOUS
 10
483.90654535456838
 20
262.89054382367561
 30
0.0
  0
SEQEND
  5
1446
  8
0
  6
CONTINUOUS
  0
LINE
  5
BF1
  8
0
  6
CONTINUOUS
 10
482.93154535456802
 20
262.32761079827048
 30
0.0
 11
484.88154535456869
 21
263.45347684907881
 31
0.0
  0
LINE
  5
BF2
  8
0
  6
CONTINUOUS
 10
487.88154535456869
 20
264.45347684907881
 30
0.0
 11
499.88154535456869
 21
264.45347684907892
 31
0.0
  0
LINE
  5
BF3
  8
0
  6
CONTINUOUS
 10
489.88154535456869
 20
266.45347684907881
 30
0.0
 11
497.88154535456869
 21
266.45347684907881
 31
0.0
  0
POLYLINE
  5
BF4
  8
0
  6
CONTINUOUS
 66
     1
 10
0.0
 20
0.0
 30
0.0
  0
VERTEX
  5
1447
  8
0
  6
CONTINUOUS
 10
493.88154535456869
 20
263.45347684907881
 30
0.0
 42
-0.0851703918331015
  0
VERTEX
  5
1448
  8
0
  6
CONTINUOUS
 10
499.88154535456869
 20
262.42147684907962
 30
0.0
 42
-0.3910851735909245
  0
VERTEX
  5
1449
  8
0
  6
CONTINUOUS
 10
503.85654535456899
 20
262.89054382367561
 30
0.0
  0
SEQEND
  5
144A
  8
0
  6
CONTINUOUS
  0
LINE
  5
BF9
  8
0
  6
CONTINUOUS
 62
     2
 10
489.08154535456953
 20
263.45347684907898
 30
0.0
 11
489.08154535456953
 21
265.6534768490796
 31
0.0
  0
LINE
  5
BFA
  8
0
  6
CONTINUOUS
 10
487.88154535456869
 20
263.45347684907881
 30
0.0
 11
487.88154535456869
 21
264.45347684907881
 31
0.0
  0
LINE
  5
BFB
  8
0
  6
CONTINUOUS
 10
487.88154535456869
 20
264.45347684907881
 30
0.0
 11
489.88154535456869
 21
266.45347684907881
 31
0.0
  0
LINE
  5
BFC
  8
0
  6
CONTINUOUS
 10
499.88154535456869
 20
263.45347684907881
 30
0.0
 11
499.88154535456869
 21
264.45347684907881
 31
0.0
  0
LINE
  5
BFD
  8
0
  6
CONTINUOUS
 62
     2
 10
498.68154535456802
 20
263.45347684907898
 30
0.0
 11
498.68154535456802
 21
265.6534768490796
 31
0.0
  0
LINE
  5
BFE
  8
0
  6
CONTINUOUS
 10
499.88154535456869
 20
264.45347684907881
 30
0.0
 11
497.88154535456869
 21
266.45347684907881
 31
0.0
  0
TEXT
  5
BFF
  8
DIM
  6
CONTINUOUS
 10
515.02440249742585
 20
281.39008900959948
 30
0.0
 40
3.0
  1
428
  7
ROMANSS
 72
     1
 11
518.88154535456874
 21
282.89008900959948
 31
0.0
 73
     2
  0
LINE
  5
C00
  8
0
  6
CONTINUOUS
 10
532.93154535456802
 20
262.32761079827048
 30
0.0
 11
534.88154535456874
 21
263.45347684907881
 31
0.0
  0
TEXT
  5
C01
  8
DIM
  6
CONTINUOUS
 10
515.3101167831403
 20
289.39008900959948
 30
0.0
 40
3.0
  1
105
  7
ROMANSS
 72
     1
 11
518.88154535456874
 21
290.89008900959948
 31
0.0
 73
     2
  0
TEXT
  5
C02
  8
DIM
  6
CONTINUOUS
 10
515.16725964028308
 20
297.39008900959948
 30
0.0
 40
3.0
  1
%%c96
  7
ROMANSS
 72
     1
 11
518.88154535456874
 21
298.89008900959948
 31
0.0
 73
     2
  0
POLYLINE
  5
C03
  8
0
  6
CONTINUOUS
 66
     1
 10
0.0
 20
0.0
 30
0.0
 70
     1
  0
VERTEX
  5
144B
  8
0
  6
CONTINUOUS
 10
488.39671779726717
 20
416.89008900959942
 30
0.0
  0
VERTEX
  5
144C
  8
0
  6
CONTINUOUS
 10
482.91189023996583
 20
407.39008900959931
 30
0.0
  0
VERTEX
  5
144D
  8
0
  6
CONTINUOUS
 10
488.39671779726717
 20
397.89008900959931
 30
0.0
  0
VERTEX
  5
144E
  8
0
  6
CONTINUOUS
 10
499.3663729118702
 20
397.89008900959931
 30
0.0
  0
VERTEX
  5
144F
  8
0
  6
CONTINUOUS
 10
504.8512004691716
 20
407.39008900959931
 30
0.0
  0
VERTEX
  5
1450
  8
0
  6
CONTINUOUS
 10
499.3663729118702
 20
416.89008900959942
 30
0.0
  0
SEQEND
  5
1451
  8
0
  6
CONTINUOUS
  0
LINE
  5
C0B
  8
CENTER
  6
CENTER
 10
478.38154535456869
 20
407.39008900959931
 30
0.0
 11
509.38154535456869
 21
407.39008900959931
 31
0.0
  0
ARC
  5
C0C
  8
0
  6
CONTINUOUS
 62
     2
 10
493.88154535456869
 20
407.39008900959931
 30
0.0
 40
5.0999999999999988
 50
162.22254855360339
 51
111.813746502519
  0
CIRCLE
  5
C0D
  8
0
  6
CONTINUOUS
 10
493.88154535456869
 20
407.39008900959931
 30
0.0
 40
6.0
  0
CIRCLE
  5
C0E
  8
0
  6
CONTINUOUS
 10
493.88154535456869
 20
407.39008900959931
 30
0.0
 40
9.5
  0
LINE
  5
C0F
  8
CENTER
  6
CENTER
 10
493.88154535456869
 20
422.89008900959931
 30
0.0
 11
493.88154535456869
 21
391.89008900959931
 31
0.0
  0
POLYLINE
  5
C10
  8
0
  6
CONTINUOUS
 66
     1
 10
0.0
 20
0.0
 30
0.0
 70
     1
  0
VERTEX
  5
1452
  8
0
  6
CONTINUOUS
 10
492.14949454700059
 20
410.39008900959931
 30
0.0
  0
VERTEX
  5
1453
  8
0
  6
CONTINUOUS
 10
490.4174437394305
 20
407.39008900959931
 30
0.0
  0
VERTEX
  5
1454
  8
0
  6
CONTINUOUS
 10
492.14949454700059
 20
404.39008900959942
 30
0.0
  0
VERTEX
  5
1455
  8
0
  6
CONTINUOUS
 10
495.61359616213679
 20
404.39008900959942
 30
0.0
  0
VERTEX
  5
1456
  8
0
  6
CONTINUOUS
 10
497.34564696970682
 20
407.39008900959931
 30
0.0
  0
VERTEX
  5
1457
  8
0
  6
CONTINUOUS
 10
495.61359616213679
 20
410.39008900959931
 30
0.0
  0
SEQEND
  5
1458
  8
0
  6
CONTINUOUS
  0
CIRCLE
  5
C18
  8
0
  6
CONTINUOUS
 10
518.88154535456874
 20
430.39008900959931
 30
0.0
 40
4.0
  0
POLYLINE
  5
C19
  8
0
  6
CONTINUOUS
 66
     1
 10
0.0
 20
0.0
 30
0.0
 70
     1
 40
1.0
 41
1.0
  0
VERTEX
  5
1459
  8
0
  6
CONTINUOUS
 10
519.38154535456874
 20
430.39008900959931
 30
0.0
 42
1.0
  0
VERTEX
  5
145A
  8
0
  6
CONTINUOUS
 10
518.38154535456874
 20
430.39008900959931
 30
0.0
 42
1.0
  0
SEQEND
  5
145B
  8
0
  6
CONTINUOUS
  0
CIRCLE
  5
C1D
  8
0
  6
CONTINUOUS
 10
518.88154535456874
 20
669.94626817692927
 30
0.0
 40
13.00000000000005
  0
SOLID
  5
C1E
  8
DIM
  6
CONTINUOUS
 10
493.38154535456891
 20
662.94626817692915
 30
0.0
 11
494.3815453545688
 21
662.94626817692915
 31
0.0
 12
493.8815453545688
 22
665.94626817692927
 32
0.0
 13
493.8815453545688
 23
665.94626817692927
 33
0.0
  0
LINE
  5
C1F
  8
0
 10
304.8815453545688
 20
681.19626817692915
 30
0.0
 11
304.8815453545688
 21
586.69626817692927
 31
0.0
  0
LINE
  5
C20
  8
0
 10
342.88154535456869
 20
681.44626817692915
 30
0.0
 11
342.88154535456869
 21
586.44626817692927
 31
0.0
  0
CIRCLE
  5
C21
  8
0
  6
CONTINUOUS
 10
518.88154535456874
 20
669.94626817692927
 30
0.0
 40
17.5
  0
CIRCLE
  5
C22
  8
0
  6
CONTINUOUS
 10
518.88154535456874
 20
669.94626817692927
 30
0.0
 40
14.00000000000005
  0
LINE
  5
C23
  8
0
 10
466.38154535456869
 20
721.44626817692915
 30
0.0
 11
466.38154535456869
 21
586.44626817692927
 31
0.0
  0
LINE
  5
C24
  8
CENTER
  6
CENTER
 10
518.88154535456874
 20
726.90674087956086
 30
0.0
 11
518.88154535456874
 21
583.44626817692915
 31
0.0
  0
LINE
  5
C25
  8
0
 10
466.38154535456869
 20
590.44626817692927
 30
0.0
 11
342.88154535456869
 21
590.44626817692927
 31
0.0
  0
LINE
  5
C26
  8
0
 62
     7
 10
466.38154535456869
 20
609.31004666154865
 30
0.0
 11
342.88154535456869
 21
609.31004666154865
 31
0.0
  0
LINE
  5
C27
  8
0
 62
     7
 10
466.38154535456869
 20
658.58248969230988
 30
0.0
 11
342.88154535456869
 21
658.58248969230988
 31
0.0
  0
LINE
  5
C28
  8
0
 10
466.38154535456869
 20
473.89008900959948
 30
0.0
 11
342.88154535456869
 21
473.89008900959948
 31
0.0
  0
LINE
  5
C29
  8
CENTER
  6
CENTER
 10
301.8815453545688
 20
597.94626817692949
 30
0.0
 11
466.38154535456869
 21
597.94626817692938
 31
0.0
  0
LINE
  5
C2A
  8
0
 10
342.88154535456869
 20
477.89008900959931
 30
0.0
 11
304.88154535456869
 21
477.64008900959942
 31
0.0
  0
LINE
  5
C2B
  8
0
 10
342.88154535456869
 20
586.44626817692927
 30
0.0
 11
304.8815453545688
 21
586.69626817692927
 31
0.0
  0
LINE
  5
C2C
  8
0
 10
298.8815453545688
 20
655.44626817692915
 30
0.0
 11
298.8815453545688
 21
612.44626817692927
 31
0.0
  0
LINE
  5
C2D
  8
HIDDEN
  6
HIDDEN
 10
304.88154535456891
 20
592.94626817692927
 30
0.0
 11
326.88154535456891
 21
592.94626817692915
 31
0.0
  0
LINE
  5
C2E
  8
HIDDEN
  6
HIDDEN
 10
304.88154535456891
 20
602.94626817692927
 30
0.0
 11
326.88154535456891
 21
602.94626817692938
 31
0.0
  0
ARC
  5
C2F
  8
0
 10
299.8815453545688
 20
612.44626817692927
 30
0.0
 40
1.0
 50
180.0
 51
270.0
  0
LINE
  5
C30
  8
0
 10
299.8815453545688
 20
611.44626817692927
 30
0.0
 11
304.8815453545688
 21
611.44626817692927
 31
0.0
  0
LINE
  5
C31
  8
HIDDEN
  6
HIDDEN
 10
310.88154535456891
 20
592.94626817692927
 30
0.0
 11
310.88154535456891
 21
602.94626817692927
 31
0.0
  0
LINE
  5
C32
  8
CENTER
  6
CENTER
 10
323.8815453545688
 20
600.43820898402225
 30
0.0
 11
323.88154535456891
 21
581.11949338117029
 31
0.0
  0
LINE
  5
C33
  8
CENTER
  6
CENTER
 10
335.88154535456869
 20
600.42600429741105
 30
0.0
 11
335.88154535456869
 21
581.33151218770308
 31
0.0
  0
LINE
  5
C34
  8
HIDDEN
  6
HIDDEN
 10
326.88154535456891
 20
592.94626817692915
 30
0.0
 11
326.88154535456891
 21
602.94626817692927
 31
0.0
  0
LINE
  5
C35
  8
HIDDEN
  6
HIDDEN
 10
329.8815453545688
 20
593.69626817692915
 30
0.0
 11
332.33528399862467
 21
597.94626817692915
 31
0.0
  0
LINE
  5
C36
  8
HIDDEN
  6
HIDDEN
 10
329.8815453545688
 20
593.69626817692915
 30
0.0
 11
329.8815453545688
 21
602.19626817692927
 31
0.0
  0
LINE
  5
C37
  8
HIDDEN
  6
HIDDEN
 10
310.88154535456891
 20
593.69626817692927
 30
0.0
 11
329.8815453545688
 21
593.69626817692915
 31
0.0
  0
LINE
  5
C38
  8
HIDDEN
  6
HIDDEN
 10
310.88154535456891
 20
602.19626817692927
 30
0.0
 11
329.8815453545688
 21
602.19626817692927
 31
0.0
  0
LINE
  5
C39
  8
HIDDEN
  6
HIDDEN
 10
329.8815453545688
 20
602.19626817692927
 30
0.0
 11
332.33528399862479
 21
597.94626817692915
 31
0.0
  0
ARC
  5
C3A
  8
0
 10
299.8815453545688
 20
655.44626817692915
 30
0.0
 40
1.0
 50
90.0
 51
180.0
  0
LINE
  5
C3B
  8
0
 10
299.8815453545688
 20
656.44626817692915
 30
0.0
 11
304.8815453545688
 21
656.44626817692915
 31
0.0
  0
LINE
  5
C3C
  8
DIM
  6
CONTINUOUS
 10
500.38154535456869
 20
490.89008900959948
 30
0.0
 11
449.38154535456869
 21
490.89008900959948
 31
0.0
  0
LINE
  5
C3D
  8
DIM
  6
CONTINUOUS
 10
504.88154535456869
 20
540.89008900959948
 30
0.0
 11
449.38154535456869
 21
540.89008900959948
 31
0.0
  0
LINE
  5
C3E
  8
DIM
  6
CONTINUOUS
 10
500.88154535456869
 20
493.39008900959931
 30
0.0
 11
457.38154535456869
 21
493.39008900959931
 31
0.0
  0
LINE
  5
C3F
  8
DIM
  6
CONTINUOUS
 10
500.88154535456869
 20
538.39008900959936
 30
0.0
 11
457.38154535456869
 21
538.39008900959936
 31
0.0
  0
LINE
  5
C40
  8
0
 10
471.88154535456869
 20
489.89008900959942
 30
0.0
 11
470.88154535456869
 21
488.89008900959942
 31
0.0
  0
LINE
  5
C41
  8
DIM
  6
CONTINUOUS
 10
450.38154535456869
 20
537.89008900959936
 30
0.0
 11
450.38154535456869
 21
482.95712285213841
 31
0.0
  0
LINE
  5
C42
  8
DIM
  6
CONTINUOUS
 10
458.38154535456869
 20
535.39008900959936
 30
0.0
 11
458.38154535456869
 21
496.39008900959942
 31
0.0
  0
SOLID
  5
C43
  8
DIM
  6
CONTINUOUS
 10
457.88154535456869
 20
496.39008900959942
 30
0.0
 11
458.88154535456869
 21
496.39008900959942
 31
0.0
 12
458.38154535456869
 22
493.39008900959931
 32
0.0
 13
458.38154535456869
 23
493.39008900959931
 33
0.0
  0
LINE
  5
C44
  8
DIM
  6
CONTINUOUS
 10
470.8246785333551
 20
489.89008900959942
 30
0.0
 11
449.38154535456869
 21
489.89008900959942
 31
0.0
  0
TEXT
  5
C45
  8
DIM
  6
CONTINUOUS
 10
448.88154535456869
 20
484.58096389327437
 30
0.0
 40
3.0
  1
1
 50
90.0
  7
ROMANSS
 72
     1
 11
447.38154535456869
 21
484.93810675041721
 31
0.0
 73
     2
  0
SOLID
  5
C46
  8
DIM
  6
CONTINUOUS
 10
449.88154535456869
 20
486.89008900959948
 30
0.0
 11
450.88154535456869
 21
486.89008900959948
 31
0.0
 12
450.38154535456869
 22
489.89008900959942
 32
0.0
 13
450.38154535456869
 23
489.89008900959942
 33
0.0
  0
SOLID
  5
C47
  8
DIM
  6
CONTINUOUS
 10
449.88154535456869
 20
493.89008900959942
 30
0.0
 11
450.88154535456869
 21
493.89008900959942
 31
0.0
 12
450.38154535456869
 22
490.89008900959948
 32
0.0
 13
450.38154535456869
 23
490.89008900959948
 33
0.0
  0
LINE
  5
C48
  8
0
 10
470.88154535456869
 20
488.89008900959942
 30
0.0
 11
470.88154535456869
 21
477.89008900959931
 31
0.0
  0
TEXT
  5
C49
  8
DIM
  6
CONTINUOUS
 10
456.88154535456869
 20
513.46151758102803
 30
0.0
 40
3.0
  1
45
 50
90.0
  7
ROMANSS
 72
     1
 11
455.38154535456869
 21
515.89008900959948
 31
0.0
 73
     2
  0
TEXT
  5
C4A
  8
DIM
  6
CONTINUOUS
 10
448.88154535456869
 20
513.46151758102803
 30
0.0
 40
3.0
  1
50
 50
90.0
  7
ROMANSS
 72
     1
 11
447.38154535456869
 21
515.89008900959948
 31
0.0
 73
     2
  0
SOLID
  5
C4B
  8
DIM
  6
CONTINUOUS
 10
449.88154535456869
 20
537.89008900959936
 30
0.0
 11
450.88154535456869
 21
537.89008900959936
 31
0.0
 12
450.38154535456869
 22
540.89008900959948
 32
0.0
 13
450.38154535456869
 23
540.89008900959948
 33
0.0
  0
SOLID
  5
C4C
  8
DIM
  6
CONTINUOUS
 10
457.88154535456869
 20
535.39008900959936
 30
0.0
 11
458.88154535456869
 21
535.39008900959936
 31
0.0
 12
458.38154535456869
 22
538.39008900959936
 32
0.0
 13
458.38154535456869
 23
538.39008900959936
 33
0.0
  0
LINE
  5
C4D
  8
0
 10
501.88154535456869
 20
538.39008900959936
 30
0.0
 11
501.88154535456869
 21
493.39008900959931
 31
0.0
  0
LINE
  5
C4E
  8
0
 10
504.88154535456869
 20
539.89008900959936
 30
0.0
 11
504.88154535456869
 21
490.89008900959948
 31
0.0
  0
LINE
  5
C4F
  8
0
 10
532.88154535456874
 20
539.89008900959936
 30
0.0
 11
532.88154535456874
 21
490.89008900959948
 31
0.0
  0
LINE
  5
C50
  8
0
 10
501.88154535456869
 20
493.39008900959931
 30
0.0
 11
504.88154535456869
 21
493.39008900959931
 31
0.0
  0
LINE
  5
C51
  8
0
 10
501.38154535456869
 20
490.89008900959948
 30
0.0
 11
536.38154535456874
 21
490.89008900959948
 31
0.0
  0
LINE
  5
C52
  8
0
 10
501.38154535456869
 20
490.89008900959948
 30
0.0
 11
501.38154535456869
 21
489.89008900959942
 31
0.0
  0
LINE
  5
C53
  8
0
 10
536.38154535456874
 20
490.89008900959948
 30
0.0
 11
536.38154535456874
 21
489.89008900959942
 31
0.0
  0
SOLID
  5
C54
  8
DIM
  6
CONTINUOUS
 10
504.88154535456869
 20
557.39008900959948
 30
0.0
 11
504.88154535456869
 21
556.39008900959936
 31
0.0
 12
501.88154535456869
 22
556.89008900959948
 32
0.0
 13
501.88154535456869
 23
556.89008900959948
 33
0.0
  0
LINE
  5
C55
  8
0
 10
501.88154535456869
 20
538.39008900959936
 30
0.0
 11
504.88154535456869
 21
538.39008900959936
 31
0.0
  0
LINE
  5
C56
  8
DIM
  6
CONTINUOUS
 10
501.88154535456869
 20
539.39008900959936
 30
0.0
 11
501.88154535456869
 21
557.89008900959948
 31
0.0
  0
LINE
  5
C57
  8
DIM
  6
CONTINUOUS
 10
532.88154535456874
 20
540.89008900959948
 30
0.0
 11
532.88154535456874
 21
557.89008900959948
 31
0.0
  0
LINE
  5
C58
  8
DIM
  6
CONTINUOUS
 10
504.88154535456869
 20
540.89008900959948
 30
0.0
 11
504.88154535456869
 21
549.89008900959948
 31
0.0
  0
LINE
  5
C59
  8
DIM
  6
CONTINUOUS
 10
532.88154535456874
 20
540.89008900959948
 30
0.0
 11
532.88154535456874
 21
549.89008900959948
 31
0.0
  0
LINE
  5
C5A
  8
0
 10
504.88154535456869
 20
539.89008900959936
 30
0.0
 11
532.88154535456874
 21
539.89008900959936
 31
0.0
  0
LINE
  5
C5B
  8
0
 10
505.88154535456869
 20
540.89008900959948
 30
0.0
 11
531.88154535456874
 21
540.89008900959948
 31
0.0
  0
LINE
  5
C5C
  8
0
 10
505.88154535456869
 20
540.89008900959948
 30
0.0
 11
504.88154535456869
 21
539.89008900959936
 31
0.0
  0
LINE
  5
C5D
  8
0
 10
531.88154535456874
 20
540.89008900959948
 30
0.0
 11
532.88154535456874
 21
539.89008900959936
 31
0.0
  0
LINE
  5
C5E
  8
DIM
  6
CONTINUOUS
 10
529.88154535456874
 20
556.89008900959948
 30
0.0
 11
504.88154535456869
 21
556.89008900959948
 31
0.0
  0
TEXT
  5
C5F
  8
DIM
  6
CONTINUOUS
 10
512.38154535456874
 20
550.39008900959936
 30
0.0
 40
3.0
  1
%%c28h6
  7
ROMANSS
 72
     1
 11
518.88154535456874
 21
551.89008900959936
 31
0.0
 73
     2
  0
LINE
  5
C60
  8
DIM
  6
CONTINUOUS
 10
529.88154535456874
 20
548.89008900959948
 30
0.0
 11
507.88154535456869
 21
548.89008900959948
 31
0.0
  0
SOLID
  5
C61
  8
DIM
  6
CONTINUOUS
 10
507.88154535456869
 20
549.39008900959948
 30
0.0
 11
507.88154535456869
 21
548.39008900959936
 31
0.0
 12
504.88154535456869
 22
548.89008900959948
 32
0.0
 13
504.88154535456869
 23
548.89008900959948
 33
0.0
  0
TEXT
  5
C62
  8
DIM
  6
CONTINUOUS
 10
515.59583106885441
 20
558.39008900959936
 30
0.0
 40
3.0
  1
31
  7
ROMANSS
 72
     1
 11
517.38154535456874
 21
559.89008900959936
 31
0.0
 73
     2
  0
SOLID
  5
C63
  8
DIM
  6
CONTINUOUS
 10
529.88154535456874
 20
549.39008900959948
 30
0.0
 11
529.88154535456874
 21
548.39008900959936
 31
0.0
 12
532.88154535456874
 22
548.89008900959948
 32
0.0
 13
532.88154535456874
 23
548.89008900959948
 33
0.0
  0
SOLID
  5
C64
  8
DIM
  6
CONTINUOUS
 10
529.88154535456874
 20
557.39008900959948
 30
0.0
 11
529.88154535456874
 21
556.39008900959936
 31
0.0
 12
532.88154535456874
 22
556.89008900959948
 32
0.0
 13
532.88154535456874
 23
556.89008900959948
 33
0.0
  0
LINE
  5
C65
  8
CENTER
  6
CENTER
 10
467.88154535456869
 20
628.94626817692915
 30
0.0
 11
487.88154535456869
 21
628.94626817692915
 31
0.0
  0
LINE
  5
C66
  8
0
  6
CONTINUOUS
 10
504.83154535456941
 20
579.57213422773748
 30
0.0
 11
502.88154535456869
 21
578.44626817692927
 31
0.0
  0
LINE
  5
C67
  8
CENTER
  6
CENTER
 10
493.88154535456869
 20
601.01397645364432
 30
0.0
 11
493.88154535456869
 21
572.44626817692915
 31
0.0
  0
LINE
  5
C68
  8
0
  6
CONTINUOUS
 10
484.88154535456869
 20
578.44626817692927
 30
0.0
 11
502.88154535456869
 21
578.44626817692927
 31
0.0
  0
POLYLINE
  5
C69
  8
0
  6
CONTINUOUS
 66
     1
 10
0.0
 20
0.0
 30
0.0
  0
VERTEX
  5
145C
  8
0
  6
CONTINUOUS
 10
493.88154535456869
 20
578.44626817692927
 30
0.0
 42
-0.0851703918331015
  0
VERTEX
  5
145D
  8
0
  6
CONTINUOUS
 10
487.88154535456869
 20
579.47826817692851
 30
0.0
 42
-0.3910851735909245
  0
VERTEX
  5
145E
  8
0
  6
CONTINUOUS
 10
483.90654535456838
 20
579.00920120233252
 30
0.0
  0
SEQEND
  5
145F
  8
0
  6
CONTINUOUS
  0
LINE
  5
C6E
  8
0
  6
CONTINUOUS
 10
482.93154535456802
 20
586.44626817692927
 30
0.0
 11
482.93154535456802
 21
579.57213422773748
 31
0.0
  0
LINE
  5
C6F
  8
0
  6
CONTINUOUS
 10
482.93154535456802
 20
579.57213422773748
 30
0.0
 11
484.88154535456869
 21
578.44626817692927
 31
0.0
  0
LINE
  5
C70
  8
0
  6
CONTINUOUS
 10
487.88154535456869
 20
586.44626817692927
 30
0.0
 11
487.88154535456869
 21
579.47826817692851
 31
0.0
  0
LINE
  5
C71
  8
0
  6
CONTINUOUS
 10
499.88154535456869
 20
586.44626817692927
 30
0.0
 11
499.88154535456869
 21
579.47826817692851
 31
0.0
  0
LINE
  5
C72
  8
0
  6
CONTINUOUS
 10
489.88154535456869
 20
575.44626817692915
 30
0.0
 11
497.88154535456869
 21
575.44626817692915
 31
0.0
  0
LINE
  5
C73
  8
0
  6
CONTINUOUS
 10
487.88154535456869
 20
577.44626817692915
 30
0.0
 11
499.88154535456869
 21
577.44626817692915
 31
0.0
  0
POLYLINE
  5
C74
  8
0
  6
CONTINUOUS
 66
     1
 10
0.0
 20
0.0
 30
0.0
  0
VERTEX
  5
1460
  8
0
  6
CONTINUOUS
 10
493.88154535456869
 20
578.44626817692927
 30
0.0
 42
0.0851703918331015
  0
VERTEX
  5
1461
  8
0
  6
CONTINUOUS
 10
499.88154535456869
 20
579.47826817692851
 30
0.0
 42
0.3910851735909245
  0
VERTEX
  5
1462
  8
0
  6
CONTINUOUS
 10
503.85654535456899
 20
579.00920120233252
 30
0.0
  0
SEQEND
  5
1463
  8
0
  6
CONTINUOUS
  0
LINE
  5
C79
  8
0
  6
CONTINUOUS
 10
487.88154535456869
 20
577.44626817692915
 30
0.0
 11
489.88154535456869
 21
575.44626817692915
 31
0.0
  0
LINE
  5
C7A
  8
0
  6
CONTINUOUS
 10
487.88154535456869
 20
578.44626817692927
 30
0.0
 11
487.88154535456869
 21
577.44626817692915
 31
0.0
  0
LINE
  5
C7B
  8
0
  6
CONTINUOUS
 62
     2
 10
489.08154535456953
 20
578.44626817692915
 30
0.0
 11
489.08154535456953
 21
576.24626817692854
 31
0.0
  0
LINE
  5
C7C
  8
0
  6
CONTINUOUS
 10
499.88154535456869
 20
577.44626817692915
 30
0.0
 11
497.88154535456869
 21
575.44626817692915
 31
0.0
  0
LINE
  5
C7D
  8
0
  6
CONTINUOUS
 10
499.88154535456869
 20
578.44626817692927
 30
0.0
 11
499.88154535456869
 21
577.44626817692915
 31
0.0
  0
LINE
  5
C7E
  8
0
  6
CONTINUOUS
 62
     2
 10
498.68154535456802
 20
578.44626817692915
 30
0.0
 11
498.68154535456802
 21
576.24626817692854
 31
0.0
  0
LINE
  5
C7F
  8
0
  6
CONTINUOUS
 10
504.83154535456941
 20
586.44626817692927
 30
0.0
 11
504.83154535456941
 21
579.57213422773748
 31
0.0
  0
LINE
  5
C80
  8
0
  6
CONTINUOUS
 10
532.93154535456802
 20
586.44626817692927
 30
0.0
 11
532.93154535456802
 21
579.57213422773748
 31
0.0
  0
LINE
  5
C81
  8
0
  6
CONTINUOUS
 10
532.93154535456802
 20
579.57213422773748
 30
0.0
 11
534.88154535456874
 21
578.44626817692927
 31
0.0
  0
CIRCLE
  5
C82
  8
0
  6
CONTINUOUS
 10
477.88154535456869
 20
628.94626817692915
 30
0.0
 40
4.25
  0
ARC
  5
C83
  8
0
  6
CONTINUOUS
 62
     2
 10
477.88154535456869
 20
628.94626817692915
 30
0.0
 40
5.0
 50
161.29065264439251
 51
115.2003954081225
  0
LINE
  5
C84
  8
CENTER
  6
CENTER
 10
477.88154535456869
 20
638.94626817692915
 30
0.0
 11
477.88154535456869
 21
618.94626817692915
 31
0.0
  0
LINE
  5
C85
  8
DIM
  6
CONTINUOUS
 10
493.8815453545688
 20
662.94626817692915
 30
0.0
 11
493.8815453545688
 21
659.94626817692915
 31
0.0
  0
LINE
  5
C86
  8
0
 10
466.38154535456869
 20
677.44626817692927
 30
0.0
 11
342.88154535456869
 21
677.44626817692927
 31
0.0
  0
LINE
  5
C87
  8
0
 10
342.88154535456869
 20
681.44626817692915
 30
0.0
 11
304.8815453545688
 21
681.19626817692915
 31
0.0
  0
LINE
  5
C88
  8
HIDDEN
  6
HIDDEN
 10
304.88154535456891
 20
674.94626817692915
 30
0.0
 11
326.88154535456891
 21
674.94626817692915
 31
0.0
  0
LINE
  5
C89
  8
HIDDEN
  6
HIDDEN
 10
304.88154535456891
 20
664.94626817692927
 30
0.0
 11
326.88154535456891
 21
664.94626817692927
 31
0.0
  0
LINE
  5
C8A
  8
HIDDEN
  6
HIDDEN
 10
310.88154535456891
 20
665.69626817692915
 30
0.0
 11
329.8815453545688
 21
665.69626817692915
 31
0.0
  0
LINE
  5
C8B
  8
HIDDEN
  6
HIDDEN
 10
310.88154535456891
 20
674.19626817692915
 30
0.0
 11
329.8815453545688
 21
674.19626817692915
 31
0.0
  0
LINE
  5
C8C
  8
HIDDEN
  6
HIDDEN
 10
310.88154535456891
 20
674.94626817692915
 30
0.0
 11
310.88154535456891
 21
664.94626817692927
 31
0.0
  0
LINE
  5
C8D
  8
HIDDEN
  6
HIDDEN
 10
329.8815453545688
 20
674.19626817692938
 30
0.0
 11
332.33528399862467
 21
669.94626817692927
 31
0.0
  0
LINE
  5
C8E
  8
HIDDEN
  6
HIDDEN
 10
329.8815453545688
 20
665.69626817692915
 30
0.0
 11
332.33528399862479
 21
669.94626817692927
 31
0.0
  0
LINE
  5
C8F
  8
HIDDEN
  6
HIDDEN
 10
329.8815453545688
 20
674.19626817692915
 30
0.0
 11
329.8815453545688
 21
665.69626817692915
 31
0.0
  0
LINE
  5
C90
  8
HIDDEN
  6
HIDDEN
 10
326.88154535456891
 20
674.94626817692915
 30
0.0
 11
326.88154535456891
 21
664.94626817692927
 31
0.0
  0
LINE
  5
C91
  8
CENTER
  6
CENTER
 10
467.88154535456869
 20
710.94626817692927
 30
0.0
 11
487.88154535456869
 21
710.94626817692927
 31
0.0
  0
SOLID
  5
C92
  8
DIM
  6
CONTINUOUS
 10
439.5880213800649
 20
672.93634616492989
 30
0.0
 11
438.58819783884309
 21
672.95513143625885
 31
0.0
 12
439.03175379546713
 22
669.94626817692927
 32
0.0
 13
439.03175379546713
 23
669.94626817692927
 33
0.0
  0
CIRCLE
  5
C93
  8
0
  6
CONTINUOUS
 10
477.88154535456869
 20
710.94626817692927
 30
0.0
 40
4.25
  0
ARC
  5
C94
  8
0
  6
CONTINUOUS
 62
     2
 10
477.88154535456869
 20
710.94626817692927
 30
0.0
 40
5.0
 50
161.29065264439421
 51
115.2003954081208
  0
LINE
  5
C95
  8
CENTER
  6
CENTER
 10
477.88154535456869
 20
720.94626817692915
 30
0.0
 11
477.88154535456869
 21
700.94626817692915
 31
0.0
  0
LINE
  5
C96
  8
0
 10
501.88154535456869
 20
665.94626817692927
 30
0.0
 11
505.46513748957
 21
665.94626817692927
 31
0.0
  0
LINE
  5
C97
  8
0
 10
501.88154535456869
 20
673.94626817692927
 30
0.0
 11
505.46513748957
 21
673.94626817692927
 31
0.0
  0
SOLID
  5
C98
  8
DIM
  6
CONTINUOUS
 10
493.38154535456891
 20
676.94626817692915
 30
0.0
 11
494.3815453545688
 21
676.94626817692915
 31
0.0
 12
493.8815453545688
 22
673.94626817692927
 32
0.0
 13
493.8815453545688
 23
673.94626817692927
 33
0.0
  0
LINE
  5
C99
  8
DIM
  6
CONTINUOUS
 10
500.88154535456869
 20
673.94626817692927
 30
0.0
 11
492.8815453545688
 21
673.94626817692927
 31
0.0
  0
LINE
  5
C9A
  8
DIM
  6
CONTINUOUS
 10
500.88154535456869
 20
665.94626817692927
 30
0.0
 11
492.8815453545688
 21
665.94626817692927
 31
0.0
  0
LINE
  5
C9B
  8
DIM
  6
CONTINUOUS
 10
493.8815453545688
 20
665.94626817692927
 30
0.0
 11
493.8815453545688
 21
673.94626817692927
 31
0.0
  0
LINE
  5
C9C
  8
0
 10
501.88154535456869
 20
673.94626817692927
 30
0.0
 11
501.88154535456869
 21
665.94626817692927
 31
0.0
  0
TEXT
  5
C9D
  8
DIM
  6
CONTINUOUS
 10
492.3815453545688
 20
680.82126817692915
 30
0.0
 40
3.0
  1
8
 50
90.0
  7
ROMANSS
 72
     1
 11
490.8815453545688
 21
681.82126817692915
 31
0.0
 73
     2
  0
LINE
  5
C9E
  8
DIM
  6
CONTINUOUS
 10
493.8815453545688
 20
679.94626817692915
 30
0.0
 11
493.8815453545688
 21
682.69626817692915
 31
0.0
  0
LINE
  5
C9F
  8
DIM
  6
CONTINUOUS
 10
493.8815453545688
 20
676.94626817692915
 30
0.0
 11
493.8815453545688
 21
679.94626817692915
 31
0.0
  0
ARC
  5
CA0
  8
0
  6
CONTINUOUS
 62
     2
 10
491.30438088829339
 20
697.52343264320461
 30
0.0
 40
4.0
 50
210.50278965468681
 51
157.4755877848952
  0
LINE
  5
CA1
  8
CENTER
  6
CENTER
 10
485.64752663880103
 20
703.18028689269704
 30
0.0
 11
496.96123513778571
 21
691.86657839371219
 31
0.0
  0
CIRCLE
  5
CA2
  8
0
  6
CONTINUOUS
 10
491.30438088829339
 20
697.52343264320461
 30
0.0
 40
3.399999999999999
  0
CIRCLE
  5
CA3
  8
0
  6
CONTINUOUS
 10
518.88154535456874
 20
669.94626817692927
 30
0.0
 40
3.399999999999999
  0
ARC
  5
CA4
  8
0
  6
CONTINUOUS
 62
     2
 10
518.88154535456874
 20
669.94626817692927
 30
0.0
 40
4.0
 50
153.95518686272919
 51
110.5741396147375
  0
SOLID
  5
CA5
  8
DIM
  6
CONTINUOUS
 10
525.59044671051925
 20
671.63710371250829
 30
0.0
 11
525.39441324673305
 21
672.61770091884534
 31
0.0
 12
522.55063835961505
 22
671.53930192431835
 32
0.0
 13
522.55063835961505
 23
671.53930192431835
 33
0.0
  0
SOLID
  5
CA6
  8
DIM
  6
CONTINUOUS
 10
480.88154535456869
 20
729.94626817692915
 30
0.0
 11
480.88154535456869
 21
728.94626817692915
 31
0.0
 12
477.88154535456869
 22
729.44626817692915
 32
0.0
 13
477.88154535456869
 23
729.44626817692915
 33
0.0
  0
LINE
  5
CA7
  8
DIM
  6
CONTINUOUS
 10
477.88154535456869
 20
721.94626817692915
 30
0.0
 11
477.88154535456869
 21
730.44626817692915
 31
0.0
  0
TEXT
  5
CA8
  8
DIM
  6
CONTINUOUS
 10
516.4529739259973
 20
730.94626817692915
 30
0.0
 40
3.0
  1
82
  7
ROMANSS
 72
     1
 11
518.88154535456874
 21
732.44626817692927
 31
0.0
 73
     2
  0
TEXT
  5
CA9
  8
DIM
  6
CONTINUOUS
 10
510.71863104545912
 20
751.20502638105404
 30
0.0
 40
3.0
  1
180%%p5%%d
  7
ROMANSS
 72
     1
 11
518.29005961688756
 21
752.70502638105404
 31
0.0
 73
     2
  0
LINE
  5
CAA
  8
DIM
  6
CONTINUOUS
 10
709.80441538186619
 20
447.92887469099742
 30
0.0
 11
692.20094762787471
 21
492.80700814992377
 31
0.0
  0
LINE
  5
CAB
  8
0
 10
571.38154535456874
 20
477.89008900959931
 30
0.0
 11
571.38154535456874
 21
382.89008900959931
 31
0.0
  0
LINE
  5
CAC
  8
0
 10
732.88154535456874
 20
477.64008900959942
 30
0.0
 11
732.88154535456874
 21
383.14008900959931
 31
0.0
  0
LINE
  5
CAD
  8
0
 10
694.88154535456874
 20
477.89008900959931
 30
0.0
 11
694.88154535456874
 21
382.89008900959931
 31
0.0
  0
LINE
  5
CAE
  8
0
 10
738.88154535456874
 20
186.4534768490789
 30
0.0
 11
738.88154535456874
 21
229.4534768490787
 31
0.0
  0
LINE
  5
CAF
  8
0
 10
732.88154535456874
 20
160.7034768490789
 30
0.0
 11
732.88154535456874
 21
255.2034768490787
 31
0.0
  0
LINE
  5
CB0
  8
0
 10
694.88154535456874
 20
160.4534768490789
 30
0.0
 11
694.88154535456874
 21
255.4534768490787
 31
0.0
  0
CIRCLE
  5
CB1
  8
0
  6
CONTINUOUS
 10
559.88154535456874
 20
212.95347684907881
 30
0.0
 40
4.25
  0
ARC
  5
CB2
  8
0
  6
CONTINUOUS
 62
     2
 10
559.88154535456874
 20
212.95347684907881
 30
0.0
 40
5.0
 50
244.7996045918776
 51
198.7093473556057
  0
LINE
  5
CB3
  8
CENTER
  6
CENTER
 10
559.88154535456874
 20
202.9534768490789
 30
0.0
 11
559.88154535456874
 21
222.95347684907881
 31
0.0
  0
LINE
  5
CB4
  8
0
 10
571.38154535456874
 20
120.4534768490789
 30
0.0
 11
571.38154535456874
 21
255.45347684907881
 31
0.0
  0
LINE
  5
CB5
  8
0
 62
     7
 10
571.38154535456874
 20
183.317255333698
 30
0.0
 11
694.88154535456874
 21
183.31725533369811
 31
0.0
  0
LINE
  5
CB6
  8
0
 10
571.38154535456874
 20
164.4534768490789
 30
0.0
 11
694.88154535456874
 21
164.4534768490789
 31
0.0
  0
LINE
  5
CB7
  8
CENTER
  6
CENTER
 10
549.88154535456874
 20
130.95347684907881
 30
0.0
 11
569.88154535456874
 21
130.95347684907881
 31
0.0
  0
CIRCLE
  5
CB8
  8
0
  6
CONTINUOUS
 10
559.88154535456874
 20
130.95347684907881
 30
0.0
 40
4.25
  0
ARC
  5
CB9
  8
0
  6
CONTINUOUS
 62
     2
 10
559.88154535456874
 20
130.95347684907881
 30
0.0
 40
5.0
 50
244.79960459187899
 51
198.7093473556057
  0
LINE
  5
CBA
  8
CENTER
  6
CENTER
 10
559.88154535456874
 20
120.9534768490788
 30
0.0
 11
559.88154535456874
 21
140.95347684907881
 31
0.0
  0
LINE
  5
CBB
  8
CENTER
  6
CENTER
 10
549.88154535456874
 20
212.95347684907881
 30
0.0
 11
569.88154535456874
 21
212.95347684907881
 31
0.0
  0
LINE
  5
CBC
  8
CENTER
  6
CENTER
 10
540.80185557135178
 20
193.8737870658619
 30
0.0
 11
552.1155640703364
 21
205.1874955648467
 31
0.0
  0
CIRCLE
  5
CBD
  8
0
  6
CONTINUOUS
 10
546.45870982084409
 20
199.53064131535419
 30
0.0
 40
3.399999999999999
  0
ARC
  5
CBE
  8
0
  6
CONTINUOUS
 62
     2
 10
546.45870982084409
 20
199.53064131535419
 30
0.0
 40
4.0
 50
202.52441221510509
 51
149.49721034531461
  0
LINE
  5
CBF
  8
0
 10
737.88154535456874
 20
185.4534768490789
 30
0.0
 11
732.88154535456874
 21
185.4534768490789
 31
0.0
  0
LINE
  5
CC0
  8
HIDDEN
  6
HIDDEN
 10
726.88154535456874
 20
166.9534768490789
 30
0.0
 11
726.88154535456874
 21
176.9534768490789
 31
0.0
  0
LINE
  5
CC1
  8
HIDDEN
  6
HIDDEN
 10
710.88154535456874
 20
166.9534768490789
 30
0.0
 11
710.88154535456874
 21
176.9534768490789
 31
0.0
  0
LINE
  5
CC2
  8
0
 10
694.88154535456874
 20
160.4534768490789
 30
0.0
 11
732.88154535456874
 21
160.7034768490789
 31
0.0
  0
LINE
  5
CC3
  8
HIDDEN
  6
HIDDEN
 10
732.88154535456874
 20
166.9534768490789
 30
0.0
 11
710.88154535456874
 21
166.9534768490789
 31
0.0
  0
LINE
  5
CC4
  8
HIDDEN
  6
HIDDEN
 10
732.88154535456874
 20
176.9534768490789
 30
0.0
 11
710.88154535456874
 21
176.9534768490789
 31
0.0
  0
LINE
  5
CC5
  8
HIDDEN
  6
HIDDEN
 10
726.88154535456874
 20
167.7034768490789
 30
0.0
 11
707.88154535456874
 21
167.7034768490789
 31
0.0
  0
LINE
  5
CC6
  8
HIDDEN
  6
HIDDEN
 10
726.88154535456874
 20
176.2034768490789
 30
0.0
 11
707.88154535456874
 21
176.2034768490789
 31
0.0
  0
LINE
  5
CC7
  8
HIDDEN
  6
HIDDEN
 10
707.88154535456874
 20
176.2034768490789
 30
0.0
 11
705.42780671051264
 21
171.9534768490789
 31
0.0
  0
LINE
  5
CC8
  8
HIDDEN
  6
HIDDEN
 10
707.88154535456874
 20
167.70347684907881
 30
0.0
 11
705.42780671051275
 21
171.9534768490789
 31
0.0
  0
LINE
  5
CC9
  8
HIDDEN
  6
HIDDEN
 10
707.88154535456874
 20
167.7034768490789
 30
0.0
 11
707.88154535456874
 21
176.2034768490789
 31
0.0
  0
ARC
  5
CCA
  8
0
 10
737.88154535456874
 20
186.4534768490789
 30
0.0
 40
1.0
 50
270.0
 51
0.0
  0
LINE
  5
CCB
  8
0
 10
571.38154535456874
 20
251.45347684907881
 30
0.0
 11
694.88154535456874
 21
251.45347684907881
 31
0.0
  0
LINE
  5
CCC
  8
0
 62
     7
 10
571.38154535456874
 20
232.58969836445939
 30
0.0
 11
694.88154535456874
 21
232.58969836445939
 31
0.0
  0
LINE
  5
CCD
  8
CENTER
  6
CENTER
 10
571.38154535456874
 20
243.95347684907881
 30
0.0
 11
735.88154535456886
 21
243.95347684907881
 31
0.0
  0
LINE
  5
CCE
  8
CENTER
  6
CENTER
 10
735.88154535456874
 20
394.39008900959931
 30
0.0
 11
571.38154535456874
 21
394.39008900959931
 31
0.0
  0
LINE
  5
CCF
  8
CENTER
  6
CENTER
 10
735.88154535456874
 20
466.39008900959942
 30
0.0
 11
571.38154535456874
 21
466.39008900959942
 31
0.0
  0
LINE
  5
CD0
  8
0
 62
     7
 10
571.38154535456874
 20
455.02631052498032
 30
0.0
 11
694.88154535456874
 21
455.02631052498009
 31
0.0
  0
LINE
  5
CD1
  8
0
 62
     7
 10
571.38154535456874
 20
405.75386749421858
 30
0.0
 11
694.88154535456874
 21
405.75386749421858
 31
0.0
  0
LINE
  5
CD2
  8
0
 10
571.38154535456874
 20
386.89008900959919
 30
0.0
 11
694.88154535456874
 21
386.89008900959919
 31
0.0
  0
LINE
  5
CD3
  8
DIM
  6
CONTINUOUS
 10
571.38154535456874
 20
380.6122284747928
 30
0.0
 11
571.38154535456874
 21
286.89008900959948
 31
0.0
  0
LINE
  5
CD4
  8
0
 10
566.88154535456874
 20
382.89008900959931
 30
0.0
 11
566.88154535456874
 21
371.89008900959931
 31
0.0
  0
LINE
  5
CD5
  8
0
  6
CONTINUOUS
 10
537.88154535456874
 20
255.45347684907881
 30
0.0
 11
537.88154535456874
 21
262.42147684907962
 31
0.0
  0
LINE
  5
CD6
  8
0
  6
CONTINUOUS
 10
549.88154535456874
 20
255.45347684907881
 30
0.0
 11
549.88154535456874
 21
262.42147684907962
 31
0.0
  0
LINE
  5
CD7
  8
0
  6
CONTINUOUS
 10
554.83154535456936
 20
255.45347684907881
 30
0.0
 11
554.83154535456936
 21
262.32761079827048
 31
0.0
  0
LINE
  5
CD8
  8
CENTER
  6
CENTER
 10
543.88154535456874
 20
240.88576857236379
 30
0.0
 11
543.88154535456874
 21
269.45347684907881
 31
0.0
  0
SOLID
  5
CD9
  8
DIM
  6
CONTINUOUS
 10
568.38154535456886
 20
288.39008900959948
 30
0.0
 11
568.38154535456886
 21
287.39008900959948
 31
0.0
 12
571.38154535456874
 22
287.89008900959948
 32
0.0
 13
571.38154535456874
 23
287.89008900959948
 33
0.0
  0
POLYLINE
  5
CDA
  8
0
  6
CONTINUOUS
 66
     1
 10
0.0
 20
0.0
 30
0.0
  0
VERTEX
  5
1464
  8
0
  6
CONTINUOUS
 10
543.88154535456874
 20
263.45347684907881
 30
0.0
 42
-0.0851703918331015
  0
VERTEX
  5
1465
  8
0
  6
CONTINUOUS
 10
549.88154535456874
 20
262.42147684907962
 30
0.0
 42
-0.3910851735909245
  0
VERTEX
  5
1466
  8
0
  6
CONTINUOUS
 10
553.85654535456899
 20
262.89054382367561
 30
0.0
  0
SEQEND
  5
1467
  8
0
  6
CONTINUOUS
  0
LINE
  5
CDF
  8
0
  6
CONTINUOUS
 10
554.83154535456936
 20
262.32761079827048
 30
0.0
 11
552.88154535456874
 21
263.45347684907881
 31
0.0
  0
LINE
  5
CE0
  8
0
  6
CONTINUOUS
 10
547.88154535456874
 20
266.45347684907881
 30
0.0
 11
539.88154535456874
 21
266.45347684907881
 31
0.0
  0
LINE
  5
CE1
  8
0
  6
CONTINUOUS
 10
549.88154535456874
 20
264.45347684907881
 30
0.0
 11
537.88154535456874
 21
264.45347684907892
 31
0.0
  0
LINE
  5
CE2
  8
0
  6
CONTINUOUS
 10
537.88154535456874
 20
264.45347684907881
 30
0.0
 11
539.88154535456874
 21
266.45347684907881
 31
0.0
  0
LINE
  5
CE3
  8
0
  6
CONTINUOUS
 62
     2
 10
539.08154535456947
 20
263.45347684907898
 30
0.0
 11
539.08154535456947
 21
265.6534768490796
 31
0.0
  0
LINE
  5
CE4
  8
0
  6
CONTINUOUS
 10
537.88154535456874
 20
263.45347684907881
 30
0.0
 11
537.88154535456874
 21
264.45347684907881
 31
0.0
  0
LINE
  5
CE5
  8
0
  6
CONTINUOUS
 10
549.88154535456874
 20
264.45347684907881
 30
0.0
 11
547.88154535456874
 21
266.45347684907881
 31
0.0
  0
LINE
  5
CE6
  8
0
  6
CONTINUOUS
 10
549.88154535456874
 20
263.45347684907881
 30
0.0
 11
549.88154535456874
 21
264.45347684907881
 31
0.0
  0
LINE
  5
CE7
  8
0
  6
CONTINUOUS
 62
     2
 10
548.68154535456802
 20
263.45347684907898
 30
0.0
 11
548.68154535456802
 21
265.6534768490796
 31
0.0
  0
LINE
  5
CE8
  8
DIM
  6
CONTINUOUS
 10
566.88154535456874
 20
369.6122284747928
 30
0.0
 11
566.88154535456874
 21
294.89008900959948
 31
0.0
  0
SOLID
  5
CE9
  8
DIM
  6
CONTINUOUS
 10
563.88154535456874
 20
296.39008900959948
 30
0.0
 11
563.88154535456874
 21
295.39008900959948
 31
0.0
 12
566.88154535456874
 22
295.89008900959948
 32
0.0
 13
566.88154535456874
 23
295.89008900959948
 33
0.0
  0
LINE
  5
CEA
  8
0
 10
566.88154535456874
 20
371.89008900959931
 30
0.0
 11
565.88154535456874
 21
370.89008900959931
 31
0.0
  0
ARC
  5
CEB
  8
0
  6
CONTINUOUS
 62
     2
 10
543.88154535456874
 20
407.39008900959931
 30
0.0
 40
5.0999999999999988
 50
162.22254855360339
 51
111.813746502519
  0
CIRCLE
  5
CEC
  8
0
  6
CONTINUOUS
 10
543.88154535456874
 20
407.39008900959931
 30
0.0
 40
6.0
  0
LINE
  5
CED
  8
CENTER
  6
CENTER
 10
543.88154535456874
 20
422.89008900959931
 30
0.0
 11
543.88154535456874
 21
391.89008900959931
 31
0.0
  0
POLYLINE
  5
CEE
  8
0
  6
CONTINUOUS
 66
     1
 10
0.0
 20
0.0
 30
0.0
 70
     1
  0
VERTEX
  5
1468
  8
0
  6
CONTINUOUS
 10
542.14949454700059
 20
410.39008900959931
 30
0.0
  0
VERTEX
  5
1469
  8
0
  6
CONTINUOUS
 10
540.4174437394305
 20
407.39008900959931
 30
0.0
  0
VERTEX
  5
146A
  8
0
  6
CONTINUOUS
 10
542.14949454700059
 20
404.39008900959942
 30
0.0
  0
VERTEX
  5
146B
  8
0
  6
CONTINUOUS
 10
545.61359616213679
 20
404.39008900959942
 30
0.0
  0
VERTEX
  5
146C
  8
0
  6
CONTINUOUS
 10
547.34564696970676
 20
407.39008900959931
 30
0.0
  0
VERTEX
  5
146D
  8
0
  6
CONTINUOUS
 10
545.61359616213679
 20
410.39008900959931
 30
0.0
  0
SEQEND
  5
146E
  8
0
  6
CONTINUOUS
  0
LINE
  5
CF6
  8
DIM
  6
CONTINUOUS
 10
738.88154535456874
 20
406.61369424478329
 30
0.0
 11
738.88154535456863
 21
278.16231391862419
 31
0.0
  0
LINE
  5
CF7
  8
DIM
  6
CONTINUOUS
 10
732.88154535456874
 20
382.14008900959931
 30
0.0
 11
732.88154535456874
 21
278.34055731125108
 31
0.0
  0
LINE
  5
CF8
  8
0
 10
737.88154535456874
 20
230.4534768490787
 30
0.0
 11
732.88154535456874
 21
230.4534768490787
 31
0.0
  0
LINE
  5
CF9
  8
CENTER
  6
CENTER
 10
701.88154535456874
 20
240.7110435351573
 30
0.0
 11
701.88154535456874
 21
260.56823283830499
 31
0.0
  0
LINE
  5
CFA
  8
CENTER
  6
CENTER
 10
713.88154535456874
 20
239.86099110049861
 30
0.0
 11
713.88154535456874
 21
259.9647428085409
 31
0.0
  0
LINE
  5
CFB
  8
0
 10
694.88154535456874
 20
255.4534768490787
 30
0.0
 11
732.88154535456874
 21
255.2034768490787
 31
0.0
  0
LINE
  5
CFC
  8
HIDDEN
  6
HIDDEN
 10
732.88154535456874
 20
238.95347684907881
 30
0.0
 11
710.88154535456874
 21
238.9534768490787
 31
0.0
  0
LINE
  5
CFD
  8
HIDDEN
  6
HIDDEN
 10
732.88154535456874
 20
248.9534768490787
 30
0.0
 11
710.88154535456874
 21
248.95347684907881
 31
0.0
  0
LINE
  5
CFE
  8
HIDDEN
  6
HIDDEN
 10
726.88154535456874
 20
239.7034768490787
 30
0.0
 11
707.88154535456874
 21
239.7034768490787
 31
0.0
  0
LINE
  5
CFF
  8
HIDDEN
  6
HIDDEN
 10
726.88154535456874
 20
248.2034768490787
 30
0.0
 11
707.88154535456874
 21
248.20347684907881
 31
0.0
  0
LINE
  5
D00
  8
HIDDEN
  6
HIDDEN
 10
707.88154535456874
 20
248.20347684907881
 30
0.0
 11
707.88154535456874
 21
239.7034768490787
 31
0.0
  0
LINE
  5
D01
  8
HIDDEN
  6
HIDDEN
 10
707.88154535456874
 20
248.2034768490789
 30
0.0
 11
705.42780671051275
 21
243.95347684907881
 31
0.0
  0
LINE
  5
D02
  8
HIDDEN
  6
HIDDEN
 10
710.88154535456874
 20
248.95347684907881
 30
0.0
 11
710.88154535456874
 21
238.95347684907881
 31
0.0
  0
LINE
  5
D03
  8
HIDDEN
  6
HIDDEN
 10
707.88154535456874
 20
239.7034768490787
 30
0.0
 11
705.42780671051264
 21
243.95347684907881
 31
0.0
  0
LINE
  5
D04
  8
HIDDEN
  6
HIDDEN
 10
726.88154535456874
 20
248.9534768490787
 30
0.0
 11
726.88154535456874
 21
238.95347684907881
 31
0.0
  0
SOLID
  5
D05
  8
DIM
  6
CONTINUOUS
 10
729.88154535456874
 20
280.39008900959948
 30
0.0
 11
729.88154535456874
 21
279.39008900959948
 31
0.0
 12
732.88154535456874
 22
279.89008900959948
 32
0.0
 13
732.88154535456874
 23
279.89008900959948
 33
0.0
  0
ARC
  5
D06
  8
0
 10
737.88154535456874
 20
229.4534768490787
 30
0.0
 40
1.0
 50
0.0
 51
90.0
  0
SOLID
  5
D07
  8
DIM
  6
CONTINUOUS
 10
741.88154535456874
 20
280.39008900959948
 30
0.0
 11
741.88154535456874
 21
279.39008900959948
 31
0.0
 12
738.88154535456886
 22
279.89008900959948
 32
0.0
 13
738.88154535456886
 23
279.89008900959948
 33
0.0
  0
TEXT
  5
D08
  8
DIM
  6
CONTINUOUS
 10
744.14144379157267
 20
281.39008900959948
 30
0.0
 40
3.0
  1
6
  7
ROMANSS
 72
     1
 11
745.07001522014411
 21
282.89008900959948
 31
0.0
 73
     2
  0
LINE
  5
D09
  8
0
 10
737.88154535456874
 20
452.89008900959931
 30
0.0
 11
732.88154535456874
 21
452.89008900959931
 31
0.0
  0
LINE
  5
D0A
  8
0
 10
737.88154535456874
 20
407.89008900959931
 30
0.0
 11
732.88154535456874
 21
407.89008900959931
 31
0.0
  0
CIRCLE
  5
D0B
  8
0
 10
701.88154535456874
 20
420.39008900959931
 30
0.0
 40
5.2999999999999989
  0
LINE
  5
D0C
  8
CENTER
  6
CENTER
 10
713.88154535456874
 20
451.89008900959931
 30
0.0
 11
713.88154535456874
 21
422.89008900959931
 31
0.0
  0
LINE
  5
D0D
  8
CENTER
  6
CENTER
 10
701.88154535456874
 20
427.39008900959931
 30
0.0
 11
701.88154535456874
 21
413.39008900959931
 31
0.0
  0
POLYLINE
  5
D0E
  8
0
  6
CONTINUOUS
 66
     1
 10
0.0
 20
0.0
 30
0.0
 70
     1
  0
VERTEX
  5
146F
  8
0
  6
CONTINUOUS
 10
701.01551995078444
 20
421.89008900959931
 30
0.0
  0
VERTEX
  5
1470
  8
0
  6
CONTINUOUS
 10
700.1494945469999
 20
420.39008900959931
 30
0.0
  0
VERTEX
  5
1471
  8
0
  6
CONTINUOUS
 10
701.01551995078444
 20
418.89008900959931
 30
0.0
  0
VERTEX
  5
1472
  8
0
  6
CONTINUOUS
 10
702.74757075835328
 20
418.89008900959931
 30
0.0
  0
VERTEX
  5
1473
  8
0
  6
CONTINUOUS
 10
703.61359616213758
 20
420.39008900959931
 30
0.0
  0
VERTEX
  5
1474
  8
0
  6
CONTINUOUS
 10
702.74757075835328
 20
421.89008900959931
 30
0.0
  0
SEQEND
  5
1475
  8
0
  6
CONTINUOUS
  0
CIRCLE
  5
D16
  8
0
 10
701.88154535456874
 20
420.39008900959931
 30
0.0
 40
5.0
  0
ARC
  5
D17
  8
0
  6
CONTINUOUS
 10
701.88154535456874
 20
420.39008900959931
 30
0.0
 40
3.5
 50
98.213210701738234
 51
141.7867892982616
  0
ARC
  5
D18
  8
0
  6
CONTINUOUS
 10
701.88154535456874
 20
420.39008900959931
 30
0.0
 40
3.5
 50
218.21321070173761
 51
261.78678929826179
  0
CIRCLE
  5
D19
  8
0
  6
CONTINUOUS
 10
701.88154535456874
 20
420.39008900959931
 30
0.0
 40
2.5
  0
LINE
  5
D1A
  8
CENTER
  6
CENTER
 10
694.88154535456874
 20
420.39008900959931
 30
0.0
 11
708.88154535456874
 21
420.39008900959931
 31
0.0
  0
LINE
  5
D1B
  8
0
 10
694.88154535456874
 20
382.89008900959931
 30
0.0
 11
732.88154535456874
 21
383.14008900959931
 31
0.0
  0
LINE
  5
D1C
  8
0
  6
CONTINUOUS
 10
699.13154535456874
 20
422.55515251906053
 30
0.0
 11
697.82312336966515
 21
423.31057030425808
 31
0.0
  0
ARC
  5
D1D
  8
0
  6
CONTINUOUS
 10
701.88154535456874
 20
420.39008900959931
 30
0.0
 40
3.5
 50
158.21321070173769
 51
201.78678929826131
  0
LINE
  5
D1E
  8
0
  6
CONTINUOUS
 10
698.63154535456874
 20
421.68912711527599
 30
0.0
 11
697.32312336966538
 21
422.44454490047372
 31
0.0
  0
LINE
  5
D1F
  8
0
  6
CONTINUOUS
 10
697.82312336966515
 20
417.46960771494048
 30
0.0
 11
699.13154535456874
 21
418.22502550013832
 31
0.0
  0
LINE
  5
D20
  8
0
  6
CONTINUOUS
 10
697.32312336966538
 20
418.3356331187249
 30
0.0
 11
698.63154535456874
 21
419.09105090392262
 31
0.0
  0
LINE
  5
D21
  8
HIDDEN
  6
HIDDEN
 10
726.88154535456874
 20
398.64008900959931
 30
0.0
 11
707.88154535456874
 21
398.64008900959931
 31
0.0
  0
LINE
  5
D22
  8
HIDDEN
  6
HIDDEN
 10
732.88154535456874
 20
399.39008900959931
 30
0.0
 11
710.88154535456874
 21
399.39008900959931
 31
0.0
  0
LINE
  5
D23
  8
HIDDEN
  6
HIDDEN
 10
726.88154535456874
 20
390.14008900959931
 30
0.0
 11
707.88154535456874
 21
390.14008900959931
 31
0.0
  0
LINE
  5
D24
  8
HIDDEN
  6
HIDDEN
 10
732.88154535456874
 20
389.39008900959931
 30
0.0
 11
710.88154535456874
 21
389.39008900959931
 31
0.0
  0
LINE
  5
D25
  8
HIDDEN
  6
HIDDEN
 10
710.88154535456874
 20
389.39008900959931
 30
0.0
 11
710.88154535456874
 21
399.39008900959931
 31
0.0
  0
LINE
  5
D26
  8
HIDDEN
  6
HIDDEN
 10
707.88154535456874
 20
390.14008900959931
 30
0.0
 11
707.88154535456874
 21
398.64008900959931
 31
0.0
  0
LINE
  5
D27
  8
HIDDEN
  6
HIDDEN
 10
707.88154535456874
 20
390.14008900959919
 30
0.0
 11
705.42780671051275
 21
394.39008900959931
 31
0.0
  0
LINE
  5
D28
  8
HIDDEN
  6
HIDDEN
 10
707.88154535456874
 20
398.64008900959931
 30
0.0
 11
705.42780671051264
 21
394.39008900959919
 31
0.0
  0
LINE
  5
D29
  8
HIDDEN
  6
HIDDEN
 10
726.88154535456874
 20
389.39008900959931
 30
0.0
 11
726.88154535456874
 21
399.39008900959931
 31
0.0
  0
ARC
  5
D2A
  8
0
  6
CONTINUOUS
 10
701.88154535456874
 20
420.39008900959931
 30
0.0
 40
3.5
 50
38.213210701738312
 51
81.786789298261766
  0
ARC
  5
D2B
  8
0
  6
CONTINUOUS
 10
701.88154535456874
 20
420.39008900959931
 30
0.0
 40
3.5
 50
338.21321070173849
 51
21.786789298262239
  0
LINE
  5
D2C
  8
0
  6
CONTINUOUS
 10
701.38154535456874
 20
425.36502619513249
 30
0.0
 11
701.38154535456874
 21
423.8541906247371
 31
0.0
  0
LINE
  5
D2D
  8
0
  6
CONTINUOUS
 10
702.38154535456874
 20
425.36502619513249
 30
0.0
 11
702.38154535456874
 21
423.8541906247371
 31
0.0
  0
LINE
  5
D2E
  8
0
  6
CONTINUOUS
 10
704.63154535456874
 20
422.55515251906053
 30
0.0
 11
705.93996733947233
 21
423.31057030425808
 31
0.0
  0
LINE
  5
D2F
  8
0
  6
CONTINUOUS
 10
705.13154535456874
 20
421.68912711527599
 30
0.0
 11
706.43996733947233
 21
422.44454490047372
 31
0.0
  0
ARC
  5
D30
  8
0
  6
CONTINUOUS
 10
701.88154535456874
 20
420.39008900959931
 30
0.0
 40
3.5
 50
278.21321070173809
 51
321.78678929826242
  0
LINE
  5
D31
  8
0
  6
CONTINUOUS
 10
701.38154535456874
 20
416.92598739446157
 30
0.0
 11
701.38154535456874
 21
415.4151518240663
 31
0.0
  0
LINE
  5
D32
  8
0
  6
CONTINUOUS
 10
702.38154535456874
 20
416.92598739446157
 30
0.0
 11
702.38154535456874
 21
415.4151518240663
 31
0.0
  0
LINE
  5
D33
  8
0
  6
CONTINUOUS
 10
705.93996733947233
 20
417.46960771494048
 30
0.0
 11
704.63154535456874
 21
418.22502550013832
 31
0.0
  0
LINE
  5
D34
  8
0
  6
CONTINUOUS
 10
706.43996733947233
 20
418.3356331187249
 30
0.0
 11
705.13154535456874
 21
419.09105090392262
 31
0.0
  0
CIRCLE
  5
D35
  8
0
 10
713.88154535456874
 20
437.39008900959942
 30
0.0
 40
11.5
  0
ARC
  5
D36
  8
0
 62
     2
 10
713.88154535456874
 20
437.39008900959942
 30
0.0
 40
8.3000000000000007
 50
257.18960874131659
 51
209.60968586855631
  0
CIRCLE
  5
D37
  8
0
 10
713.88154535456874
 20
437.39008900959942
 30
0.0
 40
7.5
  0
CIRCLE
  5
D38
  8
0
 10
713.88154535456874
 20
437.39008900959942
 30
0.0
 40
5.5
  0
LINE
  5
D39
  8
CENTER
  6
CENTER
 10
699.38154535456874
 20
437.39008900959942
 30
0.0
 11
728.38154535456874
 21
437.39008900959942
 31
0.0
  0
SOLID
  5
D3A
  8
DIM
  6
CONTINUOUS
 10
709.33894358935186
 20
447.74629317393362
 30
0.0
 11
710.26988717438087
 21
448.11145620806121
 31
0.0
 12
710.89990448424919
 22
445.13604393591032
 32
0.0
 13
710.89990448424919
 23
445.13604393591032
 33
0.0
  0
LINE
  5
D3B
  8
HIDDEN
  6
HIDDEN
 10
726.88154535456874
 20
470.64008900959931
 30
0.0
 11
707.88154535456874
 21
470.64008900959931
 31
0.0
  0
LINE
  5
D3C
  8
HIDDEN
  6
HIDDEN
 10
726.88154535456874
 20
462.14008900959931
 30
0.0
 11
707.88154535456874
 21
462.14008900959931
 31
0.0
  0
LINE
  5
D3D
  8
HIDDEN
  6
HIDDEN
 10
732.88154535456874
 20
461.39008900959931
 30
0.0
 11
710.88154535456874
 21
461.39008900959931
 31
0.0
  0
LINE
  5
D3E
  8
HIDDEN
  6
HIDDEN
 10
732.88154535456874
 20
471.39008900959942
 30
0.0
 11
710.88154535456874
 21
471.39008900959942
 31
0.0
  0
LINE
  5
D3F
  8
HIDDEN
  6
HIDDEN
 10
707.88154535456874
 20
470.64008900959942
 30
0.0
 11
705.42780671051275
 21
466.39008900959942
 31
0.0
  0
LINE
  5
D40
  8
HIDDEN
  6
HIDDEN
 10
707.88154535456874
 20
462.14008900959931
 30
0.0
 11
705.42780671051264
 21
466.39008900959948
 31
0.0
  0
LINE
  5
D41
  8
HIDDEN
  6
HIDDEN
 10
707.88154535456874
 20
470.64008900959931
 30
0.0
 11
707.88154535456874
 21
462.14008900959931
 31
0.0
  0
LINE
  5
D42
  8
HIDDEN
  6
HIDDEN
 10
710.88154535456874
 20
471.39008900959942
 30
0.0
 11
710.88154535456874
 21
461.39008900959931
 31
0.0
  0
LINE
  5
D43
  8
HIDDEN
  6
HIDDEN
 10
726.88154535456874
 20
471.39008900959942
 30
0.0
 11
726.88154535456874
 21
461.39008900959931
 31
0.0
  0
LINE
  5
D44
  8
DIM
  6
CONTINUOUS
 10
746.88154535456874
 20
410.89008900959931
 30
0.0
 11
746.88154535456874
 21
449.89008900959942
 31
0.0
  0
LINE
  5
D45
  8
0
 10
738.88154535456874
 20
451.89008900959931
 30
0.0
 11
738.88154535456874
 21
408.89008900959942
 31
0.0
  0
LINE
  5
D46
  8
DIM
  6
CONTINUOUS
 10
738.88154535456874
 20
407.89008900959931
 30
0.0
 11
747.88154535456874
 21
407.89008900959931
 31
0.0
  0
ARC
  5
D47
  8
0
 10
737.88154535456874
 20
408.89008900959942
 30
0.0
 40
1.0
 50
270.0
 51
0.0
  0
SOLID
  5
D48
  8
DIM
  6
CONTINUOUS
 10
746.38154535456874
 20
410.89008900959931
 30
0.0
 11
747.38154535456874
 21
410.89008900959931
 31
0.0
 12
746.88154535456874
 22
407.89008900959931
 32
0.0
 13
746.88154535456874
 23
407.89008900959931
 33
0.0
  0
TEXT
  5
D49
  8
DIM
  6
CONTINUOUS
 10
745.38154535456874
 20
426.60437472388509
 30
0.0
 40
3.0
  1
%%c45
 50
90.0
  7
ROMANSS
 72
     1
 11
743.88154535456874
 21
430.39008900959931
 31
0.0
 73
     2
  0
LINE
  5
D4A
  8
DIM
  6
CONTINUOUS
 10
738.88154535456874
 20
452.89008900959931
 30
0.0
 11
747.88154535456874
 21
452.89008900959931
 31
0.0
  0
ARC
  5
D4B
  8
0
 10
737.88154535456874
 20
451.89008900959931
 30
0.0
 40
1.0
 50
0.0
 51
90.0
  0
SOLID
  5
D4C
  8
DIM
  6
CONTINUOUS
 10
746.38154535456874
 20
449.89008900959942
 30
0.0
 11
747.38154535456874
 21
449.89008900959942
 31
0.0
 12
746.88154535456874
 22
452.89008900959931
 32
0.0
 13
746.88154535456874
 23
452.89008900959931
 33
0.0
  0
LINE
  5
D4D
  8
DIM
  6
CONTINUOUS
 10
631.2867139086776
 20
631.94626817692927
 30
0.0
 11
631.2867139086776
 21
707.94626817692915
 31
0.0
  0
LINE
  5
D4E
  8
0
 10
571.38154535456874
 20
721.44626817692915
 30
0.0
 11
571.38154535456874
 21
586.44626817692927
 31
0.0
  0
LINE
  5
D4F
  8
0
 10
694.88154535456874
 20
681.44626817692915
 30
0.0
 11
694.88154535456874
 21
586.44626817692927
 31
0.0
  0
LINE
  5
D50
  8
0
 10
732.88154535456874
 20
681.19626817692915
 30
0.0
 11
732.88154535456874
 21
586.69626817692927
 31
0.0
  0
LINE
  5
D51
  8
DIM
  6
CONTINUOUS
 10
570.88154535456874
 20
628.94626817692915
 30
0.0
 11
632.54841280115716
 21
628.94626817692915
 31
0.0
  0
LINE
  5
D52
  8
CENTER
  6
CENTER
 10
571.38154535456874
 20
597.94626817692915
 30
0.0
 11
735.88154535456886
 21
597.94626817692915
 31
0.0
  0
LINE
  5
D53
  8
0
 62
     7
 10
571.38154535456874
 20
658.58248969230988
 30
0.0
 11
694.88154535456874
 21
658.58248969230988
 31
0.0
  0
LINE
  5
D54
  8
0
 10
571.38154535456874
 20
590.44626817692927
 30
0.0
 11
694.88154535456874
 21
590.44626817692927
 31
0.0
  0
LINE
  5
D55
  8
0
 62
     7
 10
571.38154535456874
 20
609.31004666154865
 30
0.0
 11
694.88154535456874
 21
609.31004666154865
 31
0.0
  0
LINE
  5
D56
  8
0
 10
571.38154535456874
 20
473.89008900959931
 30
0.0
 11
694.88154535456874
 21
473.89008900959931
 31
0.0
  0
LINE
  5
D57
  8
0
 10
566.88154535456874
 20
488.89008900959942
 30
0.0
 11
566.88154535456874
 21
477.89008900959931
 31
0.0
  0
LINE
  5
D58
  8
0
 10
565.88154535456874
 20
489.89008900959942
 30
0.0
 11
566.88154535456874
 21
488.89008900959942
 31
0.0
  0
LINE
  5
D59
  8
CENTER
  6
CENTER
 10
543.88154535456874
 20
601.01397645364432
 30
0.0
 11
543.88154535456874
 21
572.44626817692915
 31
0.0
  0
LINE
  5
D5A
  8
0
  6
CONTINUOUS
 10
554.83154535456936
 20
579.57213422773748
 30
0.0
 11
552.88154535456874
 21
578.44626817692927
 31
0.0
  0
POLYLINE
  5
D5B
  8
0
  6
CONTINUOUS
 66
     1
 10
0.0
 20
0.0
 30
0.0
  0
VERTEX
  5
1476
  8
0
  6
CONTINUOUS
 10
543.88154535456874
 20
578.44626817692927
 30
0.0
 42
0.0851703918331015
  0
VERTEX
  5
1477
  8
0
  6
CONTINUOUS
 10
549.88154535456874
 20
579.47826817692851
 30
0.0
 42
0.3910851735909245
  0
VERTEX
  5
1478
  8
0
  6
CONTINUOUS
 10
553.85654535456899
 20
579.00920120233252
 30
0.0
  0
SEQEND
  5
1479
  8
0
  6
CONTINUOUS
  0
LINE
  5
D60
  8
0
  6
CONTINUOUS
 10
549.88154535456874
 20
586.44626817692927
 30
0.0
 11
549.88154535456874
 21
579.47826817692851
 31
0.0
  0
LINE
  5
D61
  8
0
  6
CONTINUOUS
 10
537.88154535456874
 20
586.44626817692927
 30
0.0
 11
537.88154535456874
 21
579.47826817692851
 31
0.0
  0
LINE
  5
D62
  8
0
  6
CONTINUOUS
 10
549.88154535456874
 20
577.44626817692915
 30
0.0
 11
537.88154535456874
 21
577.44626817692915
 31
0.0
  0
LINE
  5
D63
  8
0
  6
CONTINUOUS
 10
547.88154535456874
 20
575.44626817692915
 30
0.0
 11
539.88154535456874
 21
575.44626817692915
 31
0.0
  0
LINE
  5
D64
  8
0
  6
CONTINUOUS
 10
537.88154535456874
 20
578.44626817692927
 30
0.0
 11
537.88154535456874
 21
577.44626817692915
 31
0.0
  0
LINE
  5
D65
  8
0
  6
CONTINUOUS
 62
     2
 10
539.08154535456947
 20
578.44626817692915
 30
0.0
 11
539.08154535456947
 21
576.24626817692854
 31
0.0
  0
LINE
  5
D66
  8
0
  6
CONTINUOUS
 10
537.88154535456874
 20
577.44626817692915
 30
0.0
 11
539.88154535456874
 21
575.44626817692915
 31
0.0
  0
LINE
  5
D67
  8
0
  6
CONTINUOUS
 62
     2
 10
548.68154535456802
 20
578.44626817692915
 30
0.0
 11
548.68154535456802
 21
576.24626817692854
 31
0.0
  0
LINE
  5
D68
  8
0
  6
CONTINUOUS
 10
549.88154535456874
 20
578.44626817692927
 30
0.0
 11
549.88154535456874
 21
577.44626817692915
 31
0.0
  0
LINE
  5
D69
  8
0
  6
CONTINUOUS
 10
549.88154535456874
 20
577.44626817692915
 30
0.0
 11
547.88154535456874
 21
575.44626817692915
 31
0.0
  0
LINE
  5
D6A
  8
0
  6
CONTINUOUS
 10
554.83154535456936
 20
586.44626817692927
 30
0.0
 11
554.83154535456936
 21
579.57213422773748
 31
0.0
  0
LINE
  5
D6B
  8
CENTER
  6
CENTER
 10
549.88154535456874
 20
628.94626817692915
 30
0.0
 11
569.88154535456874
 21
628.94626817692915
 31
0.0
  0
LINE
  5
D6C
  8
CENTER
  6
CENTER
 10
540.80185557135178
 20
648.02595796014623
 30
0.0
 11
552.1155640703364
 21
636.71224946116138
 31
0.0
  0
CIRCLE
  5
D6D
  8
0
  6
CONTINUOUS
 10
546.45870982084409
 20
642.3691037106538
 30
0.0
 40
3.399999999999999
  0
ARC
  5
D6E
  8
0
  6
CONTINUOUS
 62
     2
 10
546.45870982084409
 20
642.3691037106538
 30
0.0
 40
4.0
 50
210.50278965468459
 51
157.4755877848952
  0
CIRCLE
  5
D6F
  8
0
  6
CONTINUOUS
 10
559.88154535456874
 20
628.94626817692915
 30
0.0
 40
4.25
  0
ARC
  5
D70
  8
0
  6
CONTINUOUS
 62
     2
 10
559.88154535456874
 20
628.94626817692915
 30
0.0
 40
5.0
 50
161.29065264439251
 51
115.2003954081225
  0
LINE
  5
D71
  8
CENTER
  6
CENTER
 10
559.88154535456874
 20
638.94626817692915
 30
0.0
 11
559.88154535456874
 21
618.94626817692915
 31
0.0
  0
TEXT
  5
D72
  8
DIM
  6
CONTINUOUS
 10
695.62708139382255
 20
494.30700814992377
 30
0.0
 40
3.0
  1
2-G3/8
  7
ROMANSS
 11
695.62708139382255
 21
495.80700814992377
 31
0.0
 73
     2
  0
LINE
  5
D73
  8
DIM
  6
CONTINUOUS
 10
692.20094762787471
 20
492.80700814992377
 30
0.0
 11
711.00208139382255
 21
492.80700814992377
 31
0.0
  0
LINE
  5
D74
  8
0
 10
694.88154535456874
 20
477.89008900959931
 30
0.0
 11
732.88154535456874
 21
477.64008900959942
 31
0.0
  0
LINE
  5
D75
  8
0
 10
737.88154535456874
 20
656.44626817692915
 30
0.0
 11
732.88154535456874
 21
656.44626817692915
 31
0.0
  0
LINE
  5
D76
  8
0
 10
737.88154535456874
 20
611.44626817692927
 30
0.0
 11
732.88154535456874
 21
611.44626817692927
 31
0.0
  0
LINE
  5
D77
  8
0
 10
694.88154535456874
 20
586.44626817692927
 30
0.0
 11
732.88154535456874
 21
586.69626817692927
 31
0.0
  0
LINE
  5
D78
  8
HIDDEN
  6
HIDDEN
 10
726.88154535456874
 20
592.94626817692927
 30
0.0
 11
726.88154535456874
 21
602.94626817692927
 31
0.0
  0
LINE
  5
D79
  8
CENTER
  6
CENTER
 10
713.88154535456874
 20
600.9562389807179
 30
0.0
 11
713.88154535456886
 21
581.28353286931406
 31
0.0
  0
LINE
  5
D7A
  8
HIDDEN
  6
HIDDEN
 10
707.88154535456874
 20
593.69626817692915
 30
0.0
 11
707.88154535456874
 21
602.19626817692927
 31
0.0
  0
LINE
  5
D7B
  8
HIDDEN
  6
HIDDEN
 10
710.88154535456874
 20
592.94626817692915
 30
0.0
 11
710.88154535456874
 21
602.94626817692927
 31
0.0
  0
LINE
  5
D7C
  8
HIDDEN
  6
HIDDEN
 10
707.88154535456874
 20
593.69626817692915
 30
0.0
 11
705.42780671051275
 21
597.94626817692915
 31
0.0
  0
LINE
  5
D7D
  8
CENTER
  6
CENTER
 10
701.88154535456874
 20
600.77232274755966
 30
0.0
 11
701.88154535456874
 21
581.33151218770308
 31
0.0
  0
LINE
  5
D7E
  8
HIDDEN
  6
HIDDEN
 10
732.88154535456874
 20
592.94626817692927
 30
0.0
 11
710.88154535456874
 21
592.94626817692915
 31
0.0
  0
LINE
  5
D7F
  8
HIDDEN
  6
HIDDEN
 10
726.88154535456874
 20
593.69626817692927
 30
0.0
 11
707.88154535456874
 21
593.69626817692915
 31
0.0
  0
LINE
  5
D80
  8
HIDDEN
  6
HIDDEN
 10
732.88154535456874
 20
602.94626817692927
 30
0.0
 11
710.88154535456874
 21
602.94626817692938
 31
0.0
  0
LINE
  5
D81
  8
HIDDEN
  6
HIDDEN
 10
726.88154535456874
 20
602.19626817692927
 30
0.0
 11
707.88154535456874
 21
602.19626817692927
 31
0.0
  0
LINE
  5
D82
  8
HIDDEN
  6
HIDDEN
 10
707.88154535456874
 20
602.19626817692927
 30
0.0
 11
705.42780671051264
 21
597.94626817692915
 31
0.0
  0
LINE
  5
D83
  8
0
 10
738.88154535456874
 20
655.44626817692915
 30
0.0
 11
738.88154535456874
 21
612.44626817692927
 31
0.0
  0
ARC
  5
D84
  8
0
 10
737.88154535456874
 20
612.44626817692927
 30
0.0
 40
1.0
 50
270.0
 51
0.0
  0
SOLID
  5
D85
  8
DIM
  6
CONTINUOUS
 10
630.78671390867748
 20
631.94626817692927
 30
0.0
 11
631.7867139086776
 21
631.94626817692927
 31
0.0
 12
631.2867139086776
 22
628.94626817692915
 32
0.0
 13
631.2867139086776
 23
628.94626817692915
 33
0.0
  0
ARC
  5
D86
  8
0
 10
737.88154535456874
 20
655.44626817692915
 30
0.0
 40
1.0
 50
0.0
 51
90.0
  0
LINE
  5
D87
  8
DIM
  6
CONTINUOUS
 10
570.88154535456874
 20
710.94626817692927
 30
0.0
 11
632.54841280115716
 21
710.94626817692927
 31
0.0
  0
LINE
  5
D88
  8
0
 10
571.38154535456874
 20
677.44626817692927
 30
0.0
 11
694.88154535456874
 21
677.44626817692927
 31
0.0
  0
TEXT
  5
D89
  8
DIM
  6
CONTINUOUS
 10
587.25042072492886
 20
732.18507098734426
 30
0.0
 40
3.0
  1
2x4-M10x15L
  7
ROMANSS
 11
587.25042072492886
 21
733.68507098734426
 31
0.0
 73
     2
  0
LINE
  5
D8A
  8
DIM
  6
CONTINUOUS
 10
586.25042072492897
 20
730.68507098734437
 30
0.0
 11
614.37542072492897
 21
730.68507098734437
 31
0.0
  0
CIRCLE
  5
D8B
  8
0
  6
CONTINUOUS
 10
559.88154535456874
 20
710.94626817692927
 30
0.0
 40
4.25
  0
ARC
  5
D8C
  8
0
  6
CONTINUOUS
 62
     2
 10
559.88154535456874
 20
710.94626817692927
 30
0.0
 40
5.0
 50
161.29065264439421
 51
115.2003954081208
  0
LINE
  5
D8D
  8
CENTER
  6
CENTER
 10
559.88154535456874
 20
720.94626817692915
 30
0.0
 11
559.88154535456874
 21
700.94626817692915
 31
0.0
  0
SOLID
  5
D8E
  8
DIM
  6
CONTINUOUS
 10
598.17506932907258
 20
672.93634616492989
 30
0.0
 11
599.17489287029434
 21
672.95513143625885
 31
0.0
 12
598.73133691367025
 22
669.94626817692927
 32
0.0
 13
598.73133691367025
 23
669.94626817692927
 33
0.0
  0
LINE
  5
D8F
  8
DIM
  6
CONTINUOUS
 10
565.73670392701365
 20
716.38335604591214
 30
0.0
 11
583.25042072492886
 21
730.68507098734437
 31
0.0
  0
LINE
  5
D90
  8
CENTER
  6
CENTER
 10
549.88154535456874
 20
710.94626817692927
 30
0.0
 11
569.88154535456874
 21
710.94626817692927
 31
0.0
  0
SOLID
  5
D91
  8
DIM
  6
CONTINUOUS
 10
566.05295590675723
 20
715.99607748297797
 30
0.0
 11
565.42045194726995
 21
716.77063460884608
 31
0.0
 12
563.41303254940954
 22
714.48584416745041
 32
0.0
 13
563.41303254940954
 23
714.48584416745041
 33
0.0
  0
SOLID
  5
D92
  8
DIM
  6
CONTINUOUS
 10
556.88154535456874
 20
729.94626817692915
 30
0.0
 11
556.88154535456874
 21
728.94626817692915
 31
0.0
 12
559.88154535456874
 22
729.44626817692915
 32
0.0
 13
559.88154535456874
 23
729.44626817692915
 33
0.0
  0
LINE
  5
D93
  8
DIM
  6
CONTINUOUS
 10
559.88154535456874
 20
721.94626817692915
 30
0.0
 11
559.88154535456874
 21
730.44626817692915
 31
0.0
  0
LINE
  5
D94
  8
DIM
  6
CONTINUOUS
 10
583.25042072492886
 20
730.68507098734437
 30
0.0
 11
586.25042072492897
 21
730.68507098734437
 31
0.0
  0
TEXT
  5
D95
  8
DIM
  6
CONTINUOUS
 10
604.80929484939884
 20
689.28390856948863
 30
0.0
 40
3.0
  1
M8x15L
  7
ROMANSS
 11
604.80929484939884
 21
690.78390856948863
 31
0.0
 73
     2
  0
LINE
  5
D96
  8
DIM
  6
CONTINUOUS
 10
603.80929484939884
 20
687.78390856948863
 30
0.0
 11
618.93429484939884
 21
687.78390856948863
 31
0.0
  0
LINE
  5
D97
  8
0
 10
694.88154535456874
 20
681.44626817692915
 30
0.0
 11
732.88154535456874
 21
681.19626817692915
 31
0.0
  0
LINE
  5
D98
  8
HIDDEN
  6
HIDDEN
 10
732.88154535456874
 20
674.94626817692915
 30
0.0
 11
710.88154535456874
 21
674.94626817692915
 31
0.0
  0
LINE
  5
D99
  8
HIDDEN
  6
HIDDEN
 10
732.88154535456874
 20
664.94626817692927
 30
0.0
 11
710.88154535456874
 21
664.94626817692927
 31
0.0
  0
LINE
  5
D9A
  8
HIDDEN
  6
HIDDEN
 10
726.88154535456874
 20
665.69626817692915
 30
0.0
 11
707.88154535456874
 21
665.69626817692915
 31
0.0
  0
LINE
  5
D9B
  8
HIDDEN
  6
HIDDEN
 10
726.88154535456874
 20
674.19626817692915
 30
0.0
 11
707.88154535456874
 21
674.19626817692915
 31
0.0
  0
LINE
  5
D9C
  8
HIDDEN
  6
HIDDEN
 10
707.88154535456874
 20
665.69626817692915
 30
0.0
 11
705.42780671051264
 21
669.94626817692927
 31
0.0
  0
LINE
  5
D9D
  8
HIDDEN
  6
HIDDEN
 10
707.88154535456874
 20
674.19626817692915
 30
0.0
 11
707.88154535456874
 21
665.69626817692915
 31
0.0
  0
LINE
  5
D9E
  8
HIDDEN
  6
HIDDEN
 10
707.88154535456874
 20
674.19626817692938
 30
0.0
 11
705.42780671051275
 21
669.94626817692927
 31
0.0
  0
LINE
  5
D9F
  8
HIDDEN
  6
HIDDEN
 10
710.88154535456874
 20
674.94626817692915
 30
0.0
 11
710.88154535456874
 21
664.94626817692927
 31
0.0
  0
LINE
  5
DA0
  8
HIDDEN
  6
HIDDEN
 10
726.88154535456874
 20
674.94626817692915
 30
0.0
 11
726.88154535456874
 21
664.94626817692927
 31
0.0
  0
SOLID
  5
DA1
  8
DIM
  6
CONTINUOUS
 10
630.78671390867748
 20
707.94626817692915
 30
0.0
 11
631.7867139086776
 21
707.94626817692915
 31
0.0
 12
631.2867139086776
 22
710.94626817692927
 32
0.0
 13
631.2867139086776
 23
710.94626817692927
 33
0.0
  0
TEXT
  5
DA2
  8
DIM
  6
CONTINUOUS
 10
629.78671390867748
 20
680.79499156145653
 30
0.0
 40
3.0
  1
82
 50
90.0
  7
ROMANSS
 72
     1
 11
628.2867139086776
 21
683.22356299002797
 31
0.0
 73
     2
  0
LINE
  5
DA3
  8
0
 10
109.0705554830495
 20
477.89008900959931
 30
0.0
 11
109.0705554830495
 21
382.89008900959931
 31
0.0
  0
ARC
  5
DA4
  8
0
 10
232.5705554830495
 20
466.39008900959942
 30
0.0
 40
11.25
 50
0.0
 51
90.0
  0
ARC
  5
DA5
  8
0
 10
232.5705554830495
 20
466.39008900959942
 30
0.0
 40
11.5
 50
0.0
 51
90.0
  0
CIRCLE
  5
DA6
  8
0
 10
232.5705554830495
 20
466.39008900959942
 30
0.0
 40
9.0
  0
LINE
  5
DA7
  8
0
 10
244.07055548304939
 20
477.89008900959931
 30
0.0
 11
244.07055548304939
 21
382.89008900959942
 31
0.0
  0
LINE
  5
DA8
  8
CENTER
  6
CENTER
 10
196.57055548304959
 20
480.89008900959931
 30
0.0
 11
196.57055548304959
 21
379.89008900959931
 31
0.0
  0
LINE
  5
DA9
  8
0
 10
206.57055548304939
 20
472.14008900959931
 30
0.0
 11
206.57055548304939
 21
452.02339666238328
 31
0.0
  0
LINE
  5
DAA
  8
0
 10
195.27055548304961
 20
472.14008900959931
 30
0.0
 11
195.27055548304961
 21
454.72956312059858
 31
0.0
  0
LINE
  5
DAB
  8
0
 10
197.87055548304949
 20
472.14008900959931
 30
0.0
 11
197.87055548304949
 21
454.72956312059858
 31
0.0
  0
LINE
  5
DAC
  8
0
 10
186.57055548304959
 20
472.14008900959931
 30
0.0
 11
186.57055548304959
 21
452.02339666238328
 31
0.0
  0
ARC
  5
DAD
  8
0
 10
172.22977929941101
 20
472.14008900959931
 30
0.0
 40
1.5
 50
90.0
 51
206.25121393499711
  0
LINE
  5
DAE
  8
CENTER
  6
CENTER
 10
232.5705554830495
 20
476.89008900959931
 30
0.0
 11
232.5705554830495
 21
455.89008900959931
 31
0.0
  0
ARC
  5
DAF
  8
0
 10
220.9113316666882
 20
472.14008900959931
 30
0.0
 40
1.5
 50
333.74878606499351
 51
90.0
  0
ARC
  5
DB0
  8
0
 10
160.5705554830495
 20
466.39008900959942
 30
0.0
 40
11.25
 50
90.0
 51
180.0
  0
ARC
  5
DB1
  8
0
 10
160.5705554830495
 20
466.39008900959942
 30
0.0
 40
11.5
 50
90.0
 51
180.0
  0
CIRCLE
  5
DB2
  8
0
 10
160.5705554830495
 20
466.39008900959942
 30
0.0
 40
9.0
  0
LINE
  5
DB3
  8
CENTER
  6
CENTER
 10
160.5705554830495
 20
543.89008900959936
 30
0.0
 11
160.5705554830495
 21
315.81006460769743
 31
0.0
  0
LINE
  5
DB4
  8
CENTER
  6
CENTER
 10
247.023772520389
 20
423.39008900959931
 30
0.0
 11
231.0209790694548
 21
423.39008900959931
 31
0.0
  0
LINE
  5
DB5
  8
CENTER
  6
CENTER
 10
247.51057313559119
 20
440.39008900959931
 30
0.0
 11
231.5019528744744
 21
440.39008900959931
 31
0.0
  0
ARC
  5
DB6
  8
0
 10
232.5705554830495
 20
394.39008900959931
 30
0.0
 40
11.25
 50
270.0
 51
0.0
  0
ARC
  5
DB7
  8
0
 10
232.5705554830495
 20
394.39008900959931
 30
0.0
 40
11.5
 50
270.0
 51
0.0
  0
LINE
  5
DB8
  8
CENTER
  6
CENTER
 10
259.07055548304942
 20
407.39008900959931
 30
0.0
 11
223.85713146167299
 21
407.39008900959931
 31
0.0
  0
LINE
  5
DB9
  8
0
 10
244.07055548304939
 20
382.89008900959942
 30
0.0
 11
109.0705554830495
 21
382.89008900959931
 31
0.0
  0
LINE
  5
DBA
  8
CENTER
  6
CENTER
 10
247.07055548304939
 20
430.39008900959931
 30
0.0
 11
104.9480352408691
 21
430.39008900959919
 31
0.0
  0
LINE
  5
DBB
  8
0
 10
112.5705554830495
 20
382.89008900959931
 30
0.0
 11
112.5705554830495
 21
371.89008900959931
 31
0.0
  0
LINE
  5
DBC
  8
0
 10
208.57055548304959
 20
382.89008900959931
 30
0.0
 11
208.57055548304939
 21
371.89008900959942
 31
0.0
  0
LINE
  5
DBD
  8
0
 10
208.57055548304939
 20
371.89008900959931
 30
0.0
 11
112.5705554830495
 21
371.89008900959931
 31
0.0
  0
LINE
  5
DBE
  8
0
 10
207.57055548304939
 20
370.89008900959942
 30
0.0
 11
113.5705554830495
 21
370.89008900959931
 31
0.0
  0
LINE
  5
DBF
  8
0
 10
112.5705554830495
 20
371.89008900959931
 30
0.0
 11
113.5705554830495
 21
370.89008900959931
 31
0.0
  0
LINE
  5
DC0
  8
0
 10
208.57055548304939
 20
371.89008900959942
 30
0.0
 11
207.57055548304939
 21
370.89008900959942
 31
0.0
  0
LINE
  5
DC1
  8
0
 10
172.22977929941101
 20
387.14008900959931
 30
0.0
 11
193.77055548304961
 21
387.14008900959931
 31
0.0
  0
ARC
  5
DC2
  8
0
 10
196.57055548304959
 20
430.39008900959931
 30
0.0
 40
35.5
 50
229.9885419755561
 51
251.4071774505733
  0
LINE
  5
DC3
  8
0
 10
170.83773465023569
 20
401.82884105203919
 30
0.0
 11
180.83834084594039
 21
411.82944724774387
 31
0.0
  0
ARC
  5
DC4
  8
0
 10
196.57055548304959
 20
430.39008900959931
 30
0.0
 40
23.0
 50
186.56242786863399
 51
216.7867892982616
  0
ARC
  5
DC5
  8
0
 10
176.94925354941421
 20
415.71853454427003
 30
0.0
 40
1.5
 50
315.00000000000227
 51
36.786789298263038
  0
ARC
  5
DC6
  8
0
 10
196.57055548304959
 20
430.39008900959931
 30
0.0
 40
35.5
 50
108.5928225494267
 51
130.01145802444381
  0
LINE
  5
DC7
  8
0
 10
170.83773465023569
 20
458.95133696715931
 30
0.0
 11
180.83834084594039
 21
448.95073077145457
 31
0.0
  0
ARC
  5
DC8
  8
0
 10
196.57055548304959
 20
430.39008900959931
 30
0.0
 40
23.0
 50
143.21321070173801
 51
173.43757213136581
  0
ARC
  5
DC9
  8
0
 10
176.94925354941441
 20
445.0616434749287
 30
0.0
 40
1.5
 50
323.2132107017369
 51
45.0
  0
CIRCLE
  5
DCA
  8
0
 10
196.57055548304959
 20
430.39008900959931
 30
0.0
 40
22.5
  0
LINE
  5
DCB
  8
0
 10
232.5705554830495
 20
383.14008900959931
 30
0.0
 11
160.5705554830495
 21
383.14008900959931
 31
0.0
  0
LINE
  5
DCC
  8
0
 10
153.3205554830495
 20
406.0493128259605
 30
0.0
 11
153.3205554830495
 21
427.59008900959941
 31
0.0
  0
LINE
  5
DCD
  8
0
 10
149.3205554830495
 20
466.39008900959942
 30
0.0
 11
149.3205554830495
 21
394.39008900959931
 31
0.0
  0
LINE
  5
DCE
  8
0
 10
149.0705554830495
 20
466.39008900959942
 30
0.0
 11
149.0705554830495
 21
394.39008900959931
 31
0.0
  0
CIRCLE
  5
DCF
  8
0
 10
160.5705554830495
 20
394.39008900959931
 30
0.0
 40
9.0
  0
LINE
  5
DD0
  8
CENTER
  6
CENTER
 10
171.0705554830495
 20
394.39008900959931
 30
0.0
 11
150.0705554830495
 21
394.39008900959931
 31
0.0
  0
POLYLINE
  5
DD1
  8
0
  6
CONTINUOUS
 66
     1
 10
0.0
 20
0.0
 30
0.0
 70
     1
  0
VERTEX
  5
147A
  8
0
  6
CONTINUOUS
 10
163.4573068289977
 20
399.39008900959931
 30
0.0
  0
VERTEX
  5
147B
  8
0
  6
CONTINUOUS
 10
166.34405817494579
 20
394.39008900959931
 30
0.0
  0
VERTEX
  5
147C
  8
0
  6
CONTINUOUS
 10
163.4573068289977
 20
389.39008900959931
 30
0.0
  0
VERTEX
  5
147D
  8
0
  6
CONTINUOUS
 10
157.68380413710139
 20
389.39008900959931
 30
0.0
  0
VERTEX
  5
147E
  8
0
  6
CONTINUOUS
 10
154.7970527911535
 20
394.39008900959931
 30
0.0
  0
VERTEX
  5
147F
  8
0
  6
CONTINUOUS
 10
157.68380413710139
 20
399.39008900959931
 30
0.0
  0
SEQEND
  5
1480
  8
0
  6
CONTINUOUS
  0
ARC
  5
DD9
  8
0
 10
160.5705554830495
 20
394.39008900959931
 30
0.0
 40
11.25
 50
180.0
 51
270.0
  0
ARC
  5
DDA
  8
0
 10
160.5705554830495
 20
394.39008900959931
 30
0.0
 40
11.5
 50
180.0
 51
270.0
  0
ARC
  5
DDB
  8
0
 10
160.5705554830495
 20
394.39008900959931
 30
0.0
 40
11.5
 50
333.74878606508207
 51
29.381501724351899
  0
ARC
  5
DDC
  8
0
 10
172.22977929941101
 20
388.64008900959931
 30
0.0
 40
1.5
 50
153.74878606500999
 51
270.0
  0
ARC
  5
DDD
  8
0
 10
171.89839482201549
 20
400.76818088025942
 30
0.0
 40
1.5
 50
134.9999999999992
 51
209.38150172435169
  0
ARC
  5
DDE
  8
0
 10
160.5705554830495
 20
394.39008900959931
 30
0.0
 40
11.5
 50
60.618498275648491
 51
116.2512139349553
  0
LINE
  5
DDF
  8
0
 10
154.8205554830495
 20
420.39008900959931
 30
0.0
 11
174.93724783026559
 21
420.39008900959931
 31
0.0
  0
ARC
  5
DE0
  8
0
 10
154.8205554830495
 20
406.0493128259605
 30
0.0
 40
1.5
 50
180.0
 51
296.25121393495692
  0
ARC
  5
DE1
  8
0
 10
154.8205554830495
 20
418.89008900959931
 30
0.0
 40
1.5
 50
90.0
 51
180.0
  0
LINE
  5
DE2
  8
0
 10
168.0093075254895
 20
404.65726817678541
 30
0.0
 11
178.00991372119421
 21
414.65787437249008
 31
0.0
  0
ARC
  5
DE3
  8
0
 10
196.57055548304959
 20
430.39008900959931
 30
0.0
 40
35.5
 50
198.5928225494265
 51
220.0114580244437
  0
ARC
  5
DE4
  8
0
 10
170.1464575204605
 20
408.20863173412948
 30
0.0
 40
1.0
 50
220.0114580244414
 51
315.0
  0
ARC
  5
DE5
  8
0
 10
166.94864735370979
 20
405.71792834856529
 30
0.0
 40
1.5
 50
240.61849827564731
 51
315.00000000000227
  0
ARC
  5
DE6
  8
0
 10
174.38909820757979
 20
403.96599104701022
 30
0.0
 40
1.0
 50
135.0
 51
229.9885419755573
  0
ARC
  5
DE7
  8
0
 10
163.8711671095646
 20
419.39008900959931
 30
0.0
 40
1.0
 50
90.0
 51
198.59282254942551
  0
ARC
  5
DE8
  8
0
 10
174.93724783026559
 20
418.89008900959931
 30
0.0
 40
1.5
 50
27.994561732254802
 51
90.0
  0
LINE
  5
DE9
  8
0
 10
153.3205554830495
 20
454.73086519323812
 30
0.0
 11
153.3205554830495
 21
433.19008900959932
 31
0.0
  0
ARC
  5
DEA
  8
0
 10
196.57055548304959
 20
430.39008900959931
 30
0.0
 40
35.5
 50
139.98854197555599
 51
161.4071774505733
  0
LINE
  5
DEB
  8
0
 10
168.0093075254895
 20
456.12290984241309
 30
0.0
 11
178.00991372119421
 21
446.12230364670842
 31
0.0
  0
LINE
  5
DEC
  8
0
 10
154.8205554830495
 20
440.39008900959931
 30
0.0
 11
174.93724783026559
 21
440.39008900959931
 31
0.0
  0
LINE
  5
DED
  8
0
 10
154.8205554830495
 20
431.69008900959921
 30
0.0
 11
172.2310813720504
 21
431.69008900959921
 31
0.0
  0
LINE
  5
DEE
  8
0
 10
154.8205554830495
 20
429.0900890095993
 30
0.0
 11
172.2310813720504
 21
429.0900890095993
 31
0.0
  0
ARC
  5
DEF
  8
0
 10
154.8205554830495
 20
427.59008900959941
 30
0.0
 40
1.5
 50
90.0
 51
180.0
  0
ARC
  5
DF0
  8
0
 10
154.8205554830495
 20
433.19008900959932
 30
0.0
 40
1.5
 50
180.0
 51
270.0
  0
ARC
  5
DF1
  8
0
 10
154.8205554830495
 20
441.89008900959942
 30
0.0
 40
1.5
 50
180.0
 51
270.0
  0
ARC
  5
DF2
  8
0
 10
172.2310813720504
 20
427.59008900959941
 30
0.0
 40
1.5
 50
6.5624278686343862
 51
90.0
  0
ARC
  5
DF3
  8
0
 10
172.2310813720504
 20
433.19008900959932
 30
0.0
 40
1.5
 50
270.0
 51
353.43757213136558
  0
ARC
  5
DF4
  8
0
 10
163.8711671095646
 20
441.39008900959942
 30
0.0
 40
1.0
 50
161.40717745057441
 51
270.0
  0
ARC
  5
DF5
  8
0
 10
174.93724783026559
 20
441.89008900959942
 30
0.0
 40
1.5
 50
270.0
 51
332.00543826774759
  0
LINE
  5
DF6
  8
CENTER
  6
CENTER
 10
171.0705554830495
 20
466.39008900959942
 30
0.0
 11
150.0705554830495
 21
466.39008900959942
 31
0.0
  0
POLYLINE
  5
DF7
  8
0
  6
CONTINUOUS
 66
     1
 10
0.0
 20
0.0
 30
0.0
 70
     1
  0
VERTEX
  5
1481
  8
0
  6
CONTINUOUS
 10
163.4573068289977
 20
471.39008900959942
 30
0.0
  0
VERTEX
  5
1482
  8
0
  6
CONTINUOUS
 10
166.34405817494579
 20
466.39008900959942
 30
0.0
  0
VERTEX
  5
1483
  8
0
  6
CONTINUOUS
 10
163.4573068289977
 20
461.39008900959931
 30
0.0
  0
VERTEX
  5
1484
  8
0
  6
CONTINUOUS
 10
157.68380413710139
 20
461.39008900959931
 30
0.0
  0
VERTEX
  5
1485
  8
0
  6
CONTINUOUS
 10
154.7970527911535
 20
466.39008900959942
 30
0.0
  0
VERTEX
  5
1486
  8
0
  6
CONTINUOUS
 10
157.68380413710139
 20
471.39008900959919
 30
0.0
  0
SEQEND
  5
1487
  8
0
  6
CONTINUOUS
  0
ARC
  5
DFF
  8
0
 10
160.5705554830495
 20
466.39008900959942
 30
0.0
 40
11.5
 50
243.74878606504441
 51
299.38150172435149
  0
ARC
  5
E00
  8
0
 10
154.8205554830495
 20
454.73086519323812
 30
0.0
 40
1.5
 50
63.748786065044058
 51
180.0
  0
ARC
  5
E01
  8
0
 10
171.89839482201549
 20
460.01199713893919
 30
0.0
 40
1.5
 50
150.61849827564831
 51
225.0
  0
ARC
  5
E02
  8
0
 10
170.1464575204605
 20
452.57154628506908
 30
0.0
 40
1.0
 50
45.0
 51
139.98854197555499
  0
ARC
  5
E03
  8
0
 10
166.94864735370979
 20
455.06224967063332
 30
0.0
 40
1.5
 50
45.0
 51
119.38150172435159
  0
ARC
  5
E04
  8
0
 10
174.38909820757979
 20
456.81418697218828
 30
0.0
 40
1.0
 50
130.0114580244414
 51
225.0
  0
ARC
  5
E05
  8
0
 10
160.5705554830495
 20
466.39008900959942
 30
0.0
 40
11.5
 50
330.61849827564839
 51
26.251213934927279
  0
LINE
  5
E06
  8
0
 10
239.82055548304939
 20
406.0493128259605
 30
0.0
 11
239.82055548304939
 21
427.59008900959941
 31
0.0
  0
ARC
  5
E07
  8
0
 10
196.57055548304959
 20
430.39008900959931
 30
0.0
 40
23.0
 50
323.21321070173821
 51
353.43757213136593
  0
ARC
  5
E08
  8
0
 10
196.57055548304959
 20
430.39008900959931
 30
0.0
 40
35.5
 50
288.59282254942661
 51
310.01145802444381
  0
ARC
  5
E09
  8
0
 10
211.24210994837881
 20
410.7687870759641
 30
0.0
 40
1.5
 50
45.000000000001521
 51
126.78678929826
  0
LINE
  5
E0A
  8
0
 10
220.9113316666882
 20
387.14008900959931
 30
0.0
 11
199.37055548304949
 21
387.14008900959931
 31
0.0
  0
LINE
  5
E0B
  8
0
 10
197.87055548304949
 20
388.64008900959931
 30
0.0
 11
197.87055548304949
 21
406.05061489859997
 31
0.0
  0
LINE
  5
E0C
  8
0
 10
195.27055548304961
 20
388.64008900959931
 30
0.0
 11
195.27055548304961
 21
406.05061489859997
 31
0.0
  0
LINE
  5
E0D
  8
0
 10
206.57055548304939
 20
388.64008900959931
 30
0.0
 11
206.57055548304939
 21
408.75678135681528
 31
0.0
  0
LINE
  5
E0E
  8
0
 10
186.57055548304959
 20
388.64008900959931
 30
0.0
 11
186.57055548304959
 21
408.75678135681528
 31
0.0
  0
ARC
  5
E0F
  8
0
 10
193.77055548304961
 20
388.64008900959931
 30
0.0
 40
1.5
 50
270.0
 51
0.0
  0
ARC
  5
E10
  8
0
 10
185.0705554830495
 20
388.64008900959931
 30
0.0
 40
1.5
 50
270.0
 51
0.0
  0
ARC
  5
E11
  8
0
 10
185.5705554830495
 20
397.6907006361144
 30
0.0
 40
1.0
 50
251.4071774505743
 51
0.0
  0
ARC
  5
E12
  8
0
 10
199.37055548304949
 20
388.64008900959931
 30
0.0
 40
1.5
 50
180.0
 51
270.0
  0
ARC
  5
E13
  8
0
 10
208.07055548304939
 20
388.64008900959931
 30
0.0
 40
1.5
 50
180.0
 51
270.0
  0
ARC
  5
E14
  8
0
 10
207.57055548304939
 20
397.6907006361144
 30
0.0
 40
1.0
 50
180.0
 51
288.59282254942548
  0
ARC
  5
E15
  8
0
 10
193.77055548304961
 20
406.05061489859997
 30
0.0
 40
1.5
 50
0.0
 51
83.437572131365485
  0
ARC
  5
E16
  8
0
 10
196.57055548304959
 20
430.39008900959931
 30
0.0
 40
23.0
 50
233.21321070173801
 51
263.43757213136581
  0
ARC
  5
E17
  8
0
 10
185.0705554830495
 20
408.75678135681528
 30
0.0
 40
1.5
 50
0.0
 51
62.005438267747621
  0
ARC
  5
E18
  8
0
 10
181.8990010177202
 20
410.7687870759641
 30
0.0
 40
1.5
 50
53.213210701737829
 51
135.0
  0
ARC
  5
E19
  8
0
 10
196.57055548304959
 20
430.39008900959931
 30
0.0
 40
23.0
 50
276.56242786863407
 51
306.78678929826168
  0
ARC
  5
E1A
  8
0
 10
199.37055548304949
 20
406.05061489859997
 30
0.0
 40
1.5
 50
96.562427868634515
 51
180.0
  0
ARC
  5
E1B
  8
0
 10
208.07055548304939
 20
408.75678135681528
 30
0.0
 40
1.5
 50
117.99456173225229
 51
180.0
  0
CIRCLE
  5
E1C
  8
0
 10
232.5705554830495
 20
394.39008900959931
 30
0.0
 40
9.0
  0
LINE
  5
E1D
  8
0
 10
222.3033763158632
 20
401.82884105203919
 30
0.0
 11
212.3027701201585
 21
411.82944724774387
 31
0.0
  0
LINE
  5
E1E
  8
CENTER
  6
CENTER
 10
232.5705554830495
 20
404.89008900959931
 30
0.0
 11
232.5705554830495
 21
383.89008900959931
 31
0.0
  0
LINE
  5
E1F
  8
CENTER
  6
CENTER
 10
243.07055548304939
 20
394.39008900959931
 30
0.0
 11
222.07055548304939
 21
394.39008900959931
 31
0.0
  0
POLYLINE
  5
E20
  8
0
  6
CONTINUOUS
 66
     1
 10
0.0
 20
0.0
 30
0.0
 70
     1
  0
VERTEX
  5
1488
  8
0
  6
CONTINUOUS
 10
235.45730682899759
 20
399.39008900959931
 30
0.0
  0
VERTEX
  5
1489
  8
0
  6
CONTINUOUS
 10
238.3440581749457
 20
394.39008900959931
 30
0.0
  0
VERTEX
  5
148A
  8
0
  6
CONTINUOUS
 10
235.45730682899759
 20
389.39008900959931
 30
0.0
  0
VERTEX
  5
148B
  8
0
  6
CONTINUOUS
 10
229.68380413710139
 20
389.39008900959931
 30
0.0
  0
VERTEX
  5
148C
  8
0
  6
CONTINUOUS
 10
226.79705279115331
 20
394.39008900959931
 30
0.0
  0
VERTEX
  5
148D
  8
0
  6
CONTINUOUS
 10
229.68380413710139
 20
399.39008900959931
 30
0.0
  0
SEQEND
  5
148E
  8
0
  6
CONTINUOUS
  0
ARC
  5
E28
  8
0
 10
232.5705554830495
 20
394.39008900959931
 30
0.0
 40
11.5
 50
150.61849827564811
 51
206.25121393492719
  0
ARC
  5
E29
  8
0
 10
220.9113316666882
 20
388.64008900959931
 30
0.0
 40
1.5
 50
270.0
 51
26.25121393499963
  0
ARC
  5
E2A
  8
0
 10
221.2427161440834
 20
400.76818088025942
 30
0.0
 40
1.5
 50
330.61849827564822
 51
45.000000000001521
  0
ARC
  5
E2B
  8
0
 10
232.5705554830495
 20
394.39008900959931
 30
0.0
 40
11.5
 50
63.748786065044662
 51
119.38150172435149
  0
LINE
  5
E2C
  8
0
 10
222.52030295135521
 20
410.89008900959942
 30
0.0
 11
238.32055548304939
 21
410.89008900959942
 31
0.0
  0
LINE
  5
E2D
  8
0
 10
225.13180344060939
 20
404.65726817678541
 30
0.0
 11
215.1311972449048
 21
414.65787437249008
 31
0.0
  0
ARC
  5
E2E
  8
0
 10
226.19246361238939
 20
405.71792834856529
 30
0.0
 40
1.5
 50
224.99999999999841
 51
299.38150172435172
  0
ARC
  5
E2F
  8
0
 10
218.7520127585191
 20
403.96599104701022
 30
0.0
 40
1.0
 50
310.01145802444393
 51
45.0
  0
ARC
  5
E30
  8
0
 10
222.52030295135521
 20
409.39008900959942
 30
0.0
 40
1.5
 50
90.0
 51
225.00000000000151
  0
ARC
  5
E31
  8
0
 10
216.19185741668451
 20
415.71853454426991
 30
0.0
 40
1.5
 50
143.2132107017369
 51
224.99999999999841
  0
ARC
  5
E32
  8
0
 10
238.32055548304939
 20
406.0493128259605
 30
0.0
 40
1.5
 50
243.74878606504399
 51
0.0
  0
ARC
  5
E33
  8
0
 10
238.32055548304939
 20
409.39008900959942
 30
0.0
 40
1.5
 50
0.0
 51
90.0
  0
ARC
  5
E34
  8
0
 10
196.57055548304959
 20
430.39008900959931
 30
0.0
 40
35.5
 50
49.98854197555616
 51
71.407177450573386
  0
ARC
  5
E35
  8
0
 10
211.24210994837881
 20
450.01139094323457
 30
0.0
 40
1.5
 50
233.21321070173991
 51
315.0
  0
ARC
  5
E36
  8
0
 10
181.8990010177202
 20
450.01139094323457
 30
0.0
 40
1.5
 50
225.0
 51
306.78678929825992
  0
ARC
  5
E37
  8
0
 10
193.77055548304961
 20
454.72956312059858
 30
0.0
 40
1.5
 50
276.56242786863447
 51
0.0
  0
ARC
  5
E38
  8
0
 10
196.57055548304959
 20
430.39008900959931
 30
0.0
 40
23.0
 50
96.562427868634174
 51
126.7867892982617
  0
ARC
  5
E39
  8
0
 10
185.0705554830495
 20
452.02339666238328
 30
0.0
 40
1.5
 50
297.99456173225229
 51
0.0
  0
ARC
  5
E3A
  8
0
 10
185.5705554830495
 20
463.0894773830841
 30
0.0
 40
1.0
 50
0.0
 51
108.5928225494286
  0
ARC
  5
E3B
  8
0
 10
196.57055548304959
 20
430.39008900959931
 30
0.0
 40
23.0
 50
53.213210701738248
 51
83.437572131365826
  0
ARC
  5
E3C
  8
0
 10
199.37055548304949
 20
454.72956312059858
 30
0.0
 40
1.5
 50
180.0
 51
263.43757213136541
  0
ARC
  5
E3D
  8
0
 10
208.07055548304939
 20
452.02339666238328
 30
0.0
 40
1.5
 50
180.0
 51
242.00543826774759
  0
ARC
  5
E3E
  8
0
 10
207.57055548304939
 20
463.0894773830841
 30
0.0
 40
1.0
 50
71.407177450574423
 51
180.0
  0
ARC
  5
E3F
  8
0
 10
238.32055548304939
 20
449.3062874966941
 30
0.0
 40
1.5
 50
270.0
 51
0.0
  0
LINE
  5
E40
  8
0
 10
239.82055548304939
 20
454.73086519323812
 30
0.0
 11
239.82055548304939
 21
433.19008900959932
 31
0.0
  0
ARC
  5
E41
  8
0
 10
220.0203029513554
 20
449.3062874966941
 30
0.0
 40
1.5
 50
171.50526946671781
 51
270.0
  0
LINE
  5
E42
  8
0
 10
225.13180344060939
 20
456.12290984241309
 30
0.0
 11
215.1311972449048
 21
446.12230364670842
 31
0.0
  0
LINE
  5
E43
  8
0
 10
219.67520921562681
 20
437.04024090374878
 30
0.0
 11
238.32055548304939
 21
437.04024090374878
 31
0.0
  0
LINE
  5
E44
  8
0
 10
220.0203029513554
 20
447.8062874966941
 30
0.0
 11
238.32055548304939
 21
447.8062874966941
 31
0.0
  0
LINE
  5
E45
  8
0
 10
238.32055548304939
 20
429.0900890095993
 30
0.0
 11
220.91002959404881
 21
429.0900890095993
 31
0.0
  0
LINE
  5
E46
  8
0
 10
238.32055548304939
 20
431.69008900959921
 30
0.0
 11
220.91002959404881
 21
431.69008900959921
 31
0.0
  0
ARC
  5
E47
  8
0
 10
219.67520921562681
 20
438.5402409037489
 30
0.0
 40
1.5
 50
199.43026151964381
 51
270.0
  0
ARC
  5
E48
  8
0
 10
196.57055548304959
 20
430.39008900959931
 30
0.0
 40
23.0
 50
6.5624278686341668
 51
36.78678929826156
  0
ARC
  5
E49
  8
0
 10
220.91002959404881
 20
427.59008900959941
 30
0.0
 40
1.5
 50
90.0
 51
173.4375721313655
  0
ARC
  5
E4A
  8
0
 10
220.91002959404881
 20
433.19008900959932
 30
0.0
 40
1.5
 50
186.5624278686345
 51
270.0
  0
ARC
  5
E4B
  8
0
 10
216.19185741668471
 20
445.0616434749287
 30
0.0
 40
1.5
 50
135.0
 51
216.78678929826
  0
ARC
  5
E4C
  8
0
 10
238.32055548304939
 20
438.5402409037489
 30
0.0
 40
1.5
 50
270.0
 51
0.0
  0
ARC
  5
E4D
  8
0
 10
238.32055548304939
 20
427.59008900959941
 30
0.0
 40
1.5
 50
0.0
 51
90.0
  0
ARC
  5
E4E
  8
0
 10
238.32055548304939
 20
433.19008900959932
 30
0.0
 40
1.5
 50
270.0
 51
0.0
  0
LINE
  5
E4F
  8
CENTER
  6
CENTER
 10
243.07055548304939
 20
466.39008900959942
 30
0.0
 11
222.07055548304939
 21
466.39008900959942
 31
0.0
  0
POLYLINE
  5
E50
  8
0
  6
CONTINUOUS
 66
     1
 10
0.0
 20
0.0
 30
0.0
 70
     1
  0
VERTEX
  5
148F
  8
0
  6
CONTINUOUS
 10
235.45730682899759
 20
471.39008900959942
 30
0.0
  0
VERTEX
  5
1490
  8
0
  6
CONTINUOUS
 10
238.3440581749457
 20
466.39008900959942
 30
0.0
  0
VERTEX
  5
1491
  8
0
  6
CONTINUOUS
 10
235.45730682899759
 20
461.39008900959931
 30
0.0
  0
VERTEX
  5
1492
  8
0
  6
CONTINUOUS
 10
229.68380413710139
 20
461.39008900959931
 30
0.0
  0
VERTEX
  5
1493
  8
0
  6
CONTINUOUS
 10
226.79705279115331
 20
466.39008900959942
 30
0.0
  0
VERTEX
  5
1494
  8
0
  6
CONTINUOUS
 10
229.68380413710139
 20
471.39008900959919
 30
0.0
  0
SEQEND
  5
1495
  8
0
  6
CONTINUOUS
  0
ARC
  5
E58
  8
0
 10
232.5705554830495
 20
466.39008900959942
 30
0.0
 40
11.5
 50
240.61849827564839
 51
296.2512139349555
  0
ARC
  5
E59
  8
0
 10
221.2427161440834
 20
460.01199713893919
 30
0.0
 40
1.5
 50
315.0
 51
29.3815017243517
  0
LINE
  5
E5A
  8
0
 10
222.3033763158632
 20
458.95133696715931
 30
0.0
 11
212.3027701201585
 21
448.95073077145457
 31
0.0
  0
ARC
  5
E5B
  8
0
 10
226.19246361238939
 20
455.06224967063332
 30
0.0
 40
1.5
 50
60.618498275650182
 51
135.0
  0
ARC
  5
E5C
  8
0
 10
218.7520127585191
 20
456.81418697218828
 30
0.0
 40
1.0
 50
315.0
 51
49.988541975558569
  0
ARC
  5
E5D
  8
0
 10
232.5705554830495
 20
466.39008900959942
 30
0.0
 40
11.5
 50
153.74878606506351
 51
209.38150172435141
  0
ARC
  5
E5E
  8
0
 10
238.32055548304939
 20
454.73086519323812
 30
0.0
 40
1.5
 50
0.0
 51
116.251213934954
  0
LINE
  5
E5F
  8
0
 10
243.82055548304939
 20
466.39008900959942
 30
0.0
 11
243.82055548304939
 21
394.39008900959931
 31
0.0
  0
LINE
  5
E60
  8
0
  6
CONTINUOUS
 10
252.0705554830493
 20
401.39008900959931
 30
0.0
 11
252.0705554830493
 21
413.39008900959931
 31
0.0
  0
LINE
  5
E61
  8
0
  6
CONTINUOUS
 10
253.07055548304939
 20
401.39008900959931
 30
0.0
 11
255.07055548304939
 21
403.39008900959931
 31
0.0
  0
LINE
  5
E62
  8
0
  6
CONTINUOUS
 10
253.07055548304939
 20
401.39008900959931
 30
0.0
 11
253.07055548304939
 21
413.39008900959931
 31
0.0
  0
ARC
  5
E63
  8
0
  6
CONTINUOUS
 10
241.80833326082589
 20
402.64008900959942
 30
0.0
 40
10.338070658410899
 50
332.64729508745978
 51
27.352704912540158
  0
LINE
  5
E64
  8
0
  6
CONTINUOUS
 10
250.99055548304949
 20
397.89008900959931
 30
0.0
 11
244.07055548304939
 21
397.89008900959931
 31
0.0
  0
LINE
  5
E65
  8
0
  6
CONTINUOUS
 10
252.0705554830493
 20
401.39008900959931
 30
0.0
 11
253.07055548304939
 21
401.39008900959931
 31
0.0
  0
ARC
  5
E66
  8
0
  6
CONTINUOUS
 10
241.80833326082589
 20
412.14008900959931
 30
0.0
 40
10.338070658410899
 50
332.64729508745978
 51
27.352704912540158
  0
LINE
  5
E67
  8
0
  6
CONTINUOUS
 10
244.07055548304939
 20
407.39008900959931
 30
0.0
 11
250.99055548304949
 21
407.39008900959931
 31
0.0
  0
LINE
  5
E68
  8
0
  6
CONTINUOUS
 10
244.07055548304939
 20
407.39008900959931
 30
0.0
 11
250.99055548304949
 21
407.39008900959931
 31
0.0
  0
LINE
  5
E69
  8
0
  6
CONTINUOUS
 62
     2
 10
252.0705554830493
 20
402.59008900960009
 30
0.0
 11
254.2705554830502
 21
402.59008900960009
 31
0.0
  0
LINE
  5
E6A
  8
0
  6
CONTINUOUS
 62
     2
 10
252.0705554830493
 20
412.19008900959858
 30
0.0
 11
254.2705554830502
 21
412.19008900959858
 31
0.0
  0
LINE
  5
E6B
  8
0
  6
CONTINUOUS
 10
252.0705554830493
 20
413.39008900959931
 30
0.0
 11
253.07055548304939
 21
413.39008900959931
 31
0.0
  0
LINE
  5
E6C
  8
0
  6
CONTINUOUS
 10
253.07055548304939
 20
413.39008900959931
 30
0.0
 11
255.07055548304939
 21
411.39008900959931
 31
0.0
  0
LINE
  5
E6D
  8
0
  6
CONTINUOUS
 10
255.07055548304939
 20
403.39008900959931
 30
0.0
 11
255.07055548304939
 21
411.39008900959931
 31
0.0
  0
LINE
  5
E6E
  8
0
  6
CONTINUOUS
 10
250.99055548304949
 20
416.89008900959942
 30
0.0
 11
244.07055548304939
 21
416.89008900959942
 31
0.0
  0
LINE
  5
E6F
  8
0
 10
244.07055548304939
 20
477.89008900959931
 30
0.0
 11
109.0705554830495
 21
477.89008900959931
 31
0.0
  0
LINE
  5
E70
  8
0
 10
232.5705554830495
 20
477.64008900959942
 30
0.0
 11
160.5705554830495
 21
477.64008900959942
 31
0.0
  0
LINE
  5
E71
  8
0
 10
172.22977929941101
 20
473.64008900959931
 30
0.0
 11
193.77055548304961
 21
473.64008900959931
 31
0.0
  0
LINE
  5
E72
  8
0
 10
208.57055548304939
 20
488.89008900959931
 30
0.0
 11
112.5705554830495
 21
488.89008900959942
 31
0.0
  0
LINE
  5
E73
  8
0
 10
207.57055548304939
 20
489.89008900959942
 30
0.0
 11
113.5705554830495
 21
489.89008900959942
 31
0.0
  0
LINE
  5
E74
  8
0
 10
178.0705554830495
 20
490.89008900959948
 30
0.0
 11
143.0705554830495
 21
490.89008900959948
 31
0.0
  0
LINE
  5
E75
  8
0
 10
156.5705554830495
 20
534.39008900959936
 30
0.0
 11
156.5705554830495
 21
497.39008900959931
 31
0.0
  0
LINE
  5
E76
  8
0
 10
164.5705554830495
 20
534.39008900959936
 30
0.0
 11
164.5705554830495
 21
497.39008900959931
 31
0.0
  0
LINE
  5
E77
  8
0
 10
146.5705554830493
 20
539.89008900959936
 30
0.0
 11
146.5705554830495
 21
490.89008900959948
 31
0.0
  0
LINE
  5
E78
  8
0
 10
174.5705554830495
 20
539.89008900959936
 30
0.0
 11
174.5705554830495
 21
490.89008900959948
 31
0.0
  0
LINE
  5
E79
  8
0
 10
112.5705554830495
 20
488.89008900959942
 30
0.0
 11
112.5705554830495
 21
477.89008900959931
 31
0.0
  0
LINE
  5
E7A
  8
0
 10
113.5705554830495
 20
489.89008900959942
 30
0.0
 11
112.5705554830495
 21
488.89008900959942
 31
0.0
  0
LINE
  5
E7B
  8
0
 10
143.0705554830495
 20
490.89008900959948
 30
0.0
 11
143.0705554830495
 21
489.89008900959942
 31
0.0
  0
ARC
  5
E7C
  8
0
  6
CONTINUOUS
 10
160.5705554830495
 20
497.39008900959931
 30
0.0
 40
4.0
 50
180.0
 51
0.0
  0
ARC
  5
E7D
  8
0
  6
CONTINUOUS
 10
160.5705554830495
 20
534.39008900959936
 30
0.0
 40
4.0
 50
0.0
 51
180.0
  0
LINE
  5
E7E
  8
0
 10
173.5705554830495
 20
540.89008900959948
 30
0.0
 11
147.5705554830493
 21
540.89008900959948
 31
0.0
  0
LINE
  5
E7F
  8
0
 10
174.5705554830495
 20
539.89008900959936
 30
0.0
 11
146.5705554830495
 21
539.89008900959936
 31
0.0
  0
LINE
  5
E80
  8
0
 10
147.5705554830493
 20
540.89008900959948
 30
0.0
 11
146.5705554830493
 21
539.89008900959936
 31
0.0
  0
LINE
  5
E81
  8
0
 10
173.5705554830495
 20
540.89008900959948
 30
0.0
 11
174.5705554830495
 21
539.89008900959936
 31
0.0
  0
LINE
  5
E82
  8
0
 10
220.9113316666882
 20
473.64008900959931
 30
0.0
 11
199.37055548304949
 21
473.64008900959931
 31
0.0
  0
ARC
  5
E83
  8
0
 10
193.77055548304961
 20
472.14008900959931
 30
0.0
 40
1.5
 50
0.0
 51
90.0
  0
ARC
  5
E84
  8
0
 10
185.0705554830495
 20
472.14008900959931
 30
0.0
 40
1.5
 50
0.0
 51
90.0
  0
LINE
  5
E85
  8
0
 10
178.0705554830495
 20
490.89008900959948
 30
0.0
 11
178.0705554830493
 21
489.89008900959942
 31
0.0
  0
LINE
  5
E86
  8
0
 10
208.57055548304939
 20
488.89008900959942
 30
0.0
 11
208.57055548304959
 21
477.89008900959931
 31
0.0
  0
ARC
  5
E87
  8
0
 10
199.37055548304949
 20
472.14008900959931
 30
0.0
 40
1.5
 50
90.0
 51
180.0
  0
ARC
  5
E88
  8
0
 10
208.07055548304939
 20
472.14008900959931
 30
0.0
 40
1.5
 50
90.0
 51
180.0
  0
LINE
  5
E89
  8
0
 10
207.57055548304939
 20
489.89008900959942
 30
0.0
 11
208.57055548304939
 21
488.89008900959942
 31
0.0
  0
LINE
  5
E8A
  8
DIM
  6
CONTINUOUS
 10
960.52423029662395
 20
319.89008900959942
 30
0.0
 11
960.52423029662316
 21
540.89008900959925
 31
0.0
  0
LINE
  5
E8B
  8
DIM
  6
CONTINUOUS
 10
952.52423029662327
 20
370.89008900959931
 30
0.0
 11
952.5242302966235
 21
489.89008900959931
 31
0.0
  0
SOLID
  5
E8C
  8
DIM
  6
CONTINUOUS
 10
819.10277518360772
 20
474.1978533703288
 30
0.0
 11
818.17786703897525
 21
473.817662728686
 31
0.0
 12
819.78089303621994
 22
471.2330336156104
 32
0.0
 13
819.78089303621994
 23
471.2330336156104
 33
0.0
  0
LINE
  5
E8D
  8
0
 10
944.5242302966235
 20
477.89008900959931
 30
0.0
 11
944.5242302966235
 21
382.89008900959931
 31
0.0
  0
LINE
  5
E8E
  8
0
 10
809.52423029662373
 20
477.89008900959931
 30
0.0
 11
809.52423029662373
 21
382.89008900959942
 31
0.0
  0
ARC
  5
E8F
  8
0
 10
893.02423029662361
 20
466.39008900959942
 30
0.0
 40
11.25
 50
0.0
 51
90.0
  0
ARC
  5
E90
  8
0
 10
893.02423029662361
 20
466.39008900959942
 30
0.0
 40
11.5
 50
0.0
 51
90.0
  0
ARC
  5
E91
  8
0
 10
881.3650064802622
 20
472.14008900959931
 30
0.0
 40
1.5
 50
333.74878606499061
 51
90.0
  0
CIRCLE
  5
E92
  8
0
 10
893.02423029662361
 20
466.39008900959942
 30
0.0
 40
9.0
  0
LINE
  5
E93
  8
CENTER
  6
CENTER
 10
893.02423029662361
 20
543.89008900959936
 30
0.0
 11
893.02423029662361
 21
317.42728304706162
 31
0.0
  0
ARC
  5
E94
  8
0
 10
832.68345411298503
 20
472.14008900959931
 30
0.0
 40
1.5
 50
90.0
 51
206.25121393501709
  0
LINE
  5
E95
  8
0
 10
847.02423029662373
 20
472.14008900959931
 30
0.0
 11
847.02423029662373
 21
452.02339666238328
 31
0.0
  0
LINE
  5
E96
  8
0
 10
858.32423029662368
 20
472.14008900959931
 30
0.0
 11
858.32423029662368
 21
454.72956312059858
 31
0.0
  0
LINE
  5
E97
  8
0
 10
855.72423029662366
 20
472.14008900959931
 30
0.0
 11
855.72423029662366
 21
454.72956312059858
 31
0.0
  0
LINE
  5
E98
  8
0
 10
867.02423029662361
 20
472.14008900959931
 30
0.0
 11
867.02423029662361
 21
452.02339666238328
 31
0.0
  0
ARC
  5
E99
  8
0
 10
821.02423029662373
 20
466.39008900959942
 30
0.0
 40
11.25
 50
90.0
 51
180.0
  0
ARC
  5
E9A
  8
0
 10
821.02423029662373
 20
466.39008900959942
 30
0.0
 40
11.5
 50
90.0
 51
180.0
  0
LINE
  5
E9B
  8
CENTER
  6
CENTER
 10
821.02423029662373
 20
476.89008900959931
 30
0.0
 11
821.02423029662373
 21
455.89008900959931
 31
0.0
  0
CIRCLE
  5
E9C
  8
0
 10
821.02423029662373
 20
466.39008900959942
 30
0.0
 40
9.0
  0
LINE
  5
E9D
  8
CENTER
  6
CENTER
 10
857.02423029662373
 20
480.89008900959931
 30
0.0
 11
857.02423029662373
 21
379.89008900959931
 31
0.0
  0
LINE
  5
E9E
  8
DIM
  6
CONTINUOUS
 10
809.52423029662373
 20
295.89008900959942
 30
0.0
 11
944.52423029662327
 21
295.89008900959942
 31
0.0
  0
LINE
  5
E9F
  8
DIM
  6
CONTINUOUS
 10
809.52423029662373
 20
303.89008900959948
 30
0.0
 11
904.52423029662361
 21
303.89008900959948
 31
0.0
  0
LINE
  5
EA0
  8
0
 10
809.52423029662373
 20
382.89008900959942
 30
0.0
 11
944.5242302966235
 21
382.89008900959931
 31
0.0
  0
ARC
  5
EA1
  8
0
 10
821.02423029662373
 20
466.39008900959942
 30
0.0
 40
11.5
 50
330.61849827564839
 51
26.251213934945589
  0
ARC
  5
EA2
  8
0
 10
831.07448282831797
 20
451.39008900959919
 30
0.0
 40
1.5
 50
270.0
 51
45.000000000001521
  0
LINE
  5
EA3
  8
0
 10
828.46298233906384
 20
456.12290984241309
 30
0.0
 11
838.46358853476841
 21
446.12230364670842
 31
0.0
  0
LINE
  5
EA4
  8
0
 10
831.29140946380994
 20
458.95133696715931
 30
0.0
 11
841.2920156595145
 21
448.95073077145457
 31
0.0
  0
LINE
  5
EA5
  8
0
 10
815.27423029662361
 20
429.0900890095993
 30
0.0
 11
832.68475618562445
 21
429.0900890095993
 31
0.0
  0
LINE
  5
EA6
  8
0
 10
815.27423029662361
 20
431.69008900959921
 30
0.0
 11
832.68475618562445
 21
431.69008900959921
 31
0.0
  0
LINE
  5
EA7
  8
CENTER
  6
CENTER
 10
806.52423029662361
 20
430.39008900959931
 30
0.0
 11
947.37003257556557
 21
430.39008900959931
 31
0.0
  0
LINE
  5
EA8
  8
0
 10
828.46298233906384
 20
404.65726817678541
 30
0.0
 11
838.46358853476841
 21
414.65787437249008
 31
0.0
  0
LINE
  5
EA9
  8
0
 10
831.29140946380994
 20
401.82884105203919
 30
0.0
 11
841.2920156595145
 21
411.82944724774387
 31
0.0
  0
ARC
  5
EAA
  8
0
 10
832.68345411298503
 20
388.64008900959931
 30
0.0
 40
1.5
 50
153.7487860649926
 51
270.0
  0
ARC
  5
EAB
  8
0
 10
821.02423029662373
 20
394.39008900959931
 30
0.0
 40
11.5
 50
333.74878606506348
 51
29.381501724351772
  0
LINE
  5
EAC
  8
0
 10
833.91957656404634
 20
423.73993711544978
 30
0.0
 11
815.27423029662361
 21
423.73993711544978
 31
0.0
  0
LINE
  5
EAD
  8
0
 10
833.57448282831774
 20
412.97389052250452
 30
0.0
 11
815.27423029662361
 21
412.97389052250452
 31
0.0
  0
LINE
  5
EAE
  8
0
 10
821.02423029662373
 20
383.14008900959931
 30
0.0
 11
893.02423029662361
 21
383.14008900959931
 31
0.0
  0
LINE
  5
EAF
  8
DIM
  6
CONTINUOUS
 10
809.5242302966235
 20
381.4601428038506
 30
0.0
 11
809.5242302966235
 21
294.48068207210309
 31
0.0
  0
SOLID
  5
EB0
  8
DIM
  6
CONTINUOUS
 10
812.52423029662373
 20
296.39008900959942
 30
0.0
 11
812.52423029662373
 21
295.39008900959942
 31
0.0
 12
809.52423029662373
 22
295.89008900959942
 32
0.0
 13
809.52423029662373
 23
295.89008900959942
 33
0.0
  0
SOLID
  5
EB1
  8
DIM
  6
CONTINUOUS
 10
812.52423029662373
 20
304.39008900959942
 30
0.0
 11
812.52423029662373
 21
303.39008900959942
 31
0.0
 12
809.52423029662373
 22
303.89008900959948
 32
0.0
 13
809.52423029662373
 23
303.89008900959948
 33
0.0
  0
POLYLINE
  5
EB2
  8
DIM
  6
CONTINUOUS
 66
     1
 10
0.0
 20
0.0
 30
0.0
 70
     1
  0
VERTEX
  5
1496
  8
DIM
  6
CONTINUOUS
 10
786.61121498229545
 20
427.32913083762418
 30
0.0
  0
VERTEX
  5
1497
  8
DIM
  6
CONTINUOUS
 10
786.61121498229545
 20
425.22913605780582
 30
0.0
  0
VERTEX
  5
1498
  8
DIM
  6
CONTINUOUS
 10
788.64147199165814
 20
425.22913605780582
 30
0.0
  0
VERTEX
  5
1499
  8
DIM
  6
CONTINUOUS
 10
788.64147199165814
 20
427.32913083762418
 30
0.0
  0
SEQEND
  5
149A
  8
DIM
  6
CONTINUOUS
  0
LINE
  5
EB8
  8
DIM
  6
CONTINUOUS
 10
790.52423029662361
 20
394.39008900959931
 30
0.0
 11
790.52423029662373
 21
466.39008900959942
 31
0.0
  0
LINE
  5
EB9
  8
0
 10
813.77423029662384
 20
406.0493128259605
 30
0.0
 11
813.77423029662384
 21
427.59008900959941
 31
0.0
  0
LINE
  5
EBA
  8
0
 10
809.77423029662373
 20
466.39008900959942
 30
0.0
 11
809.77423029662373
 21
394.39008900959931
 31
0.0
  0
LINE
  5
EBB
  8
DIM
  6
CONTINUOUS
 10
809.52423029662373
 20
394.39008900959931
 30
0.0
 11
789.52423029662373
 21
394.39008900959931
 31
0.0
  0
LINE
  5
EBC
  8
0
  6
CONTINUOUS
 10
800.52423029662373
 20
413.39008900959931
 30
0.0
 11
798.52423029662373
 21
411.39008900959931
 31
0.0
  0
LINE
  5
EBD
  8
0
  6
CONTINUOUS
 10
800.52423029662373
 20
401.39008900959931
 30
0.0
 11
798.52423029662373
 21
403.39008900959931
 31
0.0
  0
LINE
  5
EBE
  8
0
  6
CONTINUOUS
 62
     2
 10
801.52423029662373
 20
412.19008900959858
 30
0.0
 11
799.324230296623
 21
412.19008900959858
 31
0.0
  0
LINE
  5
EBF
  8
0
  6
CONTINUOUS
 62
     2
 10
801.52423029662373
 20
402.59008900960009
 30
0.0
 11
799.324230296623
 21
402.59008900960009
 31
0.0
  0
LINE
  5
EC0
  8
CENTER
  6
CENTER
 10
794.52423029662373
 20
407.39008900959931
 30
0.0
 11
829.73765431799995
 21
407.39008900959931
 31
0.0
  0
SOLID
  5
EC1
  8
DIM
  6
CONTINUOUS
 10
790.02423029662373
 20
397.39008900959931
 30
0.0
 11
791.02423029662373
 21
397.39008900959931
 31
0.0
 12
790.52423029662373
 22
394.39008900959931
 32
0.0
 13
790.52423029662373
 23
394.39008900959931
 33
0.0
  0
LINE
  5
EC2
  8
0
  6
CONTINUOUS
 10
798.52423029662373
 20
403.39008900959931
 30
0.0
 11
798.52423029662373
 21
411.39008900959931
 31
0.0
  0
ARC
  5
EC3
  8
0
  6
CONTINUOUS
 10
811.78645251884734
 20
402.64008900959942
 30
0.0
 40
10.338070658410899
 50
152.64729508745981
 51
207.3527049125401
  0
LINE
  5
EC4
  8
0
  6
CONTINUOUS
 10
800.52423029662373
 20
401.39008900959931
 30
0.0
 11
800.52423029662373
 21
413.39008900959931
 31
0.0
  0
LINE
  5
EC5
  8
0
  6
CONTINUOUS
 10
801.52423029662373
 20
401.39008900959931
 30
0.0
 11
801.52423029662373
 21
413.39008900959931
 31
0.0
  0
LINE
  5
EC6
  8
CENTER
  6
CENTER
 10
821.02423029662373
 20
404.89008900959931
 30
0.0
 11
821.02423029662373
 21
383.89008900959931
 31
0.0
  0
CIRCLE
  5
EC7
  8
0
 10
821.02423029662373
 20
394.39008900959931
 30
0.0
 40
9.0
  0
ARC
  5
EC8
  8
0
 10
821.02423029662373
 20
394.39008900959931
 30
0.0
 40
11.25
 50
180.0
 51
270.0
  0
ARC
  5
EC9
  8
0
 10
821.02423029662373
 20
394.39008900959931
 30
0.0
 40
11.5
 50
180.0
 51
270.0
  0
POLYLINE
  5
ECA
  8
0
  6
CONTINUOUS
 66
     1
 10
0.0
 20
0.0
 30
0.0
 70
     1
  0
VERTEX
  5
149B
  8
0
  6
CONTINUOUS
 10
818.13747895067559
 20
399.39008900959931
 30
0.0
  0
VERTEX
  5
149C
  8
0
  6
CONTINUOUS
 10
815.25072760472733
 20
394.39008900959931
 30
0.0
  0
VERTEX
  5
149D
  8
0
  6
CONTINUOUS
 10
818.13747895067559
 20
389.39008900959931
 30
0.0
  0
VERTEX
  5
149E
  8
0
  6
CONTINUOUS
 10
823.91098164257176
 20
389.39008900959931
 30
0.0
  0
VERTEX
  5
149F
  8
0
  6
CONTINUOUS
 10
826.79773298851978
 20
394.39008900959931
 30
0.0
  0
VERTEX
  5
14A0
  8
0
  6
CONTINUOUS
 10
823.91098164257176
 20
399.39008900959931
 30
0.0
  0
SEQEND
  5
14A1
  8
0
  6
CONTINUOUS
  0
LINE
  5
ED2
  8
CENTER
  6
CENTER
 10
810.52423029662373
 20
394.39008900959931
 30
0.0
 11
831.52423029662361
 21
394.39008900959931
 31
0.0
  0
LINE
  5
ED3
  8
0
  6
CONTINUOUS
 10
802.60423029662365
 20
397.89008900959931
 30
0.0
 11
809.52423029662373
 21
397.89008900959931
 31
0.0
  0
LINE
  5
ED4
  8
0
  6
CONTINUOUS
 10
801.52423029662373
 20
401.39008900959931
 30
0.0
 11
800.52423029662373
 21
401.39008900959931
 31
0.0
  0
ARC
  5
ED5
  8
0
 10
832.35206963558971
 20
400.76818088025942
 30
0.0
 40
1.5
 50
134.9999999999969
 51
209.3815017243528
  0
LINE
  5
ED6
  8
CENTER
  6
CENTER
 10
806.47809678225667
 20
420.39008900959931
 30
0.0
 11
829.02093828792522
 21
420.39008900959931
 31
0.0
  0
ARC
  5
ED7
  8
0
 10
821.02423029662373
 20
394.39008900959931
 30
0.0
 40
11.5
 50
60.618498275648491
 51
116.2512139349563
  0
ARC
  5
ED8
  8
0
  6
CONTINUOUS
 10
811.78645251884734
 20
412.14008900959931
 30
0.0
 40
10.338070658410899
 50
152.64729508745981
 51
207.3527049125401
  0
LINE
  5
ED9
  8
0
  6
CONTINUOUS
 10
809.52423029662373
 20
407.39008900959931
 30
0.0
 11
802.60423029662365
 21
407.39008900959931
 31
0.0
  0
LINE
  5
EDA
  8
0
  6
CONTINUOUS
 10
809.52423029662373
 20
407.39008900959931
 30
0.0
 11
802.60423029662365
 21
407.39008900959931
 31
0.0
  0
LINE
  5
EDB
  8
0
  6
CONTINUOUS
 10
801.52423029662373
 20
413.39008900959931
 30
0.0
 11
800.52423029662373
 21
413.39008900959931
 31
0.0
  0
ARC
  5
EDC
  8
0
 10
815.27423029662361
 20
411.47389052250458
 30
0.0
 40
1.5
 50
90.0
 51
180.0
  0
ARC
  5
EDD
  8
0
 10
815.27423029662361
 20
406.0493128259605
 30
0.0
 40
1.5
 50
180.0
 51
296.25121393495112
  0
LINE
  5
EDE
  8
0
  6
CONTINUOUS
 10
802.60423029662365
 20
416.89008900959942
 30
0.0
 11
809.52423029662373
 21
416.89008900959942
 31
0.0
  0
ARC
  5
EDF
  8
0
 10
815.27423029662361
 20
422.23993711544978
 30
0.0
 40
1.5
 50
90.0
 51
180.0
  0
ARC
  5
EE0
  8
0
 10
827.40232216728373
 20
405.71792834856529
 30
0.0
 40
1.5
 50
240.61849827564819
 51
314.99999999999841
  0
LINE
  5
EE1
  8
DIM
  6
CONTINUOUS
 10
809.52423029662373
 20
466.39008900959942
 30
0.0
 11
789.52423029662373
 21
466.39008900959942
 31
0.0
  0
TEXT
  5
EE2
  8
DIM
  6
CONTINUOUS
 10
789.02423029662373
 20
427.96151758102781
 30
0.0
 40
3.0
  1
72
 50
90.0
  7
ROMANSS
 72
     1
 11
787.52423029662373
 21
430.39008900959931
 31
0.0
 73
     2
  0
SOLID
  5
EE3
  8
DIM
  6
CONTINUOUS
 10
790.02423029662373
 20
463.39008900959931
 30
0.0
 11
791.02423029662373
 21
463.39008900959931
 31
0.0
 12
790.52423029662373
 22
466.39008900959942
 32
0.0
 13
790.52423029662373
 23
466.39008900959942
 33
0.0
  0
LINE
  5
EE4
  8
0
 10
813.77423029662384
 20
454.73086519323812
 30
0.0
 11
813.77423029662384
 21
433.19008900959932
 31
0.0
  0
LINE
  5
EE5
  8
CENTER
  6
CENTER
 10
806.30426932009266
 20
437.39008900959942
 30
0.0
 11
829.87730626642008
 21
437.39008900959942
 31
0.0
  0
ARC
  5
EE6
  8
0
 10
815.27423029662361
 20
427.59008900959941
 30
0.0
 40
1.5
 50
90.0
 51
180.0
  0
ARC
  5
EE7
  8
0
 10
815.27423029662361
 20
433.19008900959932
 30
0.0
 40
1.5
 50
180.0
 51
270.0
  0
ARC
  5
EE8
  8
0
 10
821.02423029662373
 20
466.39008900959942
 30
0.0
 40
11.5
 50
243.74878606504359
 51
299.38150172435149
  0
LINE
  5
EE9
  8
0
 10
831.07448282831797
 20
449.89008900959919
 30
0.0
 11
815.27423029662361
 21
449.89008900959919
 31
0.0
  0
POLYLINE
  5
EEA
  8
0
  6
CONTINUOUS
 66
     1
 10
0.0
 20
0.0
 30
0.0
 70
     1
  0
VERTEX
  5
14A2
  8
0
  6
CONTINUOUS
 10
818.13747895067559
 20
471.39008900959942
 30
0.0
  0
VERTEX
  5
14A3
  8
0
  6
CONTINUOUS
 10
815.25072760472733
 20
466.39008900959942
 30
0.0
  0
VERTEX
  5
14A4
  8
0
  6
CONTINUOUS
 10
818.13747895067559
 20
461.39008900959931
 30
0.0
  0
VERTEX
  5
14A5
  8
0
  6
CONTINUOUS
 10
823.91098164257176
 20
461.39008900959931
 30
0.0
  0
VERTEX
  5
14A6
  8
0
  6
CONTINUOUS
 10
826.79773298851978
 20
466.39008900959942
 30
0.0
  0
VERTEX
  5
14A7
  8
0
  6
CONTINUOUS
 10
823.91098164257176
 20
471.39008900959919
 30
0.0
  0
SEQEND
  5
14A8
  8
0
  6
CONTINUOUS
  0
LINE
  5
EF2
  8
CENTER
  6
CENTER
 10
810.52423029662373
 20
466.39008900959942
 30
0.0
 11
831.52423029662361
 21
466.39008900959942
 31
0.0
  0
ARC
  5
EF3
  8
0
 10
815.27423029662361
 20
454.73086519323812
 30
0.0
 40
1.5
 50
63.748786065048918
 51
180.0
  0
ARC
  5
EF4
  8
0
 10
815.27423029662361
 20
451.39008900959919
 30
0.0
 40
1.5
 50
180.0
 51
270.0
  0
ARC
  5
EF5
  8
0
 10
832.35206963558971
 20
460.01199713893919
 30
0.0
 40
1.5
 50
150.6184982756472
 51
225.00000000000151
  0
ARC
  5
EF6
  8
0
 10
827.40232216728373
 20
455.06224967063332
 30
0.0
 40
1.5
 50
45.000000000001521
 51
119.38150172435159
  0
LINE
  5
EF7
  8
DIM
  6
CONTINUOUS
 10
944.5242302966235
 20
381.5117494090934
 30
0.0
 11
944.5242302966235
 21
294.2358879502263
 31
0.0
  0
LINE
  5
EF8
  8
DIM
  6
CONTINUOUS
 10
904.52423029662361
 20
388.72608126493799
 30
0.0
 11
904.52423029662361
 21
313.50231847853161
 31
0.0
  0
LINE
  5
EF9
  8
0
 10
941.02423029662373
 20
382.89008900959931
 30
0.0
 11
941.02423029662373
 21
371.89008900959931
 31
0.0
  0
LINE
  5
EFA
  8
0
 10
845.02423029662339
 20
382.89008900959931
 30
0.0
 11
845.02423029662384
 21
371.89008900959942
 31
0.0
  0
LINE
  5
EFB
  8
DIM
  6
CONTINUOUS
 10
857.02423029662373
 20
311.89008900959948
 30
0.0
 11
944.52423029662327
 21
311.89008900959942
 31
0.0
  0
LINE
  5
EFC
  8
0
 10
845.02423029662384
 20
371.89008900959931
 30
0.0
 11
941.02423029662373
 21
371.89008900959931
 31
0.0
  0
LINE
  5
EFD
  8
0
 10
846.02423029662373
 20
370.89008900959942
 30
0.0
 11
940.02423029662373
 21
370.89008900959931
 31
0.0
  0
LINE
  5
EFE
  8
0
 10
845.02423029662384
 20
371.89008900959942
 30
0.0
 11
846.02423029662373
 21
370.89008900959942
 31
0.0
  0
LINE
  5
EFF
  8
DIM
  6
CONTINUOUS
 10
857.0242302966235
 20
377.71516149448308
 30
0.0
 11
857.02423029662373
 21
310.44327432999643
 31
0.0
  0
TEXT
  5
F00
  8
DIM
  6
CONTINUOUS
 10
854.59565886805228
 20
305.39008900959942
 30
0.0
 40
3.0
  1
95
  7
ROMANSS
 72
     1
 11
857.02423029662373
 21
306.89008900959942
 31
0.0
 73
     2
  0
SOLID
  5
F01
  8
DIM
  6
CONTINUOUS
 10
860.02423029662361
 20
312.39008900959948
 30
0.0
 11
860.02423029662361
 21
311.39008900959942
 31
0.0
 12
857.02423029662373
 22
311.89008900959942
 32
0.0
 13
857.02423029662373
 23
311.89008900959942
 33
0.0
  0
POLYLINE
  5
F02
  8
DIM
  6
CONTINUOUS
 66
     1
 10
0.0
 20
0.0
 30
0.0
 70
     1
  0
VERTEX
  5
14A9
  8
DIM
  6
CONTINUOUS
 10
853.99729298361797
 20
307.80760608954512
 30
0.0
  0
VERTEX
  5
14AA
  8
DIM
  6
CONTINUOUS
 10
853.99729298361797
 20
305.58067777554072
 30
0.0
  0
VERTEX
  5
14AB
  8
DIM
  6
CONTINUOUS
 10
851.89090944405018
 20
305.58067777554072
 30
0.0
  0
VERTEX
  5
14AC
  8
DIM
  6
CONTINUOUS
 10
851.89090944405018
 20
307.80760608954512
 30
0.0
  0
SEQEND
  5
14AD
  8
DIM
  6
CONTINUOUS
  0
TEXT
  5
F08
  8
DIM
  6
CONTINUOUS
 10
873.45280172519506
 20
297.39008900959942
 30
0.0
 40
3.0
  1
135
  7
ROMANSS
 72
     1
 11
877.02423029662361
 21
298.89008900959942
 31
0.0
 73
     2
  0
TEXT
  5
F09
  8
DIM
  6
CONTINUOUS
 10
872.66708743948095
 20
313.39008900959942
 30
0.0
 40
3.0
  1
36
  7
ROMANSS
 72
     1
 11
875.02423029662373
 21
314.89008900959942
 31
0.0
 73
     2
  0
SOLID
  5
F0A
  8
DIM
  6
CONTINUOUS
 10
890.02423029662373
 20
312.39008900959948
 30
0.0
 11
890.02423029662373
 21
311.39008900959942
 31
0.0
 12
893.02423029662361
 22
311.89008900959942
 32
0.0
 13
893.02423029662361
 23
311.89008900959942
 33
0.0
  0
SOLID
  5
F0B
  8
DIM
  6
CONTINUOUS
 10
896.02423029662373
 20
312.39008900959948
 30
0.0
 11
896.02423029662373
 21
311.39008900959942
 31
0.0
 12
893.02423029662361
 22
311.89008900959942
 32
0.0
 13
893.02423029662361
 23
311.89008900959942
 33
0.0
  0
LINE
  5
F0C
  8
DIM
  6
CONTINUOUS
 10
893.02423029662361
 20
315.89008900959931
 30
0.0
 11
893.02423029662361
 21
310.89008900959942
 31
0.0
  0
LINE
  5
F0D
  8
DIM
  6
CONTINUOUS
 10
893.02423029662361
 20
315.89008900959931
 30
0.0
 11
893.02423029662361
 21
310.89008900959942
 31
0.0
  0
LINE
  5
F0E
  8
DIM
  6
CONTINUOUS
 10
904.52423029662361
 20
310.6729648868934
 30
0.0
 11
904.52423029662361
 21
302.89008900959942
 31
0.0
  0
SOLID
  5
F0F
  8
DIM
  6
CONTINUOUS
 10
901.52423029662373
 20
304.39008900959942
 30
0.0
 11
901.52423029662373
 21
303.39008900959942
 31
0.0
 12
904.52423029662361
 22
303.89008900959948
 32
0.0
 13
904.52423029662361
 23
303.89008900959948
 33
0.0
  0
TEXT
  5
F10
  8
DIM
  6
CONTINUOUS
 10
914.48851601090939
 20
313.39008900959942
 30
0.0
 40
3.0
  1
51.5
  7
ROMANSS
 72
     1
 11
918.77423029662373
 21
314.89008900959942
 31
0.0
 73
     2
  0
SOLID
  5
F11
  8
DIM
  6
CONTINUOUS
 10
941.52423029662339
 20
296.39008900959942
 30
0.0
 11
941.52423029662339
 21
295.39008900959942
 31
0.0
 12
944.5242302966235
 22
295.89008900959942
 32
0.0
 13
944.5242302966235
 23
295.89008900959942
 33
0.0
  0
LINE
  5
F12
  8
DIM
  6
CONTINUOUS
 10
941.02423029662373
 20
370.89008900959931
 30
0.0
 11
953.79817564279506
 21
370.89008900959931
 31
0.0
  0
SOLID
  5
F13
  8
DIM
  6
CONTINUOUS
 10
941.52423029662339
 20
312.39008900959948
 30
0.0
 11
941.52423029662339
 21
311.39008900959942
 31
0.0
 12
944.5242302966235
 22
311.89008900959942
 32
0.0
 13
944.5242302966235
 23
311.89008900959942
 33
0.0
  0
LINE
  5
F14
  8
0
 10
941.02423029662373
 20
371.89008900959931
 30
0.0
 11
940.02423029662373
 21
370.89008900959931
 31
0.0
  0
TEXT
  5
F15
  8
DIM
  6
CONTINUOUS
 10
951.0242302966235
 20
374.74723186674208
 30
0.0
 40
3.0
  1
12
 50
90.0
  7
ROMANSS
 72
     1
 11
949.52423029662339
 21
376.89008900959931
 31
0.0
 73
     2
  0
SOLID
  5
F16
  8
DIM
  6
CONTINUOUS
 10
952.02423029662339
 20
373.89008900959931
 30
0.0
 11
953.02423029662339
 21
373.89008900959931
 31
0.0
 12
952.5242302966235
 22
370.89008900959931
 32
0.0
 13
952.5242302966235
 23
370.89008900959931
 33
0.0
  0
LINE
  5
F17
  8
CENTER
  6
CENTER
 10
882.52423029662384
 20
466.39008900959942
 30
0.0
 11
903.52423029662373
 21
466.39008900959942
 31
0.0
  0
POLYLINE
  5
F18
  8
0
  6
CONTINUOUS
 66
     1
 10
0.0
 20
0.0
 30
0.0
 70
     1
  0
VERTEX
  5
14AE
  8
0
  6
CONTINUOUS
 10
890.13747895067547
 20
471.39008900959942
 30
0.0
  0
VERTEX
  5
14AF
  8
0
  6
CONTINUOUS
 10
887.25072760472744
 20
466.39008900959942
 30
0.0
  0
VERTEX
  5
14B0
  8
0
  6
CONTINUOUS
 10
890.13747895067547
 20
461.39008900959931
 30
0.0
  0
VERTEX
  5
14B1
  8
0
  6
CONTINUOUS
 10
895.91098164257187
 20
461.39008900959931
 30
0.0
  0
VERTEX
  5
14B2
  8
0
  6
CONTINUOUS
 10
898.79773298851967
 20
466.39008900959942
 30
0.0
  0
VERTEX
  5
14B3
  8
0
  6
CONTINUOUS
 10
895.91098164257187
 20
471.39008900959919
 30
0.0
  0
SEQEND
  5
14B4
  8
0
  6
CONTINUOUS
  0
ARC
  5
F20
  8
0
 10
898.77423029662373
 20
454.73086519323812
 30
0.0
 40
1.5
 50
0.0
 51
116.2512139349608
  0
LINE
  5
F21
  8
0
 10
898.77423029662373
 20
440.39008900959931
 30
0.0
 11
878.6575379494077
 21
440.39008900959931
 31
0.0
  0
LINE
  5
F22
  8
0
 10
898.77423029662373
 20
431.69008900959921
 30
0.0
 11
881.36370440762278
 21
431.69008900959921
 31
0.0
  0
LINE
  5
F23
  8
0
 10
898.77423029662373
 20
429.0900890095993
 30
0.0
 11
881.36370440762278
 21
429.0900890095993
 31
0.0
  0
ARC
  5
F24
  8
0
 10
898.77423029662373
 20
406.0493128259605
 30
0.0
 40
1.5
 50
243.74878606503921
 51
0.0
  0
LINE
  5
F25
  8
0
 10
898.77423029662373
 20
420.39008900959931
 30
0.0
 11
878.6575379494077
 21
420.39008900959931
 31
0.0
  0
LINE
  5
F26
  8
CENTER
  6
CENTER
 10
882.52423029662384
 20
394.39008900959931
 30
0.0
 11
903.52423029662373
 21
394.39008900959931
 31
0.0
  0
POLYLINE
  5
F27
  8
0
  6
CONTINUOUS
 66
     1
 10
0.0
 20
0.0
 30
0.0
 70
     1
  0
VERTEX
  5
14B5
  8
0
  6
CONTINUOUS
 10
890.13747895067547
 20
399.39008900959931
 30
0.0
  0
VERTEX
  5
14B6
  8
0
  6
CONTINUOUS
 10
887.25072760472744
 20
394.39008900959931
 30
0.0
  0
VERTEX
  5
14B7
  8
0
  6
CONTINUOUS
 10
890.13747895067547
 20
389.39008900959931
 30
0.0
  0
VERTEX
  5
14B8
  8
0
  6
CONTINUOUS
 10
895.91098164257187
 20
389.39008900959931
 30
0.0
  0
VERTEX
  5
14B9
  8
0
  6
CONTINUOUS
 10
898.79773298851967
 20
394.39008900959931
 30
0.0
  0
VERTEX
  5
14BA
  8
0
  6
CONTINUOUS
 10
895.91098164257187
 20
399.39008900959931
 30
0.0
  0
SEQEND
  5
14BB
  8
0
  6
CONTINUOUS
  0
CIRCLE
  5
F2F
  8
0
 10
893.02423029662361
 20
394.39008900959931
 30
0.0
 40
9.0
  0
ARC
  5
F30
  8
0
 10
893.02423029662361
 20
394.39008900959931
 30
0.0
 40
11.25
 50
270.0
 51
0.0
  0
ARC
  5
F31
  8
0
 10
893.02423029662361
 20
394.39008900959931
 30
0.0
 40
11.5
 50
270.0
 51
0.0
  0
ARC
  5
F32
  8
0
 10
857.02423029662373
 20
430.39008900959931
 30
0.0
 40
23.0
 50
323.21321070173821
 51
353.43757213136593
  0
ARC
  5
F33
  8
0
 10
857.02423029662373
 20
430.39008900959931
 30
0.0
 40
23.0
 50
186.56242786863399
 51
216.7867892982616
  0
CIRCLE
  5
F34
  8
0
 10
857.02423029662373
 20
430.39008900959931
 30
0.0
 40
22.5
  0
LINE
  5
F35
  8
0
 10
881.3650064802622
 20
387.14008900959931
 30
0.0
 11
859.82423029662368
 21
387.14008900959931
 31
0.0
  0
ARC
  5
F36
  8
0
 10
857.02423029662373
 20
430.39008900959931
 30
0.0
 40
23.0
 50
276.56242786863402
 51
306.78678929826151
  0
ARC
  5
F37
  8
0
 10
857.02423029662373
 20
430.39008900959931
 30
0.0
 40
35.5
 50
229.98854197555599
 51
251.4071774505731
  0
LINE
  5
F38
  8
0
 10
855.72423029662366
 20
388.64008900959931
 30
0.0
 11
855.72423029662366
 21
406.05061489859997
 31
0.0
  0
LINE
  5
F39
  8
0
 10
858.32423029662368
 20
388.64008900959931
 30
0.0
 11
858.32423029662368
 21
406.05061489859997
 31
0.0
  0
LINE
  5
F3A
  8
0
 10
847.02423029662373
 20
388.64008900959931
 30
0.0
 11
847.02423029662373
 21
408.75678135681528
 31
0.0
  0
LINE
  5
F3B
  8
0
 10
832.68345411298503
 20
387.14008900959931
 30
0.0
 11
854.22423029662377
 21
387.14008900959931
 31
0.0
  0
ARC
  5
F3C
  8
0
 10
845.52423029662373
 20
388.64008900959931
 30
0.0
 40
1.5
 50
270.0
 51
0.0
  0
ARC
  5
F3D
  8
0
 10
846.02423029662373
 20
397.6907006361144
 30
0.0
 40
1.0
 50
251.40717745056719
 51
0.0
  0
ARC
  5
F3E
  8
0
 10
854.22423029662377
 20
388.64008900959931
 30
0.0
 40
1.5
 50
270.0
 51
0.0
  0
ARC
  5
F3F
  8
0
 10
859.82423029662368
 20
388.64008900959931
 30
0.0
 40
1.5
 50
180.0
 51
270.0
  0
ARC
  5
F40
  8
0
 10
857.02423029662373
 20
430.39008900959931
 30
0.0
 40
23.0
 50
233.21321070173829
 51
263.43757213136541
  0
ARC
  5
F41
  8
0
 10
833.57448282831774
 20
411.47389052250458
 30
0.0
 40
1.5
 50
351.50526946671789
 51
90.0
  0
ARC
  5
F42
  8
0
 10
834.84277302115402
 20
403.96599104701022
 30
0.0
 40
1.0
 50
135.00000000000219
 51
229.98854197554681
  0
ARC
  5
F43
  8
0
 10
845.52423029662373
 20
408.75678135681528
 30
0.0
 40
1.5
 50
0.0
 51
62.005438267749533
  0
ARC
  5
F44
  8
0
 10
842.35267583129428
 20
410.7687870759641
 30
0.0
 40
1.5
 50
53.213210701744771
 51
134.9999999999969
  0
ARC
  5
F45
  8
0
 10
837.40292836298852
 20
415.71853454426991
 30
0.0
 40
1.5
 50
314.99999999999841
 51
36.786789298261731
  0
ARC
  5
F46
  8
0
 10
833.91957656404634
 20
422.23993711544978
 30
0.0
 40
1.5
 50
19.43026151964801
 51
90.0
  0
ARC
  5
F47
  8
0
 10
854.22423029662377
 20
406.05061489859997
 30
0.0
 40
1.5
 50
0.0
 51
83.437572131365485
  0
ARC
  5
F48
  8
0
 10
859.82423029662368
 20
406.05061489859997
 30
0.0
 40
1.5
 50
96.562427868634515
 51
180.0
  0
LINE
  5
F49
  8
0
 10
882.75705112943751
 20
401.82884105203919
 30
0.0
 11
872.75644493373295
 21
411.82944724774387
 31
0.0
  0
LINE
  5
F4A
  8
0
 10
867.02423029662361
 20
388.64008900959931
 30
0.0
 11
867.02423029662361
 21
408.75678135681528
 31
0.0
  0
ARC
  5
F4B
  8
0
 10
857.02423029662373
 20
430.39008900959931
 30
0.0
 40
35.5
 50
288.59282254942627
 51
310.01145802444398
  0
ARC
  5
F4C
  8
0
 10
881.3650064802622
 20
388.64008900959931
 30
0.0
 40
1.5
 50
270.0
 51
26.25121393499963
  0
ARC
  5
F4D
  8
0
 10
893.02423029662361
 20
394.39008900959931
 30
0.0
 40
11.5
 50
150.61849827564819
 51
206.25121393492699
  0
ARC
  5
F4E
  8
0
 10
868.52423029662373
 20
388.64008900959931
 30
0.0
 40
1.5
 50
180.0
 51
270.0
  0
ARC
  5
F4F
  8
0
 10
868.02423029662361
 20
397.6907006361144
 30
0.0
 40
1.0
 50
180.0
 51
288.59282254941832
  0
ARC
  5
F50
  8
0
 10
881.69639095765774
 20
400.76818088025942
 30
0.0
 40
1.5
 50
330.6184982756472
 51
45.000000000003062
  0
LINE
  5
F51
  8
0
 10
885.58547825418384
 20
404.65726817678541
 30
0.0
 11
875.58487205847905
 21
414.65787437249008
 31
0.0
  0
ARC
  5
F52
  8
0
 10
871.69578476195295
 20
410.7687870759641
 30
0.0
 40
1.5
 50
45.000000000001521
 51
126.78678929826469
  0
ARC
  5
F53
  8
0
 10
868.52423029662373
 20
408.75678135681528
 30
0.0
 40
1.5
 50
117.9945617322601
 51
180.0
  0
ARC
  5
F54
  8
0
 10
879.20568757209344
 20
403.96599104701022
 30
0.0
 40
1.0
 50
310.01145802444393
 51
45.000000000006899
  0
ARC
  5
F55
  8
0
 10
878.6575379494077
 20
418.89008900959931
 30
0.0
 40
1.5
 50
90.0
 51
152.00543826774759
  0
ARC
  5
F56
  8
0
 10
876.64553223025905
 20
415.71853454427003
 30
0.0
 40
1.5
 50
143.21321070173821
 51
225.00000000000151
  0
ARC
  5
F57
  8
0
 10
857.02423029662373
 20
430.39008900959931
 30
0.0
 40
35.5
 50
319.98854197555619
 51
341.40717745057339
  0
ARC
  5
F58
  8
0
 10
893.02423029662361
 20
394.39008900959931
 30
0.0
 40
11.5
 50
63.748786065044897
 51
119.38150172435149
  0
ARC
  5
F59
  8
0
 10
883.44832825921276
 20
408.20863173412948
 30
0.0
 40
1.0
 50
224.99999999999761
 51
319.98854197555391
  0
ARC
  5
F5A
  8
0
 10
886.64613842596339
 20
405.71792834856529
 30
0.0
 40
1.5
 50
224.99999999999531
 51
299.38150172435172
  0
ARC
  5
F5B
  8
0
 10
889.72361867010864
 20
419.39008900959931
 30
0.0
 40
1.0
 50
341.40717745057128
 51
90.0
  0
ARC
  5
F5C
  8
0
 10
857.02423029662373
 20
430.39008900959931
 30
0.0
 40
23.0
 50
53.213210701738348
 51
83.437572131365954
  0
ARC
  5
F5D
  8
0
 10
842.35267583129428
 20
450.01139094323457
 30
0.0
 40
1.5
 50
225.00000000000151
 51
306.7867892982552
  0
ARC
  5
F5E
  8
0
 10
857.02423029662373
 20
430.39008900959931
 30
0.0
 40
23.0
 50
143.2132107017386
 51
173.43757213136581
  0
ARC
  5
F5F
  8
0
 10
832.68475618562445
 20
433.19008900959932
 30
0.0
 40
1.5
 50
270.0
 51
353.43757213136541
  0
ARC
  5
F60
  8
0
 10
832.68475618562445
 20
427.59008900959941
 30
0.0
 40
1.5
 50
6.5624278686345097
 51
90.0
  0
ARC
  5
F61
  8
0
 10
837.4029283629884
 20
445.0616434749287
 30
0.0
 40
1.5
 50
323.21321070173991
 51
45.000000000001521
  0
ARC
  5
F62
  8
0
 10
857.02423029662373
 20
430.39008900959931
 30
0.0
 40
23.0
 50
96.562427868634586
 51
126.7867892982615
  0
ARC
  5
F63
  8
0
 10
857.02423029662373
 20
430.39008900959931
 30
0.0
 40
35.5
 50
108.5928225494267
 51
130.0114580244439
  0
ARC
  5
F64
  8
0
 10
834.84277302115402
 20
456.81418697218828
 30
0.0
 40
1.0
 50
130.011458024446
 51
224.99999999999761
  0
ARC
  5
F65
  8
0
 10
845.52423029662373
 20
452.02339666238328
 30
0.0
 40
1.5
 50
297.99456173225042
 51
0.0
  0
ARC
  5
F66
  8
0
 10
846.02423029662373
 20
463.0894773830841
 30
0.0
 40
1.0
 50
0.0
 51
108.5928225494327
  0
ARC
  5
F67
  8
0
 10
854.22423029662377
 20
454.72956312059858
 30
0.0
 40
1.5
 50
276.56242786863447
 51
0.0
  0
ARC
  5
F68
  8
0
 10
859.82423029662368
 20
454.72956312059858
 30
0.0
 40
1.5
 50
180.0
 51
263.43757213136541
  0
ARC
  5
F69
  8
0
 10
857.02423029662373
 20
430.39008900959931
 30
0.0
 40
35.5
 50
18.592822549426781
 51
40.011458024444032
  0
ARC
  5
F6A
  8
0
 10
871.69578476195295
 20
450.01139094323457
 30
0.0
 40
1.5
 50
233.21321070173519
 51
314.99999999999841
  0
LINE
  5
F6B
  8
0
 10
885.58547825418384
 20
456.12290984241309
 30
0.0
 11
875.58487205847905
 21
446.12230364670842
 31
0.0
  0
ARC
  5
F6C
  8
0
 10
857.02423029662373
 20
430.39008900959931
 30
0.0
 40
23.0
 50
6.5624278686341668
 51
36.78678929826215
  0
ARC
  5
F6D
  8
0
 10
881.36370440762278
 20
433.19008900959932
 30
0.0
 40
1.5
 50
186.5624278686345
 51
270.0
  0
ARC
  5
F6E
  8
0
 10
881.36370440762278
 20
427.59008900959941
 30
0.0
 40
1.5
 50
90.0
 51
173.4375721313655
  0
ARC
  5
F6F
  8
0
 10
876.64553223025882
 20
445.0616434749287
 30
0.0
 40
1.5
 50
135.0000000000046
 51
216.78678929826171
  0
ARC
  5
F70
  8
0
 10
878.6575379494077
 20
441.89008900959942
 30
0.0
 40
1.5
 50
207.99456173225039
 51
270.0
  0
ARC
  5
F71
  8
0
 10
889.72361867010864
 20
441.39008900959942
 30
0.0
 40
1.0
 50
270.0
 51
18.59282254942865
  0
ARC
  5
F72
  8
0
 10
893.02423029662361
 20
466.39008900959942
 30
0.0
 40
11.5
 50
153.74878606506371
 51
209.38150172435141
  0
LINE
  5
F73
  8
0
 10
882.75705112943751
 20
458.95133696715931
 30
0.0
 11
872.75644493373295
 21
448.95073077145457
 31
0.0
  0
ARC
  5
F74
  8
0
 10
857.02423029662373
 20
430.39008900959931
 30
0.0
 40
35.5
 50
49.988541975556039
 51
71.407177450573585
  0
ARC
  5
F75
  8
0
 10
868.52423029662373
 20
452.02339666238328
 30
0.0
 40
1.5
 50
180.0
 51
242.00543826773981
  0
ARC
  5
F76
  8
0
 10
879.20568757209344
 20
456.81418697218828
 30
0.0
 40
1.0
 50
314.99999999999301
 51
49.988541975563173
  0
ARC
  5
F77
  8
0
 10
868.02423029662361
 20
463.0894773830841
 30
0.0
 40
1.0
 50
71.407177450581642
 51
180.0
  0
ARC
  5
F78
  8
0
 10
881.69639095765774
 20
460.01199713893919
 30
0.0
 40
1.5
 50
314.99999999999841
 51
29.38150172435277
  0
ARC
  5
F79
  8
0
 10
893.02423029662361
 20
466.39008900959942
 30
0.0
 40
11.5
 50
240.61849827564839
 51
296.25121393495499
  0
ARC
  5
F7A
  8
0
 10
883.44832825921276
 20
452.57154628506908
 30
0.0
 40
1.0
 50
40.011458024446
 51
135.00000000000219
  0
ARC
  5
F7B
  8
0
 10
886.64613842596339
 20
455.06224967063332
 30
0.0
 40
1.5
 50
60.618498275648292
 51
135.0000000000046
  0
LINE
  5
F7C
  8
0
 10
900.27423029662384
 20
406.0493128259605
 30
0.0
 11
900.27423029662384
 21
427.59008900959941
 31
0.0
  0
LINE
  5
F7D
  8
0
 10
904.27423029662373
 20
466.39008900959942
 30
0.0
 11
904.27423029662373
 21
394.39008900959931
 31
0.0
  0
LINE
  5
F7E
  8
0
 10
904.52423029662361
 20
466.39008900959942
 30
0.0
 11
904.52423029662361
 21
394.39008900959931
 31
0.0
  0
ARC
  5
F7F
  8
0
 10
898.77423029662373
 20
418.89008900959931
 30
0.0
 40
1.5
 50
0.0
 51
90.0
  0
LINE
  5
F80
  8
DIM
  6
CONTINUOUS
 10
945.5242302966235
 20
382.89008900959931
 30
0.0
 11
953.5242302966235
 21
382.89008900959931
 31
0.0
  0
SOLID
  5
F81
  8
DIM
  6
CONTINUOUS
 10
952.02423029662339
 20
379.89008900959931
 30
0.0
 11
953.02423029662339
 21
379.89008900959931
 31
0.0
 12
952.5242302966235
 22
382.89008900959931
 32
0.0
 13
952.5242302966235
 23
382.89008900959931
 33
0.0
  0
LINE
  5
F82
  8
0
 10
900.27423029662384
 20
454.73086519323812
 30
0.0
 11
900.27423029662384
 21
433.19008900959932
 31
0.0
  0
ARC
  5
F83
  8
0
 10
898.77423029662373
 20
427.59008900959941
 30
0.0
 40
1.5
 50
0.0
 51
90.0
  0
ARC
  5
F84
  8
0
 10
898.77423029662373
 20
433.19008900959932
 30
0.0
 40
1.5
 50
270.0
 51
0.0
  0
ARC
  5
F85
  8
0
 10
898.77423029662373
 20
441.89008900959942
 30
0.0
 40
1.5
 50
270.0
 51
0.0
  0
TEXT
  5
F86
  8
DIM
  6
CONTINUOUS
 10
951.0242302966235
 20
428.47514934973822
 30
0.0
 40
3.0
  1
95
 50
90.0
  7
ROMANSS
 72
     1
 11
949.52423029662339
 21
430.90372077830961
 31
0.0
 73
     2
  0
TEXT
  5
F87
  8
DIM
  6
CONTINUOUS
 10
959.02423029662361
 20
427.67530913294678
 30
0.0
 40
3.0
  1
221
 50
90.0
  7
ROMANSS
 72
     1
 11
957.52423029662361
 21
430.8895948472325
 31
0.0
 73
     2
  0
LINE
  5
F88
  8
0
 10
809.52423029662373
 20
477.89008900959931
 30
0.0
 11
944.5242302966235
 21
477.89008900959931
 31
0.0
  0
LINE
  5
F89
  8
0
 10
821.02423029662373
 20
477.64008900959942
 30
0.0
 11
893.02423029662361
 21
477.64008900959942
 31
0.0
  0
TEXT
  5
F8A
  8
DIM
  6
CONTINUOUS
 10
780.72407774180488
 20
494.45964994324908
 30
0.0
 40
3.0
  1
2x4-M10x15L
  7
ROMANSS
 72
     2
 11
810.43836345609066
 21
495.95964994324908
 31
0.0
 73
     2
  0
LINE
  5
F8B
  8
DIM
  6
CONTINUOUS
 10
810.84999946557616
 20
492.95964994324908
 30
0.0
 11
783.31336345609066
 21
492.95964994324908
 31
0.0
  0
LINE
  5
F8C
  8
DIM
  6
CONTINUOUS
 10
818.64032111129154
 20
474.0077580495074
 30
0.0
 11
810.84999946557616
 21
492.95964994324908
 31
0.0
  0
LINE
  5
F8D
  8
0
 10
875.52423029662373
 20
490.89008900959948
 30
0.0
 11
910.52423029662373
 21
490.89008900959948
 31
0.0
  0
LINE
  5
F8E
  8
0
 10
880.02423029662373
 20
540.89008900959948
 30
0.0
 11
906.02423029662373
 21
540.89008900959948
 31
0.0
  0
LINE
  5
F8F
  8
0
 10
879.02423029662373
 20
539.89008900959936
 30
0.0
 11
907.02423029662373
 21
539.89008900959936
 31
0.0
  0
LINE
  5
F90
  8
0
 10
845.02423029662384
 20
488.89008900959931
 30
0.0
 11
941.02423029662373
 21
488.89008900959942
 31
0.0
  0
LINE
  5
F91
  8
0
 10
846.02423029662373
 20
489.89008900959942
 30
0.0
 11
940.0242302966235
 21
489.89008900959942
 31
0.0
  0
LINE
  5
F92
  8
0
 10
879.02423029662373
 20
539.89008900959936
 30
0.0
 11
879.02423029662373
 21
490.89008900959948
 31
0.0
  0
LINE
  5
F93
  8
0
 10
881.3650064802622
 20
473.64008900959931
 30
0.0
 11
859.82423029662368
 21
473.64008900959931
 31
0.0
  0
LINE
  5
F94
  8
0
 10
832.68345411298503
 20
473.64008900959931
 30
0.0
 11
854.22423029662377
 21
473.64008900959931
 31
0.0
  0
LINE
  5
F95
  8
0
 10
845.02423029662384
 20
488.89008900959942
 30
0.0
 11
845.02423029662339
 21
477.89008900959931
 31
0.0
  0
ARC
  5
F96
  8
0
 10
845.52423029662373
 20
472.14008900959931
 30
0.0
 40
1.5
 50
0.0
 51
90.0
  0
LINE
  5
F97
  8
0
 10
846.02423029662373
 20
489.89008900959942
 30
0.0
 11
845.02423029662384
 21
488.89008900959942
 31
0.0
  0
ARC
  5
F98
  8
0
 10
854.22423029662377
 20
472.14008900959931
 30
0.0
 40
1.5
 50
0.0
 51
90.0
  0
ARC
  5
F99
  8
0
 10
859.82423029662368
 20
472.14008900959931
 30
0.0
 40
1.5
 50
90.0
 51
180.0
  0
ARC
  5
F9A
  8
0
 10
868.52423029662373
 20
472.14008900959931
 30
0.0
 40
1.5
 50
90.0
 51
180.0
  0
LINE
  5
F9B
  8
0
 10
875.52423029662373
 20
490.89008900959948
 30
0.0
 11
875.52423029662373
 21
489.89008900959942
 31
0.0
  0
LINE
  5
F9C
  8
0
 10
880.02423029662373
 20
540.89008900959948
 30
0.0
 11
879.02423029662373
 21
539.89008900959936
 31
0.0
  0
LINE
  5
F9D
  8
0
 10
907.02423029662373
 20
539.89008900959936
 30
0.0
 11
907.02423029662373
 21
490.89008900959948
 31
0.0
  0
LINE
  5
F9E
  8
0
 10
910.52423029662373
 20
490.89008900959948
 30
0.0
 11
910.52423029662373
 21
489.89008900959942
 31
0.0
  0
LINE
  5
F9F
  8
DIM
  6
CONTINUOUS
 10
941.02423029662373
 20
489.89008900959931
 30
0.0
 11
953.5242302966235
 21
489.89008900959931
 31
0.0
  0
LINE
  5
FA0
  8
DIM
  6
CONTINUOUS
 10
945.5242302966235
 20
477.89008900959931
 30
0.0
 11
953.5242302966235
 21
477.89008900959931
 31
0.0
  0
LINE
  5
FA1
  8
0
 10
941.0242302966235
 20
488.89008900959942
 30
0.0
 11
941.0242302966235
 21
477.89008900959931
 31
0.0
  0
LINE
  5
FA2
  8
0
 10
940.0242302966235
 20
489.89008900959942
 30
0.0
 11
941.0242302966235
 21
488.89008900959942
 31
0.0
  0
TEXT
  5
FA3
  8
DIM
  6
CONTINUOUS
 10
951.0242302966235
 20
481.67963315811062
 30
0.0
 40
3.0
  1
12
 50
90.0
  7
ROMANSS
 72
     1
 11
949.52423029662339
 21
483.82249030096779
 31
0.0
 73
     2
  0
SOLID
  5
FA4
  8
DIM
  6
CONTINUOUS
 10
952.02423029662339
 20
480.89008900959931
 30
0.0
 11
953.02423029662339
 21
480.89008900959931
 31
0.0
 12
952.5242302966235
 22
477.89008900959931
 32
0.0
 13
952.5242302966235
 23
477.89008900959931
 33
0.0
  0
SOLID
  5
FA5
  8
DIM
  6
CONTINUOUS
 10
952.02423029662339
 20
486.89008900959931
 30
0.0
 11
953.02423029662339
 21
486.89008900959931
 31
0.0
 12
952.5242302966235
 22
489.89008900959931
 32
0.0
 13
952.5242302966235
 23
489.89008900959931
 33
0.0
  0
LINE
  5
FA6
  8
DIM
  6
CONTINUOUS
 10
907.02423029662373
 20
540.89008900959948
 30
0.0
 11
961.5242302966235
 21
540.89008900959948
 31
0.0
  0
LINE
  5
FA7
  8
0
 10
906.02423029662373
 20
540.89008900959948
 30
0.0
 11
907.02423029662373
 21
539.89008900959936
 31
0.0
  0
SOLID
  5
FA8
  8
DIM
  6
CONTINUOUS
 10
960.02423029662339
 20
537.89008900959936
 30
0.0
 11
961.02423029662339
 21
537.89008900959936
 31
0.0
 12
960.5242302966235
 22
540.89008900959948
 32
0.0
 13
960.5242302966235
 23
540.89008900959948
 33
0.0
  0
CIRCLE
  5
FA9
  8
0
  6
CONTINUOUS
 10
518.88154535456874
 20
210.95347684907881
 30
0.0
 40
6.5
  0
CIRCLE
  5
FAA
  8
0
  6
CONTINUOUS
 10
518.88154535456874
 20
210.95347684907881
 30
0.0
 40
5.9226327944572761
  0
POLYLINE
  5
FAB
  8
0
  6
CONTINUOUS
 66
     1
 10
0.0
 20
0.0
 30
0.0
 70
     1
  0
VERTEX
  5
14BC
  8
0
  6
CONTINUOUS
 10
517.14949454700059
 20
207.95347684907881
 30
0.0
  0
VERTEX
  5
14BD
  8
0
  6
CONTINUOUS
 10
515.4174437394305
 20
210.95347684907881
 30
0.0
  0
VERTEX
  5
14BE
  8
0
  6
CONTINUOUS
 10
517.14949454700059
 20
213.95347684907881
 30
0.0
  0
VERTEX
  5
14BF
  8
0
  6
CONTINUOUS
 10
520.61359616213679
 20
213.95347684907881
 30
0.0
  0
VERTEX
  5
14C0
  8
0
  6
CONTINUOUS
 10
522.34564696970676
 20
210.95347684907881
 30
0.0
  0
VERTEX
  5
14C1
  8
0
  6
CONTINUOUS
 10
520.61359616213679
 20
207.95347684907881
 30
0.0
  0
SEQEND
  5
14C2
  8
0
  6
CONTINUOUS
  0
CIRCLE
  5
FB3
  8
0
  6
CONTINUOUS
 10
479.88154535456869
 20
171.9534768490789
 30
0.0
 40
6.5
  0
CIRCLE
  5
FB4
  8
0
  6
CONTINUOUS
 10
479.88154535456869
 20
171.9534768490789
 30
0.0
 40
5.9226327944572761
  0
POLYLINE
  5
FB5
  8
0
  6
CONTINUOUS
 66
     1
 10
0.0
 20
0.0
 30
0.0
 70
     1
  0
VERTEX
  5
14C3
  8
0
  6
CONTINUOUS
 10
478.14949454700047
 20
168.9534768490789
 30
0.0
  0
VERTEX
  5
14C4
  8
0
  6
CONTINUOUS
 10
476.41744373943061
 20
171.95347684907881
 30
0.0
  0
VERTEX
  5
14C5
  8
0
  6
CONTINUOUS
 10
478.14949454700047
 20
174.95347684907881
 30
0.0
  0
VERTEX
  5
14C6
  8
0
  6
CONTINUOUS
 10
481.6135961621369
 20
174.95347684907881
 30
0.0
  0
VERTEX
  5
14C7
  8
0
  6
CONTINUOUS
 10
483.34564696970682
 20
171.95347684907881
 30
0.0
  0
VERTEX
  5
14C8
  8
0
  6
CONTINUOUS
 10
481.6135961621369
 20
168.9534768490789
 30
0.0
  0
SEQEND
  5
14C9
  8
0
  6
CONTINUOUS
  0
CIRCLE
  5
FBD
  8
0
  6
CONTINUOUS
 10
518.88154535456874
 20
132.95347684907881
 30
0.0
 40
6.5
  0
CIRCLE
  5
FBE
  8
0
  6
CONTINUOUS
 10
518.88154535456874
 20
132.95347684907881
 30
0.0
 40
5.9226327944572761
  0
POLYLINE
  5
FBF
  8
0
  6
CONTINUOUS
 66
     1
 10
0.0
 20
0.0
 30
0.0
 70
     1
  0
VERTEX
  5
14CA
  8
0
  6
CONTINUOUS
 10
517.14949454700059
 20
129.95347684907881
 30
0.0
  0
VERTEX
  5
14CB
  8
0
  6
CONTINUOUS
 10
515.4174437394305
 20
132.95347684907881
 30
0.0
  0
VERTEX
  5
14CC
  8
0
  6
CONTINUOUS
 10
517.14949454700059
 20
135.95347684907881
 30
0.0
  0
VERTEX
  5
14CD
  8
0
  6
CONTINUOUS
 10
520.61359616213679
 20
135.95347684907881
 30
0.0
  0
VERTEX
  5
14CE
  8
0
  6
CONTINUOUS
 10
522.34564696970676
 20
132.95347684907881
 30
0.0
  0
VERTEX
  5
14CF
  8
0
  6
CONTINUOUS
 10
520.61359616213679
 20
129.95347684907881
 30
0.0
  0
SEQEND
  5
14D0
  8
0
  6
CONTINUOUS
  0
CIRCLE
  5
FC7
  8
0
  6
CONTINUOUS
 10
557.88154535456874
 20
171.95347684907881
 30
0.0
 40
6.5
  0
CIRCLE
  5
FC8
  8
0
  6
CONTINUOUS
 10
557.88154535456874
 20
171.95347684907881
 30
0.0
 40
5.9226327944572761
  0
POLYLINE
  5
FC9
  8
0
  6
CONTINUOUS
 66
     1
 10
0.0
 20
0.0
 30
0.0
 70
     1
  0
VERTEX
  5
14D1
  8
0
  6
CONTINUOUS
 10
556.14949454700059
 20
168.95347684907881
 30
0.0
  0
VERTEX
  5
14D2
  8
0
  6
CONTINUOUS
 10
554.41744373943061
 20
171.95347684907881
 30
0.0
  0
VERTEX
  5
14D3
  8
0
  6
CONTINUOUS
 10
556.14949454700059
 20
174.95347684907881
 30
0.0
  0
VERTEX
  5
14D4
  8
0
  6
CONTINUOUS
 10
559.6135961621369
 20
174.95347684907881
 30
0.0
  0
VERTEX
  5
14D5
  8
0
  6
CONTINUOUS
 10
561.34564696970688
 20
171.95347684907881
 30
0.0
  0
VERTEX
  5
14D6
  8
0
  6
CONTINUOUS
 10
559.6135961621369
 20
168.95347684907881
 30
0.0
  0
SEQEND
  5
14D7
  8
0
  6
CONTINUOUS
  0
CIRCLE
  5
FD1
  8
0
  6
CONTINUOUS
 10
518.88154535456874
 20
630.94626817692915
 30
0.0
 40
6.5
  0
CIRCLE
  5
FD2
  8
0
  6
CONTINUOUS
 10
518.88154535456874
 20
630.94626817692915
 30
0.0
 40
5.9226327944572761
  0
POLYLINE
  5
FD3
  8
0
  6
CONTINUOUS
 66
     1
 10
0.0
 20
0.0
 30
0.0
 70
     1
  0
VERTEX
  5
14D8
  8
0
  6
CONTINUOUS
 10
517.14949454700059
 20
633.94626817692915
 30
0.0
  0
VERTEX
  5
14D9
  8
0
  6
CONTINUOUS
 10
515.4174437394305
 20
630.94626817692915
 30
0.0
  0
VERTEX
  5
14DA
  8
0
  6
CONTINUOUS
 10
517.14949454700059
 20
627.94626817692927
 30
0.0
  0
VERTEX
  5
14DB
  8
0
  6
CONTINUOUS
 10
520.61359616213679
 20
627.94626817692927
 30
0.0
  0
VERTEX
  5
14DC
  8
0
  6
CONTINUOUS
 10
522.34564696970676
 20
630.94626817692915
 30
0.0
  0
VERTEX
  5
14DD
  8
0
  6
CONTINUOUS
 10
520.61359616213679
 20
633.94626817692915
 30
0.0
  0
SEQEND
  5
14DE
  8
0
  6
CONTINUOUS
  0
CIRCLE
  5
FDB
  8
0
  6
CONTINUOUS
 10
518.88154535456874
 20
708.94626817692915
 30
0.0
 40
6.5
  0
CIRCLE
  5
FDC
  8
0
  6
CONTINUOUS
 10
518.88154535456874
 20
708.94626817692915
 30
0.0
 40
5.9226327944572761
  0
POLYLINE
  5
FDD
  8
0
  6
CONTINUOUS
 66
     1
 10
0.0
 20
0.0
 30
0.0
 70
     1
  0
VERTEX
  5
14DF
  8
0
  6
CONTINUOUS
 10
517.14949454700059
 20
711.94626817692915
 30
0.0
  0
VERTEX
  5
14E0
  8
0
  6
CONTINUOUS
 10
515.4174437394305
 20
708.94626817692915
 30
0.0
  0
VERTEX
  5
14E1
  8
0
  6
CONTINUOUS
 10
517.14949454700059
 20
705.94626817692915
 30
0.0
  0
VERTEX
  5
14E2
  8
0
  6
CONTINUOUS
 10
520.61359616213679
 20
705.94626817692915
 30
0.0
  0
VERTEX
  5
14E3
  8
0
  6
CONTINUOUS
 10
522.34564696970676
 20
708.94626817692915
 30
0.0
  0
VERTEX
  5
14E4
  8
0
  6
CONTINUOUS
 10
520.61359616213679
 20
711.94626817692915
 30
0.0
  0
SEQEND
  5
14E5
  8
0
  6
CONTINUOUS
  0
CIRCLE
  5
FE5
  8
0
  6
CONTINUOUS
 10
479.88154535456869
 20
669.94626817692927
 30
0.0
 40
6.5
  0
CIRCLE
  5
FE6
  8
0
  6
CONTINUOUS
 10
479.88154535456869
 20
669.94626817692927
 30
0.0
 40
5.9226327944572761
  0
POLYLINE
  5
FE7
  8
0
  6
CONTINUOUS
 66
     1
 10
0.0
 20
0.0
 30
0.0
 70
     1
  0
VERTEX
  5
14E6
  8
0
  6
CONTINUOUS
 10
478.14949454700047
 20
672.94626817692915
 30
0.0
  0
VERTEX
  5
14E7
  8
0
  6
CONTINUOUS
 10
476.41744373943061
 20
669.94626817692927
 30
0.0
  0
VERTEX
  5
14E8
  8
0
  6
CONTINUOUS
 10
478.14949454700047
 20
666.94626817692915
 30
0.0
  0
VERTEX
  5
14E9
  8
0
  6
CONTINUOUS
 10
481.6135961621369
 20
666.94626817692915
 30
0.0
  0
VERTEX
  5
14EA
  8
0
  6
CONTINUOUS
 10
483.34564696970682
 20
669.94626817692927
 30
0.0
  0
VERTEX
  5
14EB
  8
0
  6
CONTINUOUS
 10
481.6135961621369
 20
672.94626817692915
 30
0.0
  0
SEQEND
  5
14EC
  8
0
  6
CONTINUOUS
  0
CIRCLE
  5
FEF
  8
0
  6
CONTINUOUS
 10
557.88154535456874
 20
669.94626817692927
 30
0.0
 40
6.5
  0
CIRCLE
  5
FF0
  8
0
  6
CONTINUOUS
 10
557.88154535456874
 20
669.94626817692927
 30
0.0
 40
5.9226327944572761
  0
POLYLINE
  5
FF1
  8
0
  6
CONTINUOUS
 66
     1
 10
0.0
 20
0.0
 30
0.0
 70
     1
  0
VERTEX
  5
14ED
  8
0
  6
CONTINUOUS
 10
556.14949454700059
 20
672.94626817692915
 30
0.0
  0
VERTEX
  5
14EE
  8
0
  6
CONTINUOUS
 10
554.41744373943061
 20
669.94626817692927
 30
0.0
  0
VERTEX
  5
14EF
  8
0
  6
CONTINUOUS
 10
556.14949454700059
 20
666.94626817692915
 30
0.0
  0
VERTEX
  5
14F0
  8
0
  6
CONTINUOUS
 10
559.6135961621369
 20
666.94626817692915
 30
0.0
  0
VERTEX
  5
14F1
  8
0
  6
CONTINUOUS
 10
561.34564696970688
 20
669.94626817692927
 30
0.0
  0
VERTEX
  5
14F2
  8
0
  6
CONTINUOUS
 10
559.6135961621369
 20
672.94626817692915
 30
0.0
  0
SEQEND
  5
14F3
  8
0
  6
CONTINUOUS
  0
CIRCLE
  5
FF9
  8
0
  6
CONTINUOUS
 10
160.5705554830495
 20
466.39008900959942
 30
0.0
 40
4.25
  0
ARC
  5
FFA
  8
0
  6
CONTINUOUS
 62
     2
 10
160.5705554830495
 20
466.39008900959942
 30
0.0
 40
5.0000000000000053
 50
165.00000000000551
 51
104.9999999999944
  0
CIRCLE
  5
FFB
  8
0
  6
CONTINUOUS
 10
232.5705554830495
 20
466.39008900959942
 30
0.0
 40
4.25
  0
ARC
  5
FFC
  8
0
  6
CONTINUOUS
 62
     2
 10
232.5705554830495
 20
466.39008900959942
 30
0.0
 40
5.0000000000000053
 50
165.00000000000551
 51
104.9999999999944
  0
CIRCLE
  5
FFD
  8
0
  6
CONTINUOUS
 10
232.5705554830495
 20
394.39008900959931
 30
0.0
 40
4.25
  0
ARC
  5
FFE
  8
0
  6
CONTINUOUS
 62
     2
 10
232.5705554830495
 20
394.39008900959931
 30
0.0
 40
5.0000000000000053
 50
165.00000000000551
 51
104.9999999999944
  0
CIRCLE
  5
FFF
  8
0
  6
CONTINUOUS
 10
160.5705554830495
 20
394.39008900959931
 30
0.0
 40
4.25
  0
ARC
  5
1000
  8
0
  6
CONTINUOUS
 62
     2
 10
160.5705554830495
 20
394.39008900959931
 30
0.0
 40
5.0000000000000053
 50
165.00000000000551
 51
104.9999999999944
  0
CIRCLE
  5
1001
  8
0
  6
CONTINUOUS
 10
821.02423029662373
 20
466.39008900959942
 30
0.0
 40
4.25
  0
ARC
  5
1002
  8
0
  6
CONTINUOUS
 62
     2
 10
821.02423029662373
 20
466.39008900959942
 30
0.0
 40
5.0000000000000053
 50
75.000000000005556
 51
14.999999999994451
  0
CIRCLE
  5
1003
  8
0
  6
CONTINUOUS
 10
893.02423029662361
 20
466.39008900959942
 30
0.0
 40
4.25
  0
ARC
  5
1004
  8
0
  6
CONTINUOUS
 62
     2
 10
893.02423029662361
 20
466.39008900959942
 30
0.0
 40
5.0000000000000053
 50
75.000000000005556
 51
14.999999999994451
  0
CIRCLE
  5
1005
  8
0
  6
CONTINUOUS
 10
893.02423029662361
 20
394.39008900959931
 30
0.0
 40
4.25
  0
ARC
  5
1006
  8
0
  6
CONTINUOUS
 62
     2
 10
893.02423029662361
 20
394.39008900959931
 30
0.0
 40
5.0000000000000053
 50
75.000000000005556
 51
14.999999999994451
  0
CIRCLE
  5
1007
  8
0
  6
CONTINUOUS
 10
821.02423029662373
 20
394.39008900959931
 30
0.0
 40
4.25
  0
ARC
  5
1008
  8
0
  6
CONTINUOUS
 62
     2
 10
821.02423029662373
 20
394.39008900959931
 30
0.0
 40
5.0000000000000053
 50
75.000000000005556
 51
14.999999999994451
  0
LINE
  5
1009
  8
0
 10
178.0705554830495
 20
369.89008900959902
 30
0.0
 11
143.0705554830495
 21
369.89008900959902
 31
0.0
  0
LINE
  5
100A
  8
0
 10
156.5705554830495
 20
326.39008900959908
 30
0.0
 11
156.5705554830495
 21
363.39008900959908
 31
0.0
  0
LINE
  5
100B
  8
0
 10
164.5705554830495
 20
326.39008900959908
 30
0.0
 11
164.5705554830495
 21
363.39008900959908
 31
0.0
  0
LINE
  5
100C
  8
0
 10
146.5705554830493
 20
320.89008900959908
 30
0.0
 11
146.5705554830495
 21
369.89008900959902
 31
0.0
  0
LINE
  5
100D
  8
0
 10
174.5705554830495
 20
320.89008900959908
 30
0.0
 11
174.5705554830495
 21
369.89008900959902
 31
0.0
  0
LINE
  5
100E
  8
0
 10
143.0705554830495
 20
369.89008900959902
 30
0.0
 11
143.0705554830495
 21
370.89008900959902
 31
0.0
  0
ARC
  5
100F
  8
0
  6
CONTINUOUS
 10
160.5705554830495
 20
363.39008900959908
 30
0.0
 40
4.0
 50
0.0
 51
180.0
  0
ARC
  5
1010
  8
0
  6
CONTINUOUS
 10
160.5705554830495
 20
326.39008900959908
 30
0.0
 40
4.0
 50
180.0
 51
0.0
  0
LINE
  5
1011
  8
0
 10
173.5705554830495
 20
319.89008900959908
 30
0.0
 11
147.5705554830493
 21
319.89008900959908
 31
0.0
  0
LINE
  5
1012
  8
0
 10
174.5705554830495
 20
320.89008900959902
 30
0.0
 11
146.5705554830495
 21
320.89008900959908
 31
0.0
  0
LINE
  5
1013
  8
0
 10
147.5705554830493
 20
319.89008900959908
 30
0.0
 11
146.5705554830493
 21
320.89008900959908
 31
0.0
  0
LINE
  5
1014
  8
0
 10
173.5705554830495
 20
319.89008900959908
 30
0.0
 11
174.5705554830495
 21
320.89008900959908
 31
0.0
  0
LINE
  5
1015
  8
0
 10
178.0705554830495
 20
369.89008900959902
 30
0.0
 11
178.0705554830493
 21
370.89008900959902
 31
0.0
  0
LINE
  5
1016
  8
0
 10
875.52423029662373
 20
369.89008900959919
 30
0.0
 11
910.52423029662373
 21
369.89008900959919
 31
0.0
  0
LINE
  5
1017
  8
0
 10
880.02423029662373
 20
319.89008900959931
 30
0.0
 11
906.02423029662373
 21
319.89008900959931
 31
0.0
  0
LINE
  5
1018
  8
0
 10
879.02423029662373
 20
320.89008900959919
 30
0.0
 11
907.02423029662373
 21
320.89008900959931
 31
0.0
  0
LINE
  5
1019
  8
0
 10
879.02423029662373
 20
320.89008900959931
 30
0.0
 11
879.02423029662373
 21
369.89008900959919
 31
0.0
  0
LINE
  5
101A
  8
0
 10
875.52423029662373
 20
369.89008900959919
 30
0.0
 11
875.52423029662373
 21
370.89008900959919
 31
0.0
  0
LINE
  5
101B
  8
0
 10
880.02423029662373
 20
319.89008900959931
 30
0.0
 11
879.02423029662373
 21
320.89008900959931
 31
0.0
  0
LINE
  5
101C
  8
0
 10
907.02423029662373
 20
320.89008900959931
 30
0.0
 11
907.02423029662373
 21
369.89008900959919
 31
0.0
  0
LINE
  5
101D
  8
0
 10
910.52423029662373
 20
369.89008900959919
 30
0.0
 11
910.52423029662373
 21
370.89008900959919
 31
0.0
  0
LINE
  5
101E
  8
DIM
  6
CONTINUOUS
 10
907.02423029662373
 20
319.89008900959931
 30
0.0
 11
961.5242302966235
 21
319.89008900959931
 31
0.0
  0
LINE
  5
101F
  8
0
 10
906.02423029662373
 20
319.89008900959931
 30
0.0
 11
907.02423029662373
 21
320.89008900959931
 31
0.0
  0
SOLID
  5
1020
  8
DIM
  6
CONTINUOUS
 10
960.02423029662339
 20
322.89008900959931
 30
0.0
 11
961.02423029662339
 21
322.89008900959931
 31
0.0
 12
960.5242302966235
 22
319.89008900959931
 32
0.0
 13
960.5242302966235
 23
319.89008900959931
 33
0.0
  0
LINE
  5
1021
  8
DIM
  6
CONTINUOUS
 10
500.38154535456869
 20
369.89008900959931
 30
0.0
 11
449.38154535456869
 21
369.89008900959931
 31
0.0
  0
LINE
  5
1022
  8
DIM
  6
CONTINUOUS
 10
504.88154535456869
 20
319.89008900959931
 30
0.0
 11
449.38154535456869
 21
319.89008900959931
 31
0.0
  0
LINE
  5
1023
  8
DIM
  6
CONTINUOUS
 10
500.88154535456869
 20
367.39008900959942
 30
0.0
 11
457.38154535456869
 21
367.39008900959942
 31
0.0
  0
LINE
  5
1024
  8
DIM
  6
CONTINUOUS
 10
500.88154535456869
 20
322.39008900959931
 30
0.0
 11
457.38154535456869
 21
322.39008900959931
 31
0.0
  0
LINE
  5
1025
  8
DIM
  6
CONTINUOUS
 10
450.38154535456869
 20
322.89008900959931
 30
0.0
 11
450.38154535456869
 21
377.82305516706032
 31
0.0
  0
LINE
  5
1026
  8
DIM
  6
CONTINUOUS
 10
458.38154535456869
 20
325.39008900959931
 30
0.0
 11
458.38154535456869
 21
364.39008900959948
 31
0.0
  0
SOLID
  5
1027
  8
DIM
  6
CONTINUOUS
 10
457.88154535456869
 20
364.39008900959948
 30
0.0
 11
458.88154535456869
 21
364.39008900959948
 31
0.0
 12
458.38154535456869
 22
367.39008900959942
 32
0.0
 13
458.38154535456869
 23
367.39008900959942
 33
0.0
  0
LINE
  5
1028
  8
DIM
  6
CONTINUOUS
 10
470.8246785333551
 20
370.89008900959931
 30
0.0
 11
449.38154535456869
 21
370.89008900959931
 31
0.0
  0
SOLID
  5
1029
  8
DIM
  6
CONTINUOUS
 10
449.88154535456869
 20
373.89008900959931
 30
0.0
 11
450.88154535456869
 21
373.89008900959931
 31
0.0
 12
450.38154535456869
 22
370.89008900959931
 32
0.0
 13
450.38154535456869
 23
370.89008900959931
 33
0.0
  0
SOLID
  5
102A
  8
DIM
  6
CONTINUOUS
 10
449.88154535456869
 20
366.89008900959931
 30
0.0
 11
450.88154535456869
 21
366.89008900959931
 31
0.0
 12
450.38154535456869
 22
369.89008900959931
 32
0.0
 13
450.38154535456869
 23
369.89008900959931
 33
0.0
  0
SOLID
  5
102B
  8
DIM
  6
CONTINUOUS
 10
449.88154535456869
 20
322.89008900959931
 30
0.0
 11
450.88154535456869
 21
322.89008900959931
 31
0.0
 12
450.38154535456869
 22
319.89008900959931
 32
0.0
 13
450.38154535456869
 23
319.89008900959931
 33
0.0
  0
SOLID
  5
102C
  8
DIM
  6
CONTINUOUS
 10
457.88154535456869
 20
325.39008900959931
 30
0.0
 11
458.88154535456869
 21
325.39008900959931
 31
0.0
 12
458.38154535456869
 22
322.39008900959931
 32
0.0
 13
458.38154535456869
 23
322.39008900959931
 33
0.0
  0
LINE
  5
102D
  8
0
 10
501.88154535456869
 20
322.39008900959931
 30
0.0
 11
501.88154535456869
 21
367.39008900959942
 31
0.0
  0
LINE
  5
102E
  8
0
 10
504.88154535456869
 20
320.89008900959931
 30
0.0
 11
504.88154535456869
 21
369.89008900959931
 31
0.0
  0
LINE
  5
102F
  8
0
 10
532.88154535456874
 20
320.89008900959931
 30
0.0
 11
532.88154535456874
 21
369.89008900959931
 31
0.0
  0
LINE
  5
1030
  8
0
 10
501.88154535456869
 20
367.39008900959942
 30
0.0
 11
504.88154535456869
 21
367.39008900959942
 31
0.0
  0
LINE
  5
1031
  8
0
 10
501.38154535456869
 20
369.89008900959931
 30
0.0
 11
536.38154535456874
 21
369.89008900959931
 31
0.0
  0
LINE
  5
1032
  8
0
 10
501.38154535456869
 20
369.89008900959931
 30
0.0
 11
501.38154535456869
 21
370.89008900959931
 31
0.0
  0
LINE
  5
1033
  8
0
 10
536.38154535456874
 20
369.89008900959931
 30
0.0
 11
536.38154535456874
 21
370.89008900959931
 31
0.0
  0
SOLID
  5
1034
  8
DIM
  6
CONTINUOUS
 10
504.88154535456869
 20
303.39008900959931
 30
0.0
 11
504.88154535456869
 21
304.39008900959931
 31
0.0
 12
501.88154535456869
 22
303.89008900959931
 32
0.0
 13
501.88154535456869
 23
303.89008900959931
 33
0.0
  0
LINE
  5
1035
  8
0
 10
501.88154535456869
 20
322.39008900959931
 30
0.0
 11
504.88154535456869
 21
322.39008900959931
 31
0.0
  0
LINE
  5
1036
  8
DIM
  6
CONTINUOUS
 10
501.88154535456869
 20
321.39008900959931
 30
0.0
 11
501.88154535456869
 21
302.89008900959931
 31
0.0
  0
LINE
  5
1037
  8
DIM
  6
CONTINUOUS
 10
532.88154535456874
 20
319.89008900959931
 30
0.0
 11
532.88154535456874
 21
302.89008900959931
 31
0.0
  0
LINE
  5
1038
  8
DIM
  6
CONTINUOUS
 10
504.88154535456869
 20
319.89008900959931
 30
0.0
 11
504.88154535456869
 21
310.89008900959931
 31
0.0
  0
LINE
  5
1039
  8
DIM
  6
CONTINUOUS
 10
532.88154535456874
 20
319.89008900959931
 30
0.0
 11
532.88154535456874
 21
310.89008900959931
 31
0.0
  0
LINE
  5
103A
  8
0
 10
504.88154535456869
 20
320.89008900959931
 30
0.0
 11
532.88154535456874
 21
320.89008900959931
 31
0.0
  0
LINE
  5
103B
  8
0
 10
505.88154535456869
 20
319.89008900959931
 30
0.0
 11
531.88154535456874
 21
319.89008900959931
 31
0.0
  0
LINE
  5
103C
  8
0
 10
505.88154535456869
 20
319.89008900959931
 30
0.0
 11
504.88154535456869
 21
320.89008900959931
 31
0.0
  0
LINE
  5
103D
  8
0
 10
531.88154535456874
 20
319.89008900959931
 30
0.0
 11
532.88154535456874
 21
320.89008900959931
 31
0.0
  0
LINE
  5
103E
  8
DIM
  6
CONTINUOUS
 10
529.88154535456874
 20
303.89008900959931
 30
0.0
 11
504.88154535456869
 21
303.89008900959931
 31
0.0
  0
LINE
  5
103F
  8
DIM
  6
CONTINUOUS
 10
529.88154535456874
 20
311.89008900959931
 30
0.0
 11
507.88154535456869
 21
311.89008900959931
 31
0.0
  0
SOLID
  5
1040
  8
DIM
  6
CONTINUOUS
 10
507.88154535456869
 20
311.39008900959931
 30
0.0
 11
507.88154535456869
 21
312.39008900959931
 31
0.0
 12
504.88154535456869
 22
311.89008900959931
 32
0.0
 13
504.88154535456869
 23
311.89008900959931
 33
0.0
  0
SOLID
  5
1041
  8
DIM
  6
CONTINUOUS
 10
529.88154535456874
 20
311.39008900959931
 30
0.0
 11
529.88154535456874
 21
312.39008900959931
 31
0.0
 12
532.88154535456874
 22
311.89008900959931
 32
0.0
 13
532.88154535456874
 23
311.89008900959931
 33
0.0
  0
SOLID
  5
1042
  8
DIM
  6
CONTINUOUS
 10
529.88154535456874
 20
303.39008900959931
 30
0.0
 11
529.88154535456874
 21
304.39008900959931
 31
0.0
 12
532.88154535456874
 22
303.89008900959931
 32
0.0
 13
532.88154535456874
 23
303.89008900959931
 33
0.0
  0
TEXT
  5
1043
  8
DIM
  6
CONTINUOUS
 10
448.88154535456869
 20
374.83040576449901
 30
0.0
 40
3.0
  1
1
 50
90.0
  7
ROMANSS
 72
     1
 11
447.38154535456869
 21
375.18754862164189
 31
0.0
 73
     2
  0
TEXT
  5
1044
  8
DIM
  6
CONTINUOUS
 10
456.88154535456869
 20
341.91952324135872
 30
0.0
 40
3.0
  1
45
 50
90.0
  7
ROMANSS
 72
     1
 11
455.38154535456869
 21
344.34809466993022
 31
0.0
 73
     2
  0
TEXT
  5
1045
  8
DIM
  6
CONTINUOUS
 10
448.88154535456869
 20
343.95474595507483
 30
0.0
 40
3.0
  1
50
 50
90.0
  7
ROMANSS
 72
     1
 11
447.38154535456869
 21
346.38331738364622
 31
0.0
 73
     2
  0
TEXT
  5
1046
  8
DIM
  6
CONTINUOUS
 10
512.38154535456874
 20
313.39008900959919
 30
0.0
 40
3.0
  1
%%c28h6
  7
ROMANSS
 72
     1
 11
518.88154535456874
 21
314.89008900959919
 31
0.0
 73
     2
  0
TEXT
  5
1047
  8
DIM
  6
CONTINUOUS
 10
515.59583106885441
 20
305.39008900959942
 30
0.0
 40
3.0
  1
31
  7
ROMANSS
 72
     1
 11
517.38154535456874
 21
306.89008900959942
 31
0.0
 73
     2
  0
CIRCLE
  5
1054
  8
0
  6
CONTINUOUS
 10
518.88154535456874
 20
171.9534768490789
 30
0.0
 40
13.00000000000005
  0
SOLID
  5
1055
  8
DIM
  6
CONTINUOUS
 10
493.38154535456891
 20
164.9534768490789
 30
0.0
 11
494.3815453545688
 21
164.9534768490789
 31
0.0
 12
493.8815453545688
 22
167.9534768490789
 32
0.0
 13
493.8815453545688
 23
167.9534768490789
 33
0.0
  0
CIRCLE
  5
1056
  8
0
  6
CONTINUOUS
 10
518.88154535456874
 20
171.9534768490789
 30
0.0
 40
17.5
  0
CIRCLE
  5
1057
  8
0
  6
CONTINUOUS
 10
518.88154535456874
 20
171.9534768490789
 30
0.0
 40
14.00000000000005
  0
LINE
  5
1058
  8
DIM
  6
CONTINUOUS
 10
493.8815453545688
 20
164.9534768490789
 30
0.0
 11
493.8815453545688
 21
161.9534768490789
 31
0.0
  0
LINE
  5
1059
  8
0
 10
501.88154535456869
 20
167.9534768490789
 30
0.0
 11
505.46513748957
 21
167.9534768490789
 31
0.0
  0
LINE
  5
105A
  8
0
 10
501.88154535456869
 20
175.9534768490789
 30
0.0
 11
505.46513748957
 21
175.9534768490789
 31
0.0
  0
SOLID
  5
105B
  8
DIM
  6
CONTINUOUS
 10
493.38154535456891
 20
178.9534768490789
 30
0.0
 11
494.3815453545688
 21
178.9534768490789
 31
0.0
 12
493.8815453545688
 22
175.9534768490789
 32
0.0
 13
493.8815453545688
 23
175.9534768490789
 33
0.0
  0
LINE
  5
105C
  8
DIM
  6
CONTINUOUS
 10
500.88154535456869
 20
175.9534768490789
 30
0.0
 11
492.8815453545688
 21
175.9534768490789
 31
0.0
  0
LINE
  5
105D
  8
DIM
  6
CONTINUOUS
 10
500.88154535456869
 20
167.9534768490789
 30
0.0
 11
492.8815453545688
 21
167.9534768490789
 31
0.0
  0
LINE
  5
105E
  8
DIM
  6
CONTINUOUS
 10
493.8815453545688
 20
167.9534768490789
 30
0.0
 11
493.8815453545688
 21
175.9534768490789
 31
0.0
  0
LINE
  5
105F
  8
0
 10
501.88154535456869
 20
175.9534768490789
 30
0.0
 11
501.88154535456869
 21
167.9534768490789
 31
0.0
  0
TEXT
  5
1060
  8
DIM
  6
CONTINUOUS
 10
492.3815453545688
 20
182.8284768490789
 30
0.0
 40
3.0
  1
8
 50
90.0
  7
ROMANSS
 72
     1
 11
490.8815453545688
 21
183.8284768490789
 31
0.0
 73
     2
  0
LINE
  5
1061
  8
DIM
  6
CONTINUOUS
 10
493.8815453545688
 20
181.9534768490789
 30
0.0
 11
493.8815453545688
 21
184.7034768490789
 31
0.0
  0
LINE
  5
1062
  8
DIM
  6
CONTINUOUS
 10
493.8815453545688
 20
178.9534768490789
 30
0.0
 11
493.8815453545688
 21
181.9534768490789
 31
0.0
  0
CIRCLE
  5
1063
  8
0
  6
CONTINUOUS
 10
518.88154535456874
 20
171.9534768490789
 30
0.0
 40
3.399999999999999
  0
ARC
  5
1064
  8
0
  6
CONTINUOUS
 62
     2
 10
518.88154535456874
 20
171.9534768490789
 30
0.0
 40
4.0
 50
153.95518686272919
 51
110.5741396147375
  0
SOLID
  5
1065
  8
DIM
  6
CONTINUOUS
 10
525.38072245646697
 20
169.30570476709181
 30
0.0
 11
525.69107405084185
 21
170.25632660981839
 31
0.0
 12
522.68403272547448
 22
170.71207047157969
 32
0.0
 13
522.68403272547448
 23
170.71207047157969
 33
0.0
  0
TEXT
  5
1066
  8
DIM
  6
CONTINUOUS
 10
602.63494348615836
 20
147.32343385819431
 30
0.0
 40
3.0
  1
M8x15L
  7
ROMANSS
 11
602.63494348615836
 21
148.82343385819431
 31
0.0
 73
     2
  0
LINE
  5
1067
  8
DIM
  6
CONTINUOUS
 10
598.91912231161086
 20
145.82343385819431
 30
0.0
 11
617.77601471416983
 21
145.82343385819431
 31
0.0
  0
LINE
  5
1068
  8
DIM
  6
CONTINUOUS
 10
522.68403272547505
 20
170.7120704715793
 30
0.0
 11
598.91912231161086
 21
145.82343385819431
 31
0.0
  0
TEXT
  5
106D
  8
LOGO
 62
     6
 10
768.33010625279996
 20
5.3561672215104554
 30
0.0
 40
18.220449928914562
  1
作動角度
 41
0.9
  7
CHINESET
 72
     4
 11
801.12691612484616
 21
13.897750355427039
 31
0.0
  0
LINE
  5
106E
  8
LOGO
 62
     6
 10
848.17762533604127
 20
-20.265593261287609
 30
0.0
 11
754.07620691365105
 21
-20.265593261287741
 31
0.0
  0
LINE
  5
106F
  8
LOGO
 62
     6
 10
848.17762533604127
 20
29.840644043227439
 30
0.0
 11
754.07620691365105
 21
29.840644043227439
 31
0.0
  0
TEXT
  5
1070
  8
LOGO
  6
CONTINUOUS
 62
     6
 10
758.17871272097625
 20
-12.67373912424001
 30
0.0
 40
11.387781205571599
  1
Rotary angle
 41
0.8
  7
CHINESET
 72
     4
 11
801.12691612484616
 21
-8.8778120557161486
 31
0.0
  0
TEXT
  5
1071
  8
LOGO
  6
CONTINUOUS
 62
     7
 10
776.13887109470522
 20
59.190598864819741
 30
0.0
 40
22.775562411143198
  1
180
  7
CHINESET
 72
     1
 11
803.25263586987558
 21
70.578380070391347
 31
0.0
 73
     2
  0
LINE
  5
1072
  8
LOGO
 62
     6
 10
839.06740037158397
 20
91.334662553314089
 30
0.0
 11
763.18643187810835
 21
91.334662553314089
 31
0.0
  0
LINE
  5
1073
  8
LOGO
 62
     6
 10
839.06740037158397
 20
50.338650213256273
 30
0.0
 11
763.18643187810835
 21
50.338650213256308
 31
0.0
  0
LINE
  5
1074
  8
LOGO
 62
     1
 10
1007.0
 20
105.0
 30
0.0
 11
27.0
 21
105.0
 31
0.0
  0
LINE
  5
1075
  8
LOGO
 62
     1
 10
1007.0
 20
-31.653374466859219
 30
0.0
 11
27.0
 21
-31.653374466859219
 31
0.0
  0
LINE
  5
1076
  8
LOGO
  6
CONTINUOUS
 62
     6
 10
286.8251095969801
 20
68.682083631039063
 30
0.0
 11
311.69905007832159
 21
71.967634484072448
 31
0.0
  0
LINE
  5
1077
  8
LOGO
  6
CONTINUOUS
 62
     6
 10
286.8251095969801
 20
59.384352202443111
 30
0.0
 11
311.69905007832159
 21
56.09880134940974
 31
0.0
  0
LINE
  5
1078
  8
LOGO
 62
     1
 10
327.63742382709012
 20
77.669325106628179
 30
0.0
 11
127.2124746090301
 21
77.669325106628179
 31
0.0
  0
LINE
  5
1079
  8
LOGO
 62
     1
 10
327.63742382709012
 20
50.338650213256308
 30
0.0
 11
127.2124746090301
 21
50.338650213256308
 31
0.0
  0
TEXT
  5
107A
  8
LOGO
 62
     6
 10
257.03543358542328
 20
84.501993829971127
 30
0.0
 40
13.665337446685919
  1
1 : 1
  7
CHINESET
 72
     1
 11
281.11245670577472
 21
91.334662553314089
 31
0.0
 73
     2
  0
TEXT
  5
107B
  8
LOGO
 62
     6
 10
257.03543358542328
 20
29.840644043227439
 30
0.0
 40
13.665337446685919
  1
m/m
  7
CHINESET
 72
     1
 11
281.11245670577472
 21
36.673312766570398
 31
0.0
 73
     2
  0
LINE
  5
107C
  8
LOGO
 62
     1
 10
327.63742382709012
 20
23.007975319884611
 30
0.0
 11
26.999999999999861
 21
23.007975319884611
 31
0.0
  0
TEXT
  5
107D
  8
LOGO
  6
CONTINUOUS
 62
     5
 10
31.472895673308759
 20
-4.8080252807681907
 30
0.0
 40
20.49800617002888
  1
金器工業股份有限公司
 41
0.8
  7
LOGO
  0
TEXT
  5
107E
  8
LOGO
  6
CONTINUOUS
 62
     5
 10
37.342288318552633
 20
-25.310047452900651
 30
0.0
 40
13.665337446685919
  1
MINDMAN INDUSTRIAL CO.,LTD
 41
0.85
  7
CHINESET
  0
SOLID
  5
107F
  8
LOGO
 62
     5
 10
41.178006912922811
 20
45.724653717382978
 30
0.0
 11
47.086540246414927
 21
45.72465371738101
 31
0.0
 12
71.73938622409193
 22
101.75384912119119
 32
0.0
 13
77.647919557583521
 23
101.7538491211873
 33
0.0
  0
SOLID
  5
1080
  8
LOGO
 62
     5
 10
49.531450591311938
 20
45.724653717382978
 30
0.0
 11
55.439983924803549
 21
45.724653717382978
 31
0.0
 12
77.647919557583521
 22
97.271513488884565
 32
0.0
 13
71.73938622409193
 23
75.606891266078009
 33
0.0
  0
SOLID
  5
1081
  8
LOGO
 62
     2
 10
47.086540246414927
 20
45.72465371738101
 30
0.0
 11
49.531450591311938
 21
45.724653717382978
 31
0.0
 12
77.647919557583521
 22
101.7538491211873
 32
0.0
 13
80.092829902478726
 23
101.7538491211873
 33
0.0
  0
SOLID
  5
1082
  8
LOGO
 62
     5
 10
47.255125984023671
 20
35.537527280326771
 30
0.0
 11
49.292551271432849
 21
35.537527280326771
 31
0.0
 12
47.255125984023671
 22
25.35040084327245
 32
0.0
 13
49.292551271432849
 23
25.35040084327245
 33
0.0
  0
SOLID
  5
1083
  8
LOGO
 62
     5
 10
31.705179029475399
 20
25.35040084327245
 30
0.0
 11
33.742604316888702
 21
25.35040084327245
 31
0.0
 12
39.480152506748247
 22
35.537527280326771
 32
0.0
 13
41.517577794157937
 23
35.537527280326771
 33
0.0
  0
SOLID
  5
1084
  8
LOGO
 62
     5
 10
39.480152506748247
 20
35.537527280326771
 30
0.0
 11
41.517577794157937
 21
35.537527280326771
 31
0.0
 12
39.480152506748247
 22
25.35040084327245
 32
0.0
 13
41.517577794157937
 23
25.35040084327245
 33
0.0
  0
SOLID
  5
1085
  8
LOGO
 62
     5
 10
39.480152506748247
 20
25.35040084327245
 30
0.0
 11
41.517577794157937
 21
25.35040084327245
 31
0.0
 12
47.255125984023671
 22
35.537527280326771
 32
0.0
 13
49.292551271432849
 23
35.537527280326771
 33
0.0
  0
LINE
  5
1086
  8
LOGO
 62
     1
 10
27.0
 20
-31.653374466859219
 30
0.0
 11
27.0
 21
105.0
 31
0.0
  0
TEXT
  5
1087
  8
LOGO
 62
     6
 10
138.4802774054715
 20
84.508718897612226
 30
0.0
 40
13.665337446685919
  1
比例 Scale:
 41
0.9
  7
CHINESET
 72
     4
 11
181.87382439577371
 21
91.334662553314089
 31
0.0
  0
TEXT
  5
1088
  8
LOGO
 62
     6
 10
143.25704491473721
 20
57.363543786673617
 30
0.0
 40
13.665337446685919
  1
投影 View:
 41
0.9
  7
CHINESET
 72
     4
 11
181.87382439577371
 21
64.003987659942226
 31
0.0
  0
TEXT
  5
1089
  8
LOGO
 62
     6
 10
144.59307567403371
 20
29.840644043227439
 30
0.0
 40
13.665337446685919
  1
單位 Unit:
 41
0.9
  7
CHINESET
 72
     4
 11
181.87382439577371
 21
36.673312766570398
 31
0.0
  0
POLYLINE
  5
108A
  8
LOGO
 62
     5
 66
     1
 10
0.0
 20
0.0
 30
0.0
 70
     1
 40
2.0406903920384312
 41
2.0406903920384312
  0
VERTEX
  5
14F4
  8
LOGO
 62
     5
 10
96.86123705459309
 20
30.443964061798621
 30
0.0
 42
1.0
  0
VERTEX
  5
14F5
  8
LOGO
 62
     5
 10
105.0239986227466
 20
30.443964061798621
 30
0.0
 42
1.0
  0
SEQEND
  5
14F6
  8
LOGO
 62
     5
  0
LINE
  5
108B
  8
LOGO
 62
     5
 10
116.56274254713711
 20
25.35040084327245
 30
0.0
 11
116.56274254713711
 21
31.462676705504201
 31
0.0
  0
SOLID
  5
108C
  8
LOGO
 62
     5
 10
103.99855202726251
 20
35.537527280326771
 30
0.0
 11
106.0359773146719
 21
35.537527280326771
 31
0.0
 12
103.99855202726251
 22
25.35040084327245
 32
0.0
 13
106.0359773146719
 23
25.35040084327245
 33
0.0
  0
SOLID
  5
108D
  8
LOGO
 62
     5
 10
108.41304139749209
 20
25.35040084327245
 30
0.0
 11
110.45046668490519
 21
25.35040084327245
 31
0.0
 12
108.41304139749209
 22
35.537527280326771
 32
0.0
 13
110.45046668490519
 23
35.537527280326771
 33
0.0
  0
SOLID
  5
108E
  8
LOGO
 62
     5
 10
114.5253172597279
 20
31.462676705504201
 30
0.0
 11
116.56274254713711
 21
31.462676705503931
 31
0.0
 12
114.5253172597279
 22
25.35040084327245
 32
0.0
 13
116.56274254713711
 23
25.35040084327245
 33
0.0
  0
SOLID
  5
108F
  8
LOGO
 62
     5
 10
74.795320412681306
 20
38.593665211444574
 30
0.0
 11
76.83274570009047
 21
38.593665211444574
 31
0.0
 12
74.795320412681306
 22
25.35040084327245
 32
0.0
 13
76.83274570009047
 23
25.35040084327245
 33
0.0
  0
SOLID
  5
1090
  8
LOGO
 62
     5
 10
79.209809782916622
 20
35.537527280326771
 30
0.0
 11
81.24723507032607
 21
35.537527280326771
 31
0.0
 12
79.209809782916622
 22
25.35040084327245
 32
0.0
 13
81.24723507032607
 23
25.35040084327245
 33
0.0
  0
SOLID
  5
1091
  8
LOGO
 62
     5
 10
85.322085645148533
 20
31.462676705504201
 30
0.0
 11
87.359510932557967
 21
31.462676705504201
 31
0.0
 12
85.322085645148533
 22
25.35040084327245
 32
0.0
 13
87.359510932557967
 23
25.35040084327245
 33
0.0
  0
SOLID
  5
1092
  8
LOGO
 62
     5
 10
91.434361507380686
 20
31.462676705504201
 30
0.0
 11
93.471786794789864
 21
31.462676705504201
 31
0.0
 12
91.434361507380686
 22
25.350400843268581
 32
0.0
 13
93.471786794789864
 23
25.350400843268581
 33
0.0
  0
LINE
  5
1093
  8
LOGO
 62
     1
 10
127.2124746090301
 20
23.007975319884451
 30
0.0
 11
127.2124746090301
 21
105.0
 31
0.0
  0
SOLID
  5
1094
  8
LOGO
 62
     5
 10
56.118854030569388
 20
35.537527280326771
 30
0.0
 11
58.156279317978537
 21
35.537527280326771
 31
0.0
 12
56.118854030569388
 22
25.35040084327245
 32
0.0
 13
58.156279317978537
 23
25.35040084327245
 33
0.0
  0
SOLID
  5
1095
  8
LOGO
 62
     5
 10
62.231129892800759
 20
31.462676705504201
 30
0.0
 11
64.268555180213824
 21
31.462676705504201
 31
0.0
 12
62.231129892800759
 22
25.35040084327245
 32
0.0
 13
64.268555180213824
 23
25.35040084327245
 33
0.0
  0
SOLID
  5
1096
  8
LOGO
 62
     5
 10
51.704364660333532
 20
35.537527280326771
 30
0.0
 11
53.74178994774865
 21
35.537527280326771
 31
0.0
 12
51.704364660333532
 22
25.350400843268581
 32
0.0
 13
53.74178994774865
 23
25.35040084327245
 33
0.0
  0
POLYLINE
  5
1097
  8
LOGO
 62
     5
 66
     1
 10
0.0
 20
0.0
 30
0.0
 70
     1
 40
2.0406903920384312
 41
2.0406903920384312
  0
VERTEX
  5
14F7
  8
LOGO
 62
     5
 10
67.658005440013696
 20
30.443964061798621
 30
0.0
 42
1.0
  0
VERTEX
  5
14F8
  8
LOGO
 62
     5
 10
75.82076700816755
 20
30.443964061798621
 30
0.0
 42
1.0
  0
SEQEND
  5
14F9
  8
LOGO
 62
     5
  0
POLYLINE
  5
1098
  8
LOGO
 62
     5
 66
     1
 10
0.0
 20
0.0
 30
0.0
 40
2.0406903920384312
 41
2.0406903920384312
  0
VERTEX
  5
14FA
  8
LOGO
 62
     5
 10
115.54892756037439
 20
31.462676705504261
 30
0.0
 42
1.0
  0
VERTEX
  5
14FB
  8
LOGO
 62
     5
 10
109.4268563842589
 20
31.462676705504261
 30
0.0
 42
1.0
  0
SEQEND
  5
14FC
  8
LOGO
 62
     5
  0
SOLID
  5
1099
  8
LOGO
 62
     5
 10
110.6542092136454
 20
45.72465371738101
 30
0.0
 11
116.56274254713711
 21
45.72465371738101
 31
0.0
 12
110.6542092136454
 22
101.7538491211873
 32
0.0
 13
116.56274254713711
 23
101.75384912119119
 33
0.0
  0
SOLID
  5
109A
  8
LOGO
 62
     5
 10
80.092829902478726
 20
101.7538491211873
 30
0.0
 11
86.001363235970075
 21
101.75384912119119
 31
0.0
 12
80.092829902478726
 22
50.206989349685799
 32
0.0
 13
86.001363235970075
 23
71.871611572492355
 33
0.0
  0
SOLID
  5
109B
  8
LOGO
 62
     5
 10
80.092829902478726
 20
50.206989349685799
 30
0.0
 11
86.001363235970075
 21
71.871611572492355
 31
0.0
 12
108.2092988687503
 22
101.75384912119119
 32
0.0
 13
102.30076553525809
 23
101.75384912119119
 33
0.0
  0
SOLID
  5
109C
  8
LOGO
 62
     5
 10
108.2092988687503
 20
97.271513488884565
 30
0.0
 11
102.30076553525809
 21
75.606891266078009
 31
0.0
 12
108.2092988687503
 22
45.72465371738101
 32
0.0
 13
102.30076553525809
 23
45.72465371738101
 33
0.0
  0
SOLID
  5
109D
  8
LOGO
 62
     2
 10
108.2092988687503
 20
101.75384912119119
 30
0.0
 11
110.6542092136454
 21
101.7538491211873
 31
0.0
 12
108.2092988687503
 22
45.72465371738101
 32
0.0
 13
110.6542092136454
 23
45.72465371738101
 33
0.0
  0
SOLID
  5
109E
  8
LOGO
 62
     5
 10
71.73938622409193
 20
45.724653717382978
 30
0.0
 11
77.647919557583521
 21
45.724653717382978
 31
0.0
 12
71.73938622409193
 22
75.606891266078009
 32
0.0
 13
77.647919557583521
 23
97.271513488884565
 33
0.0
  0
SOLID
  5
109F
  8
LOGO
 62
     2
 10
77.647919557583521
 20
101.7538491211873
 30
0.0
 11
80.092829902478726
 21
101.7538491211873
 31
0.0
 12
77.647919557583521
 22
45.724653717382978
 32
0.0
 13
80.092829902478726
 23
45.724653717382978
 33
0.0
  0
SOLID
  5
10A0
  8
LOGO
 62
     5
 10
80.092829902478726
 20
45.724653717382978
 30
0.0
 11
86.001363235970075
 21
45.724653717382978
 31
0.0
 12
108.2092988687503
 22
97.271513488884565
 32
0.0
 13
102.30076553525809
 23
75.606891266078009
 33
0.0
  0
SOLID
  5
10A1
  8
LOGO
 62
     2
 10
77.647919557583521
 20
45.724653717382978
 30
0.0
 11
80.092829902478726
 21
45.724653717382978
 31
0.0
 12
108.2092988687503
 22
101.75384912119119
 32
0.0
 13
110.6542092136454
 23
101.7538491211873
 33
0.0
  0
POLYLINE
  5
10A2
  8
LOGO
 62
     5
 66
     1
 10
0.0
 20
0.0
 30
0.0
 40
2.0406903920384312
 41
2.0406903920384312
  0
VERTEX
  5
14FD
  8
LOGO
 62
     5
 10
86.345695945795057
 20
31.462676705504261
 30
0.0
 42
1.0
  0
VERTEX
  5
14FE
  8
LOGO
 62
     5
 10
80.223624769679546
 20
31.462676705504261
 30
0.0
 42
1.0
  0
SEQEND
  5
14FF
  8
LOGO
 62
     5
  0
POLYLINE
  5
10A3
  8
LOGO
 62
     5
 66
     1
 10
0.0
 20
0.0
 30
0.0
 40
2.0406903920384312
 41
2.0406903920384312
  0
VERTEX
  5
1500
  8
LOGO
 62
     5
 10
63.254740193447802
 20
31.462676705504261
 30
0.0
 42
1.0
  0
VERTEX
  5
1501
  8
LOGO
 62
     5
 10
57.13266901733229
 20
31.462676705504261
 30
0.0
 42
1.0
  0
SEQEND
  5
1502
  8
LOGO
 62
     5
  0
SOLID
  5
10A4
  8
LOGO
 62
     5
 10
51.704364660333532
 20
36.96372498151365
 30
0.0
 11
53.74178994774865
 21
36.96372498151365
 31
0.0
 12
51.704364660333532
 22
38.593665211444574
 32
0.0
 13
53.74178994774865
 23
38.593665211444574
 33
0.0
  0
POLYLINE
  5
10A5
  8
LOGO
 62
     5
 66
     1
 10
0.0
 20
0.0
 30
0.0
 70
     1
  0
VERTEX
  5
1503
  8
LOGO
 62
     5
 10
97.886479907553934
 20
30.443964061799608
 30
0.0
 42
1.0000000573306349
  0
VERTEX
  5
1504
  8
LOGO
 62
     5
 10
103.9987557697884
 20
30.443964061799608
 30
0.0
 42
1.0000000573306349
  0
SEQEND
  5
1505
  8
LOGO
 62
     5
  0
CIRCLE
  5
10A6
  8
LOGO
 62
     5
 10
100.942617838671
 20
30.443964061799601
 30
0.0
 40
3.0561379311167549
  0
POLYLINE
  5
10A7
  8
LOGO
 62
     5
 66
     1
 10
0.0
 20
0.0
 30
0.0
 40
2.0406903920384312
 41
2.0406903920384312
  0
VERTEX
  5
1506
  8
LOGO
 62
     5
 10
92.457971808026954
 20
31.462676705504261
 30
0.0
 42
1.0
  0
VERTEX
  5
1507
  8
LOGO
 62
     5
 10
86.335900631911443
 20
31.462676705504261
 30
0.0
 42
1.0
  0
SEQEND
  5
1508
  8
LOGO
 62
     5
  0
LINE
  5
10A8
  8
LOGO
 62
     1
 10
236.53517418251741
 20
23.007975319884451
 30
0.0
 11
236.53517418251741
 21
105.0
 31
0.0
  0
CIRCLE
  5
10A9
  8
LOGO
  6
CONTINUOUS
 62
     6
 10
261.83825569844538
 20
64.033217916741094
 30
0.0
 40
7.9344165673313611
  0
CIRCLE
  5
10AA
  8
LOGO
  6
CONTINUOUS
 62
     6
 10
261.83825569844538
 20
64.033217916741094
 30
0.0
 40
4.648865714297985
  0
LINE
  5
10AB
  8
LOGO
 62
     6
 10
286.82510959698033
 20
59.384352202443111
 30
0.0
 11
286.8251095969801
 21
68.68208363103912
 31
0.0
  0
TEXT
  5
10AC
  8
LOGO
  6
CONTINUOUS
 62
     6
 10
548.56841338821494
 20
-14.57170265850182
 30
0.0
 40
11.387781205571599
  1
Model
  7
CHINESET
 72
     4
 11
570.25942520835133
 21
-8.8778120557160207
 31
0.0
  0
TEXT
  5
10AD
  8
LOGO
  6
CONTINUOUS
 62
     7
 10
528.50422745458877
 20
59.448875177713568
 30
0.0
 40
22.775562411143198
  1
MRTH
  7
CHINESET
 72
     1
 11
570.25942520835133
 21
70.836656383285174
 31
0.0
 73
     2
  0
LINE
  5
10AE
  8
LOGO
 62
     6
 10
624.92077499509503
 20
91.334662553314089
 30
0.0
 11
515.59807542160775
 21
91.334662553314089
 31
0.0
  0
LINE
  5
10AF
  8
LOGO
 62
     6
 10
624.92077499509503
 20
50.338650213256308
 30
0.0
 11
515.59807542160775
 21
50.338650213256308
 31
0.0
  0
LINE
  5
10B0
  8
LOGO
 62
     6
 10
615.81055003063773
 20
29.840644043227439
 30
0.0
 11
524.70830038606505
 21
29.840644043227439
 31
0.0
  0
LINE
  5
10B1
  8
LOGO
 62
     6
 10
615.81055003063773
 20
-20.265593261287659
 30
0.0
 11
524.70830038606505
 21
-20.265593261287741
 31
0.0
  0
TEXT
  5
10B2
  8
LOGO
 62
     7
 10
338.82317051565502
 20
70.785102909553103
 30
0.0
 40
27.330674893371839
  1
訂購代號:
  7
CHINESET
  0
TEXT
  5
10B3
  8
LOGO
 62
     7
 10
335.55427112141751
 20
45.134482001937279
 30
0.0
 40
18.220449928914562
  1
Order example:
 41
0.8
  7
CHINESET
  0
LINE
  5
10B4
  8
LOGO
 62
     1
 10
327.63742382709012
 20
-31.653374466859219
 30
0.0
 11
327.63742382709012
 21
105.0
 31
0.0
  0
LINE
  5
10B5
  8
LOGO
 62
     6
 10
311.69905007832159
 20
56.09880134940974
 30
0.0
 11
311.69905007832159
 21
71.967634484072448
 31
0.0
  0
LINE
  5
10B6
  8
LOGO
 62
     6
 10
524.70830038606505
 20
29.840644043227439
 30
0.0
 11
524.70830038606505
 21
-20.265593261287741
 31
0.0
  0
LINE
  5
10B7
  8
LOGO
 62
     6
 10
515.59807542160775
 20
91.334662553314089
 30
0.0
 11
515.59807542160775
 21
50.338650213256308
 31
0.0
  0
TEXT
  5
10B8
  8
LOGO
  6
CONTINUOUS
 62
     7
 10
678.05273879220715
 20
59.190598864820018
 30
0.0
 40
22.775562411143198
  1
80
  7
CHINESET
 72
     1
 11
696.49009883932308
 21
70.578380070391617
 31
0.0
 73
     2
  0
LINE
  5
10B9
  8
LOGO
 62
     6
 10
730.93146471711998
 20
-20.265593261287361
 30
0.0
 11
657.79729347146645
 21
-20.265593261287471
 31
0.0
  0
LINE
  5
10BA
  8
LOGO
 62
     6
 10
730.93146471711998
 20
50.338650213256592
 30
0.0
 11
657.79729347146645
 21
50.338650213256592
 31
0.0
  0
LINE
  5
10BB
  8
LOGO
 62
     6
 10
730.93146471711998
 20
29.84064404322767
 30
0.0
 11
657.79729347146645
 21
29.84064404322767
 31
0.0
  0
LINE
  5
10BC
  8
LOGO
 62
     6
 10
730.93146471711998
 20
91.334662553314587
 30
0.0
 11
657.79729347146645
 21
91.334662553314317
 31
0.0
  0
LINE
  5
10BD
  8
LOGO
 62
     6
 10
657.79729347146645
 20
29.84064404322767
 30
0.0
 11
657.79729347146645
 21
-20.265593261287361
 31
0.0
  0
LINE
  5
10BE
  8
LOGO
 62
     6
 10
615.81055003063784
 20
29.840644043227439
 30
0.0
 11
615.81055003063784
 21
-20.265593261287609
 31
0.0
  0
TEXT
  5
10BF
  8
LOGO
 62
     6
 10
552.03897527943673
 20
5.253796747418531
 30
0.0
 40
18.220449928914562
  1
型式
  7
CHINESET
 72
     4
 11
570.25942520835133
 21
13.897750355427201
 31
0.0
  0
LINE
  5
10C0
  8
LOGO
 62
     6
 10
570.25942520835133
 20
50.338650213256308
 30
0.0
 11
570.25942520835133
 21
29.840644043227439
 31
0.0
  0
LINE
  5
10C1
  8
LOGO
 62
     6
 10
657.79729347146645
 20
91.334662553314317
 30
0.0
 11
657.79729347146645
 21
50.338650213256592
 31
0.0
  0
LINE
  5
10C2
  8
LOGO
 62
     6
 10
624.92077499509514
 20
91.334662553314089
 30
0.0
 11
624.92077499509514
 21
50.338650213256308
 31
0.0
  0
LINE
  5
10C3
  8
LOGO
  6
CONTINUOUS
 62
     7
 10
632.60532312833016
 20
70.691442028675596
 30
0.0
 11
650.70766629967886
 21
70.691442028675596
 31
0.0
  0
LINE
  5
10C4
  8
LOGO
 62
     6
 10
754.07620691365105
 20
29.840644043227439
 30
0.0
 11
754.07620691365105
 21
-20.265593261287741
 31
0.0
  0
LINE
  5
10C5
  8
LOGO
 62
     6
 10
730.93146471711998
 20
29.84064404322767
 30
0.0
 11
730.93146471711998
 21
-20.265593261287229
 31
0.0
  0
TEXT
  5
10C6
  8
LOGO
  6
CONTINUOUS
 62
     6
 10
680.26522141120483
 20
-14.57170265850168
 30
0.0
 40
11.387781205571599
  1
Bore
 41
0.8
  7
CHINESET
 72
     4
 11
694.36437909429344
 21
-8.8778120557158786
 31
0.0
  0
TEXT
  5
10C7
  8
LOGO
 62
     6
 10
676.94107384976894
 20
4.7875253909700444
 30
0.0
 40
18.220449928914562
  1
內徑
 41
0.9
  7
CHINESET
 72
     4
 11
694.36437909429344
 21
13.89775035542732
 31
0.0
  0
LINE
  5
10C8
  8
LOGO
  6
CONTINUOUS
 62
     7
 10
737.99446153497229
 20
70.691442028675823
 30
0.0
 11
756.096804706321
 21
70.691442028675823
 31
0.0
  0
LINE
  5
10C9
  8
LOGO
 62
     6
 10
730.93146471711998
 20
91.334662553314587
 30
0.0
 11
730.93146471711998
 21
50.338650213256592
 31
0.0
  0
LINE
  5
10CA
  8
LOGO
 62
     6
 10
694.36437804395507
 20
50.338650213256592
 30
0.0
 11
694.36437804395507
 21
29.84064404322767
 31
0.0
  0
LINE
  5
10CB
  8
LOGO
 62
     6
 10
763.18643187810858
 20
91.334662553314089
 30
0.0
 11
763.18643187810835
 21
50.338650213256308
 31
0.0
  0
LINE
  5
10CC
  8
LOGO
 62
     6
 10
802.09164758882309
 20
50.338650213256308
 30
0.0
 11
802.09164758882309
 21
29.840644043227439
 31
0.0
  0
TEXT
  5
10CD
  8
LOGO
 62
     6
 10
896.44130313048765
 20
5.5721166157634681
 30
0.0
 40
18.220449928914562
  1
雙心轉軸
 41
0.9
  7
CHINESET
 72
     4
 11
929.40892972061749
 21
13.89775035542743
 31
0.0
  0
LINE
  5
10CE
  8
LOGO
 62
     6
 10
996.02744977321152
 20
-20.265593261287229
 30
0.0
 11
862.79040966802381
 21
-20.265593261287361
 31
0.0
  0
LINE
  5
10CF
  8
LOGO
 62
     6
 10
996.02744977321152
 20
29.84064404322767
 30
0.0
 11
862.79040966802381
 21
29.84064404322767
 31
0.0
  0
TEXT
  5
10D0
  8
LOGO
  6
CONTINUOUS
 62
     6
 10
884.50853525293519
 20
-12.67373912423963
 30
0.0
 40
11.387781205571599
  1
End rod type
 41
0.8
  7
CHINESET
 72
     4
 11
929.40892972061749
 21
-8.8778120557157632
 31
0.0
  0
LINE
  5
10D1
  8
LOGO
 62
     6
 10
862.79040966802381
 20
29.84064404322767
 30
0.0
 11
862.79040966802381
 21
-20.265593261287361
 31
0.0
  0
LINE
  5
10D2
  8
LOGO
 62
     6
 10
848.17762533604127
 20
29.840644043227439
 30
0.0
 11
848.17762533604127
 21
-20.454527000270978
 31
0.0
  0
LINE
  5
10D3
  8
LOGO
 62
     6
 10
839.06740037158397
 20
91.334662553314089
 30
0.0
 11
839.06740037158397
 21
50.338650213256273
 31
0.0
  0
LINE
  5
10D4
  8
LOGO
  6
CONTINUOUS
 62
     7
 10
847.13738674172237
 20
70.691442028675596
 30
0.0
 11
865.23972991307096
 21
70.691442028675596
 31
0.0
  0
TEXT
  5
10D5
  8
LOGO
  6
CONTINUOUS
 62
     7
 10
885.68498364731408
 20
59.190598864819741
 30
0.0
 40
22.775562411143198
  1
D
  7
CHINESET
 72
     1
 11
893.27683778436176
 21
70.578380070391347
 31
0.0
 73
     2
  0
LINE
  5
10D6
  8
LOGO
 62
     6
 10
913.45715799318771
 20
91.334662553314317
 30
0.0
 11
913.45715799318771
 21
50.338650213256308
 31
0.0
  0
LINE
  5
10D7
  8
LOGO
 62
     6
 10
871.97793337873088
 20
91.334662553314317
 30
0.0
 11
871.97793337873088
 21
50.338650213256308
 31
0.0
  0
LINE
  5
10D8
  8
LOGO
 62
     6
 10
913.45715799318771
 20
50.338650213256308
 30
0.0
 11
871.97793337873088
 21
50.338650213256308
 31
0.0
  0
LINE
  5
10D9
  8
LOGO
 62
     6
 10
892.71754568595895
 20
50.338650213256308
 30
0.0
 11
892.71754568595895
 21
29.84064404322767
 31
0.0
  0
LINE
  5
10DA
  8
LOGO
 62
     6
 10
913.45715799318771
 20
91.334662553314317
 30
0.0
 11
871.97793337873088
 21
91.334662553314317
 31
0.0
  0
LINE
  5
10DB
  8
LOGO
 62
     6
 10
996.02744977321152
 20
29.84064404322767
 30
0.0
 11
996.02744977321152
 21
-20.265593261287229
 31
0.0
  0
LINE
  5
10DC
  8
LOGO
 62
     1
 10
1007.0
 20
-31.653374466859219
 30
0.0
 11
1007.0
 21
105.0
 31
0.0
  0
ENDSEC
  0
EOF
