  0
SECTION
  2
HEADER
  9
$ACADVER
  1
AC1009
  9
$INSBASE
 10
0.0
 20
0.0
 30
0.0
  9
$EXTMIN
 10
176.97821342127639
 20
-41.425779342448543
 30
-0.0015258207003583
  9
$EXTMAX
 10
1107.0065944686139
 20
765.0439471810173
 30
0.0000000349246037
  9
$LIMMIN
 10
0.0
 20
0.0
  9
$LIMMAX
 10
1188.0
 20
840.0
  9
$ORTHOMODE
 70
     1
  9
$REGENMODE
 70
     1
  9
$FILLMODE
 70
     1
  9
$QTEXTMODE
 70
     0
  9
$MIRRTEXT
 70
     1
  9
$DRAGMODE
 70
     2
  9
$LTSCALE
 40
1.0
  9
$OSMODE
 70
    39
  9
$ATTMODE
 70
     1
  9
$TEXTSIZE
 40
3.0
  9
$TRACEWID
 40
0.05
  9
$TEXTSTYLE
  7
ITALICT
  9
$CLAYER
  8
0
  9
$CELTYPE
  6
CONTINUOUS
  9
$CECOLOR
 62
   256
  9
$DIMSCALE
 40
1.0
  9
$DIMASZ
 40
3.0
  9
$DIMEXO
 40
1.0
  9
$DIMDLI
 40
1.4824161510814720E+016
  9
$DIMRND
 40
0.0
  9
$DIMDLE
 40
0.0
  9
$DIMEXE
 40
1.0
  9
$DIMTP
 40
0.15
  9
$DIMTM
 40
-0.1
  9
$DIMTXT
 40
3.0
  9
$DIMCEN
 40
2.0
  9
$DIMTSZ
 40
0.0
  9
$DIMTOL
 70
     0
  9
$DIMLIM
 70
     0
  9
$DIMTIH
 70
     0
  9
$DIMTOH
 70
     0
  9
$DIMSE1
 70
     0
  9
$DIMSE2
 70
     0
  9
$DIMTAD
 70
     1
  9
$DIMZIN
 70
     0
  9
$DIMBLK
  1

  9
$DIMASO
 70
     0
  9
$DIMSHO
 70
     0
  9
$DIMPOST
  1

  9
$DIMAPOST
  1

  9
$DIMALT
 70
     0
  9
$DIMALTD
 70
     2
  9
$DIMALTF
 40
25.399999999999999
  9
$DIMLFAC
 40
1.0
  9
$DIMTOFL
 70
     1
  9
$DIMTVP
 40
1.0
  9
$DIMTIX
 70
     0
  9
$DIMSOXD
 70
     0
  9
$DIMSAH
 70
     0
  9
$DIMBLK1
  1

  9
$DIMBLK2
  1

  9
$DIMSTYLE
  2
STANDARD
  9
$DIMCLRD
 70
     0
  9
$DIMCLRE
 70
     0
  9
$DIMCLRT
 70
     0
  9
$DIMTFAC
 40
1.0
  9
$DIMGAP
 40
0.09
  9
$LUNITS
 70
     2
  9
$LUPREC
 70
     2
  9
$SKETCHINC
 40
0.1
  9
$FILLETRAD
 40
0.75
  9
$AUNITS
 70
     0
  9
$AUPREC
 70
     2
  9
$MENU
  1
ACAD
  9
$ELEVATION
 40
0.0
  9
$PELEVATION
 40
0.0
  9
$THICKNESS
 40
0.0
  9
$LIMCHECK
 70
     0
  9
$BLIPMODE
 70
     0
  9
$CHAMFERA
 40
0.0
  9
$CHAMFERB
 40
0.0
  9
$SKPOLY
 70
     1
  9
$TDCREATE
 40
2450580.7034460641
  9
$TDUPDATE
 40
2451939.43920581
  9
$TDINDWG
 40
0.0941097801
  9
$TDUSRTIMER
 40
0.0941097801
  9
$USRTIMER
 70
     1
  9
$ANGBASE
 50
0.0
  9
$ANGDIR
 70
     0
  9
$PDMODE
 70
     0
  9
$PDSIZE
 40
0.0
  9
$PLINEWID
 40
0.0
  9
$COORDS
 70
     2
  9
$SPLFRAME
 70
     0
  9
$SPLINETYPE
 70
     6
  9
$SPLINESEGS
 70
     8
  9
$ATTDIA
 70
     0
  9
$ATTREQ
 70
     1
  9
$HANDLING
 70
 12289
  9
$HANDSEED
  5
14AA
  9
$SURFTAB1
 70
     6
  9
$SURFTAB2
 70
     6
  9
$SURFTYPE
 70
     6
  9
$SURFU
 70
     6
  9
$SURFV
 70
     6
  9
$UCSNAME
  2

  9
$UCSORG
 10
0.0
 20
0.0
 30
0.0
  9
$UCSXDIR
 10
1.0
 20
0.0
 30
0.0
  9
$UCSYDIR
 10
0.0
 20
1.0
 30
0.0
  9
$PUCSNAME
  2

  9
$PUCSORG
 10
0.0
 20
0.0
 30
0.0
  9
$PUCSXDIR
 10
1.0
 20
0.0
 30
0.0
  9
$PUCSYDIR
 10
0.0
 20
1.0
 30
0.0
  9
$USERI1
 70
     0
  9
$USERI2
 70
-31485
  9
$USERI3
 70
     0
  9
$USERI4
 70
     0
  9
$USERI5
 70
     0
  9
$USERR1
 40
0.0
  9
$USERR2
 40
0.0
  9
$USERR3
 40
0.0
  9
$USERR4
 40
0.0
  9
$USERR5
 40
0.0
  9
$WORLDVIEW
 70
     1
  9
$SHADEDGE
 70
     3
  9
$SHADEDIF
 70
    70
  9
$TILEMODE
 70
     1
  9
$MAXACTVP
 70
    64
  9
$PLIMCHECK
 70
     0
  9
$PEXTMIN
 10
1.0000000000000000E+020
 20
1.0000000000000000E+020
 30
1.0000000000000000E+020
  9
$PEXTMAX
 10
-1.0000000000000000E+020
 20
-1.0000000000000000E+020
 30
-1.0000000000000000E+020
  9
$PLIMMIN
 10
0.0
 20
0.0
  9
$PLIMMAX
 10
12.0
 20
9.0
  9
$UNITMODE
 70
     0
  9
$VISRETAIN
 70
     1
  9
$PLINEGEN
 70
     0
  9
$PSLTSCALE
 70
     0
  0
ENDSEC
  0
SECTION
  2
TABLES
  0
TABLE
  2
VPORT
 70
     2
  0
VPORT
  2
*ACTIVE
 70
     0
 10
0.0
 20
0.0
 11
1.0
 21
1.0
 12
641.99240394494541
 22
361.80908391928438
 13
0.0
 23
0.0
 14
1.0
 24
1.0
 15
0.0
 25
0.0
 16
0.0
 26
0.0
 36
1.0
 17
0.0
 27
0.0
 37
0.0
 40
815.36461321306297
 41
1.7274401473296499
 42
1.0
 43
0.0
 44
0.0
 50
0.0
 51
0.0
 71
     0
 72
   100
 73
     1
 74
     1
 75
     0
 76
     0
 77
     0
 78
     0
  0
ENDTAB
  0
TABLE
  2
LTYPE
 70
     3
  0
LTYPE
  2
CONTINUOUS
 70
     0
  3
Solid line
 72
    65
 73
     0
 40
0.0
  0
LTYPE
  2
CENTER
 70
     0
  3
_______________ _ _______________ _ ___________
 72
    65
 73
     4
 40
18.0
 49
15.0
 49
-1.0
 49
1.0
 49
-1.0
  0
LTYPE
  2
HIDDEN
 70
     0
  3
___ ___ ___ ___ ___ ___ ___ ___ ___ ___ 
 72
    65
 73
     2
 40
4.0
 49
3.0
 49
-1.0
  0
ENDTAB
  0
TABLE
  2
LAYER
 70
     5
  0
LAYER
  2
0
 70
     0
 62
     7
  6
CONTINUOUS
  0
LAYER
  2
DIM
 70
     0
 62
     5
  6
CONTINUOUS
  0
LAYER
  2
HIDDN
 70
     0
 62
     6
  6
HIDDEN
  0
LAYER
  2
CENTER
 70
     0
 62
     1
  6
CENTER
  0
LAYER
  2
LOGO
 70
     0
 62
     7
  6
CONTINUOUS
  0
ENDTAB
  0
TABLE
  2
STYLE
 70
     8
  0
STYLE
  2
STANDARD
 70
     0
 40
0.0
 41
1.0
 50
0.0
 71
     0
 42
3.0
  3
txt
  4

  0
STYLE
  2
ITALICT
 70
     0
 40
0.0
 41
1.0
 50
0.0
 71
     0
 42
3.0
  3
ITALICT.SHX
  4

  0
STYLE
  2
ROMANSS
 70
     0
 40
0.0
 41
1.0
 50
0.0
 71
     0
 42
3.0
  3
ROMANSS.SHX
  4
LMP
  0
STYLE
  2
CHINESET
 70
     0
 40
0.0
 41
1.0
 50
0.0
 71
     0
 42
4.0
  3
C:\r13\com\fonts\simplex.shx
  4
C:\r13\com\fonts\chineset.shx
  0
STYLE
  2
LOGO
 70
     0
 40
0.0
 41
1.0
 50
0.0
 71
     0
 42
5.0
  3
txt
  4

  0
ENDTAB
  0
TABLE
  2
VIEW
 70
     0
  0
ENDTAB
  0
TABLE
  2
UCS
 70
     0
  0
ENDTAB
  0
TABLE
  2
APPID
 70
     2
  0
APPID
  2
ACAD
 70
     0
  0
APPID
  2
TCAD
 70
     0
  0
ENDTAB
  0
TABLE
  2
DIMSTYLE
 70
     1
  0
DIMSTYLE
  2
STANDARD
 70
     0
  3

  4

  5

  6

  7

 40
1.0
 41
0.18
 42
0.0625
 43
0.38
 44
0.18
 45
0.0
 46
0.0
 47
0.0
 48
0.0
140
0.18
141
0.09
142
0.0
143
25.399999999999999
144
1.0
145
0.0
146
1.0
147
0.09
 71
     0
 72
     0
 73
     1
 74
     1
 75
     0
 76
     0
 77
     0
 78
     0
170
     0
171
     2
172
     0
173
     0
174
     0
175
     0
176
     0
177
     0
178
     0
  0
ENDTAB
  0
ENDSEC
  0
SECTION
  2
BLOCKS
  0
BLOCK
  8
0
  2
$MODEL_SPACE
 70
     0
 10
0.0
 20
0.0
 30
0.0
  3
$MODEL_SPACE
  1

  0
ENDBLK
  5
3F
  8
0
  0
BLOCK
 67
     1
  8
0
  2
$PAPER_SPACE
 70
     0
 10
0.0
 20
0.0
 30
0.0
  3
$PAPER_SPACE
  1

  0
ENDBLK
  5
3D
 67
     1
  8
0
  0
ENDSEC
  0
SECTION
  2
ENTITIES
  0
LINE
  5
B29
  8
0
 62
     4
 10
177.0
 20
109.0
 30
0.0
 11
177.0
 21
765.00000000000023
 31
0.0
  0
LINE
  5
B2A
  8
0
 62
     4
 10
1107.0
 20
109.0
 30
0.0
 11
177.0
 21
109.0
 31
0.0
  0
LINE
  5
B2E
  8
0
 62
     4
 10
177.0
 20
765.00000000000023
 30
0.0
 11
1107.0
 21
764.99999999999977
 31
0.0
  0
LINE
  5
B2F
  8
0
 62
     4
 10
1107.0
 20
764.99999999999977
 30
0.0
 11
1107.0
 21
109.0
 31
0.0
  0
CIRCLE
  5
B32
  8
0
  6
CONTINUOUS
 10
618.88154535456874
 20
202.16549170834909
 30
0.0
 40
46.999999999999829
  0
CIRCLE
  5
B33
  8
0
  6
CONTINUOUS
 10
618.88154535456874
 20
662.28425325470403
 30
0.0
 40
46.999999999999829
  0
POLYLINE
  5
B34
  8
0
  6
CONTINUOUS
 66
     1
 10
0.0
 20
0.0
 30
0.0
  0
VERTEX
  5
13CE
  8
0
  6
CONTINUOUS
 10
643.88154535456874
 20
293.66549170834901
 30
0.0
 42
0.0851703918331015
  0
VERTEX
  5
13CF
  8
0
  6
CONTINUOUS
 10
637.88154535456874
 20
292.63349170834982
 30
0.0
 42
0.3910851735909245
  0
VERTEX
  5
13D0
  8
0
  6
CONTINUOUS
 10
633.90654535456838
 20
293.10255868294581
 30
0.0
  0
SEQEND
  5
13D1
  8
0
  6
CONTINUOUS
  0
LINE
  5
B39
  8
0
  6
CONTINUOUS
 10
652.88154535456874
 20
293.66549170834901
 30
0.0
 11
634.88154535456874
 21
293.66549170834901
 31
0.0
  0
LINE
  5
B3A
  8
0
  6
CONTINUOUS
 10
652.88154535456874
 20
570.78425325470403
 30
0.0
 11
634.88154535456874
 21
570.78425325470403
 31
0.0
  0
POLYLINE
  5
B3B
  8
0
  6
CONTINUOUS
 66
     1
 10
0.0
 20
0.0
 30
0.0
  0
VERTEX
  5
13D2
  8
0
  6
CONTINUOUS
 10
643.88154535456874
 20
570.78425325470403
 30
0.0
 42
-0.0851703918331015
  0
VERTEX
  5
13D3
  8
0
  6
CONTINUOUS
 10
637.88154535456874
 20
571.81625325470316
 30
0.0
 42
-0.3910851735909245
  0
VERTEX
  5
13D4
  8
0
  6
CONTINUOUS
 10
633.90654535456838
 20
571.34718628010717
 30
0.0
  0
SEQEND
  5
13D5
  8
0
  6
CONTINUOUS
  0
LINE
  5
B40
  8
CENTER
  6
CENTER
 10
628.38154535456874
 20
383.79026524222451
 30
0.0
 11
659.38154535456874
 21
383.79026524222451
 31
0.0
  0
CIRCLE
  5
B41
  8
0
  6
CONTINUOUS
 10
643.88154535456874
 20
383.79026524222451
 30
0.0
 40
9.5
  0
POLYLINE
  5
B42
  8
0
  6
CONTINUOUS
 66
     1
 10
0.0
 20
0.0
 30
0.0
 70
     1
  0
VERTEX
  5
13D6
  8
0
  6
CONTINUOUS
 10
638.39671779726723
 20
393.29026524222451
 30
0.0
  0
VERTEX
  5
13D7
  8
0
  6
CONTINUOUS
 10
632.91189023996583
 20
383.79026524222451
 30
0.0
  0
VERTEX
  5
13D8
  8
0
  6
CONTINUOUS
 10
638.39671779726723
 20
374.29026524222451
 30
0.0
  0
VERTEX
  5
13D9
  8
0
  6
CONTINUOUS
 10
649.36637291187014
 20
374.29026524222451
 30
0.0
  0
VERTEX
  5
13DA
  8
0
  6
CONTINUOUS
 10
654.85120046917154
 20
383.79026524222451
 30
0.0
  0
VERTEX
  5
13DB
  8
0
  6
CONTINUOUS
 10
649.36637291187014
 20
393.29026524222451
 30
0.0
  0
SEQEND
  5
13DC
  8
0
  6
CONTINUOUS
  0
ARC
  5
B4A
  8
DIM
  6
CONTINUOUS
 10
618.88154535456874
 20
662.28425325470403
 30
0.0
 40
79.84979155910159
 50
0.0
 51
177.8472398457177
  0
LINE
  5
B4B
  8
DIM
  6
CONTINUOUS
 10
390.86423189075037
 20
323.29026524222468
 30
0.0
 11
848.8888043142988
 21
323.29026524222468
 31
0.0
  0
LINE
  5
B4C
  8
DIM
  6
CONTINUOUS
 10
566.38154535456874
 20
331.29026524222462
 30
0.0
 11
671.38154535456874
 21
331.29026524222462
 31
0.0
  0
LINE
  5
B4D
  8
DIM
  6
CONTINUOUS
 10
570.88154535456874
 20
339.29026524222462
 30
0.0
 11
666.88154535456874
 21
339.29026524222462
 31
0.0
  0
LINE
  5
B4E
  8
DIM
  6
CONTINUOUS
 10
625.49242997862621
 20
664.46538739345135
 30
0.0
 11
703.80929484939884
 21
680.12189364726339
 31
0.0
  0
LINE
  5
B4F
  8
DIM
  6
CONTINUOUS
 10
580.88154535456874
 20
721.78425325470403
 30
0.0
 11
656.88154535456874
 21
721.78425325470403
 31
0.0
  0
CIRCLE
  5
B50
  8
CENTER
  6
CENTER
 10
618.88154535456874
 20
202.16549170834909
 30
0.0
 40
39.0
  0
LINE
  5
B51
  8
CENTER
  6
CENTER
 10
395.8815453545688
 20
238.16549170834901
 30
0.0
 11
841.88154535456863
 21
238.16549170834901
 31
0.0
  0
LINE
  5
B52
  8
CENTER
  6
CENTER
 10
401.88154535456891
 20
202.16549170834901
 30
0.0
 11
835.88154535456886
 21
202.16549170834909
 31
0.0
  0
LINE
  5
B53
  8
0
 10
566.38154535456874
 20
150.66549170834901
 30
0.0
 11
671.38154535456874
 21
150.66549170834909
 31
0.0
  0
LINE
  5
B54
  8
0
 10
566.38154535456874
 20
285.66549170834901
 30
0.0
 11
671.38154535456874
 21
285.66549170834901
 31
0.0
  0
CIRCLE
  5
B55
  8
0
  6
CONTINUOUS
 10
618.88154535456874
 20
202.16549170834909
 30
0.0
 40
47.999999999999822
  0
CIRCLE
  5
B56
  8
CENTER
  6
CENTER
 10
618.88154535456874
 20
662.28425325470403
 30
0.0
 40
39.0
  0
CIRCLE
  5
B57
  8
0
  6
CONTINUOUS
 10
618.88154535456874
 20
662.28425325470403
 30
0.0
 40
47.999999999999822
  0
LINE
  5
B58
  8
0
 10
566.38154535456874
 20
578.78425325470403
 30
0.0
 11
671.38154535456874
 21
578.78425325470403
 31
0.0
  0
LINE
  5
B59
  8
0
 10
566.38154535456874
 20
713.78425325470403
 30
0.0
 11
671.38154535456874
 21
713.78425325470391
 31
0.0
  0
LINE
  5
B5A
  8
0
 10
570.88154535456874
 20
465.29026524222462
 30
0.0
 11
666.88154535456874
 21
465.29026524222462
 31
0.0
  0
LINE
  5
B5B
  8
0
 10
570.88154535456874
 20
348.29026524222451
 30
0.0
 11
666.88154535456874
 21
348.29026524222451
 31
0.0
  0
LINE
  5
B5C
  8
0
 10
571.88154535456874
 20
347.29026524222462
 30
0.0
 11
665.88154535456874
 21
347.29026524222451
 31
0.0
  0
LINE
  5
B5D
  8
0
 10
571.88154535456874
 20
466.29026524222462
 30
0.0
 11
665.88154535456874
 21
466.29026524222462
 31
0.0
  0
LINE
  5
B5E
  8
0
 10
566.38154535456874
 20
359.29026524222451
 30
0.0
 11
671.38154535456874
 21
359.29026524222451
 31
0.0
  0
LINE
  5
B5F
  8
0
 10
566.38154535456874
 20
454.29026524222451
 30
0.0
 11
671.38154535456874
 21
454.29026524222451
 31
0.0
  0
LINE
  5
B60
  8
CENTER
  6
CENTER
 10
395.88154535456869
 20
406.79026524222462
 30
0.0
 11
841.88154535456863
 21
406.79026524222462
 31
0.0
  0
LINE
  5
B61
  8
CENTER
  6
CENTER
 10
395.8815453545688
 20
626.28425325470403
 30
0.0
 11
841.88154535456863
 21
626.28425325470403
 31
0.0
  0
LINE
  5
B62
  8
CENTER
  6
CENTER
 10
401.88154535456891
 20
662.28425325470403
 30
0.0
 11
835.88154535456886
 21
662.28425325470403
 31
0.0
  0
LINE
  5
B63
  8
0
 10
442.88154535456869
 20
359.29026524222451
 30
0.0
 11
442.88154535456869
 21
454.29026524222451
 31
0.0
  0
LINE
  5
B64
  8
0
 10
404.88154535456869
 20
359.54026524222451
 30
0.0
 11
404.88154535456869
 21
454.04026524222451
 31
0.0
  0
LINE
  5
B65
  8
0
 10
566.38154535456874
 20
454.29026524222451
 30
0.0
 11
566.38154535456874
 21
359.29026524222451
 31
0.0
  0
LINE
  5
B66
  8
CENTER
  6
CENTER
 10
618.88154535456874
 20
520.29026524222445
 30
0.0
 11
618.88154535456874
 21
344.29026524222451
 31
0.0
  0
LINE
  5
B67
  8
CENTER
  6
CENTER
 10
577.88154535456874
 20
233.16549170834909
 30
0.0
 11
577.88154535456874
 21
253.16549170834901
 31
0.0
  0
LINE
  5
B68
  8
CENTER
  6
CENTER
 10
618.88154535456874
 20
147.66549170834901
 30
0.0
 11
618.88154535456874
 21
288.66549170834901
 31
0.0
  0
LINE
  5
B69
  8
0
 10
442.88154535456869
 20
190.66549170834909
 30
0.0
 11
442.88154535456869
 21
285.6654917083489
 31
0.0
  0
LINE
  5
B6A
  8
0
 10
404.8815453545688
 20
190.91549170834909
 30
0.0
 11
404.8815453545688
 21
285.4154917083489
 31
0.0
  0
LINE
  5
B6B
  8
0
 10
398.8815453545688
 20
216.66549170834909
 30
0.0
 11
398.8815453545688
 21
259.6654917083489
 31
0.0
  0
LINE
  5
B6C
  8
0
 10
566.38154535456874
 20
150.66549170834901
 30
0.0
 11
566.38154535456874
 21
285.66549170834901
 31
0.0
  0
CIRCLE
  5
B6D
  8
0
  6
CONTINUOUS
 10
577.88154535456874
 20
243.16549170834901
 30
0.0
 40
4.25
  0
ARC
  5
B6E
  8
0
  6
CONTINUOUS
 62
     2
 10
577.88154535456874
 20
243.16549170834901
 30
0.0
 40
5.0
 50
244.7996045918776
 51
198.70934735560601
  0
LINE
  5
B6F
  8
0
 62
     7
 10
566.38154535456874
 20
213.52927019296831
 30
0.0
 11
442.88154535456869
 21
213.52927019296831
 31
0.0
  0
LINE
  5
B70
  8
0
 10
566.38154535456874
 20
194.66549170834909
 30
0.0
 11
442.88154535456869
 21
194.66549170834909
 31
0.0
  0
LINE
  5
B71
  8
0
 10
442.88154535456869
 20
190.66549170834909
 30
0.0
 11
404.8815453545688
 21
190.91549170834909
 31
0.0
  0
LINE
  5
B72
  8
HIDDN
  6
HIDDEN
 10
410.88154535456891
 20
197.16549170834909
 30
0.0
 11
410.88154535456891
 21
207.16549170834909
 31
0.0
  0
LINE
  5
B73
  8
HIDDN
  6
HIDDEN
 10
426.88154535456891
 20
197.16549170834909
 30
0.0
 11
426.88154535456891
 21
207.16549170834909
 31
0.0
  0
LINE
  5
B74
  8
HIDDN
  6
HIDDEN
 10
404.88154535456903
 20
197.16549170834909
 30
0.0
 11
426.88154535456891
 21
197.16549170834909
 31
0.0
  0
LINE
  5
B75
  8
HIDDN
  6
HIDDEN
 10
404.88154535456903
 20
207.16549170834909
 30
0.0
 11
426.88154535456891
 21
207.16549170834909
 31
0.0
  0
ARC
  5
B76
  8
0
 10
399.8815453545688
 20
216.66549170834909
 30
0.0
 40
1.0
 50
180.0
 51
270.0
  0
LINE
  5
B77
  8
0
 10
399.8815453545688
 20
215.66549170834909
 30
0.0
 11
404.8815453545688
 21
215.66549170834909
 31
0.0
  0
LINE
  5
B78
  8
HIDDN
  6
HIDDEN
 10
410.88154535456891
 20
206.41549170834909
 30
0.0
 11
429.8815453545688
 21
206.41549170834909
 31
0.0
  0
LINE
  5
B79
  8
HIDDN
  6
HIDDEN
 10
410.88154535456891
 20
197.91549170834909
 30
0.0
 11
429.8815453545688
 21
197.91549170834909
 31
0.0
  0
LINE
  5
B7A
  8
HIDDN
  6
HIDDEN
 10
429.8815453545688
 20
197.91549170834901
 30
0.0
 11
432.33528399862467
 21
202.16549170834909
 31
0.0
  0
LINE
  5
B7B
  8
HIDDN
  6
HIDDEN
 10
429.8815453545688
 20
206.41549170834909
 30
0.0
 11
432.33528399862479
 21
202.16549170834909
 31
0.0
  0
LINE
  5
B7C
  8
HIDDN
  6
HIDDEN
 10
429.8815453545688
 20
197.91549170834909
 30
0.0
 11
429.8815453545688
 21
206.41549170834909
 31
0.0
  0
LINE
  5
B7D
  8
CENTER
  6
CENTER
 10
567.88154535456874
 20
161.16549170834901
 30
0.0
 11
587.88154535456874
 21
161.16549170834901
 31
0.0
  0
LINE
  5
B7E
  8
CENTER
  6
CENTER
 10
567.88154535456874
 20
243.16549170834901
 30
0.0
 11
587.88154535456874
 21
243.16549170834901
 31
0.0
  0
LINE
  5
B7F
  8
CENTER
  6
CENTER
 10
585.64752663880097
 20
168.93147299258121
 30
0.0
 11
596.96123513778571
 21
180.245181491566
 31
0.0
  0
ARC
  5
B80
  8
0
  6
CONTINUOUS
 62
     2
 10
591.30438088829339
 20
174.5883272420736
 30
0.0
 40
4.0
 50
202.52441221510509
 51
149.4972103453143
  0
CIRCLE
  5
B81
  8
0
  6
CONTINUOUS
 10
591.30438088829339
 20
174.5883272420736
 30
0.0
 40
3.399999999999999
  0
LINE
  5
B82
  8
CENTER
  6
CENTER
 10
577.88154535456874
 20
151.16549170834901
 30
0.0
 11
577.88154535456874
 21
171.16549170834901
 31
0.0
  0
ARC
  5
B83
  8
0
  6
CONTINUOUS
 62
     2
 10
577.88154535456874
 20
161.16549170834901
 30
0.0
 40
5.0
 50
244.7996045918789
 51
198.70934735560601
  0
CIRCLE
  5
B84
  8
0
  6
CONTINUOUS
 10
577.88154535456874
 20
161.16549170834901
 30
0.0
 40
4.25
  0
LINE
  5
B85
  8
0
 10
566.38154535456874
 20
281.66549170834901
 30
0.0
 11
442.88154535456869
 21
281.66549170834901
 31
0.0
  0
LINE
  5
B86
  8
0
 62
     7
 10
566.38154535456874
 20
262.80171322372962
 30
0.0
 11
442.88154535456869
 21
262.80171322372962
 31
0.0
  0
LINE
  5
B87
  8
CENTER
  6
CENTER
 10
401.88154535456891
 20
274.16549170834878
 30
0.0
 11
566.38154535456874
 21
274.1654917083489
 31
0.0
  0
LINE
  5
B88
  8
0
 10
566.38154535456874
 20
363.29026524222451
 30
0.0
 11
442.88154535456869
 21
363.29026524222451
 31
0.0
  0
LINE
  5
B89
  8
0
 62
     7
 10
566.38154535456874
 20
382.15404372684372
 30
0.0
 11
442.88154535456869
 21
382.15404372684378
 31
0.0
  0
LINE
  5
B8A
  8
0
 62
     7
 10
566.38154535456874
 20
431.42648675760529
 30
0.0
 11
442.88154535456869
 21
431.42648675760529
 31
0.0
  0
LINE
  5
B8B
  8
CENTER
  6
CENTER
 10
401.88154535456869
 20
442.79026524222451
 30
0.0
 11
566.38154535456874
 21
442.79026524222451
 31
0.0
  0
LINE
  5
B8C
  8
CENTER
  6
CENTER
 10
401.88154535456869
 20
370.79026524222451
 30
0.0
 11
566.38154535456874
 21
370.79026524222451
 31
0.0
  0
LINE
  5
B8D
  8
DIM
  6
CONTINUOUS
 10
398.88154535456869
 20
383.01387047740849
 30
0.0
 11
398.88154535456869
 21
322.29026524222462
 31
0.0
  0
LINE
  5
B8E
  8
DIM
  6
CONTINUOUS
 10
404.88154535456869
 20
358.54026524222451
 30
0.0
 11
404.88154535456869
 21
322.29026524222462
 31
0.0
  0
LINE
  5
B8F
  8
0
 10
442.88154535456869
 20
285.6654917083489
 30
0.0
 11
404.8815453545688
 21
285.4154917083489
 31
0.0
  0
LINE
  5
B90
  8
CENTER
  6
CENTER
 10
435.88154535456869
 20
270.60933825470431
 30
0.0
 11
435.88154535456869
 21
290.78024769757519
 31
0.0
  0
LINE
  5
B91
  8
CENTER
  6
CENTER
 10
423.8815453545688
 20
271.13882371320989
 30
0.0
 11
423.8815453545688
 21
290.1767576678111
 31
0.0
  0
LINE
  5
B92
  8
HIDDN
  6
HIDDEN
 10
404.88154535456903
 20
279.1654917083489
 30
0.0
 11
426.88154535456891
 21
279.16549170834901
 31
0.0
  0
LINE
  5
B93
  8
HIDDN
  6
HIDDEN
 10
404.88154535456903
 20
269.16549170834901
 30
0.0
 11
426.88154535456891
 21
269.1654917083489
 31
0.0
  0
ARC
  5
B94
  8
0
 10
399.8815453545688
 20
259.6654917083489
 30
0.0
 40
1.0
 50
90.0
 51
180.0
  0
LINE
  5
B95
  8
0
 10
399.8815453545688
 20
260.6654917083489
 30
0.0
 11
404.8815453545688
 21
260.6654917083489
 31
0.0
  0
LINE
  5
B96
  8
HIDDN
  6
HIDDEN
 10
410.88154535456891
 20
278.4154917083489
 30
0.0
 11
429.8815453545688
 21
278.41549170834901
 31
0.0
  0
LINE
  5
B97
  8
HIDDN
  6
HIDDEN
 10
410.88154535456891
 20
269.9154917083489
 30
0.0
 11
429.8815453545688
 21
269.9154917083489
 31
0.0
  0
LINE
  5
B98
  8
HIDDN
  6
HIDDEN
 10
410.88154535456891
 20
279.1654917083489
 30
0.0
 11
410.88154535456891
 21
269.16549170834901
 31
0.0
  0
LINE
  5
B99
  8
HIDDN
  6
HIDDEN
 10
426.88154535456891
 20
279.16549170834901
 30
0.0
 11
426.88154535456891
 21
269.16549170834901
 31
0.0
  0
LINE
  5
B9A
  8
HIDDN
  6
HIDDEN
 10
429.8815453545688
 20
278.41549170834912
 30
0.0
 11
432.33528399862467
 21
274.16549170834901
 31
0.0
  0
LINE
  5
B9B
  8
HIDDN
  6
HIDDEN
 10
429.8815453545688
 20
278.41549170834901
 30
0.0
 11
429.8815453545688
 21
269.9154917083489
 31
0.0
  0
LINE
  5
B9C
  8
HIDDN
  6
HIDDEN
 10
429.8815453545688
 20
269.9154917083489
 30
0.0
 11
432.33528399862479
 21
274.16549170834901
 31
0.0
  0
SOLID
  5
B9D
  8
DIM
  6
CONTINUOUS
 10
407.88154535456869
 20
323.79026524222462
 30
0.0
 11
407.88154535456869
 21
322.79026524222462
 31
0.0
 12
404.88154535456869
 22
323.29026524222468
 32
0.0
 13
404.88154535456869
 23
323.29026524222468
 33
0.0
  0
SOLID
  5
B9E
  8
DIM
  6
CONTINUOUS
 10
395.88154535456869
 20
323.79026524222462
 30
0.0
 11
395.88154535456869
 21
322.79026524222462
 31
0.0
 12
398.88154535456869
 22
323.29026524222468
 32
0.0
 13
398.88154535456869
 23
323.29026524222468
 33
0.0
  0
TEXT
  5
B9F
  8
DIM
  6
CONTINUOUS
 10
392.25315245079412
 20
324.79026524222462
 30
0.0
 40
3.0
  1
6
  7
ROMANSS
 72
     1
 11
393.18172387936551
 21
326.29026524222462
 31
0.0
 73
     2
  0
LINE
  5
BA1
  8
0
 10
442.88154535456869
 20
359.29026524222451
 30
0.0
 11
404.88154535456869
 21
359.54026524222451
 31
0.0
  0
LINE
  5
BA2
  8
0
  6
CONTINUOUS
 10
440.4399673394721
 20
418.84472113309891
 30
0.0
 11
439.13154535456869
 21
418.08930334790119
 31
0.0
  0
LINE
  5
BA3
  8
0
  6
CONTINUOUS
 10
439.13154535456869
 20
415.49122713654782
 30
0.0
 11
440.4399673394721
 21
414.73580935135021
 31
0.0
  0
LINE
  5
BA4
  8
CENTER
  6
CENTER
 10
442.88154535456869
 20
416.79026524222451
 30
0.0
 11
428.88154535456869
 21
416.79026524222451
 31
0.0
  0
CIRCLE
  5
BA5
  8
0
 10
435.88154535456869
 20
416.79026524222451
 30
0.0
 40
5.0
  0
CIRCLE
  5
BA6
  8
0
 10
435.88154535456869
 20
416.79026524222451
 30
0.0
 40
5.2999999999999989
  0
CIRCLE
  5
BA7
  8
0
 10
423.88154535456869
 20
399.79026524222451
 30
0.0
 40
5.5
  0
CIRCLE
  5
BA8
  8
0
 10
423.88154535456869
 20
399.79026524222451
 30
0.0
 40
7.5
  0
ARC
  5
BA9
  8
0
 62
     2
 10
423.88154535456869
 20
399.79026524222451
 30
0.0
 40
8.3000000000000007
 50
77.189608741317514
 51
29.609685868556721
  0
LINE
  5
BAA
  8
0
 10
398.88154535456869
 20
385.29026524222451
 30
0.0
 11
398.88154535456869
 21
428.29026524222451
 31
0.0
  0
LINE
  5
BAB
  8
CENTER
  6
CENTER
 10
423.88154535456869
 20
385.29026524222451
 30
0.0
 11
423.88154535456869
 21
414.29026524222451
 31
0.0
  0
CIRCLE
  5
BAC
  8
0
 10
423.88154535456869
 20
399.79026524222451
 30
0.0
 40
11.5
  0
LINE
  5
BAD
  8
HIDDN
  6
HIDDEN
 10
404.88154535456869
 20
365.79026524222451
 30
0.0
 11
426.88154535456869
 21
365.79026524222451
 31
0.0
  0
LINE
  5
BAE
  8
HIDDN
  6
HIDDEN
 10
404.88154535456869
 20
375.79026524222451
 30
0.0
 11
426.88154535456869
 21
375.79026524222451
 31
0.0
  0
ARC
  5
BAF
  8
0
 10
399.88154535456869
 20
385.29026524222451
 30
0.0
 40
1.0
 50
180.0
 51
270.0
  0
LINE
  5
BB0
  8
0
 10
399.88154535456869
 20
384.29026524222451
 30
0.0
 11
404.88154535456869
 21
384.29026524222451
 31
0.0
  0
LINE
  5
BB1
  8
HIDDN
  6
HIDDEN
 10
410.88154535456869
 20
375.04026524222451
 30
0.0
 11
429.88154535456869
 21
375.04026524222451
 31
0.0
  0
LINE
  5
BB2
  8
HIDDN
  6
HIDDEN
 10
410.88154535456869
 20
366.54026524222451
 30
0.0
 11
429.88154535456869
 21
366.54026524222451
 31
0.0
  0
LINE
  5
BB3
  8
HIDDN
  6
HIDDEN
 10
410.88154535456869
 20
365.79026524222451
 30
0.0
 11
410.88154535456869
 21
375.79026524222451
 31
0.0
  0
LINE
  5
BB4
  8
HIDDN
  6
HIDDEN
 10
426.88154535456869
 20
365.79026524222451
 30
0.0
 11
426.88154535456869
 21
375.79026524222451
 31
0.0
  0
LINE
  5
BB5
  8
HIDDN
  6
HIDDEN
 10
429.88154535456869
 20
366.54026524222439
 30
0.0
 11
432.33528399862462
 21
370.79026524222451
 31
0.0
  0
LINE
  5
BB6
  8
HIDDN
  6
HIDDEN
 10
429.88154535456869
 20
366.54026524222451
 30
0.0
 11
429.88154535456869
 21
375.04026524222451
 31
0.0
  0
LINE
  5
BB7
  8
HIDDN
  6
HIDDEN
 10
429.88154535456869
 20
375.04026524222451
 30
0.0
 11
432.33528399862479
 21
370.79026524222439
 31
0.0
  0
LINE
  5
BB8
  8
CENTER
  6
CENTER
 10
438.38154535456869
 20
399.79026524222451
 30
0.0
 11
409.38154535456869
 21
399.79026524222451
 31
0.0
  0
LINE
  5
BB9
  8
HIDDN
  6
HIDDEN
 10
404.88154535456869
 20
447.79026524222451
 30
0.0
 11
426.88154535456869
 21
447.79026524222451
 31
0.0
  0
LINE
  5
BBA
  8
HIDDN
  6
HIDDEN
 10
404.88154535456869
 20
437.79026524222451
 30
0.0
 11
426.88154535456869
 21
437.79026524222451
 31
0.0
  0
ARC
  5
BBB
  8
0
 10
399.88154535456869
 20
428.29026524222451
 30
0.0
 40
1.0
 50
90.0
 51
180.0
  0
LINE
  5
BBC
  8
0
 10
399.88154535456869
 20
429.29026524222451
 30
0.0
 11
404.88154535456869
 21
429.29026524222451
 31
0.0
  0
ARC
  5
BBD
  8
0
  6
CONTINUOUS
 10
435.88154535456869
 20
416.79026524222451
 30
0.0
 40
3.5
 50
218.21321070173829
 51
261.78678929826179
  0
ARC
  5
BBE
  8
0
  6
CONTINUOUS
 10
435.88154535456869
 20
416.79026524222451
 30
0.0
 40
3.5
 50
278.21321070173809
 51
321.78678929826242
  0
LINE
  5
BBF
  8
CENTER
  6
CENTER
 10
435.88154535456869
 20
409.79026524222451
 30
0.0
 11
435.88154535456869
 21
423.79026524222462
 31
0.0
  0
LINE
  5
BC0
  8
0
  6
CONTINUOUS
 10
435.38154535456869
 20
411.81532805669138
 30
0.0
 11
435.38154535456869
 21
413.32616362708683
 31
0.0
  0
LINE
  5
BC1
  8
0
  6
CONTINUOUS
 10
436.38154535456869
 20
411.81532805669138
 30
0.0
 11
436.38154535456869
 21
413.32616362708683
 31
0.0
  0
LINE
  5
BC2
  8
0
  6
CONTINUOUS
 10
431.3231233696651
 20
418.84472113309891
 30
0.0
 11
432.63154535456869
 21
418.08930334790119
 31
0.0
  0
LINE
  5
BC3
  8
0
  6
CONTINUOUS
 10
432.63154535456869
 20
415.49122713654782
 30
0.0
 11
431.3231233696651
 21
414.73580935135021
 31
0.0
  0
LINE
  5
BC4
  8
0
  6
CONTINUOUS
 10
431.8231233696651
 20
419.71074653688328
 30
0.0
 11
433.13154535456869
 21
418.95532875168561
 31
0.0
  0
LINE
  5
BC5
  8
0
  6
CONTINUOUS
 10
433.13154535456869
 20
414.6252017327634
 30
0.0
 11
431.8231233696651
 21
413.86978394756579
 31
0.0
  0
ARC
  5
BC6
  8
0
  6
CONTINUOUS
 10
435.88154535456869
 20
416.79026524222451
 30
0.0
 40
3.5
 50
158.2132107017386
 51
201.78678929826131
  0
LINE
  5
BC7
  8
0
  6
CONTINUOUS
 10
439.93996733947228
 20
419.71074653688328
 30
0.0
 11
438.63154535456869
 21
418.95532875168561
 31
0.0
  0
ARC
  5
BC8
  8
0
  6
CONTINUOUS
 10
435.88154535456869
 20
416.79026524222451
 30
0.0
 40
3.5
 50
338.21321070173769
 51
21.786789298262239
  0
LINE
  5
BC9
  8
0
  6
CONTINUOUS
 10
438.63154535456869
 20
414.6252017327634
 30
0.0
 11
439.93996733947228
 21
413.86978394756579
 31
0.0
  0
CIRCLE
  5
BCA
  8
0
  6
CONTINUOUS
 10
435.88154535456869
 20
416.79026524222451
 30
0.0
 40
2.5
  0
POLYLINE
  5
BCB
  8
0
  6
CONTINUOUS
 66
     1
 10
0.0
 20
0.0
 30
0.0
 70
     1
  0
VERTEX
  5
13DD
  8
0
  6
CONTINUOUS
 10
436.74757075835311
 20
415.29026524222462
 30
0.0
  0
VERTEX
  5
13DE
  8
0
  6
CONTINUOUS
 10
437.61359616213753
 20
416.79026524222451
 30
0.0
  0
VERTEX
  5
13DF
  8
0
  6
CONTINUOUS
 10
436.74757075835311
 20
418.29026524222451
 30
0.0
  0
VERTEX
  5
13E0
  8
0
  6
CONTINUOUS
 10
435.01551995078432
 20
418.29026524222451
 30
0.0
  0
VERTEX
  5
13E1
  8
0
  6
CONTINUOUS
 10
434.1494945469999
 20
416.79026524222451
 30
0.0
  0
VERTEX
  5
13E2
  8
0
  6
CONTINUOUS
 10
435.01551995078432
 20
415.29026524222462
 30
0.0
  0
SEQEND
  5
13E3
  8
0
  6
CONTINUOUS
  0
LINE
  5
BD3
  8
0
  6
CONTINUOUS
 10
435.38154535456869
 20
420.2543668573623
 30
0.0
 11
435.38154535456869
 21
421.76520242775757
 31
0.0
  0
LINE
  5
BD4
  8
0
  6
CONTINUOUS
 10
436.38154535456869
 20
420.2543668573623
 30
0.0
 11
436.38154535456869
 21
421.76520242775757
 31
0.0
  0
ARC
  5
BD5
  8
0
  6
CONTINUOUS
 10
435.88154535456869
 20
416.79026524222451
 30
0.0
 40
3.5
 50
38.213210701738312
 51
81.786789298261766
  0
ARC
  5
BD6
  8
0
  6
CONTINUOUS
 10
435.88154535456869
 20
416.79026524222451
 30
0.0
 40
3.5
 50
98.213210701738234
 51
141.7867892982616
  0
LINE
  5
BD7
  8
HIDDN
  6
HIDDEN
 10
410.88154535456869
 20
447.04026524222451
 30
0.0
 11
429.88154535456869
 21
447.04026524222451
 31
0.0
  0
LINE
  5
BD8
  8
HIDDN
  6
HIDDEN
 10
410.88154535456869
 20
438.54026524222462
 30
0.0
 11
429.88154535456869
 21
438.54026524222462
 31
0.0
  0
LINE
  5
BD9
  8
HIDDN
  6
HIDDEN
 10
410.88154535456869
 20
447.79026524222451
 30
0.0
 11
410.88154535456869
 21
437.79026524222451
 31
0.0
  0
LINE
  5
BDA
  8
HIDDN
  6
HIDDEN
 10
429.88154535456869
 20
438.54026524222462
 30
0.0
 11
432.33528399862479
 21
442.79026524222462
 31
0.0
  0
LINE
  5
BDB
  8
HIDDN
  6
HIDDEN
 10
429.88154535456869
 20
447.04026524222462
 30
0.0
 11
432.33528399862462
 21
442.79026524222451
 31
0.0
  0
LINE
  5
BDC
  8
HIDDN
  6
HIDDEN
 10
426.88154535456869
 20
447.79026524222451
 30
0.0
 11
426.88154535456869
 21
437.79026524222451
 31
0.0
  0
LINE
  5
BDD
  8
HIDDN
  6
HIDDEN
 10
429.88154535456869
 20
447.04026524222451
 30
0.0
 11
429.88154535456869
 21
438.54026524222462
 31
0.0
  0
LINE
  5
BDE
  8
DIM
  6
CONTINUOUS
 10
566.38154535456874
 20
358.29026524222451
 30
0.0
 11
566.38154535456874
 21
330.29026524222462
 31
0.0
  0
LINE
  5
BDF
  8
0
 10
570.88154535456874
 20
359.29026524222451
 30
0.0
 11
570.88154535456874
 21
348.29026524222468
 31
0.0
  0
SOLID
  5
BE0
  8
DIM
  6
CONTINUOUS
 10
573.88154535456874
 20
339.79026524222462
 30
0.0
 11
573.88154535456874
 21
338.79026524222462
 31
0.0
 12
570.88154535456874
 22
339.29026524222462
 32
0.0
 13
570.88154535456874
 23
339.29026524222462
 33
0.0
  0
LINE
  5
BE1
  8
0
 10
570.88154535456874
 20
348.29026524222468
 30
0.0
 11
571.88154535456874
 21
347.29026524222462
 31
0.0
  0
SOLID
  5
BE2
  8
DIM
  6
CONTINUOUS
 10
569.38154535456874
 20
331.79026524222468
 30
0.0
 11
569.38154535456874
 21
330.79026524222462
 31
0.0
 12
566.38154535456874
 22
331.29026524222462
 32
0.0
 13
566.38154535456874
 23
331.29026524222462
 33
0.0
  0
LINE
  5
BE3
  8
DIM
  6
CONTINUOUS
 10
570.88154535456874
 20
347.29026524222462
 30
0.0
 11
570.88154535456874
 21
338.29026524222462
 31
0.0
  0
LINE
  5
BE4
  8
0
  6
CONTINUOUS
 10
632.93154535456802
 20
285.66549170834901
 30
0.0
 11
632.93154535456802
 21
292.53962565754068
 31
0.0
  0
LINE
  5
BE5
  8
CENTER
  6
CENTER
 10
593.88154535456874
 20
271.09778343163401
 30
0.0
 11
593.88154535456874
 21
299.66549170834901
 31
0.0
  0
LINE
  5
BE6
  8
0
  6
CONTINUOUS
 10
582.93154535456802
 20
285.66549170834901
 30
0.0
 11
582.93154535456802
 21
292.53962565754068
 31
0.0
  0
LINE
  5
BE7
  8
0
  6
CONTINUOUS
 10
604.83154535456936
 20
285.66549170834901
 30
0.0
 11
604.83154535456936
 21
292.53962565754068
 31
0.0
  0
LINE
  5
BE8
  8
0
  6
CONTINUOUS
 10
587.88154535456874
 20
285.66549170834901
 30
0.0
 11
587.88154535456874
 21
292.63349170834982
 31
0.0
  0
LINE
  5
BE9
  8
0
  6
CONTINUOUS
 10
599.88154535456874
 20
285.66549170834901
 30
0.0
 11
599.88154535456874
 21
292.63349170834982
 31
0.0
  0
LINE
  5
BEA
  8
0
  6
CONTINUOUS
 10
604.83154535456936
 20
292.53962565754068
 30
0.0
 11
602.88154535456874
 21
293.66549170834901
 31
0.0
  0
LINE
  5
BEB
  8
0
  6
CONTINUOUS
 10
584.88154535456874
 20
293.66549170834901
 30
0.0
 11
602.88154535456874
 21
293.66549170834901
 31
0.0
  0
POLYLINE
  5
BEC
  8
0
  6
CONTINUOUS
 66
     1
 10
0.0
 20
0.0
 30
0.0
  0
VERTEX
  5
13E4
  8
0
  6
CONTINUOUS
 10
593.88154535456874
 20
293.66549170834901
 30
0.0
 42
0.0851703918331015
  0
VERTEX
  5
13E5
  8
0
  6
CONTINUOUS
 10
587.88154535456874
 20
292.63349170834982
 30
0.0
 42
0.3910851735909245
  0
VERTEX
  5
13E6
  8
0
  6
CONTINUOUS
 10
583.90654535456838
 20
293.10255868294581
 30
0.0
  0
SEQEND
  5
13E7
  8
0
  6
CONTINUOUS
  0
LINE
  5
BF1
  8
0
  6
CONTINUOUS
 10
582.93154535456802
 20
292.53962565754068
 30
0.0
 11
584.88154535456874
 21
293.66549170834901
 31
0.0
  0
LINE
  5
BF2
  8
0
  6
CONTINUOUS
 10
587.88154535456874
 20
294.66549170834901
 30
0.0
 11
599.88154535456874
 21
294.66549170834918
 31
0.0
  0
LINE
  5
BF3
  8
0
  6
CONTINUOUS
 10
589.88154535456874
 20
296.66549170834901
 30
0.0
 11
597.88154535456874
 21
296.66549170834901
 31
0.0
  0
POLYLINE
  5
BF4
  8
0
  6
CONTINUOUS
 66
     1
 10
0.0
 20
0.0
 30
0.0
  0
VERTEX
  5
13E8
  8
0
  6
CONTINUOUS
 10
593.88154535456874
 20
293.66549170834901
 30
0.0
 42
-0.0851703918331015
  0
VERTEX
  5
13E9
  8
0
  6
CONTINUOUS
 10
599.88154535456874
 20
292.63349170834982
 30
0.0
 42
-0.3910851735909245
  0
VERTEX
  5
13EA
  8
0
  6
CONTINUOUS
 10
603.85654535456899
 20
293.10255868294581
 30
0.0
  0
SEQEND
  5
13EB
  8
0
  6
CONTINUOUS
  0
LINE
  5
BF9
  8
0
  6
CONTINUOUS
 62
     2
 10
589.08154535456947
 20
293.66549170834912
 30
0.0
 11
589.08154535456947
 21
295.86549170834979
 31
0.0
  0
LINE
  5
BFA
  8
0
  6
CONTINUOUS
 10
587.88154535456874
 20
293.66549170834901
 30
0.0
 11
587.88154535456874
 21
294.66549170834901
 31
0.0
  0
LINE
  5
BFB
  8
0
  6
CONTINUOUS
 10
587.88154535456874
 20
294.66549170834901
 30
0.0
 11
589.88154535456874
 21
296.66549170834901
 31
0.0
  0
LINE
  5
BFC
  8
0
  6
CONTINUOUS
 10
599.88154535456874
 20
293.66549170834901
 30
0.0
 11
599.88154535456874
 21
294.66549170834901
 31
0.0
  0
LINE
  5
BFD
  8
0
  6
CONTINUOUS
 62
     2
 10
598.68154535456802
 20
293.66549170834912
 30
0.0
 11
598.68154535456802
 21
295.86549170834979
 31
0.0
  0
LINE
  5
BFE
  8
0
  6
CONTINUOUS
 10
599.88154535456874
 20
294.66549170834901
 30
0.0
 11
597.88154535456874
 21
296.66549170834901
 31
0.0
  0
TEXT
  5
BFF
  8
DIM
  6
CONTINUOUS
 10
615.02440249742585
 20
324.79026524222462
 30
0.0
 40
3.0
  1
428
  7
ROMANSS
 72
     1
 11
618.88154535456874
 21
326.29026524222462
 31
0.0
 73
     2
  0
LINE
  5
C00
  8
0
  6
CONTINUOUS
 10
632.93154535456802
 20
292.53962565754068
 30
0.0
 11
634.88154535456874
 21
293.66549170834901
 31
0.0
  0
TEXT
  5
C01
  8
DIM
  6
CONTINUOUS
 10
615.31011678314007
 20
332.79026524222462
 30
0.0
 40
3.0
  1
105
  7
ROMANSS
 72
     1
 11
618.88154535456874
 21
334.29026524222462
 31
0.0
 73
     2
  0
TEXT
  5
C02
  8
DIM
  6
CONTINUOUS
 10
615.16725964028296
 20
340.79026524222462
 30
0.0
 40
3.0
  1
%%c96
  7
ROMANSS
 72
     1
 11
618.88154535456874
 21
342.29026524222468
 31
0.0
 73
     2
  0
POLYLINE
  5
C03
  8
0
  6
CONTINUOUS
 66
     1
 10
0.0
 20
0.0
 30
0.0
 70
     1
  0
VERTEX
  5
13EC
  8
0
  6
CONTINUOUS
 10
588.39671779726723
 20
393.29026524222451
 30
0.0
  0
VERTEX
  5
13ED
  8
0
  6
CONTINUOUS
 10
582.91189023996583
 20
383.79026524222451
 30
0.0
  0
VERTEX
  5
13EE
  8
0
  6
CONTINUOUS
 10
588.39671779726723
 20
374.29026524222451
 30
0.0
  0
VERTEX
  5
13EF
  8
0
  6
CONTINUOUS
 10
599.36637291187014
 20
374.29026524222451
 30
0.0
  0
VERTEX
  5
13F0
  8
0
  6
CONTINUOUS
 10
604.85120046917154
 20
383.79026524222451
 30
0.0
  0
VERTEX
  5
13F1
  8
0
  6
CONTINUOUS
 10
599.36637291187014
 20
393.29026524222451
 30
0.0
  0
SEQEND
  5
13F2
  8
0
  6
CONTINUOUS
  0
LINE
  5
C0B
  8
CENTER
  6
CENTER
 10
578.38154535456874
 20
383.79026524222451
 30
0.0
 11
609.38154535456874
 21
383.79026524222451
 31
0.0
  0
ARC
  5
C0C
  8
0
  6
CONTINUOUS
 62
     2
 10
593.88154535456874
 20
383.79026524222451
 30
0.0
 40
5.0999999999999988
 50
162.22254855360339
 51
111.813746502519
  0
CIRCLE
  5
C0D
  8
0
  6
CONTINUOUS
 10
593.88154535456874
 20
383.79026524222451
 30
0.0
 40
6.0
  0
CIRCLE
  5
C0E
  8
0
  6
CONTINUOUS
 10
593.88154535456874
 20
383.79026524222451
 30
0.0
 40
9.5
  0
LINE
  5
C0F
  8
CENTER
  6
CENTER
 10
593.88154535456874
 20
399.29026524222451
 30
0.0
 11
593.88154535456874
 21
368.29026524222451
 31
0.0
  0
POLYLINE
  5
C10
  8
0
  6
CONTINUOUS
 66
     1
 10
0.0
 20
0.0
 30
0.0
 70
     1
  0
VERTEX
  5
13F3
  8
0
  6
CONTINUOUS
 10
592.14949454700059
 20
386.79026524222451
 30
0.0
  0
VERTEX
  5
13F4
  8
0
  6
CONTINUOUS
 10
590.4174437394305
 20
383.79026524222451
 30
0.0
  0
VERTEX
  5
13F5
  8
0
  6
CONTINUOUS
 10
592.14949454700059
 20
380.79026524222451
 30
0.0
  0
VERTEX
  5
13F6
  8
0
  6
CONTINUOUS
 10
595.61359616213679
 20
380.79026524222451
 30
0.0
  0
VERTEX
  5
13F7
  8
0
  6
CONTINUOUS
 10
597.34564696970688
 20
383.79026524222451
 30
0.0
  0
VERTEX
  5
13F8
  8
0
  6
CONTINUOUS
 10
595.61359616213679
 20
386.79026524222451
 30
0.0
  0
SEQEND
  5
13F9
  8
0
  6
CONTINUOUS
  0
CIRCLE
  5
C18
  8
0
  6
CONTINUOUS
 10
618.88154535456874
 20
406.79026524222462
 30
0.0
 40
4.0
  0
POLYLINE
  5
C19
  8
0
  6
CONTINUOUS
 66
     1
 10
0.0
 20
0.0
 30
0.0
 70
     1
 40
1.0
 41
1.0
  0
VERTEX
  5
13FA
  8
0
  6
CONTINUOUS
 10
619.38154535456874
 20
406.79026524222462
 30
0.0
 42
1.0
  0
VERTEX
  5
13FB
  8
0
  6
CONTINUOUS
 10
618.38154535456874
 20
406.79026524222462
 30
0.0
 42
1.0
  0
SEQEND
  5
13FC
  8
0
  6
CONTINUOUS
  0
CIRCLE
  5
C1D
  8
0
  6
CONTINUOUS
 10
618.88154535456874
 20
662.28425325470403
 30
0.0
 40
13.00000000000005
  0
SOLID
  5
C1E
  8
DIM
  6
CONTINUOUS
 10
593.38154535456886
 20
655.28425325470403
 30
0.0
 11
594.38154535456874
 21
655.28425325470403
 31
0.0
 12
593.88154535456874
 22
658.28425325470403
 32
0.0
 13
593.88154535456874
 23
658.28425325470403
 33
0.0
  0
LINE
  5
C1F
  8
0
 10
404.8815453545688
 20
673.53425325470403
 30
0.0
 11
404.8815453545688
 21
579.03425325470414
 31
0.0
  0
LINE
  5
C20
  8
0
 10
442.88154535456869
 20
673.78425325470403
 30
0.0
 11
442.88154535456869
 21
578.78425325470414
 31
0.0
  0
CIRCLE
  5
C21
  8
0
  6
CONTINUOUS
 10
618.88154535456874
 20
662.28425325470403
 30
0.0
 40
17.5
  0
CIRCLE
  5
C22
  8
0
  6
CONTINUOUS
 10
618.88154535456874
 20
662.28425325470403
 30
0.0
 40
14.00000000000005
  0
LINE
  5
C23
  8
0
 10
566.38154535456874
 20
713.78425325470403
 30
0.0
 11
566.38154535456874
 21
578.78425325470403
 31
0.0
  0
LINE
  5
C24
  8
CENTER
  6
CENTER
 10
618.88154535456874
 20
719.24472595733573
 30
0.0
 11
618.88154535456874
 21
575.78425325470403
 31
0.0
  0
LINE
  5
C25
  8
0
 10
566.38154535456874
 20
582.78425325470403
 30
0.0
 11
442.88154535456869
 21
582.78425325470403
 31
0.0
  0
LINE
  5
C26
  8
0
 62
     7
 10
566.38154535456874
 20
601.6480317393233
 30
0.0
 11
442.88154535456869
 21
601.6480317393233
 31
0.0
  0
LINE
  5
C27
  8
0
 62
     7
 10
566.38154535456874
 20
650.92047477008475
 30
0.0
 11
442.88154535456869
 21
650.92047477008475
 31
0.0
  0
LINE
  5
C28
  8
0
 10
566.38154535456874
 20
450.29026524222462
 30
0.0
 11
442.88154535456869
 21
450.29026524222462
 31
0.0
  0
LINE
  5
C29
  8
CENTER
  6
CENTER
 10
401.88154535456891
 20
590.28425325470425
 30
0.0
 11
566.38154535456874
 21
590.28425325470414
 31
0.0
  0
LINE
  5
C2A
  8
0
 10
442.88154535456869
 20
454.29026524222451
 30
0.0
 11
404.88154535456869
 21
454.04026524222451
 31
0.0
  0
LINE
  5
C2B
  8
0
 10
442.88154535456869
 20
578.78425325470414
 30
0.0
 11
404.8815453545688
 21
579.03425325470414
 31
0.0
  0
LINE
  5
C2C
  8
0
 10
398.8815453545688
 20
647.78425325470403
 30
0.0
 11
398.8815453545688
 21
604.78425325470414
 31
0.0
  0
LINE
  5
C2D
  8
HIDDN
  6
HIDDEN
 10
404.88154535456903
 20
585.28425325470414
 30
0.0
 11
426.88154535456891
 21
585.28425325470403
 31
0.0
  0
LINE
  5
C2E
  8
HIDDN
  6
HIDDEN
 10
404.88154535456903
 20
595.28425325470403
 30
0.0
 11
426.88154535456891
 21
595.28425325470414
 31
0.0
  0
ARC
  5
C2F
  8
0
 10
399.8815453545688
 20
604.78425325470414
 30
0.0
 40
1.0
 50
180.0
 51
270.0
  0
LINE
  5
C30
  8
0
 10
399.8815453545688
 20
603.78425325470414
 30
0.0
 11
404.8815453545688
 21
603.78425325470414
 31
0.0
  0
LINE
  5
C31
  8
HIDDN
  6
HIDDEN
 10
410.88154535456891
 20
585.28425325470414
 30
0.0
 11
410.88154535456891
 21
595.28425325470403
 31
0.0
  0
LINE
  5
C32
  8
CENTER
  6
CENTER
 10
423.8815453545688
 20
592.77619406179701
 30
0.0
 11
423.88154535456891
 21
573.45747845894505
 31
0.0
  0
LINE
  5
C33
  8
CENTER
  6
CENTER
 10
435.88154535456869
 20
592.76398937518582
 30
0.0
 11
435.88154535456869
 21
573.66949726547784
 31
0.0
  0
LINE
  5
C34
  8
HIDDN
  6
HIDDEN
 10
426.88154535456891
 20
585.28425325470403
 30
0.0
 11
426.88154535456891
 21
595.28425325470403
 31
0.0
  0
LINE
  5
C35
  8
HIDDN
  6
HIDDEN
 10
429.8815453545688
 20
586.03425325470391
 30
0.0
 11
432.33528399862467
 21
590.28425325470391
 31
0.0
  0
LINE
  5
C36
  8
HIDDN
  6
HIDDEN
 10
429.8815453545688
 20
586.03425325470403
 30
0.0
 11
429.8815453545688
 21
594.53425325470414
 31
0.0
  0
LINE
  5
C37
  8
HIDDN
  6
HIDDEN
 10
410.88154535456891
 20
586.03425325470414
 30
0.0
 11
429.8815453545688
 21
586.03425325470403
 31
0.0
  0
LINE
  5
C38
  8
HIDDN
  6
HIDDEN
 10
410.88154535456891
 20
594.53425325470414
 30
0.0
 11
429.8815453545688
 21
594.53425325470414
 31
0.0
  0
LINE
  5
C39
  8
HIDDN
  6
HIDDEN
 10
429.8815453545688
 20
594.53425325470414
 30
0.0
 11
432.33528399862479
 21
590.28425325470391
 31
0.0
  0
ARC
  5
C3A
  8
0
 10
399.8815453545688
 20
647.78425325470403
 30
0.0
 40
1.0
 50
90.0
 51
180.0
  0
LINE
  5
C3B
  8
0
 10
399.8815453545688
 20
648.78425325470403
 30
0.0
 11
404.8815453545688
 21
648.78425325470403
 31
0.0
  0
LINE
  5
C3C
  8
DIM
  6
CONTINUOUS
 10
600.38154535456874
 20
467.29026524222462
 30
0.0
 11
549.38154535456874
 21
467.29026524222462
 31
0.0
  0
LINE
  5
C3D
  8
DIM
  6
CONTINUOUS
 10
604.88154535456874
 20
517.29026524222445
 30
0.0
 11
549.38154535456874
 21
517.29026524222445
 31
0.0
  0
LINE
  5
C3E
  8
DIM
  6
CONTINUOUS
 10
600.88154535456874
 20
469.79026524222462
 30
0.0
 11
557.38154535456874
 21
469.79026524222462
 31
0.0
  0
LINE
  5
C3F
  8
DIM
  6
CONTINUOUS
 10
600.88154535456874
 20
514.79026524222445
 30
0.0
 11
557.38154535456874
 21
514.79026524222445
 31
0.0
  0
LINE
  5
C40
  8
0
 10
571.88154535456874
 20
466.29026524222462
 30
0.0
 11
570.88154535456874
 21
465.29026524222462
 31
0.0
  0
LINE
  5
C41
  8
DIM
  6
CONTINUOUS
 10
550.38154535456874
 20
514.29026524222445
 30
0.0
 11
550.38154535456874
 21
459.35729908476361
 31
0.0
  0
LINE
  5
C42
  8
DIM
  6
CONTINUOUS
 10
558.38154535456874
 20
511.79026524222451
 30
0.0
 11
558.38154535456874
 21
472.79026524222451
 31
0.0
  0
SOLID
  5
C43
  8
DIM
  6
CONTINUOUS
 10
557.88154535456874
 20
472.79026524222451
 30
0.0
 11
558.88154535456874
 21
472.79026524222451
 31
0.0
 12
558.38154535456874
 22
469.79026524222462
 32
0.0
 13
558.38154535456874
 23
469.79026524222462
 33
0.0
  0
LINE
  5
C44
  8
DIM
  6
CONTINUOUS
 10
570.82467853335515
 20
466.29026524222462
 30
0.0
 11
549.38154535456874
 21
466.29026524222462
 31
0.0
  0
TEXT
  5
C45
  8
DIM
  6
CONTINUOUS
 10
548.88154535456874
 20
460.98114012589951
 30
0.0
 40
3.0
  1
1
 50
90.0
  7
ROMANSS
 72
     1
 11
547.38154535456874
 21
461.3382829830424
 31
0.0
 73
     2
  0
SOLID
  5
C46
  8
DIM
  6
CONTINUOUS
 10
549.88154535456874
 20
463.29026524222462
 30
0.0
 11
550.88154535456874
 21
463.29026524222462
 31
0.0
 12
550.38154535456874
 22
466.29026524222462
 32
0.0
 13
550.38154535456874
 23
466.29026524222462
 33
0.0
  0
SOLID
  5
C47
  8
DIM
  6
CONTINUOUS
 10
549.88154535456874
 20
470.29026524222462
 30
0.0
 11
550.88154535456874
 21
470.29026524222462
 31
0.0
 12
550.38154535456874
 22
467.29026524222462
 32
0.0
 13
550.38154535456874
 23
467.29026524222462
 33
0.0
  0
LINE
  5
C48
  8
0
 10
570.88154535456874
 20
465.29026524222462
 30
0.0
 11
570.88154535456874
 21
454.29026524222451
 31
0.0
  0
TEXT
  5
C49
  8
DIM
  6
CONTINUOUS
 10
556.88154535456874
 20
489.86169381365312
 30
0.0
 40
3.0
  1
45
 50
90.0
  7
ROMANSS
 72
     1
 11
555.38154535456874
 21
492.29026524222451
 31
0.0
 73
     2
  0
TEXT
  5
C4A
  8
DIM
  6
CONTINUOUS
 10
548.88154535456874
 20
489.86169381365318
 30
0.0
 40
3.0
  1
50
 50
90.0
  7
ROMANSS
 72
     1
 11
547.38154535456874
 21
492.29026524222462
 31
0.0
 73
     2
  0
SOLID
  5
C4B
  8
DIM
  6
CONTINUOUS
 10
549.88154535456874
 20
514.29026524222445
 30
0.0
 11
550.88154535456874
 21
514.29026524222445
 31
0.0
 12
550.38154535456874
 22
517.29026524222445
 32
0.0
 13
550.38154535456874
 23
517.29026524222445
 33
0.0
  0
SOLID
  5
C4C
  8
DIM
  6
CONTINUOUS
 10
557.88154535456874
 20
511.79026524222451
 30
0.0
 11
558.88154535456874
 21
511.79026524222451
 31
0.0
 12
558.38154535456874
 22
514.79026524222445
 32
0.0
 13
558.38154535456874
 23
514.79026524222445
 33
0.0
  0
LINE
  5
C4D
  8
0
 10
601.88154535456874
 20
514.79026524222445
 30
0.0
 11
601.88154535456874
 21
469.79026524222462
 31
0.0
  0
LINE
  5
C4E
  8
0
 10
604.88154535456874
 20
516.29026524222445
 30
0.0
 11
604.88154535456874
 21
467.29026524222462
 31
0.0
  0
LINE
  5
C4F
  8
0
 10
632.88154535456874
 20
516.29026524222445
 30
0.0
 11
632.88154535456874
 21
467.29026524222462
 31
0.0
  0
LINE
  5
C50
  8
0
 10
601.88154535456874
 20
469.79026524222462
 30
0.0
 11
604.88154535456874
 21
469.79026524222462
 31
0.0
  0
LINE
  5
C51
  8
0
 10
601.38154535456874
 20
467.29026524222462
 30
0.0
 11
636.38154535456874
 21
467.29026524222462
 31
0.0
  0
LINE
  5
C52
  8
0
 10
601.38154535456874
 20
467.29026524222462
 30
0.0
 11
601.38154535456874
 21
466.29026524222462
 31
0.0
  0
LINE
  5
C53
  8
0
 10
636.38154535456874
 20
467.29026524222462
 30
0.0
 11
636.38154535456874
 21
466.29026524222462
 31
0.0
  0
SOLID
  5
C54
  8
DIM
  6
CONTINUOUS
 10
604.88154535456874
 20
533.79026524222445
 30
0.0
 11
604.88154535456874
 21
532.79026524222445
 31
0.0
 12
601.88154535456874
 22
533.29026524222445
 32
0.0
 13
601.88154535456874
 23
533.29026524222445
 33
0.0
  0
LINE
  5
C55
  8
0
 10
601.88154535456874
 20
514.79026524222445
 30
0.0
 11
604.88154535456874
 21
514.79026524222445
 31
0.0
  0
LINE
  5
C56
  8
DIM
  6
CONTINUOUS
 10
601.88154535456874
 20
515.79026524222445
 30
0.0
 11
601.88154535456874
 21
534.29026524222445
 31
0.0
  0
LINE
  5
C57
  8
DIM
  6
CONTINUOUS
 10
632.88154535456874
 20
517.29026524222445
 30
0.0
 11
632.88154535456874
 21
534.29026524222445
 31
0.0
  0
LINE
  5
C58
  8
DIM
  6
CONTINUOUS
 10
604.88154535456874
 20
517.29026524222445
 30
0.0
 11
604.88154535456874
 21
526.29026524222445
 31
0.0
  0
LINE
  5
C59
  8
DIM
  6
CONTINUOUS
 10
632.88154535456874
 20
517.29026524222445
 30
0.0
 11
632.88154535456874
 21
526.29026524222445
 31
0.0
  0
LINE
  5
C5A
  8
0
 10
604.88154535456874
 20
516.29026524222456
 30
0.0
 11
632.88154535456874
 21
516.29026524222445
 31
0.0
  0
LINE
  5
C5B
  8
0
 10
605.88154535456874
 20
517.29026524222445
 30
0.0
 11
631.88154535456874
 21
517.29026524222445
 31
0.0
  0
LINE
  5
C5C
  8
0
 10
605.88154535456874
 20
517.29026524222445
 30
0.0
 11
604.88154535456874
 21
516.29026524222445
 31
0.0
  0
LINE
  5
C5D
  8
0
 10
631.88154535456874
 20
517.29026524222445
 30
0.0
 11
632.88154535456874
 21
516.29026524222445
 31
0.0
  0
LINE
  5
C5E
  8
DIM
  6
CONTINUOUS
 10
629.88154535456874
 20
533.29026524222445
 30
0.0
 11
604.88154535456874
 21
533.29026524222445
 31
0.0
  0
TEXT
  5
C5F
  8
DIM
  6
CONTINUOUS
 10
612.38154535456874
 20
526.79026524222445
 30
0.0
 40
3.0
  1
%%c28h6
  7
ROMANSS
 72
     1
 11
618.88154535456874
 21
528.29026524222445
 31
0.0
 73
     2
  0
LINE
  5
C60
  8
DIM
  6
CONTINUOUS
 10
629.88154535456874
 20
525.29026524222445
 30
0.0
 11
607.88154535456874
 21
525.29026524222445
 31
0.0
  0
SOLID
  5
C61
  8
DIM
  6
CONTINUOUS
 10
607.88154535456874
 20
525.79026524222445
 30
0.0
 11
607.88154535456874
 21
524.79026524222445
 31
0.0
 12
604.88154535456874
 22
525.29026524222445
 32
0.0
 13
604.88154535456874
 23
525.29026524222445
 33
0.0
  0
TEXT
  5
C62
  8
DIM
  6
CONTINUOUS
 10
615.59583106885441
 20
534.79026524222445
 30
0.0
 40
3.0
  1
31
  7
ROMANSS
 72
     1
 11
617.38154535456874
 21
536.29026524222456
 31
0.0
 73
     2
  0
SOLID
  5
C63
  8
DIM
  6
CONTINUOUS
 10
629.88154535456874
 20
525.79026524222445
 30
0.0
 11
629.88154535456874
 21
524.79026524222445
 31
0.0
 12
632.88154535456874
 22
525.29026524222445
 32
0.0
 13
632.88154535456874
 23
525.29026524222445
 33
0.0
  0
SOLID
  5
C64
  8
DIM
  6
CONTINUOUS
 10
629.88154535456874
 20
533.79026524222445
 30
0.0
 11
629.88154535456874
 21
532.79026524222445
 31
0.0
 12
632.88154535456874
 22
533.29026524222445
 32
0.0
 13
632.88154535456874
 23
533.29026524222445
 33
0.0
  0
LINE
  5
C65
  8
CENTER
  6
CENTER
 10
567.88154535456874
 20
621.28425325470403
 30
0.0
 11
587.88154535456874
 21
621.28425325470403
 31
0.0
  0
LINE
  5
C66
  8
0
  6
CONTINUOUS
 10
604.83154535456936
 20
571.91011930551235
 30
0.0
 11
602.88154535456874
 21
570.78425325470403
 31
0.0
  0
LINE
  5
C67
  8
CENTER
  6
CENTER
 10
593.88154535456874
 20
593.35196153141908
 30
0.0
 11
593.88154535456874
 21
564.78425325470403
 31
0.0
  0
LINE
  5
C68
  8
0
  6
CONTINUOUS
 10
584.88154535456874
 20
570.78425325470403
 30
0.0
 11
602.88154535456874
 21
570.78425325470403
 31
0.0
  0
POLYLINE
  5
C69
  8
0
  6
CONTINUOUS
 66
     1
 10
0.0
 20
0.0
 30
0.0
  0
VERTEX
  5
13FD
  8
0
  6
CONTINUOUS
 10
593.88154535456874
 20
570.78425325470403
 30
0.0
 42
-0.0851703918331015
  0
VERTEX
  5
13FE
  8
0
  6
CONTINUOUS
 10
587.88154535456874
 20
571.81625325470316
 30
0.0
 42
-0.3910851735909245
  0
VERTEX
  5
13FF
  8
0
  6
CONTINUOUS
 10
583.90654535456838
 20
571.34718628010717
 30
0.0
  0
SEQEND
  5
1400
  8
0
  6
CONTINUOUS
  0
LINE
  5
C6E
  8
0
  6
CONTINUOUS
 10
582.93154535456802
 20
578.78425325470403
 30
0.0
 11
582.93154535456802
 21
571.91011930551235
 31
0.0
  0
LINE
  5
C6F
  8
0
  6
CONTINUOUS
 10
582.93154535456802
 20
571.91011930551235
 30
0.0
 11
584.88154535456874
 21
570.78425325470403
 31
0.0
  0
LINE
  5
C70
  8
0
  6
CONTINUOUS
 10
587.88154535456874
 20
578.78425325470403
 30
0.0
 11
587.88154535456874
 21
571.81625325470316
 31
0.0
  0
LINE
  5
C71
  8
0
  6
CONTINUOUS
 10
599.88154535456874
 20
578.78425325470403
 30
0.0
 11
599.88154535456874
 21
571.81625325470316
 31
0.0
  0
LINE
  5
C72
  8
0
  6
CONTINUOUS
 10
589.88154535456874
 20
567.78425325470403
 30
0.0
 11
597.88154535456874
 21
567.78425325470403
 31
0.0
  0
LINE
  5
C73
  8
0
  6
CONTINUOUS
 10
587.88154535456874
 20
569.78425325470403
 30
0.0
 11
599.88154535456874
 21
569.7842532547038
 31
0.0
  0
POLYLINE
  5
C74
  8
0
  6
CONTINUOUS
 66
     1
 10
0.0
 20
0.0
 30
0.0
  0
VERTEX
  5
1401
  8
0
  6
CONTINUOUS
 10
593.88154535456874
 20
570.78425325470403
 30
0.0
 42
0.0851703918331015
  0
VERTEX
  5
1402
  8
0
  6
CONTINUOUS
 10
599.88154535456874
 20
571.81625325470316
 30
0.0
 42
0.3910851735909245
  0
VERTEX
  5
1403
  8
0
  6
CONTINUOUS
 10
603.85654535456899
 20
571.34718628010717
 30
0.0
  0
SEQEND
  5
1404
  8
0
  6
CONTINUOUS
  0
LINE
  5
C79
  8
0
  6
CONTINUOUS
 10
587.88154535456874
 20
569.78425325470403
 30
0.0
 11
589.88154535456874
 21
567.78425325470403
 31
0.0
  0
LINE
  5
C7A
  8
0
  6
CONTINUOUS
 10
587.88154535456874
 20
570.78425325470403
 30
0.0
 11
587.88154535456874
 21
569.78425325470403
 31
0.0
  0
LINE
  5
C7B
  8
0
  6
CONTINUOUS
 62
     2
 10
589.08154535456947
 20
570.78425325470391
 30
0.0
 11
589.08154535456947
 21
568.5842532547033
 31
0.0
  0
LINE
  5
C7C
  8
0
  6
CONTINUOUS
 10
599.88154535456874
 20
569.78425325470403
 30
0.0
 11
597.88154535456874
 21
567.78425325470403
 31
0.0
  0
LINE
  5
C7D
  8
0
  6
CONTINUOUS
 10
599.88154535456874
 20
570.78425325470403
 30
0.0
 11
599.88154535456874
 21
569.78425325470403
 31
0.0
  0
LINE
  5
C7E
  8
0
  6
CONTINUOUS
 62
     2
 10
598.68154535456802
 20
570.78425325470391
 30
0.0
 11
598.68154535456802
 21
568.5842532547033
 31
0.0
  0
LINE
  5
C7F
  8
0
  6
CONTINUOUS
 10
604.83154535456936
 20
578.78425325470403
 30
0.0
 11
604.83154535456936
 21
571.91011930551235
 31
0.0
  0
LINE
  5
C80
  8
0
  6
CONTINUOUS
 10
632.93154535456802
 20
578.78425325470403
 30
0.0
 11
632.93154535456802
 21
571.91011930551235
 31
0.0
  0
LINE
  5
C81
  8
0
  6
CONTINUOUS
 10
632.93154535456802
 20
571.91011930551235
 30
0.0
 11
634.88154535456874
 21
570.78425325470403
 31
0.0
  0
CIRCLE
  5
C82
  8
0
  6
CONTINUOUS
 10
577.88154535456874
 20
621.28425325470403
 30
0.0
 40
4.25
  0
ARC
  5
C83
  8
0
  6
CONTINUOUS
 62
     2
 10
577.88154535456874
 20
621.28425325470403
 30
0.0
 40
5.0
 50
161.29065264439251
 51
115.2003954081225
  0
LINE
  5
C84
  8
CENTER
  6
CENTER
 10
577.88154535456874
 20
631.28425325470403
 30
0.0
 11
577.88154535456874
 21
611.28425325470403
 31
0.0
  0
LINE
  5
C85
  8
DIM
  6
CONTINUOUS
 10
593.88154535456874
 20
655.28425325470403
 30
0.0
 11
593.88154535456874
 21
652.28425325470403
 31
0.0
  0
LINE
  5
C86
  8
0
 10
566.38154535456874
 20
669.78425325470403
 30
0.0
 11
442.88154535456869
 21
669.78425325470403
 31
0.0
  0
LINE
  5
C87
  8
0
 10
442.88154535456869
 20
673.78425325470403
 30
0.0
 11
404.8815453545688
 21
673.53425325470403
 31
0.0
  0
LINE
  5
C88
  8
HIDDN
  6
HIDDEN
 10
404.88154535456903
 20
667.28425325470403
 30
0.0
 11
426.88154535456891
 21
667.28425325470403
 31
0.0
  0
LINE
  5
C89
  8
HIDDN
  6
HIDDEN
 10
404.88154535456903
 20
657.28425325470403
 30
0.0
 11
426.88154535456891
 21
657.28425325470403
 31
0.0
  0
LINE
  5
C8A
  8
HIDDN
  6
HIDDEN
 10
410.88154535456891
 20
658.03425325470403
 30
0.0
 11
429.8815453545688
 21
658.03425325470403
 31
0.0
  0
LINE
  5
C8B
  8
HIDDN
  6
HIDDEN
 10
410.88154535456891
 20
666.53425325470403
 30
0.0
 11
429.8815453545688
 21
666.53425325470403
 31
0.0
  0
LINE
  5
C8C
  8
HIDDN
  6
HIDDEN
 10
410.88154535456891
 20
667.28425325470403
 30
0.0
 11
410.88154535456891
 21
657.28425325470403
 31
0.0
  0
LINE
  5
C8D
  8
HIDDN
  6
HIDDEN
 10
429.8815453545688
 20
666.53425325470414
 30
0.0
 11
432.33528399862467
 21
662.28425325470403
 31
0.0
  0
LINE
  5
C8E
  8
HIDDN
  6
HIDDEN
 10
429.8815453545688
 20
658.03425325470403
 30
0.0
 11
432.33528399862479
 21
662.28425325470403
 31
0.0
  0
LINE
  5
C8F
  8
HIDDN
  6
HIDDEN
 10
429.8815453545688
 20
666.53425325470403
 30
0.0
 11
429.8815453545688
 21
658.03425325470403
 31
0.0
  0
LINE
  5
C90
  8
HIDDN
  6
HIDDEN
 10
426.88154535456891
 20
667.28425325470403
 30
0.0
 11
426.88154535456891
 21
657.28425325470403
 31
0.0
  0
LINE
  5
C91
  8
CENTER
  6
CENTER
 10
567.88154535456874
 20
703.28425325470403
 30
0.0
 11
587.88154535456874
 21
703.28425325470403
 31
0.0
  0
SOLID
  5
C92
  8
DIM
  6
CONTINUOUS
 10
539.5880213800649
 20
665.27433124270465
 30
0.0
 11
538.58819783884314
 21
665.29311651403361
 31
0.0
 12
539.03175379546713
 22
662.28425325470403
 32
0.0
 13
539.03175379546713
 23
662.28425325470403
 33
0.0
  0
CIRCLE
  5
C93
  8
0
  6
CONTINUOUS
 10
577.88154535456874
 20
703.28425325470403
 30
0.0
 40
4.25
  0
ARC
  5
C94
  8
0
  6
CONTINUOUS
 62
     2
 10
577.88154535456874
 20
703.28425325470403
 30
0.0
 40
5.0
 50
161.29065264439421
 51
115.2003954081208
  0
LINE
  5
C95
  8
CENTER
  6
CENTER
 10
577.88154535456874
 20
713.28425325470403
 30
0.0
 11
577.88154535456874
 21
693.28425325470403
 31
0.0
  0
LINE
  5
C96
  8
0
 10
601.88154535456874
 20
658.28425325470403
 30
0.0
 11
605.46513748957
 21
658.28425325470403
 31
0.0
  0
LINE
  5
C97
  8
0
 10
601.88154535456874
 20
666.28425325470403
 30
0.0
 11
605.46513748957
 21
666.28425325470403
 31
0.0
  0
SOLID
  5
C98
  8
DIM
  6
CONTINUOUS
 10
593.38154535456886
 20
669.28425325470391
 30
0.0
 11
594.38154535456874
 21
669.28425325470391
 31
0.0
 12
593.88154535456874
 22
666.28425325470403
 32
0.0
 13
593.88154535456874
 23
666.28425325470403
 33
0.0
  0
LINE
  5
C99
  8
DIM
  6
CONTINUOUS
 10
600.88154535456874
 20
666.28425325470403
 30
0.0
 11
592.88154535456874
 21
666.28425325470403
 31
0.0
  0
LINE
  5
C9A
  8
DIM
  6
CONTINUOUS
 10
600.88154535456874
 20
658.28425325470403
 30
0.0
 11
592.88154535456874
 21
658.28425325470403
 31
0.0
  0
LINE
  5
C9B
  8
DIM
  6
CONTINUOUS
 10
593.88154535456874
 20
658.28425325470403
 30
0.0
 11
593.88154535456874
 21
666.28425325470403
 31
0.0
  0
LINE
  5
C9C
  8
0
 10
601.88154535456874
 20
666.28425325470403
 30
0.0
 11
601.88154535456874
 21
658.28425325470403
 31
0.0
  0
TEXT
  5
C9D
  8
DIM
  6
CONTINUOUS
 10
592.38154535456874
 20
673.15925325470403
 30
0.0
 40
3.0
  1
8
 50
90.0
  7
ROMANSS
 72
     1
 11
590.88154535456874
 21
674.15925325470403
 31
0.0
 73
     2
  0
LINE
  5
C9E
  8
DIM
  6
CONTINUOUS
 10
593.88154535456874
 20
672.28425325470403
 30
0.0
 11
593.88154535456874
 21
675.03425325470403
 31
0.0
  0
LINE
  5
C9F
  8
DIM
  6
CONTINUOUS
 10
593.88154535456874
 20
669.28425325470391
 30
0.0
 11
593.88154535456874
 21
672.28425325470403
 31
0.0
  0
ARC
  5
CA0
  8
0
  6
CONTINUOUS
 62
     2
 10
591.30438088829339
 20
689.86141772097926
 30
0.0
 40
4.0
 50
210.50278965468681
 51
157.4755877848952
  0
LINE
  5
CA1
  8
CENTER
  6
CENTER
 10
585.64752663880097
 20
695.51827197047169
 30
0.0
 11
596.96123513778571
 21
684.20456347148695
 31
0.0
  0
CIRCLE
  5
CA2
  8
0
  6
CONTINUOUS
 10
591.30438088829339
 20
689.86141772097926
 30
0.0
 40
3.399999999999999
  0
CIRCLE
  5
CA3
  8
0
  6
CONTINUOUS
 10
618.88154535456874
 20
662.28425325470403
 30
0.0
 40
3.399999999999999
  0
ARC
  5
CA4
  8
0
  6
CONTINUOUS
 62
     2
 10
618.88154535456874
 20
662.28425325470403
 30
0.0
 40
4.0
 50
153.95518686272919
 51
110.5741396147375
  0
SOLID
  5
CA5
  8
DIM
  6
CONTINUOUS
 10
625.59044671051925
 20
663.97508879028305
 30
0.0
 11
625.39441324673305
 21
664.95568599661999
 31
0.0
 12
622.55063835961505
 22
663.87728700209323
 32
0.0
 13
622.55063835961505
 23
663.87728700209323
 33
0.0
  0
SOLID
  5
CA6
  8
DIM
  6
CONTINUOUS
 10
580.88154535456874
 20
722.28425325470403
 30
0.0
 11
580.88154535456874
 21
721.28425325470403
 31
0.0
 12
577.88154535456874
 22
721.78425325470403
 32
0.0
 13
577.88154535456874
 23
721.78425325470403
 33
0.0
  0
LINE
  5
CA7
  8
DIM
  6
CONTINUOUS
 10
577.88154535456874
 20
714.28425325470403
 30
0.0
 11
577.88154535456874
 21
722.78425325470403
 31
0.0
  0
TEXT
  5
CA8
  8
DIM
  6
CONTINUOUS
 10
616.4529739259973
 20
723.28425325470403
 30
0.0
 40
3.0
  1
82
  7
ROMANSS
 72
     1
 11
618.88154535456874
 21
724.78425325470403
 31
0.0
 73
     2
  0
TEXT
  5
CA9
  8
DIM
  6
CONTINUOUS
 10
610.71863104545912
 20
743.5430114588288
 30
0.0
 40
3.0
  1
180%%p5%%d
  7
ROMANSS
 72
     1
 11
618.29005961688756
 21
745.0430114588288
 31
0.0
 73
     2
  0
LINE
  5
CAA
  8
DIM
  6
CONTINUOUS
 10
809.80441538186619
 20
424.32905092362262
 30
0.0
 11
792.20094762787471
 21
469.20718438254897
 31
0.0
  0
LINE
  5
CAB
  8
0
 10
671.38154535456874
 20
454.29026524222451
 30
0.0
 11
671.38154535456874
 21
359.29026524222451
 31
0.0
  0
LINE
  5
CAC
  8
0
 10
832.88154535456863
 20
454.04026524222451
 30
0.0
 11
832.88154535456863
 21
359.54026524222451
 31
0.0
  0
LINE
  5
CAD
  8
0
 10
794.88154535456874
 20
454.29026524222451
 30
0.0
 11
794.88154535456874
 21
359.29026524222451
 31
0.0
  0
LINE
  5
CAE
  8
0
 10
838.88154535456874
 20
216.66549170834909
 30
0.0
 11
838.88154535456874
 21
259.6654917083489
 31
0.0
  0
LINE
  5
CAF
  8
0
 10
832.88154535456863
 20
190.91549170834909
 30
0.0
 11
832.88154535456863
 21
285.4154917083489
 31
0.0
  0
LINE
  5
CB0
  8
0
 10
794.88154535456874
 20
190.66549170834909
 30
0.0
 11
794.88154535456874
 21
285.6654917083489
 31
0.0
  0
CIRCLE
  5
CB1
  8
0
  6
CONTINUOUS
 10
659.88154535456874
 20
243.16549170834901
 30
0.0
 40
4.25
  0
ARC
  5
CB2
  8
0
  6
CONTINUOUS
 62
     2
 10
659.88154535456874
 20
243.16549170834901
 30
0.0
 40
5.0
 50
244.7996045918776
 51
198.70934735560601
  0
LINE
  5
CB3
  8
CENTER
  6
CENTER
 10
659.88154535456874
 20
233.16549170834909
 30
0.0
 11
659.88154535456874
 21
253.16549170834901
 31
0.0
  0
LINE
  5
CB4
  8
0
 10
671.38154535456874
 20
150.66549170834909
 30
0.0
 11
671.38154535456874
 21
285.66549170834901
 31
0.0
  0
LINE
  5
CB5
  8
0
 62
     7
 10
671.38154535456874
 20
213.52927019296831
 30
0.0
 11
794.88154535456874
 21
213.52927019296831
 31
0.0
  0
LINE
  5
CB6
  8
0
 10
671.38154535456874
 20
194.66549170834909
 30
0.0
 11
794.88154535456874
 21
194.66549170834909
 31
0.0
  0
LINE
  5
CB7
  8
CENTER
  6
CENTER
 10
649.88154535456874
 20
161.16549170834901
 30
0.0
 11
669.88154535456874
 21
161.16549170834901
 31
0.0
  0
CIRCLE
  5
CB8
  8
0
  6
CONTINUOUS
 10
659.88154535456874
 20
161.16549170834901
 30
0.0
 40
4.25
  0
ARC
  5
CB9
  8
0
  6
CONTINUOUS
 62
     2
 10
659.88154535456874
 20
161.16549170834901
 30
0.0
 40
5.0
 50
244.7996045918789
 51
198.70934735560601
  0
LINE
  5
CBA
  8
CENTER
  6
CENTER
 10
659.88154535456874
 20
151.16549170834901
 30
0.0
 11
659.88154535456874
 21
171.16549170834901
 31
0.0
  0
LINE
  5
CBB
  8
CENTER
  6
CENTER
 10
649.88154535456874
 20
243.16549170834901
 30
0.0
 11
669.88154535456874
 21
243.16549170834901
 31
0.0
  0
LINE
  5
CBC
  8
CENTER
  6
CENTER
 10
640.80185557135178
 20
224.0858019251321
 30
0.0
 11
652.1155640703364
 21
235.39951042411681
 31
0.0
  0
CIRCLE
  5
CBD
  8
0
  6
CONTINUOUS
 10
646.45870982084409
 20
229.74265617462439
 30
0.0
 40
3.399999999999999
  0
ARC
  5
CBE
  8
0
  6
CONTINUOUS
 62
     2
 10
646.45870982084409
 20
229.74265617462439
 30
0.0
 40
4.0
 50
202.52441221510509
 51
149.4972103453143
  0
LINE
  5
CBF
  8
0
 10
837.88154535456874
 20
215.66549170834909
 30
0.0
 11
832.88154535456863
 21
215.66549170834909
 31
0.0
  0
LINE
  5
CC0
  8
HIDDN
  6
HIDDEN
 10
826.88154535456874
 20
197.16549170834909
 30
0.0
 11
826.88154535456874
 21
207.16549170834909
 31
0.0
  0
LINE
  5
CC1
  8
HIDDN
  6
HIDDEN
 10
810.88154535456874
 20
197.16549170834909
 30
0.0
 11
810.88154535456874
 21
207.16549170834909
 31
0.0
  0
LINE
  5
CC2
  8
0
 10
794.88154535456874
 20
190.66549170834909
 30
0.0
 11
832.88154535456863
 21
190.91549170834909
 31
0.0
  0
LINE
  5
CC3
  8
HIDDN
  6
HIDDEN
 10
832.88154535456863
 20
197.16549170834909
 30
0.0
 11
810.88154535456874
 21
197.16549170834909
 31
0.0
  0
LINE
  5
CC4
  8
HIDDN
  6
HIDDEN
 10
832.88154535456863
 20
207.16549170834909
 30
0.0
 11
810.88154535456874
 21
207.16549170834909
 31
0.0
  0
LINE
  5
CC5
  8
HIDDN
  6
HIDDEN
 10
826.88154535456874
 20
197.91549170834909
 30
0.0
 11
807.88154535456863
 21
197.91549170834909
 31
0.0
  0
LINE
  5
CC6
  8
HIDDN
  6
HIDDEN
 10
826.88154535456874
 20
206.41549170834909
 30
0.0
 11
807.88154535456863
 21
206.41549170834909
 31
0.0
  0
LINE
  5
CC7
  8
HIDDN
  6
HIDDEN
 10
807.88154535456863
 20
206.41549170834909
 30
0.0
 11
805.42780671051264
 21
202.16549170834909
 31
0.0
  0
LINE
  5
CC8
  8
HIDDN
  6
HIDDEN
 10
807.88154535456863
 20
197.91549170834901
 30
0.0
 11
805.42780671051275
 21
202.16549170834909
 31
0.0
  0
LINE
  5
CC9
  8
HIDDN
  6
HIDDEN
 10
807.88154535456863
 20
197.91549170834909
 30
0.0
 11
807.88154535456863
 21
206.41549170834909
 31
0.0
  0
ARC
  5
CCA
  8
0
 10
837.88154535456874
 20
216.66549170834909
 30
0.0
 40
1.0
 50
270.0
 51
0.0
  0
LINE
  5
CCB
  8
0
 10
671.38154535456874
 20
281.66549170834901
 30
0.0
 11
794.88154535456874
 21
281.66549170834901
 31
0.0
  0
LINE
  5
CCC
  8
0
 62
     7
 10
671.38154535456874
 20
262.80171322372962
 30
0.0
 11
794.88154535456874
 21
262.80171322372962
 31
0.0
  0
LINE
  5
CCD
  8
CENTER
  6
CENTER
 10
671.38154535456874
 20
274.16549170834901
 30
0.0
 11
835.88154535456886
 21
274.16549170834901
 31
0.0
  0
LINE
  5
CCE
  8
CENTER
  6
CENTER
 10
835.88154535456874
 20
370.79026524222451
 30
0.0
 11
671.38154535456874
 21
370.79026524222451
 31
0.0
  0
LINE
  5
CCF
  8
CENTER
  6
CENTER
 10
835.88154535456874
 20
442.79026524222451
 30
0.0
 11
671.38154535456874
 21
442.79026524222451
 31
0.0
  0
LINE
  5
CD0
  8
0
 62
     7
 10
671.38154535456874
 20
431.42648675760552
 30
0.0
 11
794.88154535456874
 21
431.42648675760529
 31
0.0
  0
LINE
  5
CD1
  8
0
 62
     7
 10
671.38154535456874
 20
382.15404372684378
 30
0.0
 11
794.88154535456874
 21
382.15404372684378
 31
0.0
  0
LINE
  5
CD2
  8
0
 10
671.38154535456874
 20
363.29026524222439
 30
0.0
 11
794.88154535456874
 21
363.29026524222439
 31
0.0
  0
LINE
  5
CD3
  8
DIM
  6
CONTINUOUS
 10
671.38154535456874
 20
358.29026524222451
 30
0.0
 11
671.38154535456874
 21
330.29026524222462
 31
0.0
  0
LINE
  5
CD4
  8
0
 10
666.88154535456874
 20
359.29026524222451
 30
0.0
 11
666.88154535456874
 21
348.29026524222451
 31
0.0
  0
LINE
  5
CD5
  8
0
  6
CONTINUOUS
 10
637.88154535456874
 20
285.66549170834901
 30
0.0
 11
637.88154535456874
 21
292.63349170834982
 31
0.0
  0
LINE
  5
CD6
  8
0
  6
CONTINUOUS
 10
649.88154535456874
 20
285.66549170834901
 30
0.0
 11
649.88154535456874
 21
292.63349170834982
 31
0.0
  0
LINE
  5
CD7
  8
0
  6
CONTINUOUS
 10
654.83154535456936
 20
285.66549170834901
 30
0.0
 11
654.83154535456936
 21
292.53962565754068
 31
0.0
  0
LINE
  5
CD8
  8
CENTER
  6
CENTER
 10
643.88154535456874
 20
271.09778343163401
 30
0.0
 11
643.88154535456874
 21
299.66549170834901
 31
0.0
  0
SOLID
  5
CD9
  8
DIM
  6
CONTINUOUS
 10
668.38154535456874
 20
331.79026524222468
 30
0.0
 11
668.38154535456874
 21
330.79026524222462
 31
0.0
 12
671.38154535456874
 22
331.29026524222462
 32
0.0
 13
671.38154535456874
 23
331.29026524222462
 33
0.0
  0
POLYLINE
  5
CDA
  8
0
  6
CONTINUOUS
 66
     1
 10
0.0
 20
0.0
 30
0.0
  0
VERTEX
  5
1405
  8
0
  6
CONTINUOUS
 10
643.88154535456874
 20
293.66549170834901
 30
0.0
 42
-0.0851703918331015
  0
VERTEX
  5
1406
  8
0
  6
CONTINUOUS
 10
649.88154535456874
 20
292.63349170834982
 30
0.0
 42
-0.3910851735909245
  0
VERTEX
  5
1407
  8
0
  6
CONTINUOUS
 10
653.85654535456899
 20
293.10255868294581
 30
0.0
  0
SEQEND
  5
1408
  8
0
  6
CONTINUOUS
  0
LINE
  5
CDF
  8
0
  6
CONTINUOUS
 10
654.83154535456936
 20
292.53962565754068
 30
0.0
 11
652.88154535456874
 21
293.66549170834901
 31
0.0
  0
LINE
  5
CE0
  8
0
  6
CONTINUOUS
 10
647.88154535456874
 20
296.66549170834901
 30
0.0
 11
639.88154535456874
 21
296.66549170834901
 31
0.0
  0
LINE
  5
CE1
  8
0
  6
CONTINUOUS
 10
649.88154535456874
 20
294.66549170834901
 30
0.0
 11
637.88154535456874
 21
294.66549170834918
 31
0.0
  0
LINE
  5
CE2
  8
0
  6
CONTINUOUS
 10
637.88154535456874
 20
294.66549170834901
 30
0.0
 11
639.88154535456874
 21
296.66549170834901
 31
0.0
  0
LINE
  5
CE3
  8
0
  6
CONTINUOUS
 62
     2
 10
639.08154535456947
 20
293.66549170834912
 30
0.0
 11
639.08154535456947
 21
295.86549170834979
 31
0.0
  0
LINE
  5
CE4
  8
0
  6
CONTINUOUS
 10
637.88154535456874
 20
293.66549170834901
 30
0.0
 11
637.88154535456874
 21
294.66549170834901
 31
0.0
  0
LINE
  5
CE5
  8
0
  6
CONTINUOUS
 10
649.88154535456874
 20
294.66549170834901
 30
0.0
 11
647.88154535456874
 21
296.66549170834901
 31
0.0
  0
LINE
  5
CE6
  8
0
  6
CONTINUOUS
 10
649.88154535456874
 20
293.66549170834901
 30
0.0
 11
649.88154535456874
 21
294.66549170834901
 31
0.0
  0
LINE
  5
CE7
  8
0
  6
CONTINUOUS
 62
     2
 10
648.68154535456802
 20
293.66549170834912
 30
0.0
 11
648.68154535456802
 21
295.86549170834979
 31
0.0
  0
LINE
  5
CE8
  8
DIM
  6
CONTINUOUS
 10
666.88154535456874
 20
347.29026524222451
 30
0.0
 11
666.88154535456874
 21
338.29026524222462
 31
0.0
  0
SOLID
  5
CE9
  8
DIM
  6
CONTINUOUS
 10
663.88154535456874
 20
339.79026524222462
 30
0.0
 11
663.88154535456874
 21
338.79026524222462
 31
0.0
 12
666.88154535456874
 22
339.29026524222462
 32
0.0
 13
666.88154535456874
 23
339.29026524222462
 33
0.0
  0
LINE
  5
CEA
  8
0
 10
666.88154535456874
 20
348.29026524222451
 30
0.0
 11
665.88154535456874
 21
347.29026524222451
 31
0.0
  0
ARC
  5
CEB
  8
0
  6
CONTINUOUS
 62
     2
 10
643.88154535456874
 20
383.79026524222451
 30
0.0
 40
5.0999999999999988
 50
162.22254855360339
 51
111.813746502519
  0
CIRCLE
  5
CEC
  8
0
  6
CONTINUOUS
 10
643.88154535456874
 20
383.79026524222451
 30
0.0
 40
6.0
  0
LINE
  5
CED
  8
CENTER
  6
CENTER
 10
643.88154535456874
 20
399.29026524222451
 30
0.0
 11
643.88154535456874
 21
368.29026524222451
 31
0.0
  0
POLYLINE
  5
CEE
  8
0
  6
CONTINUOUS
 66
     1
 10
0.0
 20
0.0
 30
0.0
 70
     1
  0
VERTEX
  5
1409
  8
0
  6
CONTINUOUS
 10
642.14949454700059
 20
386.79026524222451
 30
0.0
  0
VERTEX
  5
140A
  8
0
  6
CONTINUOUS
 10
640.4174437394305
 20
383.79026524222451
 30
0.0
  0
VERTEX
  5
140B
  8
0
  6
CONTINUOUS
 10
642.14949454700059
 20
380.79026524222451
 30
0.0
  0
VERTEX
  5
140C
  8
0
  6
CONTINUOUS
 10
645.61359616213679
 20
380.79026524222451
 30
0.0
  0
VERTEX
  5
140D
  8
0
  6
CONTINUOUS
 10
647.34564696970688
 20
383.79026524222451
 30
0.0
  0
VERTEX
  5
140E
  8
0
  6
CONTINUOUS
 10
645.61359616213679
 20
386.79026524222451
 30
0.0
  0
SEQEND
  5
140F
  8
0
  6
CONTINUOUS
  0
LINE
  5
CF6
  8
DIM
  6
CONTINUOUS
 10
838.88154535456874
 20
383.01387047740849
 30
0.0
 11
838.88154535456874
 21
322.29026524222462
 31
0.0
  0
LINE
  5
CF7
  8
DIM
  6
CONTINUOUS
 10
832.88154535456863
 20
358.54026524222451
 30
0.0
 11
832.88154535456863
 21
322.29026524222462
 31
0.0
  0
LINE
  5
CF8
  8
0
 10
837.88154535456874
 20
260.6654917083489
 30
0.0
 11
832.88154535456863
 21
260.6654917083489
 31
0.0
  0
LINE
  5
CF9
  8
CENTER
  6
CENTER
 10
801.88154535456874
 20
270.92305839442753
 30
0.0
 11
801.88154535456874
 21
290.78024769757519
 31
0.0
  0
LINE
  5
CFA
  8
CENTER
  6
CENTER
 10
813.88154535456874
 20
270.07300595976881
 30
0.0
 11
813.88154535456874
 21
290.1767576678111
 31
0.0
  0
LINE
  5
CFB
  8
0
 10
794.88154535456874
 20
285.6654917083489
 30
0.0
 11
832.88154535456863
 21
285.4154917083489
 31
0.0
  0
LINE
  5
CFC
  8
HIDDN
  6
HIDDEN
 10
832.88154535456863
 20
269.16549170834901
 30
0.0
 11
810.88154535456874
 21
269.1654917083489
 31
0.0
  0
LINE
  5
CFD
  8
HIDDN
  6
HIDDEN
 10
832.88154535456863
 20
279.1654917083489
 30
0.0
 11
810.88154535456874
 21
279.16549170834901
 31
0.0
  0
LINE
  5
CFE
  8
HIDDN
  6
HIDDEN
 10
826.88154535456874
 20
269.9154917083489
 30
0.0
 11
807.88154535456863
 21
269.9154917083489
 31
0.0
  0
LINE
  5
CFF
  8
HIDDN
  6
HIDDEN
 10
826.88154535456874
 20
278.4154917083489
 30
0.0
 11
807.88154535456863
 21
278.41549170834901
 31
0.0
  0
LINE
  5
D00
  8
HIDDN
  6
HIDDEN
 10
807.88154535456863
 20
278.41549170834901
 30
0.0
 11
807.88154535456863
 21
269.9154917083489
 31
0.0
  0
LINE
  5
D01
  8
HIDDN
  6
HIDDEN
 10
807.88154535456863
 20
278.41549170834912
 30
0.0
 11
805.42780671051275
 21
274.16549170834901
 31
0.0
  0
LINE
  5
D02
  8
HIDDN
  6
HIDDEN
 10
810.88154535456874
 20
279.16549170834901
 30
0.0
 11
810.88154535456874
 21
269.16549170834901
 31
0.0
  0
LINE
  5
D03
  8
HIDDN
  6
HIDDEN
 10
807.88154535456863
 20
269.9154917083489
 30
0.0
 11
805.42780671051264
 21
274.16549170834901
 31
0.0
  0
LINE
  5
D04
  8
HIDDN
  6
HIDDEN
 10
826.88154535456874
 20
279.1654917083489
 30
0.0
 11
826.88154535456874
 21
269.16549170834901
 31
0.0
  0
SOLID
  5
D05
  8
DIM
  6
CONTINUOUS
 10
829.88154535456874
 20
323.79026524222462
 30
0.0
 11
829.88154535456874
 21
322.79026524222462
 31
0.0
 12
832.88154535456863
 22
323.29026524222468
 32
0.0
 13
832.88154535456863
 23
323.29026524222468
 33
0.0
  0
ARC
  5
D06
  8
0
 10
837.88154535456874
 20
259.6654917083489
 30
0.0
 40
1.0
 50
0.0
 51
90.0
  0
SOLID
  5
D07
  8
DIM
  6
CONTINUOUS
 10
841.88154535456863
 20
323.79026524222462
 30
0.0
 11
841.88154535456863
 21
322.79026524222462
 31
0.0
 12
838.88154535456874
 22
323.29026524222468
 32
0.0
 13
838.88154535456874
 23
323.29026524222468
 33
0.0
  0
TEXT
  5
D08
  8
DIM
  6
CONTINUOUS
 10
844.14144379157256
 20
324.79026524222462
 30
0.0
 40
3.0
  1
6
  7
ROMANSS
 72
     1
 11
845.07001522014411
 21
326.29026524222462
 31
0.0
 73
     2
  0
LINE
  5
D09
  8
0
 10
837.88154535456874
 20
429.29026524222451
 30
0.0
 11
832.88154535456863
 21
429.29026524222451
 31
0.0
  0
LINE
  5
D0A
  8
0
 10
837.88154535456874
 20
384.29026524222451
 30
0.0
 11
832.88154535456863
 21
384.29026524222451
 31
0.0
  0
CIRCLE
  5
D0B
  8
0
 10
801.88154535456874
 20
396.79026524222451
 30
0.0
 40
5.2999999999999989
  0
LINE
  5
D0C
  8
CENTER
  6
CENTER
 10
813.88154535456874
 20
428.29026524222451
 30
0.0
 11
813.88154535456874
 21
399.29026524222451
 31
0.0
  0
LINE
  5
D0D
  8
CENTER
  6
CENTER
 10
801.88154535456874
 20
403.79026524222451
 30
0.0
 11
801.88154535456874
 21
389.79026524222451
 31
0.0
  0
POLYLINE
  5
D0E
  8
0
  6
CONTINUOUS
 66
     1
 10
0.0
 20
0.0
 30
0.0
 70
     1
  0
VERTEX
  5
1410
  8
0
  6
CONTINUOUS
 10
801.01551995078444
 20
398.29026524222451
 30
0.0
  0
VERTEX
  5
1411
  8
0
  6
CONTINUOUS
 10
800.14949454699979
 20
396.79026524222451
 30
0.0
  0
VERTEX
  5
1412
  8
0
  6
CONTINUOUS
 10
801.01551995078444
 20
395.29026524222451
 30
0.0
  0
VERTEX
  5
1413
  8
0
  6
CONTINUOUS
 10
802.74757075835316
 20
395.29026524222451
 30
0.0
  0
VERTEX
  5
1414
  8
0
  6
CONTINUOUS
 10
803.61359616213758
 20
396.79026524222451
 30
0.0
  0
VERTEX
  5
1415
  8
0
  6
CONTINUOUS
 10
802.74757075835316
 20
398.29026524222451
 30
0.0
  0
SEQEND
  5
1416
  8
0
  6
CONTINUOUS
  0
CIRCLE
  5
D16
  8
0
 10
801.88154535456874
 20
396.79026524222451
 30
0.0
 40
5.0
  0
ARC
  5
D17
  8
0
  6
CONTINUOUS
 10
801.88154535456874
 20
396.79026524222451
 30
0.0
 40
3.5
 50
98.213210701738234
 51
141.7867892982616
  0
ARC
  5
D18
  8
0
  6
CONTINUOUS
 10
801.88154535456874
 20
396.79026524222451
 30
0.0
 40
3.5
 50
218.21321070173761
 51
261.78678929826179
  0
CIRCLE
  5
D19
  8
0
  6
CONTINUOUS
 10
801.88154535456874
 20
396.79026524222451
 30
0.0
 40
2.5
  0
LINE
  5
D1A
  8
CENTER
  6
CENTER
 10
794.88154535456874
 20
396.79026524222451
 30
0.0
 11
808.88154535456874
 21
396.79026524222451
 31
0.0
  0
LINE
  5
D1B
  8
0
 10
794.88154535456874
 20
359.29026524222451
 30
0.0
 11
832.88154535456863
 21
359.54026524222451
 31
0.0
  0
LINE
  5
D1C
  8
0
  6
CONTINUOUS
 10
799.13154535456874
 20
398.95532875168561
 30
0.0
 11
797.82312336966515
 21
399.71074653688328
 31
0.0
  0
ARC
  5
D1D
  8
0
  6
CONTINUOUS
 10
801.88154535456874
 20
396.79026524222451
 30
0.0
 40
3.5
 50
158.21321070173769
 51
201.78678929826131
  0
LINE
  5
D1E
  8
0
  6
CONTINUOUS
 10
798.63154535456874
 20
398.08930334790119
 30
0.0
 11
797.32312336966538
 21
398.84472113309891
 31
0.0
  0
LINE
  5
D1F
  8
0
  6
CONTINUOUS
 10
797.82312336966515
 20
393.86978394756579
 30
0.0
 11
799.13154535456874
 21
394.62520173276351
 31
0.0
  0
LINE
  5
D20
  8
0
  6
CONTINUOUS
 10
797.32312336966538
 20
394.73580935135021
 30
0.0
 11
798.63154535456874
 21
395.49122713654782
 31
0.0
  0
LINE
  5
D21
  8
HIDDN
  6
HIDDEN
 10
826.88154535456874
 20
375.04026524222451
 30
0.0
 11
807.88154535456863
 21
375.04026524222451
 31
0.0
  0
LINE
  5
D22
  8
HIDDN
  6
HIDDEN
 10
832.88154535456863
 20
375.79026524222451
 30
0.0
 11
810.88154535456874
 21
375.79026524222451
 31
0.0
  0
LINE
  5
D23
  8
HIDDN
  6
HIDDEN
 10
826.88154535456874
 20
366.54026524222451
 30
0.0
 11
807.88154535456863
 21
366.54026524222451
 31
0.0
  0
LINE
  5
D24
  8
HIDDN
  6
HIDDEN
 10
832.88154535456863
 20
365.79026524222451
 30
0.0
 11
810.88154535456874
 21
365.79026524222451
 31
0.0
  0
LINE
  5
D25
  8
HIDDN
  6
HIDDEN
 10
810.88154535456874
 20
365.79026524222451
 30
0.0
 11
810.88154535456874
 21
375.79026524222451
 31
0.0
  0
LINE
  5
D26
  8
HIDDN
  6
HIDDEN
 10
807.88154535456863
 20
366.54026524222451
 30
0.0
 11
807.88154535456863
 21
375.04026524222451
 31
0.0
  0
LINE
  5
D27
  8
HIDDN
  6
HIDDEN
 10
807.88154535456863
 20
366.54026524222439
 30
0.0
 11
805.42780671051275
 21
370.79026524222451
 31
0.0
  0
LINE
  5
D28
  8
HIDDN
  6
HIDDEN
 10
807.88154535456863
 20
375.04026524222451
 30
0.0
 11
805.42780671051264
 21
370.79026524222439
 31
0.0
  0
LINE
  5
D29
  8
HIDDN
  6
HIDDEN
 10
826.88154535456874
 20
365.79026524222451
 30
0.0
 11
826.88154535456874
 21
375.79026524222451
 31
0.0
  0
ARC
  5
D2A
  8
0
  6
CONTINUOUS
 10
801.88154535456874
 20
396.79026524222451
 30
0.0
 40
3.5
 50
38.213210701738312
 51
81.786789298261766
  0
ARC
  5
D2B
  8
0
  6
CONTINUOUS
 10
801.88154535456874
 20
396.79026524222451
 30
0.0
 40
3.5
 50
338.21321070173849
 51
21.786789298262239
  0
LINE
  5
D2C
  8
0
  6
CONTINUOUS
 10
801.38154535456874
 20
401.76520242775769
 30
0.0
 11
801.38154535456874
 21
400.2543668573623
 31
0.0
  0
LINE
  5
D2D
  8
0
  6
CONTINUOUS
 10
802.38154535456874
 20
401.76520242775769
 30
0.0
 11
802.38154535456874
 21
400.2543668573623
 31
0.0
  0
LINE
  5
D2E
  8
0
  6
CONTINUOUS
 10
804.63154535456874
 20
398.95532875168561
 30
0.0
 11
805.93996733947233
 21
399.71074653688328
 31
0.0
  0
LINE
  5
D2F
  8
0
  6
CONTINUOUS
 10
805.13154535456874
 20
398.08930334790119
 30
0.0
 11
806.43996733947222
 21
398.84472113309891
 31
0.0
  0
ARC
  5
D30
  8
0
  6
CONTINUOUS
 10
801.88154535456874
 20
396.79026524222451
 30
0.0
 40
3.5
 50
278.21321070173809
 51
321.78678929826242
  0
LINE
  5
D31
  8
0
  6
CONTINUOUS
 10
801.38154535456874
 20
393.32616362708683
 30
0.0
 11
801.38154535456874
 21
391.8153280566915
 31
0.0
  0
LINE
  5
D32
  8
0
  6
CONTINUOUS
 10
802.38154535456874
 20
393.32616362708683
 30
0.0
 11
802.38154535456874
 21
391.8153280566915
 31
0.0
  0
LINE
  5
D33
  8
0
  6
CONTINUOUS
 10
805.93996733947233
 20
393.86978394756579
 30
0.0
 11
804.63154535456874
 21
394.62520173276351
 31
0.0
  0
LINE
  5
D34
  8
0
  6
CONTINUOUS
 10
806.43996733947222
 20
394.73580935135021
 30
0.0
 11
805.13154535456874
 21
395.49122713654782
 31
0.0
  0
CIRCLE
  5
D35
  8
0
 10
813.88154535456874
 20
413.79026524222451
 30
0.0
 40
11.5
  0
ARC
  5
D36
  8
0
 62
     2
 10
813.88154535456874
 20
413.79026524222451
 30
0.0
 40
8.3000000000000007
 50
257.18960874131659
 51
209.60968586855631
  0
CIRCLE
  5
D37
  8
0
 10
813.88154535456874
 20
413.79026524222451
 30
0.0
 40
7.5
  0
CIRCLE
  5
D38
  8
0
 10
813.88154535456874
 20
413.79026524222451
 30
0.0
 40
5.5
  0
LINE
  5
D39
  8
CENTER
  6
CENTER
 10
799.38154535456874
 20
413.79026524222451
 30
0.0
 11
828.38154535456863
 21
413.79026524222451
 31
0.0
  0
SOLID
  5
D3A
  8
DIM
  6
CONTINUOUS
 10
809.33894358935186
 20
424.14646940655882
 30
0.0
 11
810.26988717438087
 21
424.51163244068641
 31
0.0
 12
810.89990448424908
 22
421.53622016853541
 32
0.0
 13
810.89990448424908
 23
421.53622016853541
 33
0.0
  0
LINE
  5
D3B
  8
HIDDN
  6
HIDDEN
 10
826.88154535456874
 20
447.04026524222451
 30
0.0
 11
807.88154535456863
 21
447.04026524222451
 31
0.0
  0
LINE
  5
D3C
  8
HIDDN
  6
HIDDEN
 10
826.88154535456874
 20
438.54026524222462
 30
0.0
 11
807.88154535456863
 21
438.54026524222462
 31
0.0
  0
LINE
  5
D3D
  8
HIDDN
  6
HIDDEN
 10
832.88154535456863
 20
437.79026524222451
 30
0.0
 11
810.88154535456874
 21
437.79026524222451
 31
0.0
  0
LINE
  5
D3E
  8
HIDDN
  6
HIDDEN
 10
832.88154535456863
 20
447.79026524222451
 30
0.0
 11
810.88154535456874
 21
447.79026524222451
 31
0.0
  0
LINE
  5
D3F
  8
HIDDN
  6
HIDDEN
 10
807.88154535456863
 20
447.04026524222462
 30
0.0
 11
805.42780671051275
 21
442.79026524222451
 31
0.0
  0
LINE
  5
D40
  8
HIDDN
  6
HIDDEN
 10
807.88154535456863
 20
438.54026524222462
 30
0.0
 11
805.42780671051264
 21
442.79026524222462
 31
0.0
  0
LINE
  5
D41
  8
HIDDN
  6
HIDDEN
 10
807.88154535456863
 20
447.04026524222451
 30
0.0
 11
807.88154535456863
 21
438.54026524222462
 31
0.0
  0
LINE
  5
D42
  8
HIDDN
  6
HIDDEN
 10
810.88154535456874
 20
447.79026524222451
 30
0.0
 11
810.88154535456874
 21
437.79026524222451
 31
0.0
  0
LINE
  5
D43
  8
HIDDN
  6
HIDDEN
 10
826.88154535456874
 20
447.79026524222451
 30
0.0
 11
826.88154535456874
 21
437.79026524222451
 31
0.0
  0
LINE
  5
D44
  8
DIM
  6
CONTINUOUS
 10
846.88154535456874
 20
387.29026524222451
 30
0.0
 11
846.88154535456874
 21
426.29026524222451
 31
0.0
  0
LINE
  5
D45
  8
0
 10
838.88154535456874
 20
428.29026524222451
 30
0.0
 11
838.88154535456874
 21
385.29026524222451
 31
0.0
  0
LINE
  5
D46
  8
DIM
  6
CONTINUOUS
 10
838.88154535456874
 20
384.29026524222451
 30
0.0
 11
847.88154535456874
 21
384.29026524222451
 31
0.0
  0
ARC
  5
D47
  8
0
 10
837.88154535456874
 20
385.29026524222451
 30
0.0
 40
1.0
 50
270.0
 51
0.0
  0
SOLID
  5
D48
  8
DIM
  6
CONTINUOUS
 10
846.38154535456874
 20
387.29026524222451
 30
0.0
 11
847.38154535456874
 21
387.29026524222451
 31
0.0
 12
846.88154535456874
 22
384.29026524222451
 32
0.0
 13
846.88154535456874
 23
384.29026524222451
 33
0.0
  0
TEXT
  5
D49
  8
DIM
  6
CONTINUOUS
 10
845.38154535456863
 20
403.00455095651029
 30
0.0
 40
3.0
  1
%%c45
 50
90.0
  7
ROMANSS
 72
     1
 11
843.88154535456874
 21
406.79026524222462
 31
0.0
 73
     2
  0
LINE
  5
D4A
  8
DIM
  6
CONTINUOUS
 10
838.88154535456874
 20
429.29026524222451
 30
0.0
 11
847.88154535456874
 21
429.29026524222451
 31
0.0
  0
ARC
  5
D4B
  8
0
 10
837.88154535456874
 20
428.29026524222451
 30
0.0
 40
1.0
 50
0.0
 51
90.0
  0
SOLID
  5
D4C
  8
DIM
  6
CONTINUOUS
 10
846.38154535456874
 20
426.29026524222451
 30
0.0
 11
847.38154535456874
 21
426.29026524222451
 31
0.0
 12
846.88154535456874
 22
429.29026524222451
 32
0.0
 13
846.88154535456874
 23
429.29026524222451
 33
0.0
  0
LINE
  5
D4D
  8
DIM
  6
CONTINUOUS
 10
731.2867139086776
 20
624.28425325470403
 30
0.0
 11
731.2867139086776
 21
700.28425325470403
 31
0.0
  0
LINE
  5
D4E
  8
0
 10
671.38154535456874
 20
713.78425325470391
 30
0.0
 11
671.38154535456874
 21
578.78425325470403
 31
0.0
  0
LINE
  5
D4F
  8
0
 10
794.88154535456874
 20
673.78425325470403
 30
0.0
 11
794.88154535456874
 21
578.78425325470414
 31
0.0
  0
LINE
  5
D50
  8
0
 10
832.88154535456863
 20
673.53425325470403
 30
0.0
 11
832.88154535456863
 21
579.03425325470414
 31
0.0
  0
LINE
  5
D51
  8
DIM
  6
CONTINUOUS
 10
670.88154535456874
 20
621.28425325470403
 30
0.0
 11
732.54841280115716
 21
621.28425325470403
 31
0.0
  0
LINE
  5
D52
  8
CENTER
  6
CENTER
 10
671.38154535456874
 20
590.28425325470391
 30
0.0
 11
835.88154535456886
 21
590.28425325470391
 31
0.0
  0
LINE
  5
D53
  8
0
 62
     7
 10
671.38154535456874
 20
650.92047477008475
 30
0.0
 11
794.88154535456874
 21
650.92047477008475
 31
0.0
  0
LINE
  5
D54
  8
0
 10
671.38154535456874
 20
582.78425325470403
 30
0.0
 11
794.88154535456874
 21
582.78425325470403
 31
0.0
  0
LINE
  5
D55
  8
0
 62
     7
 10
671.38154535456874
 20
601.6480317393233
 30
0.0
 11
794.88154535456874
 21
601.6480317393233
 31
0.0
  0
LINE
  5
D56
  8
0
 10
671.38154535456874
 20
450.29026524222451
 30
0.0
 11
794.88154535456874
 21
450.29026524222451
 31
0.0
  0
LINE
  5
D57
  8
0
 10
666.88154535456874
 20
465.29026524222462
 30
0.0
 11
666.88154535456874
 21
454.29026524222451
 31
0.0
  0
LINE
  5
D58
  8
0
 10
665.88154535456874
 20
466.29026524222462
 30
0.0
 11
666.88154535456874
 21
465.29026524222462
 31
0.0
  0
LINE
  5
D59
  8
CENTER
  6
CENTER
 10
643.88154535456874
 20
593.35196153141908
 30
0.0
 11
643.88154535456874
 21
564.78425325470403
 31
0.0
  0
LINE
  5
D5A
  8
0
  6
CONTINUOUS
 10
654.83154535456936
 20
571.91011930551235
 30
0.0
 11
652.88154535456874
 21
570.78425325470403
 31
0.0
  0
POLYLINE
  5
D5B
  8
0
  6
CONTINUOUS
 66
     1
 10
0.0
 20
0.0
 30
0.0
  0
VERTEX
  5
1417
  8
0
  6
CONTINUOUS
 10
643.88154535456874
 20
570.78425325470403
 30
0.0
 42
0.0851703918331015
  0
VERTEX
  5
1418
  8
0
  6
CONTINUOUS
 10
649.88154535456874
 20
571.81625325470316
 30
0.0
 42
0.3910851735909245
  0
VERTEX
  5
1419
  8
0
  6
CONTINUOUS
 10
653.85654535456899
 20
571.34718628010717
 30
0.0
  0
SEQEND
  5
141A
  8
0
  6
CONTINUOUS
  0
LINE
  5
D60
  8
0
  6
CONTINUOUS
 10
649.88154535456874
 20
578.78425325470403
 30
0.0
 11
649.88154535456874
 21
571.81625325470316
 31
0.0
  0
LINE
  5
D61
  8
0
  6
CONTINUOUS
 10
637.88154535456874
 20
578.78425325470403
 30
0.0
 11
637.88154535456874
 21
571.81625325470316
 31
0.0
  0
LINE
  5
D62
  8
0
  6
CONTINUOUS
 10
649.88154535456874
 20
569.78425325470403
 30
0.0
 11
637.88154535456874
 21
569.7842532547038
 31
0.0
  0
LINE
  5
D63
  8
0
  6
CONTINUOUS
 10
647.88154535456874
 20
567.78425325470403
 30
0.0
 11
639.88154535456874
 21
567.78425325470403
 31
0.0
  0
LINE
  5
D64
  8
0
  6
CONTINUOUS
 10
637.88154535456874
 20
570.78425325470403
 30
0.0
 11
637.88154535456874
 21
569.78425325470403
 31
0.0
  0
LINE
  5
D65
  8
0
  6
CONTINUOUS
 62
     2
 10
639.08154535456947
 20
570.78425325470391
 30
0.0
 11
639.08154535456947
 21
568.5842532547033
 31
0.0
  0
LINE
  5
D66
  8
0
  6
CONTINUOUS
 10
637.88154535456874
 20
569.78425325470403
 30
0.0
 11
639.88154535456874
 21
567.78425325470403
 31
0.0
  0
LINE
  5
D67
  8
0
  6
CONTINUOUS
 62
     2
 10
648.68154535456802
 20
570.78425325470391
 30
0.0
 11
648.68154535456802
 21
568.5842532547033
 31
0.0
  0
LINE
  5
D68
  8
0
  6
CONTINUOUS
 10
649.88154535456874
 20
570.78425325470403
 30
0.0
 11
649.88154535456874
 21
569.78425325470403
 31
0.0
  0
LINE
  5
D69
  8
0
  6
CONTINUOUS
 10
649.88154535456874
 20
569.78425325470403
 30
0.0
 11
647.88154535456874
 21
567.78425325470403
 31
0.0
  0
LINE
  5
D6A
  8
0
  6
CONTINUOUS
 10
654.83154535456936
 20
578.78425325470403
 30
0.0
 11
654.83154535456936
 21
571.91011930551235
 31
0.0
  0
LINE
  5
D6B
  8
CENTER
  6
CENTER
 10
649.88154535456874
 20
621.28425325470403
 30
0.0
 11
669.88154535456874
 21
621.28425325470403
 31
0.0
  0
LINE
  5
D6C
  8
CENTER
  6
CENTER
 10
640.80185557135178
 20
640.36394303792088
 30
0.0
 11
652.1155640703364
 21
629.05023453893625
 31
0.0
  0
CIRCLE
  5
D6D
  8
0
  6
CONTINUOUS
 10
646.45870982084409
 20
634.70708878842845
 30
0.0
 40
3.399999999999999
  0
ARC
  5
D6E
  8
0
  6
CONTINUOUS
 62
     2
 10
646.45870982084409
 20
634.70708878842845
 30
0.0
 40
4.0
 50
210.50278965468459
 51
157.4755877848952
  0
CIRCLE
  5
D6F
  8
0
  6
CONTINUOUS
 10
659.88154535456874
 20
621.28425325470403
 30
0.0
 40
4.25
  0
ARC
  5
D70
  8
0
  6
CONTINUOUS
 62
     2
 10
659.88154535456874
 20
621.28425325470403
 30
0.0
 40
5.0
 50
161.29065264439251
 51
115.2003954081225
  0
LINE
  5
D71
  8
CENTER
  6
CENTER
 10
659.88154535456874
 20
631.28425325470403
 30
0.0
 11
659.88154535456874
 21
611.28425325470403
 31
0.0
  0
TEXT
  5
D72
  8
DIM
  6
CONTINUOUS
 10
795.62708139382255
 20
470.70718438254897
 30
0.0
 40
3.0
  1
2-G3/8
  7
ROMANSS
 11
795.62708139382255
 21
472.20718438254897
 31
0.0
 73
     2
  0
LINE
  5
D73
  8
DIM
  6
CONTINUOUS
 10
792.20094762787471
 20
469.20718438254897
 30
0.0
 11
811.00208139382266
 21
469.20718438254897
 31
0.0
  0
LINE
  5
D74
  8
0
 10
794.88154535456874
 20
454.29026524222451
 30
0.0
 11
832.88154535456863
 21
454.04026524222451
 31
0.0
  0
LINE
  5
D75
  8
0
 10
837.88154535456874
 20
648.78425325470403
 30
0.0
 11
832.88154535456863
 21
648.78425325470403
 31
0.0
  0
LINE
  5
D76
  8
0
 10
837.88154535456874
 20
603.78425325470414
 30
0.0
 11
832.88154535456863
 21
603.78425325470414
 31
0.0
  0
LINE
  5
D77
  8
0
 10
794.88154535456874
 20
578.78425325470414
 30
0.0
 11
832.88154535456863
 21
579.03425325470414
 31
0.0
  0
LINE
  5
D78
  8
HIDDN
  6
HIDDEN
 10
826.88154535456874
 20
585.28425325470414
 30
0.0
 11
826.88154535456874
 21
595.28425325470403
 31
0.0
  0
LINE
  5
D79
  8
CENTER
  6
CENTER
 10
813.88154535456874
 20
593.29422405849255
 30
0.0
 11
813.88154535456886
 21
573.62151794708893
 31
0.0
  0
LINE
  5
D7A
  8
HIDDN
  6
HIDDEN
 10
807.88154535456863
 20
586.03425325470403
 30
0.0
 11
807.88154535456863
 21
594.53425325470414
 31
0.0
  0
LINE
  5
D7B
  8
HIDDN
  6
HIDDEN
 10
810.88154535456874
 20
585.28425325470403
 30
0.0
 11
810.88154535456874
 21
595.28425325470403
 31
0.0
  0
LINE
  5
D7C
  8
HIDDN
  6
HIDDEN
 10
807.88154535456863
 20
586.03425325470391
 30
0.0
 11
805.42780671051275
 21
590.28425325470391
 31
0.0
  0
LINE
  5
D7D
  8
CENTER
  6
CENTER
 10
801.88154535456874
 20
593.11030782533442
 30
0.0
 11
801.88154535456874
 21
573.66949726547784
 31
0.0
  0
LINE
  5
D7E
  8
HIDDN
  6
HIDDEN
 10
832.88154535456863
 20
585.28425325470414
 30
0.0
 11
810.88154535456874
 21
585.28425325470403
 31
0.0
  0
LINE
  5
D7F
  8
HIDDN
  6
HIDDEN
 10
826.88154535456874
 20
586.03425325470414
 30
0.0
 11
807.88154535456863
 21
586.03425325470403
 31
0.0
  0
LINE
  5
D80
  8
HIDDN
  6
HIDDEN
 10
832.88154535456863
 20
595.28425325470403
 30
0.0
 11
810.88154535456874
 21
595.28425325470414
 31
0.0
  0
LINE
  5
D81
  8
HIDDN
  6
HIDDEN
 10
826.88154535456874
 20
594.53425325470414
 30
0.0
 11
807.88154535456863
 21
594.53425325470414
 31
0.0
  0
LINE
  5
D82
  8
HIDDN
  6
HIDDEN
 10
807.88154535456863
 20
594.53425325470414
 30
0.0
 11
805.42780671051264
 21
590.28425325470391
 31
0.0
  0
LINE
  5
D83
  8
0
 10
838.88154535456874
 20
647.78425325470403
 30
0.0
 11
838.88154535456874
 21
604.78425325470414
 31
0.0
  0
ARC
  5
D84
  8
0
 10
837.88154535456874
 20
604.78425325470414
 30
0.0
 40
1.0
 50
270.0
 51
0.0
  0
SOLID
  5
D85
  8
DIM
  6
CONTINUOUS
 10
730.78671390867748
 20
624.28425325470403
 30
0.0
 11
731.7867139086776
 21
624.28425325470403
 31
0.0
 12
731.2867139086776
 22
621.28425325470403
 32
0.0
 13
731.2867139086776
 23
621.28425325470403
 33
0.0
  0
ARC
  5
D86
  8
0
 10
837.88154535456874
 20
647.78425325470403
 30
0.0
 40
1.0
 50
0.0
 51
90.0
  0
LINE
  5
D87
  8
DIM
  6
CONTINUOUS
 10
670.88154535456874
 20
703.28425325470403
 30
0.0
 11
732.54841280115716
 21
703.28425325470403
 31
0.0
  0
LINE
  5
D88
  8
0
 10
671.38154535456874
 20
669.78425325470403
 30
0.0
 11
794.88154535456874
 21
669.78425325470403
 31
0.0
  0
TEXT
  5
D89
  8
DIM
  6
CONTINUOUS
 10
687.25042072492886
 20
724.52305606511914
 30
0.0
 40
3.0
  1
2x4-M10x15L
  7
ROMANSS
 11
687.25042072492886
 21
726.02305606511914
 31
0.0
 73
     2
  0
LINE
  5
D8A
  8
DIM
  6
CONTINUOUS
 10
686.25042072492897
 20
723.02305606511914
 30
0.0
 11
714.37542072492897
 21
723.02305606511914
 31
0.0
  0
CIRCLE
  5
D8B
  8
0
  6
CONTINUOUS
 10
659.88154535456874
 20
703.28425325470403
 30
0.0
 40
4.25
  0
ARC
  5
D8C
  8
0
  6
CONTINUOUS
 62
     2
 10
659.88154535456874
 20
703.28425325470403
 30
0.0
 40
5.0
 50
161.29065264439421
 51
115.2003954081208
  0
LINE
  5
D8D
  8
CENTER
  6
CENTER
 10
659.88154535456874
 20
713.28425325470403
 30
0.0
 11
659.88154535456874
 21
693.28425325470403
 31
0.0
  0
SOLID
  5
D8E
  8
DIM
  6
CONTINUOUS
 10
698.17506932907258
 20
665.27433124270465
 30
0.0
 11
699.17489287029434
 21
665.29311651403361
 31
0.0
 12
698.73133691367025
 22
662.28425325470403
 32
0.0
 13
698.73133691367025
 23
662.28425325470403
 33
0.0
  0
LINE
  5
D8F
  8
DIM
  6
CONTINUOUS
 10
665.73670392701365
 20
708.72134112368678
 30
0.0
 11
683.25042072492886
 21
723.02305606511914
 31
0.0
  0
LINE
  5
D90
  8
CENTER
  6
CENTER
 10
649.88154535456874
 20
703.28425325470403
 30
0.0
 11
669.88154535456874
 21
703.28425325470403
 31
0.0
  0
SOLID
  5
D91
  8
DIM
  6
CONTINUOUS
 10
666.05295590675723
 20
708.33406256075284
 30
0.0
 11
665.42045194726995
 21
709.10861968662095
 31
0.0
 12
663.41303254940954
 22
706.82382924522506
 32
0.0
 13
663.41303254940954
 23
706.82382924522506
 33
0.0
  0
SOLID
  5
D92
  8
DIM
  6
CONTINUOUS
 10
656.88154535456874
 20
722.28425325470403
 30
0.0
 11
656.88154535456874
 21
721.28425325470403
 31
0.0
 12
659.88154535456874
 22
721.78425325470403
 32
0.0
 13
659.88154535456874
 23
721.78425325470403
 33
0.0
  0
LINE
  5
D93
  8
DIM
  6
CONTINUOUS
 10
659.88154535456874
 20
714.28425325470403
 30
0.0
 11
659.88154535456874
 21
722.78425325470403
 31
0.0
  0
LINE
  5
D94
  8
DIM
  6
CONTINUOUS
 10
683.25042072492886
 20
723.02305606511914
 30
0.0
 11
686.25042072492897
 21
723.02305606511914
 31
0.0
  0
TEXT
  5
D95
  8
DIM
  6
CONTINUOUS
 10
704.80929484939884
 20
681.62189364726328
 30
0.0
 40
3.0
  1
M8x15L
  7
ROMANSS
 11
704.80929484939884
 21
683.12189364726339
 31
0.0
 73
     2
  0
LINE
  5
D96
  8
DIM
  6
CONTINUOUS
 10
703.80929484939884
 20
680.12189364726339
 30
0.0
 11
718.93429484939884
 21
680.12189364726339
 31
0.0
  0
LINE
  5
D97
  8
0
 10
794.88154535456874
 20
673.78425325470403
 30
0.0
 11
832.88154535456863
 21
673.53425325470403
 31
0.0
  0
LINE
  5
D98
  8
HIDDN
  6
HIDDEN
 10
832.88154535456863
 20
667.28425325470403
 30
0.0
 11
810.88154535456874
 21
667.28425325470403
 31
0.0
  0
LINE
  5
D99
  8
HIDDN
  6
HIDDEN
 10
832.88154535456863
 20
657.28425325470403
 30
0.0
 11
810.88154535456874
 21
657.28425325470403
 31
0.0
  0
LINE
  5
D9A
  8
HIDDN
  6
HIDDEN
 10
826.88154535456874
 20
658.03425325470403
 30
0.0
 11
807.88154535456863
 21
658.03425325470403
 31
0.0
  0
LINE
  5
D9B
  8
HIDDN
  6
HIDDEN
 10
826.88154535456874
 20
666.53425325470403
 30
0.0
 11
807.88154535456863
 21
666.53425325470403
 31
0.0
  0
LINE
  5
D9C
  8
HIDDN
  6
HIDDEN
 10
807.88154535456863
 20
658.03425325470403
 30
0.0
 11
805.42780671051264
 21
662.28425325470403
 31
0.0
  0
LINE
  5
D9D
  8
HIDDN
  6
HIDDEN
 10
807.88154535456863
 20
666.53425325470403
 30
0.0
 11
807.88154535456863
 21
658.03425325470403
 31
0.0
  0
LINE
  5
D9E
  8
HIDDN
  6
HIDDEN
 10
807.88154535456863
 20
666.53425325470414
 30
0.0
 11
805.42780671051275
 21
662.28425325470403
 31
0.0
  0
LINE
  5
D9F
  8
HIDDN
  6
HIDDEN
 10
810.88154535456874
 20
667.28425325470403
 30
0.0
 11
810.88154535456874
 21
657.28425325470403
 31
0.0
  0
LINE
  5
DA0
  8
HIDDN
  6
HIDDEN
 10
826.88154535456874
 20
667.28425325470403
 30
0.0
 11
826.88154535456874
 21
657.28425325470403
 31
0.0
  0
SOLID
  5
DA1
  8
DIM
  6
CONTINUOUS
 10
730.78671390867748
 20
700.28425325470403
 30
0.0
 11
731.7867139086776
 21
700.28425325470403
 31
0.0
 12
731.2867139086776
 22
703.28425325470403
 32
0.0
 13
731.2867139086776
 23
703.28425325470403
 33
0.0
  0
TEXT
  5
DA2
  8
DIM
  6
CONTINUOUS
 10
729.78671390867748
 20
673.13297663923117
 30
0.0
 40
3.0
  1
82
 50
90.0
  7
ROMANSS
 72
     1
 11
728.2867139086776
 21
675.56154806780273
 31
0.0
 73
     2
  0
LINE
  5
DA3
  8
0
 10
209.07055548304959
 20
454.29026524222451
 30
0.0
 11
209.07055548304959
 21
359.29026524222451
 31
0.0
  0
ARC
  5
DA4
  8
0
 10
332.57055548304947
 20
442.79026524222451
 30
0.0
 40
11.25
 50
0.0
 51
90.0
  0
ARC
  5
DA5
  8
0
 10
332.57055548304947
 20
442.79026524222451
 30
0.0
 40
11.5
 50
0.0
 51
90.0
  0
CIRCLE
  5
DA6
  8
0
 10
332.57055548304947
 20
442.79026524222451
 30
0.0
 40
9.0
  0
LINE
  5
DA7
  8
0
 10
344.07055548304942
 20
454.29026524222451
 30
0.0
 11
344.07055548304942
 21
359.29026524222462
 31
0.0
  0
LINE
  5
DA8
  8
CENTER
  6
CENTER
 10
296.57055548304959
 20
457.29026524222462
 30
0.0
 11
296.57055548304959
 21
356.29026524222451
 31
0.0
  0
LINE
  5
DA9
  8
0
 10
306.57055548304942
 20
448.54026524222451
 30
0.0
 11
306.57055548304942
 21
428.42357289500848
 31
0.0
  0
LINE
  5
DAA
  8
0
 10
295.27055548304958
 20
448.54026524222451
 30
0.0
 11
295.27055548304958
 21
431.12973935322378
 31
0.0
  0
LINE
  5
DAB
  8
0
 10
297.87055548304949
 20
448.54026524222451
 30
0.0
 11
297.87055548304949
 21
431.12973935322378
 31
0.0
  0
LINE
  5
DAC
  8
0
 10
286.57055548304959
 20
448.54026524222451
 30
0.0
 11
286.57055548304959
 21
428.42357289500848
 31
0.0
  0
ARC
  5
DAD
  8
0
 10
272.22977929941101
 20
448.54026524222451
 30
0.0
 40
1.5
 50
90.0
 51
206.25121393499711
  0
LINE
  5
DAE
  8
CENTER
  6
CENTER
 10
332.57055548304947
 20
453.29026524222451
 30
0.0
 11
332.57055548304947
 21
432.29026524222462
 31
0.0
  0
ARC
  5
DAF
  8
0
 10
320.91133166668823
 20
448.54026524222451
 30
0.0
 40
1.5
 50
333.74878606499351
 51
90.0
  0
ARC
  5
DB0
  8
0
 10
260.57055548304959
 20
442.79026524222451
 30
0.0
 40
11.25
 50
90.0
 51
180.0
  0
ARC
  5
DB1
  8
0
 10
260.57055548304959
 20
442.79026524222451
 30
0.0
 40
11.5
 50
90.0
 51
180.0
  0
CIRCLE
  5
DB2
  8
0
 10
260.57055548304959
 20
442.79026524222451
 30
0.0
 40
9.0
  0
LINE
  5
DB3
  8
CENTER
  6
CENTER
 10
260.57055548304959
 20
520.29026524222445
 30
0.0
 11
260.57055548304959
 21
344.29026524222451
 31
0.0
  0
LINE
  5
DB4
  8
CENTER
  6
CENTER
 10
347.023772520389
 20
399.79026524222451
 30
0.0
 11
331.02097906945482
 21
399.79026524222451
 31
0.0
  0
LINE
  5
DB5
  8
CENTER
  6
CENTER
 10
347.51057313559119
 20
416.79026524222451
 30
0.0
 11
331.5019528744744
 21
416.79026524222451
 31
0.0
  0
ARC
  5
DB6
  8
0
 10
332.57055548304947
 20
370.79026524222451
 30
0.0
 40
11.25
 50
270.0
 51
0.0
  0
ARC
  5
DB7
  8
0
 10
332.57055548304947
 20
370.79026524222451
 30
0.0
 40
11.5
 50
270.0
 51
0.0
  0
LINE
  5
DB8
  8
CENTER
  6
CENTER
 10
359.07055548304942
 20
383.79026524222451
 30
0.0
 11
323.85713146167302
 21
383.79026524222451
 31
0.0
  0
LINE
  5
DB9
  8
0
 10
344.07055548304942
 20
359.29026524222462
 30
0.0
 11
209.07055548304959
 21
359.29026524222451
 31
0.0
  0
LINE
  5
DBA
  8
CENTER
  6
CENTER
 10
347.07055548304947
 20
406.79026524222462
 30
0.0
 11
246.07055548304959
 21
406.79026524222439
 31
0.0
  0
LINE
  5
DBB
  8
0
 10
212.5705554830495
 20
359.29026524222451
 30
0.0
 11
212.5705554830495
 21
348.29026524222451
 31
0.0
  0
LINE
  5
DBC
  8
0
 10
308.57055548304959
 20
359.29026524222451
 30
0.0
 11
308.57055548304942
 21
348.29026524222468
 31
0.0
  0
LINE
  5
DBD
  8
0
 10
308.57055548304942
 20
348.29026524222451
 30
0.0
 11
212.5705554830495
 21
348.29026524222451
 31
0.0
  0
LINE
  5
DBE
  8
0
 10
307.57055548304947
 20
347.29026524222462
 30
0.0
 11
213.5705554830495
 21
347.29026524222451
 31
0.0
  0
LINE
  5
DBF
  8
0
 10
212.5705554830495
 20
348.29026524222451
 30
0.0
 11
213.5705554830495
 21
347.29026524222451
 31
0.0
  0
LINE
  5
DC0
  8
0
 10
308.57055548304942
 20
348.29026524222468
 30
0.0
 11
307.57055548304947
 21
347.29026524222462
 31
0.0
  0
LINE
  5
DC1
  8
0
 10
272.22977929941101
 20
363.54026524222451
 30
0.0
 11
293.77055548304958
 21
363.54026524222451
 31
0.0
  0
ARC
  5
DC2
  8
0
 10
296.57055548304959
 20
406.79026524222462
 30
0.0
 40
35.5
 50
229.9885419755561
 51
251.4071774505733
  0
LINE
  5
DC3
  8
0
 10
270.83773465023569
 20
378.22901728466439
 30
0.0
 11
280.83834084594048
 21
388.22962348036913
 31
0.0
  0
ARC
  5
DC4
  8
0
 10
296.57055548304959
 20
406.79026524222462
 30
0.0
 40
23.0
 50
186.56242786863399
 51
216.7867892982616
  0
ARC
  5
DC5
  8
0
 10
276.94925354941421
 20
392.11871077689523
 30
0.0
 40
1.5
 50
315.00000000000227
 51
36.786789298263038
  0
ARC
  5
DC6
  8
0
 10
296.57055548304959
 20
406.79026524222462
 30
0.0
 40
35.5
 50
108.5928225494267
 51
130.01145802444381
  0
LINE
  5
DC7
  8
0
 10
270.83773465023569
 20
435.35151319978451
 30
0.0
 11
280.83834084594048
 21
425.35090700407989
 31
0.0
  0
ARC
  5
DC8
  8
0
 10
296.57055548304959
 20
406.79026524222462
 30
0.0
 40
23.0
 50
143.21321070173801
 51
173.43757213136581
  0
ARC
  5
DC9
  8
0
 10
276.94925354941449
 20
421.46181970755379
 30
0.0
 40
1.5
 50
323.2132107017369
 51
45.0
  0
CIRCLE
  5
DCA
  8
0
 10
296.57055548304959
 20
406.79026524222462
 30
0.0
 40
22.5
  0
LINE
  5
DCB
  8
0
 10
332.57055548304947
 20
359.54026524222451
 30
0.0
 11
260.57055548304959
 21
359.54026524222451
 31
0.0
  0
LINE
  5
DCC
  8
0
 10
253.3205554830495
 20
382.4494890585857
 30
0.0
 11
253.3205554830495
 21
403.99026524222461
 31
0.0
  0
LINE
  5
DCD
  8
0
 10
249.3205554830495
 20
442.79026524222451
 30
0.0
 11
249.3205554830495
 21
370.79026524222451
 31
0.0
  0
LINE
  5
DCE
  8
0
 10
249.0705554830495
 20
442.79026524222451
 30
0.0
 11
249.0705554830495
 21
370.79026524222451
 31
0.0
  0
CIRCLE
  5
DCF
  8
0
 10
260.57055548304959
 20
370.79026524222451
 30
0.0
 40
9.0
  0
LINE
  5
DD0
  8
CENTER
  6
CENTER
 10
271.07055548304959
 20
370.79026524222451
 30
0.0
 11
250.0705554830495
 21
370.79026524222451
 31
0.0
  0
POLYLINE
  5
DD1
  8
0
  6
CONTINUOUS
 66
     1
 10
0.0
 20
0.0
 30
0.0
 70
     1
  0
VERTEX
  5
141B
  8
0
  6
CONTINUOUS
 10
263.45730682899767
 20
375.79026524222451
 30
0.0
  0
VERTEX
  5
141C
  8
0
  6
CONTINUOUS
 10
266.34405817494581
 20
370.79026524222451
 30
0.0
  0
VERTEX
  5
141D
  8
0
  6
CONTINUOUS
 10
263.45730682899767
 20
365.79026524222451
 30
0.0
  0
VERTEX
  5
141E
  8
0
  6
CONTINUOUS
 10
257.68380413710139
 20
365.79026524222451
 30
0.0
  0
VERTEX
  5
141F
  8
0
  6
CONTINUOUS
 10
254.7970527911535
 20
370.79026524222451
 30
0.0
  0
VERTEX
  5
1420
  8
0
  6
CONTINUOUS
 10
257.68380413710139
 20
375.79026524222451
 30
0.0
  0
SEQEND
  5
1421
  8
0
  6
CONTINUOUS
  0
ARC
  5
DD9
  8
0
 10
260.57055548304959
 20
370.79026524222451
 30
0.0
 40
11.25
 50
180.0
 51
270.0
  0
ARC
  5
DDA
  8
0
 10
260.57055548304959
 20
370.79026524222451
 30
0.0
 40
11.5
 50
180.0
 51
270.0
  0
ARC
  5
DDB
  8
0
 10
260.57055548304959
 20
370.79026524222451
 30
0.0
 40
11.5
 50
333.74878606508207
 51
29.381501724351899
  0
ARC
  5
DDC
  8
0
 10
272.22977929941101
 20
365.04026524222451
 30
0.0
 40
1.5
 50
153.74878606500999
 51
270.0
  0
ARC
  5
DDD
  8
0
 10
271.89839482201552
 20
377.16835711288462
 30
0.0
 40
1.5
 50
134.9999999999992
 51
209.38150172435169
  0
ARC
  5
DDE
  8
0
 10
260.57055548304959
 20
370.79026524222451
 30
0.0
 40
11.5
 50
60.618498275648491
 51
116.2512139349553
  0
LINE
  5
DDF
  8
0
 10
254.82055548304959
 20
396.79026524222451
 30
0.0
 11
274.93724783026562
 21
396.79026524222451
 31
0.0
  0
ARC
  5
DE0
  8
0
 10
254.82055548304959
 20
382.4494890585857
 30
0.0
 40
1.5
 50
180.0
 51
296.25121393495692
  0
ARC
  5
DE1
  8
0
 10
254.82055548304959
 20
395.29026524222451
 30
0.0
 40
1.5
 50
90.0
 51
180.0
  0
LINE
  5
DE2
  8
0
 10
268.00930752548948
 20
381.05744440941061
 30
0.0
 11
278.00991372119421
 21
391.05805060511528
 31
0.0
  0
ARC
  5
DE3
  8
0
 10
296.57055548304959
 20
406.79026524222462
 30
0.0
 40
35.5
 50
198.5928225494265
 51
220.0114580244437
  0
ARC
  5
DE4
  8
0
 10
270.1464575204605
 20
384.60880796675468
 30
0.0
 40
1.0
 50
220.0114580244414
 51
315.0
  0
ARC
  5
DE5
  8
0
 10
266.94864735370982
 20
382.11810458119049
 30
0.0
 40
1.5
 50
240.61849827564731
 51
315.00000000000227
  0
ARC
  5
DE6
  8
0
 10
274.38909820757982
 20
380.36616727963542
 30
0.0
 40
1.0
 50
135.0
 51
229.9885419755573
  0
ARC
  5
DE7
  8
0
 10
263.87116710956462
 20
395.79026524222451
 30
0.0
 40
1.0
 50
90.0
 51
198.59282254942551
  0
ARC
  5
DE8
  8
0
 10
274.93724783026562
 20
395.29026524222451
 30
0.0
 40
1.5
 50
27.994561732254802
 51
90.0
  0
LINE
  5
DE9
  8
0
 10
253.3205554830495
 20
431.1310414258632
 30
0.0
 11
253.3205554830495
 21
409.5902652422244
 31
0.0
  0
ARC
  5
DEA
  8
0
 10
296.57055548304959
 20
406.79026524222462
 30
0.0
 40
35.5
 50
139.98854197555599
 51
161.4071774505733
  0
LINE
  5
DEB
  8
0
 10
268.00930752548948
 20
432.52308607503829
 30
0.0
 11
278.00991372119421
 21
422.52247987933367
 31
0.0
  0
LINE
  5
DEC
  8
0
 10
254.82055548304959
 20
416.79026524222451
 30
0.0
 11
274.93724783026562
 21
416.79026524222451
 31
0.0
  0
LINE
  5
DED
  8
0
 10
254.82055548304959
 20
408.09026524222452
 30
0.0
 11
272.23108137205043
 21
408.09026524222452
 31
0.0
  0
LINE
  5
DEE
  8
0
 10
254.82055548304959
 20
405.49026524222461
 30
0.0
 11
272.23108137205043
 21
405.49026524222461
 31
0.0
  0
ARC
  5
DEF
  8
0
 10
254.82055548304959
 20
403.99026524222461
 30
0.0
 40
1.5
 50
90.0
 51
180.0
  0
ARC
  5
DF0
  8
0
 10
254.82055548304959
 20
409.5902652422244
 30
0.0
 40
1.5
 50
180.0
 51
270.0
  0
ARC
  5
DF1
  8
0
 10
254.82055548304959
 20
418.29026524222451
 30
0.0
 40
1.5
 50
180.0
 51
270.0
  0
ARC
  5
DF2
  8
0
 10
272.23108137205043
 20
403.99026524222461
 30
0.0
 40
1.5
 50
6.5624278686343862
 51
90.0
  0
ARC
  5
DF3
  8
0
 10
272.23108137205043
 20
409.5902652422244
 30
0.0
 40
1.5
 50
270.0
 51
353.43757213136558
  0
ARC
  5
DF4
  8
0
 10
263.87116710956462
 20
417.79026524222451
 30
0.0
 40
1.0
 50
161.40717745057441
 51
270.0
  0
ARC
  5
DF5
  8
0
 10
274.93724783026562
 20
418.29026524222451
 30
0.0
 40
1.5
 50
270.0
 51
332.00543826774759
  0
LINE
  5
DF6
  8
CENTER
  6
CENTER
 10
271.07055548304959
 20
442.79026524222451
 30
0.0
 11
250.0705554830495
 21
442.79026524222451
 31
0.0
  0
POLYLINE
  5
DF7
  8
0
  6
CONTINUOUS
 66
     1
 10
0.0
 20
0.0
 30
0.0
 70
     1
  0
VERTEX
  5
1422
  8
0
  6
CONTINUOUS
 10
263.45730682899767
 20
447.79026524222451
 30
0.0
  0
VERTEX
  5
1423
  8
0
  6
CONTINUOUS
 10
266.34405817494581
 20
442.79026524222451
 30
0.0
  0
VERTEX
  5
1424
  8
0
  6
CONTINUOUS
 10
263.45730682899767
 20
437.79026524222451
 30
0.0
  0
VERTEX
  5
1425
  8
0
  6
CONTINUOUS
 10
257.68380413710139
 20
437.79026524222451
 30
0.0
  0
VERTEX
  5
1426
  8
0
  6
CONTINUOUS
 10
254.7970527911535
 20
442.79026524222451
 30
0.0
  0
VERTEX
  5
1427
  8
0
  6
CONTINUOUS
 10
257.68380413710139
 20
447.79026524222439
 30
0.0
  0
SEQEND
  5
1428
  8
0
  6
CONTINUOUS
  0
ARC
  5
DFF
  8
0
 10
260.57055548304959
 20
442.79026524222451
 30
0.0
 40
11.5
 50
243.74878606504441
 51
299.38150172435149
  0
ARC
  5
E00
  8
0
 10
254.82055548304959
 20
431.1310414258632
 30
0.0
 40
1.5
 50
63.748786065044058
 51
180.0
  0
ARC
  5
E01
  8
0
 10
271.89839482201552
 20
436.41217337156439
 30
0.0
 40
1.5
 50
150.61849827564831
 51
225.0
  0
ARC
  5
E02
  8
0
 10
270.1464575204605
 20
428.97172251769422
 30
0.0
 40
1.0
 50
45.0
 51
139.98854197555499
  0
ARC
  5
E03
  8
0
 10
266.94864735370982
 20
431.46242590325852
 30
0.0
 40
1.5
 50
45.0
 51
119.38150172435159
  0
ARC
  5
E04
  8
0
 10
274.38909820757982
 20
433.21436320481348
 30
0.0
 40
1.0
 50
130.0114580244414
 51
225.0
  0
ARC
  5
E05
  8
0
 10
260.57055548304959
 20
442.79026524222451
 30
0.0
 40
11.5
 50
330.61849827564839
 51
26.251213934927279
  0
LINE
  5
E06
  8
0
 10
339.82055548304942
 20
382.4494890585857
 30
0.0
 11
339.82055548304942
 21
403.99026524222461
 31
0.0
  0
ARC
  5
E07
  8
0
 10
296.57055548304959
 20
406.79026524222462
 30
0.0
 40
23.0
 50
323.21321070173821
 51
353.43757213136593
  0
ARC
  5
E08
  8
0
 10
296.57055548304959
 20
406.79026524222462
 30
0.0
 40
35.5
 50
288.59282254942661
 51
310.01145802444381
  0
ARC
  5
E09
  8
0
 10
311.24210994837881
 20
387.1689633085893
 30
0.0
 40
1.5
 50
45.000000000001521
 51
126.78678929826
  0
LINE
  5
E0A
  8
0
 10
320.91133166668823
 20
363.54026524222451
 30
0.0
 11
299.37055548304949
 21
363.54026524222451
 31
0.0
  0
LINE
  5
E0B
  8
0
 10
297.87055548304949
 20
365.04026524222451
 30
0.0
 11
297.87055548304949
 21
382.45079113122517
 31
0.0
  0
LINE
  5
E0C
  8
0
 10
295.27055548304958
 20
365.04026524222451
 30
0.0
 11
295.27055548304958
 21
382.45079113122517
 31
0.0
  0
LINE
  5
E0D
  8
0
 10
306.57055548304942
 20
365.04026524222451
 30
0.0
 11
306.57055548304942
 21
385.15695758944048
 31
0.0
  0
LINE
  5
E0E
  8
0
 10
286.57055548304959
 20
365.04026524222451
 30
0.0
 11
286.57055548304959
 21
385.15695758944048
 31
0.0
  0
ARC
  5
E0F
  8
0
 10
293.77055548304958
 20
365.04026524222451
 30
0.0
 40
1.5
 50
270.0
 51
0.0
  0
ARC
  5
E10
  8
0
 10
285.07055548304947
 20
365.04026524222451
 30
0.0
 40
1.5
 50
270.0
 51
0.0
  0
ARC
  5
E11
  8
0
 10
285.57055548304959
 20
374.0908768687396
 30
0.0
 40
1.0
 50
251.4071774505743
 51
0.0
  0
ARC
  5
E12
  8
0
 10
299.37055548304949
 20
365.04026524222451
 30
0.0
 40
1.5
 50
180.0
 51
270.0
  0
ARC
  5
E13
  8
0
 10
308.07055548304942
 20
365.04026524222451
 30
0.0
 40
1.5
 50
180.0
 51
270.0
  0
ARC
  5
E14
  8
0
 10
307.57055548304947
 20
374.0908768687396
 30
0.0
 40
1.0
 50
180.0
 51
288.59282254942548
  0
ARC
  5
E15
  8
0
 10
293.77055548304958
 20
382.45079113122517
 30
0.0
 40
1.5
 50
0.0
 51
83.437572131365485
  0
ARC
  5
E16
  8
0
 10
296.57055548304959
 20
406.79026524222462
 30
0.0
 40
23.0
 50
233.21321070173801
 51
263.43757213136581
  0
ARC
  5
E17
  8
0
 10
285.07055548304947
 20
385.15695758944048
 30
0.0
 40
1.5
 50
0.0
 51
62.005438267747621
  0
ARC
  5
E18
  8
0
 10
281.8990010177202
 20
387.1689633085893
 30
0.0
 40
1.5
 50
53.213210701737829
 51
135.0
  0
ARC
  5
E19
  8
0
 10
296.57055548304959
 20
406.79026524222462
 30
0.0
 40
23.0
 50
276.56242786863407
 51
306.78678929826168
  0
ARC
  5
E1A
  8
0
 10
299.37055548304949
 20
382.45079113122517
 30
0.0
 40
1.5
 50
96.562427868634515
 51
180.0
  0
ARC
  5
E1B
  8
0
 10
308.07055548304942
 20
385.15695758944048
 30
0.0
 40
1.5
 50
117.99456173225229
 51
180.0
  0
CIRCLE
  5
E1C
  8
0
 10
332.57055548304947
 20
370.79026524222451
 30
0.0
 40
9.0
  0
LINE
  5
E1D
  8
0
 10
322.3033763158632
 20
378.22901728466439
 30
0.0
 11
312.30277012015858
 21
388.22962348036913
 31
0.0
  0
LINE
  5
E1E
  8
CENTER
  6
CENTER
 10
332.57055548304947
 20
381.29026524222451
 30
0.0
 11
332.57055548304947
 21
360.29026524222451
 31
0.0
  0
LINE
  5
E1F
  8
CENTER
  6
CENTER
 10
343.07055548304942
 20
370.79026524222451
 30
0.0
 11
322.07055548304947
 21
370.79026524222451
 31
0.0
  0
POLYLINE
  5
E20
  8
0
  6
CONTINUOUS
 66
     1
 10
0.0
 20
0.0
 30
0.0
 70
     1
  0
VERTEX
  5
1429
  8
0
  6
CONTINUOUS
 10
335.45730682899762
 20
375.79026524222451
 30
0.0
  0
VERTEX
  5
142A
  8
0
  6
CONTINUOUS
 10
338.3440581749457
 20
370.79026524222451
 30
0.0
  0
VERTEX
  5
142B
  8
0
  6
CONTINUOUS
 10
335.45730682899762
 20
365.79026524222451
 30
0.0
  0
VERTEX
  5
142C
  8
0
  6
CONTINUOUS
 10
329.68380413710139
 20
365.79026524222451
 30
0.0
  0
VERTEX
  5
142D
  8
0
  6
CONTINUOUS
 10
326.79705279115331
 20
370.79026524222451
 30
0.0
  0
VERTEX
  5
142E
  8
0
  6
CONTINUOUS
 10
329.68380413710139
 20
375.79026524222451
 30
0.0
  0
SEQEND
  5
142F
  8
0
  6
CONTINUOUS
  0
ARC
  5
E28
  8
0
 10
332.57055548304947
 20
370.79026524222451
 30
0.0
 40
11.5
 50
150.61849827564811
 51
206.25121393492719
  0
ARC
  5
E29
  8
0
 10
320.91133166668823
 20
365.04026524222451
 30
0.0
 40
1.5
 50
270.0
 51
26.25121393499963
  0
ARC
  5
E2A
  8
0
 10
321.24271614408337
 20
377.16835711288462
 30
0.0
 40
1.5
 50
330.61849827564822
 51
45.000000000001521
  0
ARC
  5
E2B
  8
0
 10
332.57055548304947
 20
370.79026524222451
 30
0.0
 40
11.5
 50
63.748786065044662
 51
119.38150172435149
  0
LINE
  5
E2C
  8
0
 10
322.52030295135518
 20
387.29026524222462
 30
0.0
 11
338.32055548304942
 21
387.29026524222462
 31
0.0
  0
LINE
  5
E2D
  8
0
 10
325.13180344060942
 20
381.05744440941061
 30
0.0
 11
315.1311972449048
 21
391.05805060511528
 31
0.0
  0
ARC
  5
E2E
  8
0
 10
326.19246361238942
 20
382.11810458119049
 30
0.0
 40
1.5
 50
224.99999999999841
 51
299.38150172435172
  0
ARC
  5
E2F
  8
0
 10
318.75201275851907
 20
380.36616727963542
 30
0.0
 40
1.0
 50
310.01145802444393
 51
45.0
  0
ARC
  5
E30
  8
0
 10
322.52030295135518
 20
385.79026524222468
 30
0.0
 40
1.5
 50
90.0
 51
225.00000000000151
  0
ARC
  5
E31
  8
0
 10
316.19185741668451
 20
392.11871077689511
 30
0.0
 40
1.5
 50
143.2132107017369
 51
224.99999999999841
  0
ARC
  5
E32
  8
0
 10
338.32055548304942
 20
382.4494890585857
 30
0.0
 40
1.5
 50
243.74878606504399
 51
0.0
  0
ARC
  5
E33
  8
0
 10
338.32055548304942
 20
385.79026524222468
 30
0.0
 40
1.5
 50
0.0
 51
90.0
  0
ARC
  5
E34
  8
0
 10
296.57055548304959
 20
406.79026524222462
 30
0.0
 40
35.5
 50
49.98854197555616
 51
71.407177450573386
  0
ARC
  5
E35
  8
0
 10
311.24210994837881
 20
426.41156717585972
 30
0.0
 40
1.5
 50
233.21321070173991
 51
315.0
  0
ARC
  5
E36
  8
0
 10
281.8990010177202
 20
426.41156717585972
 30
0.0
 40
1.5
 50
225.0
 51
306.78678929825992
  0
ARC
  5
E37
  8
0
 10
293.77055548304958
 20
431.12973935322378
 30
0.0
 40
1.5
 50
276.56242786863447
 51
0.0
  0
ARC
  5
E38
  8
0
 10
296.57055548304959
 20
406.79026524222462
 30
0.0
 40
23.0
 50
96.562427868634174
 51
126.7867892982617
  0
ARC
  5
E39
  8
0
 10
285.07055548304947
 20
428.42357289500848
 30
0.0
 40
1.5
 50
297.99456173225229
 51
0.0
  0
ARC
  5
E3A
  8
0
 10
285.57055548304959
 20
439.4896536157093
 30
0.0
 40
1.0
 50
0.0
 51
108.5928225494286
  0
ARC
  5
E3B
  8
0
 10
296.57055548304959
 20
406.79026524222462
 30
0.0
 40
23.0
 50
53.213210701738248
 51
83.437572131365826
  0
ARC
  5
E3C
  8
0
 10
299.37055548304949
 20
431.12973935322378
 30
0.0
 40
1.5
 50
180.0
 51
263.43757213136541
  0
ARC
  5
E3D
  8
0
 10
308.07055548304942
 20
428.42357289500848
 30
0.0
 40
1.5
 50
180.0
 51
242.00543826774759
  0
ARC
  5
E3E
  8
0
 10
307.57055548304947
 20
439.4896536157093
 30
0.0
 40
1.0
 50
71.407177450574423
 51
180.0
  0
ARC
  5
E3F
  8
0
 10
338.32055548304942
 20
425.7064637293193
 30
0.0
 40
1.5
 50
270.0
 51
0.0
  0
LINE
  5
E40
  8
0
 10
339.82055548304942
 20
431.1310414258632
 30
0.0
 11
339.82055548304942
 21
409.5902652422244
 31
0.0
  0
ARC
  5
E41
  8
0
 10
320.0203029513554
 20
425.7064637293193
 30
0.0
 40
1.5
 50
171.50526946671781
 51
270.0
  0
LINE
  5
E42
  8
0
 10
325.13180344060942
 20
432.52308607503829
 30
0.0
 11
315.1311972449048
 21
422.52247987933367
 31
0.0
  0
LINE
  5
E43
  8
0
 10
319.67520921562681
 20
413.44041713637398
 30
0.0
 11
338.32055548304942
 21
413.44041713637398
 31
0.0
  0
LINE
  5
E44
  8
0
 10
320.0203029513554
 20
424.2064637293193
 30
0.0
 11
338.32055548304942
 21
424.2064637293193
 31
0.0
  0
LINE
  5
E45
  8
0
 10
338.32055548304942
 20
405.49026524222461
 30
0.0
 11
320.91002959404881
 21
405.49026524222461
 31
0.0
  0
LINE
  5
E46
  8
0
 10
338.32055548304942
 20
408.09026524222452
 30
0.0
 11
320.91002959404881
 21
408.09026524222452
 31
0.0
  0
ARC
  5
E47
  8
0
 10
319.67520921562681
 20
414.94041713637398
 30
0.0
 40
1.5
 50
199.43026151964381
 51
270.0
  0
ARC
  5
E48
  8
0
 10
296.57055548304959
 20
406.79026524222462
 30
0.0
 40
23.0
 50
6.5624278686341668
 51
36.78678929826156
  0
ARC
  5
E49
  8
0
 10
320.91002959404881
 20
403.99026524222461
 30
0.0
 40
1.5
 50
90.0
 51
173.4375721313655
  0
ARC
  5
E4A
  8
0
 10
320.91002959404881
 20
409.5902652422244
 30
0.0
 40
1.5
 50
186.5624278686345
 51
270.0
  0
ARC
  5
E4B
  8
0
 10
316.19185741668468
 20
421.46181970755379
 30
0.0
 40
1.5
 50
135.0
 51
216.78678929826
  0
ARC
  5
E4C
  8
0
 10
338.32055548304942
 20
414.94041713637398
 30
0.0
 40
1.5
 50
270.0
 51
0.0
  0
ARC
  5
E4D
  8
0
 10
338.32055548304942
 20
403.99026524222461
 30
0.0
 40
1.5
 50
0.0
 51
90.0
  0
ARC
  5
E4E
  8
0
 10
338.32055548304942
 20
409.5902652422244
 30
0.0
 40
1.5
 50
270.0
 51
0.0
  0
LINE
  5
E4F
  8
CENTER
  6
CENTER
 10
343.07055548304942
 20
442.79026524222451
 30
0.0
 11
322.07055548304947
 21
442.79026524222451
 31
0.0
  0
POLYLINE
  5
E50
  8
0
  6
CONTINUOUS
 66
     1
 10
0.0
 20
0.0
 30
0.0
 70
     1
  0
VERTEX
  5
1430
  8
0
  6
CONTINUOUS
 10
335.45730682899762
 20
447.79026524222451
 30
0.0
  0
VERTEX
  5
1431
  8
0
  6
CONTINUOUS
 10
338.3440581749457
 20
442.79026524222451
 30
0.0
  0
VERTEX
  5
1432
  8
0
  6
CONTINUOUS
 10
335.45730682899762
 20
437.79026524222451
 30
0.0
  0
VERTEX
  5
1433
  8
0
  6
CONTINUOUS
 10
329.68380413710139
 20
437.79026524222451
 30
0.0
  0
VERTEX
  5
1434
  8
0
  6
CONTINUOUS
 10
326.79705279115331
 20
442.79026524222451
 30
0.0
  0
VERTEX
  5
1435
  8
0
  6
CONTINUOUS
 10
329.68380413710139
 20
447.79026524222439
 30
0.0
  0
SEQEND
  5
1436
  8
0
  6
CONTINUOUS
  0
ARC
  5
E58
  8
0
 10
332.57055548304947
 20
442.79026524222451
 30
0.0
 40
11.5
 50
240.61849827564839
 51
296.2512139349555
  0
ARC
  5
E59
  8
0
 10
321.24271614408337
 20
436.41217337156439
 30
0.0
 40
1.5
 50
315.0
 51
29.3815017243517
  0
LINE
  5
E5A
  8
0
 10
322.3033763158632
 20
435.35151319978451
 30
0.0
 11
312.30277012015858
 21
425.35090700407989
 31
0.0
  0
ARC
  5
E5B
  8
0
 10
326.19246361238942
 20
431.46242590325852
 30
0.0
 40
1.5
 50
60.618498275650182
 51
135.0
  0
ARC
  5
E5C
  8
0
 10
318.75201275851907
 20
433.21436320481348
 30
0.0
 40
1.0
 50
315.0
 51
49.988541975558569
  0
ARC
  5
E5D
  8
0
 10
332.57055548304947
 20
442.79026524222451
 30
0.0
 40
11.5
 50
153.74878606506351
 51
209.38150172435141
  0
ARC
  5
E5E
  8
0
 10
338.32055548304942
 20
431.1310414258632
 30
0.0
 40
1.5
 50
0.0
 51
116.251213934954
  0
LINE
  5
E5F
  8
0
 10
343.82055548304942
 20
442.79026524222451
 30
0.0
 11
343.82055548304942
 21
370.79026524222451
 31
0.0
  0
LINE
  5
E60
  8
0
  6
CONTINUOUS
 10
352.0705554830493
 20
377.79026524222451
 30
0.0
 11
352.0705554830493
 21
389.79026524222451
 31
0.0
  0
LINE
  5
E61
  8
0
  6
CONTINUOUS
 10
353.07055548304942
 20
377.79026524222451
 30
0.0
 11
355.07055548304942
 21
379.79026524222451
 31
0.0
  0
LINE
  5
E62
  8
0
  6
CONTINUOUS
 10
353.07055548304942
 20
377.79026524222451
 30
0.0
 11
353.07055548304942
 21
389.79026524222451
 31
0.0
  0
ARC
  5
E63
  8
0
  6
CONTINUOUS
 10
341.80833326082592
 20
379.04026524222451
 30
0.0
 40
10.338070658410899
 50
332.64729508745978
 51
27.352704912540158
  0
LINE
  5
E64
  8
0
  6
CONTINUOUS
 10
350.99055548304949
 20
374.29026524222451
 30
0.0
 11
344.07055548304942
 21
374.29026524222451
 31
0.0
  0
LINE
  5
E65
  8
0
  6
CONTINUOUS
 10
352.0705554830493
 20
377.79026524222451
 30
0.0
 11
353.07055548304942
 21
377.79026524222451
 31
0.0
  0
ARC
  5
E66
  8
0
  6
CONTINUOUS
 10
341.80833326082592
 20
388.54026524222451
 30
0.0
 40
10.338070658410899
 50
332.64729508745978
 51
27.352704912540158
  0
LINE
  5
E67
  8
0
  6
CONTINUOUS
 10
344.07055548304942
 20
383.79026524222451
 30
0.0
 11
350.99055548304949
 21
383.79026524222451
 31
0.0
  0
LINE
  5
E68
  8
0
  6
CONTINUOUS
 10
344.07055548304942
 20
383.79026524222451
 30
0.0
 11
350.99055548304949
 21
383.79026524222451
 31
0.0
  0
LINE
  5
E69
  8
0
  6
CONTINUOUS
 62
     2
 10
352.0705554830493
 20
378.99026524222518
 30
0.0
 11
354.2705554830502
 21
378.99026524222518
 31
0.0
  0
LINE
  5
E6A
  8
0
  6
CONTINUOUS
 62
     2
 10
352.0705554830493
 20
388.59026524222378
 30
0.0
 11
354.2705554830502
 21
388.59026524222378
 31
0.0
  0
LINE
  5
E6B
  8
0
  6
CONTINUOUS
 10
352.0705554830493
 20
389.79026524222451
 30
0.0
 11
353.07055548304942
 21
389.79026524222451
 31
0.0
  0
LINE
  5
E6C
  8
0
  6
CONTINUOUS
 10
353.07055548304942
 20
389.79026524222451
 30
0.0
 11
355.07055548304942
 21
387.79026524222451
 31
0.0
  0
LINE
  5
E6D
  8
0
  6
CONTINUOUS
 10
355.07055548304942
 20
379.79026524222451
 30
0.0
 11
355.07055548304942
 21
387.79026524222451
 31
0.0
  0
LINE
  5
E6E
  8
0
  6
CONTINUOUS
 10
350.99055548304949
 20
393.29026524222451
 30
0.0
 11
344.07055548304942
 21
393.29026524222451
 31
0.0
  0
LINE
  5
E6F
  8
0
 10
344.07055548304942
 20
454.29026524222451
 30
0.0
 11
209.07055548304959
 21
454.29026524222451
 31
0.0
  0
LINE
  5
E70
  8
0
 10
332.57055548304947
 20
454.04026524222451
 30
0.0
 11
260.57055548304959
 21
454.04026524222451
 31
0.0
  0
LINE
  5
E71
  8
0
 10
272.22977929941101
 20
450.04026524222451
 30
0.0
 11
293.77055548304958
 21
450.04026524222451
 31
0.0
  0
LINE
  5
E72
  8
0
 10
308.57055548304942
 20
465.29026524222462
 30
0.0
 11
212.5705554830495
 21
465.29026524222462
 31
0.0
  0
LINE
  5
E73
  8
0
 10
307.57055548304947
 20
466.29026524222462
 30
0.0
 11
213.5705554830495
 21
466.29026524222462
 31
0.0
  0
LINE
  5
E74
  8
0
 10
278.07055548304947
 20
467.29026524222462
 30
0.0
 11
243.0705554830495
 21
467.29026524222462
 31
0.0
  0
LINE
  5
E75
  8
0
 10
256.57055548304959
 20
510.79026524222462
 30
0.0
 11
256.57055548304959
 21
473.79026524222462
 31
0.0
  0
LINE
  5
E76
  8
0
 10
264.57055548304947
 20
510.79026524222462
 30
0.0
 11
264.57055548304947
 21
473.79026524222462
 31
0.0
  0
LINE
  5
E77
  8
0
 10
246.5705554830493
 20
516.29026524222445
 30
0.0
 11
246.57055548304959
 21
467.29026524222462
 31
0.0
  0
LINE
  5
E78
  8
0
 10
274.57055548304947
 20
516.29026524222445
 30
0.0
 11
274.57055548304947
 21
467.29026524222462
 31
0.0
  0
LINE
  5
E79
  8
0
 10
212.5705554830495
 20
465.29026524222462
 30
0.0
 11
212.5705554830495
 21
454.29026524222451
 31
0.0
  0
LINE
  5
E7A
  8
0
 10
213.5705554830495
 20
466.29026524222462
 30
0.0
 11
212.5705554830495
 21
465.29026524222462
 31
0.0
  0
LINE
  5
E7B
  8
0
 10
243.0705554830495
 20
467.29026524222462
 30
0.0
 11
243.0705554830495
 21
466.29026524222462
 31
0.0
  0
ARC
  5
E7C
  8
0
  6
CONTINUOUS
 10
260.57055548304959
 20
473.79026524222462
 30
0.0
 40
4.0
 50
180.0
 51
0.0
  0
ARC
  5
E7D
  8
0
  6
CONTINUOUS
 10
260.57055548304959
 20
510.79026524222462
 30
0.0
 40
4.0
 50
0.0
 51
180.0
  0
LINE
  5
E7E
  8
0
 10
273.57055548304959
 20
517.29026524222445
 30
0.0
 11
247.5705554830493
 21
517.29026524222445
 31
0.0
  0
LINE
  5
E7F
  8
0
 10
274.57055548304947
 20
516.29026524222456
 30
0.0
 11
246.57055548304959
 21
516.29026524222445
 31
0.0
  0
LINE
  5
E80
  8
0
 10
247.5705554830493
 20
517.29026524222445
 30
0.0
 11
246.5705554830493
 21
516.29026524222445
 31
0.0
  0
LINE
  5
E81
  8
0
 10
273.57055548304959
 20
517.29026524222445
 30
0.0
 11
274.57055548304947
 21
516.29026524222445
 31
0.0
  0
LINE
  5
E82
  8
0
 10
320.91133166668823
 20
450.04026524222451
 30
0.0
 11
299.37055548304949
 21
450.04026524222451
 31
0.0
  0
ARC
  5
E83
  8
0
 10
293.77055548304958
 20
448.54026524222451
 30
0.0
 40
1.5
 50
0.0
 51
90.0
  0
ARC
  5
E84
  8
0
 10
285.07055548304947
 20
448.54026524222451
 30
0.0
 40
1.5
 50
0.0
 51
90.0
  0
LINE
  5
E85
  8
0
 10
278.07055548304947
 20
467.29026524222462
 30
0.0
 11
278.0705554830493
 21
466.29026524222462
 31
0.0
  0
LINE
  5
E86
  8
0
 10
308.57055548304942
 20
465.29026524222462
 30
0.0
 11
308.57055548304959
 21
454.29026524222451
 31
0.0
  0
ARC
  5
E87
  8
0
 10
299.37055548304949
 20
448.54026524222451
 30
0.0
 40
1.5
 50
90.0
 51
180.0
  0
ARC
  5
E88
  8
0
 10
308.07055548304942
 20
448.54026524222451
 30
0.0
 40
1.5
 50
90.0
 51
180.0
  0
LINE
  5
E89
  8
0
 10
307.57055548304947
 20
466.29026524222462
 30
0.0
 11
308.57055548304942
 21
465.29026524222462
 31
0.0
  0
LINE
  5
E8A
  8
DIM
  6
CONTINUOUS
 10
1060.524230296623
 20
347.29026524222451
 30
0.0
 11
1060.524230296623
 21
517.29026524222445
 31
0.0
  0
LINE
  5
E8B
  8
DIM
  6
CONTINUOUS
 10
1052.524230296623
 20
347.29026524222451
 30
0.0
 11
1052.524230296623
 21
466.29026524222451
 31
0.0
  0
SOLID
  5
E8C
  8
DIM
  6
CONTINUOUS
 10
919.10277518360772
 20
450.598029602954
 30
0.0
 11
918.17786703897525
 21
450.21783896131132
 31
0.0
 12
919.78089303621994
 22
447.63320984823559
 32
0.0
 13
919.78089303621994
 23
447.63320984823559
 33
0.0
  0
LINE
  5
E8D
  8
0
 10
1044.524230296623
 20
454.29026524222451
 30
0.0
 11
1044.524230296623
 21
359.29026524222451
 31
0.0
  0
LINE
  5
E8E
  8
0
 10
909.52423029662373
 20
454.29026524222451
 30
0.0
 11
909.52423029662373
 21
359.29026524222462
 31
0.0
  0
ARC
  5
E8F
  8
0
 10
993.02423029662361
 20
442.79026524222451
 30
0.0
 40
11.25
 50
0.0
 51
90.0
  0
ARC
  5
E90
  8
0
 10
993.02423029662361
 20
442.79026524222451
 30
0.0
 40
11.5
 50
0.0
 51
90.0
  0
ARC
  5
E91
  8
0
 10
981.3650064802622
 20
448.54026524222451
 30
0.0
 40
1.5
 50
333.74878606499061
 51
90.0
  0
CIRCLE
  5
E92
  8
0
 10
993.02423029662361
 20
442.79026524222451
 30
0.0
 40
9.0
  0
LINE
  5
E93
  8
CENTER
  6
CENTER
 10
993.02423029662361
 20
520.29026524222445
 30
0.0
 11
993.02423029662361
 21
344.29026524222451
 31
0.0
  0
ARC
  5
E94
  8
0
 10
932.68345411298503
 20
448.54026524222451
 30
0.0
 40
1.5
 50
90.0
 51
206.25121393501709
  0
LINE
  5
E95
  8
0
 10
947.02423029662373
 20
448.54026524222451
 30
0.0
 11
947.02423029662373
 21
428.42357289500848
 31
0.0
  0
LINE
  5
E96
  8
0
 10
958.32423029662368
 20
448.54026524222451
 30
0.0
 11
958.32423029662368
 21
431.12973935322378
 31
0.0
  0
LINE
  5
E97
  8
0
 10
955.72423029662366
 20
448.54026524222451
 30
0.0
 11
955.72423029662366
 21
431.12973935322378
 31
0.0
  0
LINE
  5
E98
  8
0
 10
967.02423029662361
 20
448.54026524222451
 30
0.0
 11
967.02423029662361
 21
428.42357289500848
 31
0.0
  0
ARC
  5
E99
  8
0
 10
921.02423029662373
 20
442.79026524222451
 30
0.0
 40
11.25
 50
90.0
 51
180.0
  0
ARC
  5
E9A
  8
0
 10
921.02423029662373
 20
442.79026524222451
 30
0.0
 40
11.5
 50
90.0
 51
180.0
  0
LINE
  5
E9B
  8
CENTER
  6
CENTER
 10
921.02423029662373
 20
453.29026524222451
 30
0.0
 11
921.02423029662373
 21
432.29026524222462
 31
0.0
  0
CIRCLE
  5
E9C
  8
0
 10
921.02423029662373
 20
442.79026524222451
 30
0.0
 40
9.0
  0
LINE
  5
E9D
  8
CENTER
  6
CENTER
 10
957.02423029662373
 20
457.29026524222462
 30
0.0
 11
957.02423029662373
 21
356.29026524222451
 31
0.0
  0
LINE
  5
E9E
  8
DIM
  6
CONTINUOUS
 10
909.52423029662373
 20
323.29026524222462
 30
0.0
 11
1044.524230296623
 21
323.29026524222468
 31
0.0
  0
LINE
  5
E9F
  8
DIM
  6
CONTINUOUS
 10
909.52423029662373
 20
331.29026524222462
 30
0.0
 11
1004.524230296623
 21
331.29026524222462
 31
0.0
  0
LINE
  5
EA0
  8
0
 10
909.52423029662373
 20
359.29026524222462
 30
0.0
 11
1044.524230296623
 21
359.29026524222451
 31
0.0
  0
ARC
  5
EA1
  8
0
 10
921.02423029662373
 20
442.79026524222451
 30
0.0
 40
11.5
 50
330.61849827564839
 51
26.251213934945589
  0
ARC
  5
EA2
  8
0
 10
931.07448282831797
 20
427.79026524222439
 30
0.0
 40
1.5
 50
270.0
 51
45.000000000001521
  0
LINE
  5
EA3
  8
0
 10
928.46298233906384
 20
432.52308607503829
 30
0.0
 11
938.46358853476841
 21
422.52247987933367
 31
0.0
  0
LINE
  5
EA4
  8
0
 10
931.29140946380994
 20
435.35151319978451
 30
0.0
 11
941.29201565951473
 21
425.35090700407989
 31
0.0
  0
LINE
  5
EA5
  8
0
 10
915.27423029662361
 20
405.49026524222461
 30
0.0
 11
932.68475618562445
 21
405.49026524222461
 31
0.0
  0
LINE
  5
EA6
  8
0
 10
915.27423029662361
 20
408.09026524222452
 30
0.0
 11
932.68475618562445
 21
408.09026524222452
 31
0.0
  0
LINE
  5
EA7
  8
CENTER
  6
CENTER
 10
906.52423029662384
 20
406.79026524222462
 30
0.0
 11
1047.3700325755649
 21
406.79026524222462
 31
0.0
  0
LINE
  5
EA8
  8
0
 10
928.46298233906384
 20
381.05744440941061
 30
0.0
 11
938.46358853476841
 21
391.05805060511528
 31
0.0
  0
LINE
  5
EA9
  8
0
 10
931.29140946380994
 20
378.22901728466439
 30
0.0
 11
941.29201565951473
 21
388.22962348036913
 31
0.0
  0
ARC
  5
EAA
  8
0
 10
932.68345411298503
 20
365.04026524222451
 30
0.0
 40
1.5
 50
153.7487860649926
 51
270.0
  0
ARC
  5
EAB
  8
0
 10
921.02423029662373
 20
370.79026524222451
 30
0.0
 40
11.5
 50
333.74878606506348
 51
29.381501724351772
  0
LINE
  5
EAC
  8
0
 10
933.91957656404634
 20
400.14011334807498
 30
0.0
 11
915.27423029662361
 21
400.14011334807498
 31
0.0
  0
LINE
  5
EAD
  8
0
 10
933.57448282831774
 20
389.37406675512972
 30
0.0
 11
915.27423029662361
 21
389.37406675512972
 31
0.0
  0
LINE
  5
EAE
  8
0
 10
921.02423029662373
 20
359.54026524222451
 30
0.0
 11
993.02423029662361
 21
359.54026524222451
 31
0.0
  0
LINE
  5
EAF
  8
DIM
  6
CONTINUOUS
 10
909.52423029662373
 20
358.29026524222462
 30
0.0
 11
909.52423029662373
 21
322.29026524222462
 31
0.0
  0
SOLID
  5
EB0
  8
DIM
  6
CONTINUOUS
 10
912.52423029662373
 20
323.79026524222462
 30
0.0
 11
912.52423029662373
 21
322.79026524222462
 31
0.0
 12
909.52423029662373
 22
323.29026524222468
 32
0.0
 13
909.52423029662373
 23
323.29026524222468
 33
0.0
  0
SOLID
  5
EB1
  8
DIM
  6
CONTINUOUS
 10
912.52423029662373
 20
331.79026524222468
 30
0.0
 11
912.52423029662373
 21
330.79026524222462
 31
0.0
 12
909.52423029662373
 22
331.29026524222462
 32
0.0
 13
909.52423029662373
 23
331.29026524222462
 33
0.0
  0
POLYLINE
  5
EB2
  8
DIM
  6
CONTINUOUS
 66
     1
 10
0.0
 20
0.0
 30
0.0
 70
     1
  0
VERTEX
  5
1437
  8
DIM
  6
CONTINUOUS
 10
886.61121498229545
 20
403.72930707024938
 30
0.0
  0
VERTEX
  5
1438
  8
DIM
  6
CONTINUOUS
 10
886.61121498229545
 20
401.6293122904309
 30
0.0
  0
VERTEX
  5
1439
  8
DIM
  6
CONTINUOUS
 10
888.64147199165814
 20
401.6293122904309
 30
0.0
  0
VERTEX
  5
143A
  8
DIM
  6
CONTINUOUS
 10
888.64147199165814
 20
403.72930707024938
 30
0.0
  0
SEQEND
  5
143B
  8
DIM
  6
CONTINUOUS
  0
LINE
  5
EB8
  8
DIM
  6
CONTINUOUS
 10
890.52423029662361
 20
370.79026524222451
 30
0.0
 11
890.52423029662384
 21
442.79026524222451
 31
0.0
  0
LINE
  5
EB9
  8
0
 10
913.77423029662384
 20
382.4494890585857
 30
0.0
 11
913.77423029662384
 21
403.99026524222461
 31
0.0
  0
LINE
  5
EBA
  8
0
 10
909.77423029662373
 20
442.79026524222451
 30
0.0
 11
909.77423029662373
 21
370.79026524222451
 31
0.0
  0
LINE
  5
EBB
  8
DIM
  6
CONTINUOUS
 10
909.52423029662373
 20
370.79026524222451
 30
0.0
 11
889.52423029662361
 21
370.79026524222451
 31
0.0
  0
LINE
  5
EBC
  8
0
  6
CONTINUOUS
 10
900.52423029662373
 20
389.79026524222451
 30
0.0
 11
898.52423029662384
 21
387.79026524222451
 31
0.0
  0
LINE
  5
EBD
  8
0
  6
CONTINUOUS
 10
900.52423029662373
 20
377.79026524222451
 30
0.0
 11
898.52423029662384
 21
379.79026524222451
 31
0.0
  0
LINE
  5
EBE
  8
0
  6
CONTINUOUS
 62
     2
 10
901.52423029662373
 20
388.59026524222378
 30
0.0
 11
899.324230296623
 21
388.59026524222378
 31
0.0
  0
LINE
  5
EBF
  8
0
  6
CONTINUOUS
 62
     2
 10
901.52423029662373
 20
378.99026524222518
 30
0.0
 11
899.324230296623
 21
378.99026524222518
 31
0.0
  0
LINE
  5
EC0
  8
CENTER
  6
CENTER
 10
894.52423029662373
 20
383.79026524222451
 30
0.0
 11
929.73765431799995
 21
383.79026524222451
 31
0.0
  0
SOLID
  5
EC1
  8
DIM
  6
CONTINUOUS
 10
890.02423029662373
 20
373.79026524222451
 30
0.0
 11
891.02423029662373
 21
373.79026524222451
 31
0.0
 12
890.52423029662384
 22
370.79026524222451
 32
0.0
 13
890.52423029662384
 23
370.79026524222451
 33
0.0
  0
LINE
  5
EC2
  8
0
  6
CONTINUOUS
 10
898.52423029662384
 20
379.79026524222451
 30
0.0
 11
898.52423029662384
 21
387.79026524222451
 31
0.0
  0
ARC
  5
EC3
  8
0
  6
CONTINUOUS
 10
911.78645251884734
 20
379.04026524222451
 30
0.0
 40
10.338070658410899
 50
152.64729508745981
 51
207.3527049125401
  0
LINE
  5
EC4
  8
0
  6
CONTINUOUS
 10
900.52423029662373
 20
377.79026524222451
 30
0.0
 11
900.52423029662373
 21
389.79026524222451
 31
0.0
  0
LINE
  5
EC5
  8
0
  6
CONTINUOUS
 10
901.52423029662373
 20
377.79026524222451
 30
0.0
 11
901.52423029662373
 21
389.79026524222451
 31
0.0
  0
LINE
  5
EC6
  8
CENTER
  6
CENTER
 10
921.02423029662373
 20
381.29026524222451
 30
0.0
 11
921.02423029662373
 21
360.29026524222451
 31
0.0
  0
CIRCLE
  5
EC7
  8
0
 10
921.02423029662373
 20
370.79026524222451
 30
0.0
 40
9.0
  0
ARC
  5
EC8
  8
0
 10
921.02423029662373
 20
370.79026524222451
 30
0.0
 40
11.25
 50
180.0
 51
270.0
  0
ARC
  5
EC9
  8
0
 10
921.02423029662373
 20
370.79026524222451
 30
0.0
 40
11.5
 50
180.0
 51
270.0
  0
POLYLINE
  5
ECA
  8
0
  6
CONTINUOUS
 66
     1
 10
0.0
 20
0.0
 30
0.0
 70
     1
  0
VERTEX
  5
143C
  8
0
  6
CONTINUOUS
 10
918.13747895067559
 20
375.79026524222451
 30
0.0
  0
VERTEX
  5
143D
  8
0
  6
CONTINUOUS
 10
915.25072760472733
 20
370.79026524222451
 30
0.0
  0
VERTEX
  5
143E
  8
0
  6
CONTINUOUS
 10
918.13747895067559
 20
365.79026524222451
 30
0.0
  0
VERTEX
  5
143F
  8
0
  6
CONTINUOUS
 10
923.91098164257176
 20
365.79026524222451
 30
0.0
  0
VERTEX
  5
1440
  8
0
  6
CONTINUOUS
 10
926.79773298851978
 20
370.79026524222451
 30
0.0
  0
VERTEX
  5
1441
  8
0
  6
CONTINUOUS
 10
923.91098164257176
 20
375.79026524222451
 30
0.0
  0
SEQEND
  5
1442
  8
0
  6
CONTINUOUS
  0
LINE
  5
ED2
  8
CENTER
  6
CENTER
 10
910.52423029662373
 20
370.79026524222451
 30
0.0
 11
931.52423029662384
 21
370.79026524222451
 31
0.0
  0
LINE
  5
ED3
  8
0
  6
CONTINUOUS
 10
902.60423029662365
 20
374.29026524222451
 30
0.0
 11
909.52423029662373
 21
374.29026524222451
 31
0.0
  0
LINE
  5
ED4
  8
0
  6
CONTINUOUS
 10
901.52423029662373
 20
377.79026524222451
 30
0.0
 11
900.52423029662373
 21
377.79026524222451
 31
0.0
  0
ARC
  5
ED5
  8
0
 10
932.35206963558971
 20
377.16835711288462
 30
0.0
 40
1.5
 50
134.9999999999969
 51
209.3815017243528
  0
LINE
  5
ED6
  8
CENTER
  6
CENTER
 10
906.47809678225667
 20
396.79026524222451
 30
0.0
 11
929.02093828792522
 21
396.79026524222451
 31
0.0
  0
ARC
  5
ED7
  8
0
 10
921.02423029662373
 20
370.79026524222451
 30
0.0
 40
11.5
 50
60.618498275648491
 51
116.2512139349562
  0
ARC
  5
ED8
  8
0
  6
CONTINUOUS
 10
911.78645251884734
 20
388.54026524222451
 30
0.0
 40
10.338070658410899
 50
152.64729508745981
 51
207.3527049125401
  0
LINE
  5
ED9
  8
0
  6
CONTINUOUS
 10
909.52423029662373
 20
383.79026524222451
 30
0.0
 11
902.60423029662365
 21
383.79026524222451
 31
0.0
  0
LINE
  5
EDA
  8
0
  6
CONTINUOUS
 10
909.52423029662373
 20
383.79026524222451
 30
0.0
 11
902.60423029662365
 21
383.79026524222451
 31
0.0
  0
LINE
  5
EDB
  8
0
  6
CONTINUOUS
 10
901.52423029662373
 20
389.79026524222451
 30
0.0
 11
900.52423029662373
 21
389.79026524222451
 31
0.0
  0
ARC
  5
EDC
  8
0
 10
915.27423029662361
 20
387.87406675512972
 30
0.0
 40
1.5
 50
90.0
 51
180.0
  0
ARC
  5
EDD
  8
0
 10
915.27423029662361
 20
382.4494890585857
 30
0.0
 40
1.5
 50
180.0
 51
296.25121393495198
  0
LINE
  5
EDE
  8
0
  6
CONTINUOUS
 10
902.60423029662365
 20
393.29026524222451
 30
0.0
 11
909.52423029662373
 21
393.29026524222451
 31
0.0
  0
ARC
  5
EDF
  8
0
 10
915.27423029662361
 20
398.64011334807498
 30
0.0
 40
1.5
 50
90.0
 51
180.0
  0
ARC
  5
EE0
  8
0
 10
927.40232216728373
 20
382.11810458119049
 30
0.0
 40
1.5
 50
240.61849827564819
 51
314.99999999999841
  0
LINE
  5
EE1
  8
DIM
  6
CONTINUOUS
 10
909.52423029662373
 20
442.79026524222451
 30
0.0
 11
889.52423029662361
 21
442.79026524222451
 31
0.0
  0
TEXT
  5
EE2
  8
DIM
  6
CONTINUOUS
 10
889.02423029662373
 20
404.36169381365312
 30
0.0
 40
3.0
  1
72
 50
90.0
  7
ROMANSS
 72
     1
 11
887.52423029662373
 21
406.79026524222462
 31
0.0
 73
     2
  0
SOLID
  5
EE3
  8
DIM
  6
CONTINUOUS
 10
890.02423029662373
 20
439.79026524222451
 30
0.0
 11
891.02423029662373
 21
439.79026524222451
 31
0.0
 12
890.52423029662384
 22
442.79026524222451
 32
0.0
 13
890.52423029662384
 23
442.79026524222451
 33
0.0
  0
LINE
  5
EE4
  8
0
 10
913.77423029662384
 20
431.1310414258632
 30
0.0
 11
913.77423029662384
 21
409.5902652422244
 31
0.0
  0
LINE
  5
EE5
  8
CENTER
  6
CENTER
 10
906.30426932009266
 20
413.79026524222451
 30
0.0
 11
929.87730626642008
 21
413.79026524222451
 31
0.0
  0
ARC
  5
EE6
  8
0
 10
915.27423029662361
 20
403.99026524222461
 30
0.0
 40
1.5
 50
90.0
 51
180.0
  0
ARC
  5
EE7
  8
0
 10
915.27423029662361
 20
409.5902652422244
 30
0.0
 40
1.5
 50
180.0
 51
270.0
  0
ARC
  5
EE8
  8
0
 10
921.02423029662373
 20
442.79026524222451
 30
0.0
 40
11.5
 50
243.74878606504359
 51
299.38150172435149
  0
LINE
  5
EE9
  8
0
 10
931.07448282831797
 20
426.29026524222439
 30
0.0
 11
915.27423029662361
 21
426.29026524222439
 31
0.0
  0
POLYLINE
  5
EEA
  8
0
  6
CONTINUOUS
 66
     1
 10
0.0
 20
0.0
 30
0.0
 70
     1
  0
VERTEX
  5
1443
  8
0
  6
CONTINUOUS
 10
918.13747895067559
 20
447.79026524222451
 30
0.0
  0
VERTEX
  5
1444
  8
0
  6
CONTINUOUS
 10
915.25072760472733
 20
442.79026524222451
 30
0.0
  0
VERTEX
  5
1445
  8
0
  6
CONTINUOUS
 10
918.13747895067559
 20
437.79026524222451
 30
0.0
  0
VERTEX
  5
1446
  8
0
  6
CONTINUOUS
 10
923.91098164257176
 20
437.79026524222451
 30
0.0
  0
VERTEX
  5
1447
  8
0
  6
CONTINUOUS
 10
926.79773298851978
 20
442.79026524222451
 30
0.0
  0
VERTEX
  5
1448
  8
0
  6
CONTINUOUS
 10
923.91098164257176
 20
447.79026524222439
 30
0.0
  0
SEQEND
  5
1449
  8
0
  6
CONTINUOUS
  0
LINE
  5
EF2
  8
CENTER
  6
CENTER
 10
910.52423029662373
 20
442.79026524222451
 30
0.0
 11
931.52423029662384
 21
442.79026524222451
 31
0.0
  0
ARC
  5
EF3
  8
0
 10
915.27423029662361
 20
431.1310414258632
 30
0.0
 40
1.5
 50
63.748786065048918
 51
180.0
  0
ARC
  5
EF4
  8
0
 10
915.27423029662361
 20
427.79026524222439
 30
0.0
 40
1.5
 50
180.0
 51
270.0
  0
ARC
  5
EF5
  8
0
 10
932.35206963558971
 20
436.41217337156439
 30
0.0
 40
1.5
 50
150.6184982756472
 51
225.00000000000151
  0
ARC
  5
EF6
  8
0
 10
927.40232216728373
 20
431.46242590325852
 30
0.0
 40
1.5
 50
45.000000000001521
 51
119.38150172435159
  0
LINE
  5
EF7
  8
DIM
  6
CONTINUOUS
 10
1044.524230296623
 20
358.29026524222451
 30
0.0
 11
1044.524230296623
 21
322.29026524222462
 31
0.0
  0
LINE
  5
EF8
  8
DIM
  6
CONTINUOUS
 10
1004.524230296623
 20
369.79026524222451
 30
0.0
 11
1004.524230296623
 21
340.5073651594513
 31
0.0
  0
LINE
  5
EF9
  8
0
 10
1041.024230296623
 20
359.29026524222451
 30
0.0
 11
1041.024230296623
 21
348.29026524222451
 31
0.0
  0
LINE
  5
EFA
  8
0
 10
945.02423029662339
 20
359.29026524222451
 30
0.0
 11
945.02423029662384
 21
348.29026524222468
 31
0.0
  0
LINE
  5
EFB
  8
DIM
  6
CONTINUOUS
 10
957.02423029662373
 20
339.29026524222468
 30
0.0
 11
1044.524230296623
 21
339.29026524222462
 31
0.0
  0
LINE
  5
EFC
  8
0
 10
945.02423029662384
 20
348.29026524222451
 30
0.0
 11
1041.024230296623
 21
348.29026524222451
 31
0.0
  0
LINE
  5
EFD
  8
0
 10
946.02423029662373
 20
347.29026524222462
 30
0.0
 11
1040.024230296623
 21
347.29026524222451
 31
0.0
  0
LINE
  5
EFE
  8
0
 10
945.02423029662384
 20
348.29026524222468
 30
0.0
 11
946.02423029662373
 21
347.29026524222462
 31
0.0
  0
LINE
  5
EFF
  8
DIM
  6
CONTINUOUS
 10
957.02423029662373
 20
355.29026524222451
 30
0.0
 11
957.02423029662373
 21
338.29026524222462
 31
0.0
  0
TEXT
  5
F00
  8
DIM
  6
CONTINUOUS
 10
954.59565886805228
 20
332.79026524222462
 30
0.0
 40
3.0
  1
95
  7
ROMANSS
 72
     1
 11
957.02423029662373
 21
334.29026524222462
 31
0.0
 73
     2
  0
SOLID
  5
F01
  8
DIM
  6
CONTINUOUS
 10
960.02423029662361
 20
339.79026524222462
 30
0.0
 11
960.02423029662361
 21
338.79026524222462
 31
0.0
 12
957.02423029662373
 22
339.29026524222462
 32
0.0
 13
957.02423029662373
 23
339.29026524222462
 33
0.0
  0
POLYLINE
  5
F02
  8
DIM
  6
CONTINUOUS
 66
     1
 10
0.0
 20
0.0
 30
0.0
 70
     1
  0
VERTEX
  5
144A
  8
DIM
  6
CONTINUOUS
 10
953.99729298361797
 20
335.20778232217032
 30
0.0
  0
VERTEX
  5
144B
  8
DIM
  6
CONTINUOUS
 10
953.99729298361797
 20
332.98085400816592
 30
0.0
  0
VERTEX
  5
144C
  8
DIM
  6
CONTINUOUS
 10
951.89090944405018
 20
332.98085400816592
 30
0.0
  0
VERTEX
  5
144D
  8
DIM
  6
CONTINUOUS
 10
951.89090944405018
 20
335.20778232217032
 30
0.0
  0
SEQEND
  5
144E
  8
DIM
  6
CONTINUOUS
  0
TEXT
  5
F08
  8
DIM
  6
CONTINUOUS
 10
973.45280172519506
 20
324.79026524222462
 30
0.0
 40
3.0
  1
135
  7
ROMANSS
 72
     1
 11
977.02423029662361
 21
326.29026524222462
 31
0.0
 73
     2
  0
TEXT
  5
F09
  8
DIM
  6
CONTINUOUS
 10
972.66708743948095
 20
340.79026524222462
 30
0.0
 40
3.0
  1
36
  7
ROMANSS
 72
     1
 11
975.02423029662373
 21
342.29026524222468
 31
0.0
 73
     2
  0
SOLID
  5
F0A
  8
DIM
  6
CONTINUOUS
 10
990.02423029662373
 20
339.79026524222462
 30
0.0
 11
990.02423029662373
 21
338.79026524222462
 31
0.0
 12
993.02423029662361
 22
339.29026524222462
 32
0.0
 13
993.02423029662361
 23
339.29026524222462
 33
0.0
  0
SOLID
  5
F0B
  8
DIM
  6
CONTINUOUS
 10
996.02423029662373
 20
339.79026524222462
 30
0.0
 11
996.02423029662373
 21
338.79026524222462
 31
0.0
 12
993.02423029662361
 22
339.29026524222462
 32
0.0
 13
993.02423029662361
 23
339.29026524222462
 33
0.0
  0
LINE
  5
F0C
  8
DIM
  6
CONTINUOUS
 10
993.02423029662361
 20
343.29026524222451
 30
0.0
 11
993.02423029662361
 21
338.29026524222462
 31
0.0
  0
LINE
  5
F0D
  8
DIM
  6
CONTINUOUS
 10
993.02423029662361
 20
343.29026524222451
 30
0.0
 11
993.02423029662361
 21
338.29026524222462
 31
0.0
  0
LINE
  5
F0E
  8
DIM
  6
CONTINUOUS
 10
1004.524230296623
 20
338.07314111951848
 30
0.0
 11
1004.524230296623
 21
330.29026524222462
 31
0.0
  0
SOLID
  5
F0F
  8
DIM
  6
CONTINUOUS
 10
1001.524230296623
 20
331.79026524222468
 30
0.0
 11
1001.524230296623
 21
330.79026524222462
 31
0.0
 12
1004.524230296623
 22
331.29026524222462
 32
0.0
 13
1004.524230296623
 23
331.29026524222462
 33
0.0
  0
TEXT
  5
F10
  8
DIM
  6
CONTINUOUS
 10
1014.4885160109091
 20
340.79026524222462
 30
0.0
 40
3.0
  1
51.5
  7
ROMANSS
 72
     1
 11
1018.774230296623
 21
342.29026524222468
 31
0.0
 73
     2
  0
SOLID
  5
F11
  8
DIM
  6
CONTINUOUS
 10
1041.524230296623
 20
323.79026524222462
 30
0.0
 11
1041.524230296623
 21
322.79026524222462
 31
0.0
 12
1044.524230296623
 22
323.29026524222468
 32
0.0
 13
1044.524230296623
 23
323.29026524222468
 33
0.0
  0
LINE
  5
F12
  8
DIM
  6
CONTINUOUS
 10
1041.024230296623
 20
347.29026524222451
 30
0.0
 11
1061.524230296623
 21
347.29026524222451
 31
0.0
  0
SOLID
  5
F13
  8
DIM
  6
CONTINUOUS
 10
1041.524230296623
 20
339.79026524222462
 30
0.0
 11
1041.524230296623
 21
338.79026524222462
 31
0.0
 12
1044.524230296623
 22
339.29026524222462
 32
0.0
 13
1044.524230296623
 23
339.29026524222462
 33
0.0
  0
LINE
  5
F14
  8
0
 10
1041.024230296623
 20
348.29026524222451
 30
0.0
 11
1040.024230296623
 21
347.29026524222451
 31
0.0
  0
TEXT
  5
F15
  8
DIM
  6
CONTINUOUS
 10
1051.024230296623
 20
351.1474080993674
 30
0.0
 40
3.0
  1
12
 50
90.0
  7
ROMANSS
 72
     1
 11
1049.524230296623
 21
353.29026524222451
 31
0.0
 73
     2
  0
SOLID
  5
F16
  8
DIM
  6
CONTINUOUS
 10
1052.024230296623
 20
350.29026524222451
 30
0.0
 11
1053.024230296623
 21
350.29026524222451
 31
0.0
 12
1052.524230296623
 22
347.29026524222451
 32
0.0
 13
1052.524230296623
 23
347.29026524222451
 33
0.0
  0
SOLID
  5
F17
  8
DIM
  6
CONTINUOUS
 10
1060.024230296623
 20
350.29026524222451
 30
0.0
 11
1061.024230296623
 21
350.29026524222451
 31
0.0
 12
1060.524230296623
 22
347.29026524222451
 32
0.0
 13
1060.524230296623
 23
347.29026524222451
 33
0.0
  0
LINE
  5
F18
  8
CENTER
  6
CENTER
 10
982.52423029662384
 20
442.79026524222451
 30
0.0
 11
1003.524230296623
 21
442.79026524222451
 31
0.0
  0
POLYLINE
  5
F19
  8
0
  6
CONTINUOUS
 66
     1
 10
0.0
 20
0.0
 30
0.0
 70
     1
  0
VERTEX
  5
144F
  8
0
  6
CONTINUOUS
 10
990.13747895067547
 20
447.79026524222451
 30
0.0
  0
VERTEX
  5
1450
  8
0
  6
CONTINUOUS
 10
987.25072760472744
 20
442.79026524222451
 30
0.0
  0
VERTEX
  5
1451
  8
0
  6
CONTINUOUS
 10
990.13747895067547
 20
437.79026524222451
 30
0.0
  0
VERTEX
  5
1452
  8
0
  6
CONTINUOUS
 10
995.91098164257187
 20
437.79026524222451
 30
0.0
  0
VERTEX
  5
1453
  8
0
  6
CONTINUOUS
 10
998.79773298851967
 20
442.79026524222451
 30
0.0
  0
VERTEX
  5
1454
  8
0
  6
CONTINUOUS
 10
995.91098164257187
 20
447.79026524222439
 30
0.0
  0
SEQEND
  5
1455
  8
0
  6
CONTINUOUS
  0
ARC
  5
F21
  8
0
 10
998.77423029662373
 20
431.1310414258632
 30
0.0
 40
1.5
 50
0.0
 51
116.2512139349608
  0
LINE
  5
F22
  8
0
 10
998.77423029662373
 20
416.79026524222451
 30
0.0
 11
978.6575379494077
 21
416.79026524222451
 31
0.0
  0
LINE
  5
F23
  8
0
 10
998.77423029662373
 20
408.09026524222452
 30
0.0
 11
981.36370440762278
 21
408.09026524222452
 31
0.0
  0
LINE
  5
F24
  8
0
 10
998.77423029662373
 20
405.49026524222461
 30
0.0
 11
981.36370440762278
 21
405.49026524222461
 31
0.0
  0
ARC
  5
F25
  8
0
 10
998.77423029662373
 20
382.4494890585857
 30
0.0
 40
1.5
 50
243.74878606503921
 51
0.0
  0
LINE
  5
F26
  8
0
 10
998.77423029662373
 20
396.79026524222451
 30
0.0
 11
978.6575379494077
 21
396.79026524222451
 31
0.0
  0
LINE
  5
F27
  8
CENTER
  6
CENTER
 10
982.52423029662384
 20
370.79026524222451
 30
0.0
 11
1003.524230296623
 21
370.79026524222451
 31
0.0
  0
POLYLINE
  5
F28
  8
0
  6
CONTINUOUS
 66
     1
 10
0.0
 20
0.0
 30
0.0
 70
     1
  0
VERTEX
  5
1456
  8
0
  6
CONTINUOUS
 10
990.13747895067547
 20
375.79026524222451
 30
0.0
  0
VERTEX
  5
1457
  8
0
  6
CONTINUOUS
 10
987.25072760472744
 20
370.79026524222451
 30
0.0
  0
VERTEX
  5
1458
  8
0
  6
CONTINUOUS
 10
990.13747895067547
 20
365.79026524222451
 30
0.0
  0
VERTEX
  5
1459
  8
0
  6
CONTINUOUS
 10
995.91098164257187
 20
365.79026524222451
 30
0.0
  0
VERTEX
  5
145A
  8
0
  6
CONTINUOUS
 10
998.79773298851967
 20
370.79026524222451
 30
0.0
  0
VERTEX
  5
145B
  8
0
  6
CONTINUOUS
 10
995.91098164257187
 20
375.79026524222451
 30
0.0
  0
SEQEND
  5
145C
  8
0
  6
CONTINUOUS
  0
CIRCLE
  5
F30
  8
0
 10
993.02423029662361
 20
370.79026524222451
 30
0.0
 40
9.0
  0
ARC
  5
F31
  8
0
 10
993.02423029662361
 20
370.79026524222451
 30
0.0
 40
11.25
 50
270.0
 51
0.0
  0
ARC
  5
F32
  8
0
 10
993.02423029662361
 20
370.79026524222451
 30
0.0
 40
11.5
 50
270.0
 51
0.0
  0
ARC
  5
F33
  8
0
 10
957.02423029662373
 20
406.79026524222462
 30
0.0
 40
23.0
 50
323.21321070173821
 51
353.43757213136593
  0
ARC
  5
F34
  8
0
 10
957.02423029662373
 20
406.79026524222462
 30
0.0
 40
23.0
 50
186.56242786863399
 51
216.7867892982616
  0
CIRCLE
  5
F35
  8
0
 10
957.02423029662373
 20
406.79026524222462
 30
0.0
 40
22.5
  0
LINE
  5
F36
  8
0
 10
981.3650064802622
 20
363.54026524222451
 30
0.0
 11
959.82423029662368
 21
363.54026524222451
 31
0.0
  0
ARC
  5
F37
  8
0
 10
957.02423029662373
 20
406.79026524222462
 30
0.0
 40
23.0
 50
276.56242786863402
 51
306.78678929826162
  0
ARC
  5
F38
  8
0
 10
957.02423029662373
 20
406.79026524222462
 30
0.0
 40
35.5
 50
229.98854197555599
 51
251.4071774505731
  0
LINE
  5
F39
  8
0
 10
955.72423029662366
 20
365.04026524222451
 30
0.0
 11
955.72423029662366
 21
382.45079113122517
 31
0.0
  0
LINE
  5
F3A
  8
0
 10
958.32423029662368
 20
365.04026524222451
 30
0.0
 11
958.32423029662368
 21
382.45079113122517
 31
0.0
  0
LINE
  5
F3B
  8
0
 10
947.02423029662373
 20
365.04026524222451
 30
0.0
 11
947.02423029662373
 21
385.15695758944048
 31
0.0
  0
LINE
  5
F3C
  8
0
 10
932.68345411298503
 20
363.54026524222451
 30
0.0
 11
954.22423029662377
 21
363.54026524222451
 31
0.0
  0
ARC
  5
F3D
  8
0
 10
945.52423029662373
 20
365.04026524222451
 30
0.0
 40
1.5
 50
270.0
 51
0.0
  0
ARC
  5
F3E
  8
0
 10
946.02423029662373
 20
374.0908768687396
 30
0.0
 40
1.0
 50
251.40717745056719
 51
0.0
  0
ARC
  5
F3F
  8
0
 10
954.22423029662377
 20
365.04026524222451
 30
0.0
 40
1.5
 50
270.0
 51
0.0
  0
ARC
  5
F40
  8
0
 10
959.82423029662368
 20
365.04026524222451
 30
0.0
 40
1.5
 50
180.0
 51
270.0
  0
ARC
  5
F41
  8
0
 10
957.02423029662373
 20
406.79026524222462
 30
0.0
 40
23.0
 50
233.21321070173829
 51
263.43757213136541
  0
ARC
  5
F42
  8
0
 10
933.57448282831774
 20
387.87406675512972
 30
0.0
 40
1.5
 50
351.50526946671789
 51
90.0
  0
ARC
  5
F43
  8
0
 10
934.84277302115402
 20
380.36616727963542
 30
0.0
 40
1.0
 50
135.00000000000219
 51
229.98854197554681
  0
ARC
  5
F44
  8
0
 10
945.52423029662373
 20
385.15695758944048
 30
0.0
 40
1.5
 50
0.0
 51
62.005438267749533
  0
ARC
  5
F45
  8
0
 10
942.35267583129428
 20
387.1689633085893
 30
0.0
 40
1.5
 50
53.213210701744771
 51
134.9999999999969
  0
ARC
  5
F46
  8
0
 10
937.40292836298852
 20
392.11871077689511
 30
0.0
 40
1.5
 50
314.99999999999841
 51
36.786789298261731
  0
ARC
  5
F47
  8
0
 10
933.91957656404634
 20
398.64011334807498
 30
0.0
 40
1.5
 50
19.43026151964801
 51
90.0
  0
ARC
  5
F48
  8
0
 10
954.22423029662377
 20
382.45079113122517
 30
0.0
 40
1.5
 50
0.0
 51
83.437572131365485
  0
ARC
  5
F49
  8
0
 10
959.82423029662368
 20
382.45079113122517
 30
0.0
 40
1.5
 50
96.562427868634515
 51
180.0
  0
LINE
  5
F4A
  8
0
 10
982.75705112943751
 20
378.22901728466439
 30
0.0
 11
972.75644493373295
 21
388.22962348036913
 31
0.0
  0
LINE
  5
F4B
  8
0
 10
967.02423029662361
 20
365.04026524222451
 30
0.0
 11
967.02423029662361
 21
385.15695758944048
 31
0.0
  0
ARC
  5
F4C
  8
0
 10
957.02423029662373
 20
406.79026524222462
 30
0.0
 40
35.5
 50
288.59282254942627
 51
310.01145802444398
  0
ARC
  5
F4D
  8
0
 10
981.3650064802622
 20
365.04026524222451
 30
0.0
 40
1.5
 50
270.0
 51
26.25121393499963
  0
ARC
  5
F4E
  8
0
 10
993.02423029662361
 20
370.79026524222451
 30
0.0
 40
11.5
 50
150.61849827564819
 51
206.25121393492699
  0
ARC
  5
F4F
  8
0
 10
968.52423029662373
 20
365.04026524222451
 30
0.0
 40
1.5
 50
180.0
 51
270.0
  0
ARC
  5
F50
  8
0
 10
968.02423029662361
 20
374.0908768687396
 30
0.0
 40
1.0
 50
180.0
 51
288.59282254941832
  0
ARC
  5
F51
  8
0
 10
981.69639095765774
 20
377.16835711288462
 30
0.0
 40
1.5
 50
330.6184982756472
 51
45.000000000003062
  0
LINE
  5
F52
  8
0
 10
985.58547825418384
 20
381.05744440941061
 30
0.0
 11
975.58487205847905
 21
391.05805060511528
 31
0.0
  0
ARC
  5
F53
  8
0
 10
971.69578476195295
 20
387.1689633085893
 30
0.0
 40
1.5
 50
45.000000000001521
 51
126.78678929826469
  0
ARC
  5
F54
  8
0
 10
968.52423029662373
 20
385.15695758944048
 30
0.0
 40
1.5
 50
117.9945617322591
 51
180.0
  0
ARC
  5
F55
  8
0
 10
979.20568757209344
 20
380.36616727963542
 30
0.0
 40
1.0
 50
310.01145802444393
 51
45.000000000006899
  0
ARC
  5
F56
  8
0
 10
978.6575379494077
 20
395.29026524222451
 30
0.0
 40
1.5
 50
90.0
 51
152.00543826774759
  0
ARC
  5
F57
  8
0
 10
976.64553223025905
 20
392.11871077689523
 30
0.0
 40
1.5
 50
143.21321070173821
 51
225.00000000000151
  0
ARC
  5
F58
  8
0
 10
957.02423029662373
 20
406.79026524222462
 30
0.0
 40
35.5
 50
319.98854197555619
 51
341.40717745057339
  0
ARC
  5
F59
  8
0
 10
993.02423029662361
 20
370.79026524222451
 30
0.0
 40
11.5
 50
63.748786065044897
 51
119.38150172435149
  0
ARC
  5
F5A
  8
0
 10
983.44832825921276
 20
384.60880796675468
 30
0.0
 40
1.0
 50
224.99999999999761
 51
319.98854197555391
  0
ARC
  5
F5B
  8
0
 10
986.64613842596339
 20
382.11810458119049
 30
0.0
 40
1.5
 50
224.99999999999531
 51
299.38150172435172
  0
ARC
  5
F5C
  8
0
 10
989.72361867010864
 20
395.79026524222451
 30
0.0
 40
1.0
 50
341.40717745057128
 51
90.0
  0
ARC
  5
F5D
  8
0
 10
957.02423029662373
 20
406.79026524222462
 30
0.0
 40
23.0
 50
53.213210701738348
 51
83.437572131365954
  0
ARC
  5
F5E
  8
0
 10
942.35267583129428
 20
426.41156717585972
 30
0.0
 40
1.5
 50
225.00000000000151
 51
306.7867892982552
  0
ARC
  5
F5F
  8
0
 10
957.02423029662373
 20
406.79026524222462
 30
0.0
 40
23.0
 50
143.2132107017386
 51
173.43757213136581
  0
ARC
  5
F60
  8
0
 10
932.68475618562445
 20
409.5902652422244
 30
0.0
 40
1.5
 50
270.0
 51
353.43757213136541
  0
ARC
  5
F61
  8
0
 10
932.68475618562445
 20
403.99026524222461
 30
0.0
 40
1.5
 50
6.5624278686345097
 51
90.0
  0
ARC
  5
F62
  8
0
 10
937.4029283629884
 20
421.46181970755379
 30
0.0
 40
1.5
 50
323.21321070173991
 51
45.000000000001521
  0
ARC
  5
F63
  8
0
 10
957.02423029662373
 20
406.79026524222462
 30
0.0
 40
23.0
 50
96.562427868634586
 51
126.7867892982615
  0
ARC
  5
F64
  8
0
 10
957.02423029662373
 20
406.79026524222462
 30
0.0
 40
35.5
 50
108.5928225494267
 51
130.0114580244439
  0
ARC
  5
F65
  8
0
 10
934.84277302115402
 20
433.21436320481348
 30
0.0
 40
1.0
 50
130.011458024446
 51
224.99999999999761
  0
ARC
  5
F66
  8
0
 10
945.52423029662373
 20
428.42357289500848
 30
0.0
 40
1.5
 50
297.99456173225042
 51
0.0
  0
ARC
  5
F67
  8
0
 10
946.02423029662373
 20
439.4896536157093
 30
0.0
 40
1.0
 50
0.0
 51
108.5928225494327
  0
ARC
  5
F68
  8
0
 10
954.22423029662377
 20
431.12973935322378
 30
0.0
 40
1.5
 50
276.56242786863447
 51
0.0
  0
ARC
  5
F69
  8
0
 10
959.82423029662368
 20
431.12973935322378
 30
0.0
 40
1.5
 50
180.0
 51
263.43757213136541
  0
ARC
  5
F6A
  8
0
 10
957.02423029662373
 20
406.79026524222462
 30
0.0
 40
35.5
 50
18.592822549426781
 51
40.011458024444032
  0
ARC
  5
F6B
  8
0
 10
971.69578476195295
 20
426.41156717585972
 30
0.0
 40
1.5
 50
233.21321070173519
 51
314.99999999999841
  0
LINE
  5
F6C
  8
0
 10
985.58547825418384
 20
432.52308607503829
 30
0.0
 11
975.58487205847905
 21
422.52247987933367
 31
0.0
  0
ARC
  5
F6D
  8
0
 10
957.02423029662373
 20
406.79026524222462
 30
0.0
 40
23.0
 50
6.5624278686341668
 51
36.78678929826215
  0
ARC
  5
F6E
  8
0
 10
981.36370440762278
 20
409.5902652422244
 30
0.0
 40
1.5
 50
186.5624278686345
 51
270.0
  0
ARC
  5
F6F
  8
0
 10
981.36370440762278
 20
403.99026524222461
 30
0.0
 40
1.5
 50
90.0
 51
173.4375721313655
  0
ARC
  5
F70
  8
0
 10
976.64553223025882
 20
421.46181970755379
 30
0.0
 40
1.5
 50
135.0000000000046
 51
216.78678929826171
  0
ARC
  5
F71
  8
0
 10
978.6575379494077
 20
418.29026524222451
 30
0.0
 40
1.5
 50
207.99456173225039
 51
270.0
  0
ARC
  5
F72
  8
0
 10
989.72361867010864
 20
417.79026524222451
 30
0.0
 40
1.0
 50
270.0
 51
18.59282254942865
  0
ARC
  5
F73
  8
0
 10
993.02423029662361
 20
442.79026524222451
 30
0.0
 40
11.5
 50
153.74878606506371
 51
209.38150172435141
  0
LINE
  5
F74
  8
0
 10
982.75705112943751
 20
435.35151319978451
 30
0.0
 11
972.75644493373295
 21
425.35090700407989
 31
0.0
  0
ARC
  5
F75
  8
0
 10
957.02423029662373
 20
406.79026524222462
 30
0.0
 40
35.5
 50
49.988541975556039
 51
71.407177450573585
  0
ARC
  5
F76
  8
0
 10
968.52423029662373
 20
428.42357289500848
 30
0.0
 40
1.5
 50
180.0
 51
242.0054382677408
  0
ARC
  5
F77
  8
0
 10
979.20568757209344
 20
433.21436320481348
 30
0.0
 40
1.0
 50
314.99999999999301
 51
49.988541975563173
  0
ARC
  5
F78
  8
0
 10
968.02423029662361
 20
439.4896536157093
 30
0.0
 40
1.0
 50
71.407177450581642
 51
180.0
  0
ARC
  5
F79
  8
0
 10
981.69639095765774
 20
436.41217337156439
 30
0.0
 40
1.5
 50
314.99999999999841
 51
29.38150172435277
  0
ARC
  5
F7A
  8
0
 10
993.02423029662361
 20
442.79026524222451
 30
0.0
 40
11.5
 50
240.61849827564839
 51
296.25121393495499
  0
ARC
  5
F7B
  8
0
 10
983.44832825921276
 20
428.97172251769422
 30
0.0
 40
1.0
 50
40.011458024446
 51
135.00000000000219
  0
ARC
  5
F7C
  8
0
 10
986.64613842596339
 20
431.46242590325852
 30
0.0
 40
1.5
 50
60.618498275648292
 51
135.0000000000046
  0
LINE
  5
F7D
  8
0
 10
1000.274230296623
 20
382.4494890585857
 30
0.0
 11
1000.274230296623
 21
403.99026524222461
 31
0.0
  0
LINE
  5
F7E
  8
0
 10
1004.274230296623
 20
442.79026524222451
 30
0.0
 11
1004.274230296623
 21
370.79026524222451
 31
0.0
  0
LINE
  5
F7F
  8
0
 10
1004.524230296623
 20
442.79026524222451
 30
0.0
 11
1004.524230296623
 21
370.79026524222451
 31
0.0
  0
ARC
  5
F80
  8
0
 10
998.77423029662373
 20
395.29026524222451
 30
0.0
 40
1.5
 50
0.0
 51
90.0
  0
LINE
  5
F81
  8
DIM
  6
CONTINUOUS
 10
1045.524230296623
 20
359.29026524222451
 30
0.0
 11
1053.524230296623
 21
359.29026524222451
 31
0.0
  0
SOLID
  5
F82
  8
DIM
  6
CONTINUOUS
 10
1052.024230296623
 20
356.29026524222451
 30
0.0
 11
1053.024230296623
 21
356.29026524222451
 31
0.0
 12
1052.524230296623
 22
359.29026524222451
 32
0.0
 13
1052.524230296623
 23
359.29026524222451
 33
0.0
  0
LINE
  5
F83
  8
0
 10
1000.274230296623
 20
431.1310414258632
 30
0.0
 11
1000.274230296623
 21
409.5902652422244
 31
0.0
  0
ARC
  5
F84
  8
0
 10
998.77423029662373
 20
403.99026524222461
 30
0.0
 40
1.5
 50
0.0
 51
90.0
  0
ARC
  5
F85
  8
0
 10
998.77423029662373
 20
409.5902652422244
 30
0.0
 40
1.5
 50
270.0
 51
0.0
  0
ARC
  5
F86
  8
0
 10
998.77423029662373
 20
418.29026524222451
 30
0.0
 40
1.5
 50
270.0
 51
0.0
  0
TEXT
  5
F87
  8
DIM
  6
CONTINUOUS
 10
1051.024230296623
 20
404.8753255823633
 30
0.0
 40
3.0
  1
95
 50
90.0
  7
ROMANSS
 72
     1
 11
1049.524230296623
 21
407.3038970109348
 31
0.0
 73
     2
  0
TEXT
  5
F88
  8
DIM
  6
CONTINUOUS
 10
1059.024230296623
 20
428.71883667079601
 30
0.0
 40
3.0
  1
170
 50
90.0
  7
ROMANSS
 72
     1
 11
1057.524230296623
 21
432.29026524222462
 31
0.0
 73
     2
  0
LINE
  5
F89
  8
0
 10
909.52423029662373
 20
454.29026524222451
 30
0.0
 11
1044.524230296623
 21
454.29026524222451
 31
0.0
  0
LINE
  5
F8A
  8
0
 10
921.02423029662373
 20
454.04026524222451
 30
0.0
 11
993.02423029662361
 21
454.04026524222451
 31
0.0
  0
TEXT
  5
F8B
  8
DIM
  6
CONTINUOUS
 10
880.72407774180476
 20
470.85982617587428
 30
0.0
 40
3.0
  1
2x4-M10x15L
  7
ROMANSS
 72
     2
 11
910.43836345609066
 21
472.35982617587428
 31
0.0
 73
     2
  0
LINE
  5
F8C
  8
DIM
  6
CONTINUOUS
 10
910.84999946557616
 20
469.35982617587428
 30
0.0
 11
883.31336345609066
 21
469.35982617587428
 31
0.0
  0
LINE
  5
F8D
  8
DIM
  6
CONTINUOUS
 10
918.64032111129154
 20
450.40793428213249
 30
0.0
 11
910.84999946557616
 21
469.35982617587428
 31
0.0
  0
LINE
  5
F8E
  8
0
 10
975.52423029662373
 20
467.29026524222462
 30
0.0
 11
1010.524230296623
 21
467.29026524222462
 31
0.0
  0
LINE
  5
F8F
  8
0
 10
980.02423029662373
 20
517.29026524222445
 30
0.0
 11
1006.024230296623
 21
517.29026524222445
 31
0.0
  0
LINE
  5
F90
  8
0
 10
979.02423029662373
 20
516.29026524222456
 30
0.0
 11
1007.024230296623
 21
516.29026524222445
 31
0.0
  0
LINE
  5
F91
  8
0
 10
945.02423029662384
 20
465.29026524222462
 30
0.0
 11
1041.024230296623
 21
465.29026524222462
 31
0.0
  0
LINE
  5
F92
  8
0
 10
946.02423029662373
 20
466.29026524222462
 30
0.0
 11
1040.024230296623
 21
466.29026524222462
 31
0.0
  0
LINE
  5
F93
  8
0
 10
979.02423029662373
 20
516.29026524222445
 30
0.0
 11
979.02423029662373
 21
467.29026524222462
 31
0.0
  0
LINE
  5
F94
  8
0
 10
981.3650064802622
 20
450.04026524222451
 30
0.0
 11
959.82423029662368
 21
450.04026524222451
 31
0.0
  0
LINE
  5
F95
  8
0
 10
932.68345411298503
 20
450.04026524222451
 30
0.0
 11
954.22423029662377
 21
450.04026524222451
 31
0.0
  0
LINE
  5
F96
  8
0
 10
945.02423029662384
 20
465.29026524222462
 30
0.0
 11
945.02423029662339
 21
454.29026524222451
 31
0.0
  0
ARC
  5
F97
  8
0
 10
945.52423029662373
 20
448.54026524222451
 30
0.0
 40
1.5
 50
0.0
 51
90.0
  0
LINE
  5
F98
  8
0
 10
946.02423029662373
 20
466.29026524222462
 30
0.0
 11
945.02423029662384
 21
465.29026524222462
 31
0.0
  0
ARC
  5
F99
  8
0
 10
954.22423029662377
 20
448.54026524222451
 30
0.0
 40
1.5
 50
0.0
 51
90.0
  0
ARC
  5
F9A
  8
0
 10
959.82423029662368
 20
448.54026524222451
 30
0.0
 40
1.5
 50
90.0
 51
180.0
  0
ARC
  5
F9B
  8
0
 10
968.52423029662373
 20
448.54026524222451
 30
0.0
 40
1.5
 50
90.0
 51
180.0
  0
LINE
  5
F9C
  8
0
 10
975.52423029662373
 20
467.29026524222462
 30
0.0
 11
975.52423029662373
 21
466.29026524222462
 31
0.0
  0
LINE
  5
F9D
  8
0
 10
980.02423029662373
 20
517.29026524222445
 30
0.0
 11
979.02423029662373
 21
516.29026524222445
 31
0.0
  0
LINE
  5
F9E
  8
0
 10
1007.024230296623
 20
516.29026524222445
 30
0.0
 11
1007.024230296623
 21
467.29026524222462
 31
0.0
  0
LINE
  5
F9F
  8
0
 10
1010.524230296623
 20
467.29026524222462
 30
0.0
 11
1010.524230296623
 21
466.29026524222462
 31
0.0
  0
LINE
  5
FA0
  8
DIM
  6
CONTINUOUS
 10
1041.024230296623
 20
466.29026524222451
 30
0.0
 11
1053.524230296623
 21
466.29026524222451
 31
0.0
  0
LINE
  5
FA1
  8
DIM
  6
CONTINUOUS
 10
1045.524230296623
 20
454.29026524222451
 30
0.0
 11
1053.524230296623
 21
454.29026524222451
 31
0.0
  0
LINE
  5
FA2
  8
0
 10
1041.024230296623
 20
465.29026524222462
 30
0.0
 11
1041.024230296623
 21
454.29026524222451
 31
0.0
  0
LINE
  5
FA3
  8
0
 10
1040.024230296623
 20
466.29026524222462
 30
0.0
 11
1041.024230296623
 21
465.29026524222462
 31
0.0
  0
TEXT
  5
FA4
  8
DIM
  6
CONTINUOUS
 10
1051.024230296623
 20
458.07980939073582
 30
0.0
 40
3.0
  1
12
 50
90.0
  7
ROMANSS
 72
     1
 11
1049.524230296623
 21
460.22266653359299
 31
0.0
 73
     2
  0
SOLID
  5
FA5
  8
DIM
  6
CONTINUOUS
 10
1052.024230296623
 20
457.29026524222462
 30
0.0
 11
1053.024230296623
 21
457.29026524222462
 31
0.0
 12
1052.524230296623
 22
454.29026524222451
 32
0.0
 13
1052.524230296623
 23
454.29026524222451
 33
0.0
  0
SOLID
  5
FA6
  8
DIM
  6
CONTINUOUS
 10
1052.024230296623
 20
463.29026524222451
 30
0.0
 11
1053.024230296623
 21
463.29026524222451
 31
0.0
 12
1052.524230296623
 22
466.29026524222451
 32
0.0
 13
1052.524230296623
 23
466.29026524222451
 33
0.0
  0
LINE
  5
FA7
  8
DIM
  6
CONTINUOUS
 10
1007.024230296623
 20
517.29026524222445
 30
0.0
 11
1061.524230296623
 21
517.29026524222445
 31
0.0
  0
LINE
  5
FA8
  8
0
 10
1006.024230296623
 20
517.29026524222445
 30
0.0
 11
1007.024230296623
 21
516.29026524222445
 31
0.0
  0
SOLID
  5
FA9
  8
DIM
  6
CONTINUOUS
 10
1060.024230296623
 20
514.29026524222445
 30
0.0
 11
1061.024230296623
 21
514.29026524222445
 31
0.0
 12
1060.524230296623
 22
517.29026524222445
 32
0.0
 13
1060.524230296623
 23
517.29026524222445
 33
0.0
  0
CIRCLE
  5
FAA
  8
0
  6
CONTINUOUS
 10
618.88154535456874
 20
241.16549170834901
 30
0.0
 40
6.5
  0
CIRCLE
  5
FAB
  8
0
  6
CONTINUOUS
 10
618.88154535456874
 20
241.16549170834901
 30
0.0
 40
5.9226327944572761
  0
POLYLINE
  5
FAC
  8
0
  6
CONTINUOUS
 66
     1
 10
0.0
 20
0.0
 30
0.0
 70
     1
  0
VERTEX
  5
145D
  8
0
  6
CONTINUOUS
 10
617.14949454700059
 20
238.16549170834901
 30
0.0
  0
VERTEX
  5
145E
  8
0
  6
CONTINUOUS
 10
615.4174437394305
 20
241.16549170834901
 30
0.0
  0
VERTEX
  5
145F
  8
0
  6
CONTINUOUS
 10
617.14949454700059
 20
244.16549170834901
 30
0.0
  0
VERTEX
  5
1460
  8
0
  6
CONTINUOUS
 10
620.61359616213679
 20
244.16549170834901
 30
0.0
  0
VERTEX
  5
1461
  8
0
  6
CONTINUOUS
 10
622.34564696970688
 20
241.16549170834901
 30
0.0
  0
VERTEX
  5
1462
  8
0
  6
CONTINUOUS
 10
620.61359616213679
 20
238.16549170834901
 30
0.0
  0
SEQEND
  5
1463
  8
0
  6
CONTINUOUS
  0
CIRCLE
  5
FB4
  8
0
  6
CONTINUOUS
 10
579.88154535456874
 20
202.16549170834909
 30
0.0
 40
6.5
  0
CIRCLE
  5
FB5
  8
0
  6
CONTINUOUS
 10
579.88154535456874
 20
202.16549170834909
 30
0.0
 40
5.9226327944572761
  0
POLYLINE
  5
FB6
  8
0
  6
CONTINUOUS
 66
     1
 10
0.0
 20
0.0
 30
0.0
 70
     1
  0
VERTEX
  5
1464
  8
0
  6
CONTINUOUS
 10
578.14949454700047
 20
199.16549170834901
 30
0.0
  0
VERTEX
  5
1465
  8
0
  6
CONTINUOUS
 10
576.41744373943061
 20
202.16549170834901
 30
0.0
  0
VERTEX
  5
1466
  8
0
  6
CONTINUOUS
 10
578.14949454700047
 20
205.16549170834909
 30
0.0
  0
VERTEX
  5
1467
  8
0
  6
CONTINUOUS
 10
581.6135961621369
 20
205.16549170834909
 30
0.0
  0
VERTEX
  5
1468
  8
0
  6
CONTINUOUS
 10
583.34564696970676
 20
202.16549170834901
 30
0.0
  0
VERTEX
  5
1469
  8
0
  6
CONTINUOUS
 10
581.6135961621369
 20
199.16549170834901
 30
0.0
  0
SEQEND
  5
146A
  8
0
  6
CONTINUOUS
  0
CIRCLE
  5
FBE
  8
0
  6
CONTINUOUS
 10
618.88154535456874
 20
163.16549170834901
 30
0.0
 40
6.5
  0
CIRCLE
  5
FBF
  8
0
  6
CONTINUOUS
 10
618.88154535456874
 20
163.16549170834901
 30
0.0
 40
5.9226327944572761
  0
POLYLINE
  5
FC0
  8
0
  6
CONTINUOUS
 66
     1
 10
0.0
 20
0.0
 30
0.0
 70
     1
  0
VERTEX
  5
146B
  8
0
  6
CONTINUOUS
 10
617.14949454700059
 20
160.16549170834901
 30
0.0
  0
VERTEX
  5
146C
  8
0
  6
CONTINUOUS
 10
615.4174437394305
 20
163.16549170834901
 30
0.0
  0
VERTEX
  5
146D
  8
0
  6
CONTINUOUS
 10
617.14949454700059
 20
166.16549170834901
 30
0.0
  0
VERTEX
  5
146E
  8
0
  6
CONTINUOUS
 10
620.61359616213679
 20
166.16549170834901
 30
0.0
  0
VERTEX
  5
146F
  8
0
  6
CONTINUOUS
 10
622.34564696970688
 20
163.16549170834901
 30
0.0
  0
VERTEX
  5
1470
  8
0
  6
CONTINUOUS
 10
620.61359616213679
 20
160.16549170834901
 30
0.0
  0
SEQEND
  5
1471
  8
0
  6
CONTINUOUS
  0
CIRCLE
  5
FC8
  8
0
  6
CONTINUOUS
 10
657.88154535456874
 20
202.16549170834901
 30
0.0
 40
6.5
  0
CIRCLE
  5
FC9
  8
0
  6
CONTINUOUS
 10
657.88154535456874
 20
202.16549170834901
 30
0.0
 40
5.9226327944572761
  0
POLYLINE
  5
FCA
  8
0
  6
CONTINUOUS
 66
     1
 10
0.0
 20
0.0
 30
0.0
 70
     1
  0
VERTEX
  5
1472
  8
0
  6
CONTINUOUS
 10
656.14949454700059
 20
199.16549170834901
 30
0.0
  0
VERTEX
  5
1473
  8
0
  6
CONTINUOUS
 10
654.41744373943061
 20
202.16549170834901
 30
0.0
  0
VERTEX
  5
1474
  8
0
  6
CONTINUOUS
 10
656.14949454700059
 20
205.16549170834901
 30
0.0
  0
VERTEX
  5
1475
  8
0
  6
CONTINUOUS
 10
659.6135961621369
 20
205.16549170834901
 30
0.0
  0
VERTEX
  5
1476
  8
0
  6
CONTINUOUS
 10
661.34564696970688
 20
202.16549170834901
 30
0.0
  0
VERTEX
  5
1477
  8
0
  6
CONTINUOUS
 10
659.6135961621369
 20
199.16549170834901
 30
0.0
  0
SEQEND
  5
1478
  8
0
  6
CONTINUOUS
  0
CIRCLE
  5
FD2
  8
0
  6
CONTINUOUS
 10
618.88154535456874
 20
623.28425325470403
 30
0.0
 40
6.5
  0
CIRCLE
  5
FD3
  8
0
  6
CONTINUOUS
 10
618.88154535456874
 20
623.28425325470403
 30
0.0
 40
5.9226327944572761
  0
POLYLINE
  5
FD4
  8
0
  6
CONTINUOUS
 66
     1
 10
0.0
 20
0.0
 30
0.0
 70
     1
  0
VERTEX
  5
1479
  8
0
  6
CONTINUOUS
 10
617.14949454700059
 20
626.28425325470403
 30
0.0
  0
VERTEX
  5
147A
  8
0
  6
CONTINUOUS
 10
615.4174437394305
 20
623.28425325470403
 30
0.0
  0
VERTEX
  5
147B
  8
0
  6
CONTINUOUS
 10
617.14949454700059
 20
620.28425325470403
 30
0.0
  0
VERTEX
  5
147C
  8
0
  6
CONTINUOUS
 10
620.61359616213679
 20
620.28425325470403
 30
0.0
  0
VERTEX
  5
147D
  8
0
  6
CONTINUOUS
 10
622.34564696970688
 20
623.28425325470403
 30
0.0
  0
VERTEX
  5
147E
  8
0
  6
CONTINUOUS
 10
620.61359616213679
 20
626.28425325470403
 30
0.0
  0
SEQEND
  5
147F
  8
0
  6
CONTINUOUS
  0
CIRCLE
  5
FDC
  8
0
  6
CONTINUOUS
 10
618.88154535456874
 20
701.28425325470403
 30
0.0
 40
6.5
  0
CIRCLE
  5
FDD
  8
0
  6
CONTINUOUS
 10
618.88154535456874
 20
701.28425325470403
 30
0.0
 40
5.9226327944572761
  0
POLYLINE
  5
FDE
  8
0
  6
CONTINUOUS
 66
     1
 10
0.0
 20
0.0
 30
0.0
 70
     1
  0
VERTEX
  5
1480
  8
0
  6
CONTINUOUS
 10
617.14949454700059
 20
704.28425325470403
 30
0.0
  0
VERTEX
  5
1481
  8
0
  6
CONTINUOUS
 10
615.4174437394305
 20
701.28425325470403
 30
0.0
  0
VERTEX
  5
1482
  8
0
  6
CONTINUOUS
 10
617.14949454700059
 20
698.28425325470403
 30
0.0
  0
VERTEX
  5
1483
  8
0
  6
CONTINUOUS
 10
620.61359616213679
 20
698.28425325470403
 30
0.0
  0
VERTEX
  5
1484
  8
0
  6
CONTINUOUS
 10
622.34564696970688
 20
701.28425325470403
 30
0.0
  0
VERTEX
  5
1485
  8
0
  6
CONTINUOUS
 10
620.61359616213679
 20
704.28425325470403
 30
0.0
  0
SEQEND
  5
1486
  8
0
  6
CONTINUOUS
  0
CIRCLE
  5
FE6
  8
0
  6
CONTINUOUS
 10
579.88154535456874
 20
662.28425325470403
 30
0.0
 40
6.5
  0
CIRCLE
  5
FE7
  8
0
  6
CONTINUOUS
 10
579.88154535456874
 20
662.28425325470403
 30
0.0
 40
5.9226327944572761
  0
POLYLINE
  5
FE8
  8
0
  6
CONTINUOUS
 66
     1
 10
0.0
 20
0.0
 30
0.0
 70
     1
  0
VERTEX
  5
1487
  8
0
  6
CONTINUOUS
 10
578.14949454700047
 20
665.28425325470403
 30
0.0
  0
VERTEX
  5
1488
  8
0
  6
CONTINUOUS
 10
576.41744373943061
 20
662.28425325470403
 30
0.0
  0
VERTEX
  5
1489
  8
0
  6
CONTINUOUS
 10
578.14949454700047
 20
659.28425325470403
 30
0.0
  0
VERTEX
  5
148A
  8
0
  6
CONTINUOUS
 10
581.6135961621369
 20
659.28425325470403
 30
0.0
  0
VERTEX
  5
148B
  8
0
  6
CONTINUOUS
 10
583.34564696970676
 20
662.28425325470403
 30
0.0
  0
VERTEX
  5
148C
  8
0
  6
CONTINUOUS
 10
581.6135961621369
 20
665.28425325470403
 30
0.0
  0
SEQEND
  5
148D
  8
0
  6
CONTINUOUS
  0
CIRCLE
  5
FF0
  8
0
  6
CONTINUOUS
 10
657.88154535456874
 20
662.28425325470403
 30
0.0
 40
6.5
  0
CIRCLE
  5
FF1
  8
0
  6
CONTINUOUS
 10
657.88154535456874
 20
662.28425325470403
 30
0.0
 40
5.9226327944572761
  0
POLYLINE
  5
FF2
  8
0
  6
CONTINUOUS
 66
     1
 10
0.0
 20
0.0
 30
0.0
 70
     1
  0
VERTEX
  5
148E
  8
0
  6
CONTINUOUS
 10
656.14949454700059
 20
665.28425325470403
 30
0.0
  0
VERTEX
  5
148F
  8
0
  6
CONTINUOUS
 10
654.41744373943061
 20
662.28425325470403
 30
0.0
  0
VERTEX
  5
1490
  8
0
  6
CONTINUOUS
 10
656.14949454700059
 20
659.28425325470403
 30
0.0
  0
VERTEX
  5
1491
  8
0
  6
CONTINUOUS
 10
659.6135961621369
 20
659.28425325470403
 30
0.0
  0
VERTEX
  5
1492
  8
0
  6
CONTINUOUS
 10
661.34564696970688
 20
662.28425325470403
 30
0.0
  0
VERTEX
  5
1493
  8
0
  6
CONTINUOUS
 10
659.6135961621369
 20
665.28425325470403
 30
0.0
  0
SEQEND
  5
1494
  8
0
  6
CONTINUOUS
  0
CIRCLE
  5
FFA
  8
0
  6
CONTINUOUS
 10
260.57055548304959
 20
442.79026524222451
 30
0.0
 40
4.25
  0
ARC
  5
FFB
  8
0
  6
CONTINUOUS
 62
     2
 10
260.57055548304959
 20
442.79026524222451
 30
0.0
 40
5.0000000000000053
 50
165.00000000000551
 51
104.9999999999944
  0
CIRCLE
  5
FFC
  8
0
  6
CONTINUOUS
 10
332.57055548304947
 20
442.79026524222451
 30
0.0
 40
4.25
  0
ARC
  5
FFD
  8
0
  6
CONTINUOUS
 62
     2
 10
332.57055548304947
 20
442.79026524222451
 30
0.0
 40
5.0000000000000053
 50
165.00000000000551
 51
104.9999999999944
  0
CIRCLE
  5
FFE
  8
0
  6
CONTINUOUS
 10
332.57055548304947
 20
370.79026524222451
 30
0.0
 40
4.25
  0
ARC
  5
FFF
  8
0
  6
CONTINUOUS
 62
     2
 10
332.57055548304947
 20
370.79026524222451
 30
0.0
 40
5.0000000000000053
 50
165.00000000000551
 51
104.9999999999944
  0
CIRCLE
  5
1000
  8
0
  6
CONTINUOUS
 10
260.57055548304959
 20
370.79026524222451
 30
0.0
 40
4.25
  0
ARC
  5
1001
  8
0
  6
CONTINUOUS
 62
     2
 10
260.57055548304959
 20
370.79026524222451
 30
0.0
 40
5.0000000000000053
 50
165.00000000000551
 51
104.9999999999944
  0
CIRCLE
  5
1002
  8
0
  6
CONTINUOUS
 10
921.02423029662373
 20
442.79026524222451
 30
0.0
 40
4.25
  0
ARC
  5
1003
  8
0
  6
CONTINUOUS
 62
     2
 10
921.02423029662373
 20
442.79026524222451
 30
0.0
 40
5.0000000000000053
 50
75.000000000005556
 51
14.999999999994451
  0
CIRCLE
  5
1004
  8
0
  6
CONTINUOUS
 10
993.02423029662361
 20
442.79026524222451
 30
0.0
 40
4.25
  0
ARC
  5
1005
  8
0
  6
CONTINUOUS
 62
     2
 10
993.02423029662361
 20
442.79026524222451
 30
0.0
 40
5.0000000000000053
 50
75.000000000005556
 51
14.999999999994451
  0
CIRCLE
  5
1006
  8
0
  6
CONTINUOUS
 10
993.02423029662361
 20
370.79026524222451
 30
0.0
 40
4.25
  0
ARC
  5
1007
  8
0
  6
CONTINUOUS
 62
     2
 10
993.02423029662361
 20
370.79026524222451
 30
0.0
 40
5.0000000000000053
 50
75.000000000005556
 51
14.999999999994451
  0
CIRCLE
  5
1008
  8
0
  6
CONTINUOUS
 10
921.02423029662373
 20
370.79026524222451
 30
0.0
 40
4.25
  0
ARC
  5
1009
  8
0
  6
CONTINUOUS
 62
     2
 10
921.02423029662373
 20
370.79026524222451
 30
0.0
 40
5.0000000000000053
 50
75.000000000005556
 51
14.999999999994451
  0
TEXT
  5
100E
  8
LOGO
 62
     6
 10
992.9272013828263
 20
-0.6705946895492599
 30
0.0
 40
20.053901214913761
  1
作動角度
 41
0.9
  7
CHINESET
 72
     4
 11
1029.024223569671
 21
8.7304939254310199
 31
0.0
  0
LINE
  5
100F
  8
LOGO
 62
     6
 10
1080.809458198569
 20
-28.870570852532119
 30
0.0
 11
977.2389889407724
 21
-28.870570852532289
 31
0.0
  0
LINE
  5
1010
  8
LOGO
 62
     6
 10
1080.809458198569
 20
26.277657488480731
 30
0.0
 11
977.2389889407724
 21
26.277657488480731
 31
0.0
  0
TEXT
  5
1011
  8
LOGO
  6
CONTINUOUS
 62
     6
 10
981.75431356308877
 20
-20.514778679651549
 30
0.0
 40
12.533688259321099
  1
Rotary angle
 41
0.8
  7
CHINESET
 72
     4
 11
1029.024223569671
 21
-16.336882593211179
 31
0.0
  0
TEXT
  5
1012
  8
LOGO
  6
CONTINUOUS
 62
     7
 10
1001.521731120621
 20
58.580981333429129
 30
0.0
 40
25.06737651864221
  1
180
  7
CHINESET
 72
     1
 11
1031.363846023766
 21
71.114669592750232
 31
0.0
 73
     2
  0
LINE
  5
1013
  8
LOGO
 62
     6
 10
1070.782507591113
 20
93.959574088814705
 30
0.0
 11
987.26593954822943
 21
93.959574088814705
 31
0.0
  0
LINE
  5
1014
  8
LOGO
 62
     6
 10
1070.7825075911121
 20
48.83829635525867
 30
0.0
 11
987.26593954822943
 21
48.838296355258699
 31
0.0
  0
LINE
  5
1015
  8
LOGO
 62
     1
 10
1107.0
 20
109.0
 30
0.0
 11
177.0
 21
109.0
 31
0.0
  0
LINE
  5
1016
  8
LOGO
 62
     1
 10
1107.0
 20
-41.404259111853243
 30
0.0
 11
177.0
 21
-41.404259111853243
 31
0.0
  0
LINE
  5
1017
  8
LOGO
  6
CONTINUOUS
 62
     6
 10
462.97027523141861
 20
69.027556397558754
 30
0.0
 11
490.34718124551648
 21
72.643719143284756
 31
0.0
  0
LINE
  5
1018
  8
LOGO
  6
CONTINUOUS
 62
     6
 10
462.97027523141861
 20
58.79423129750343
 30
0.0
 11
490.34718124551648
 21
55.178068551777429
 31
0.0
  0
LINE
  5
1019
  8
LOGO
 62
     1
 10
507.88937004607709
 20
78.919148177629381
 30
0.0
 11
287.29645668202568
 21
78.919148177629381
 31
0.0
  0
LINE
  5
101A
  8
LOGO
 62
     1
 10
507.88937004607709
 20
48.838296355258699
 30
0.0
 11
287.29645668202568
 21
48.838296355258699
 31
0.0
  0
TEXT
  5
101B
  8
LOGO
 62
     6
 10
430.18298280501091
 20
86.439361133222036
 30
0.0
 40
15.04042591118532
  1
1 : 1
  7
CHINESET
 72
     1
 11
456.68278083900401
 21
93.959574088814705
 31
0.0
 73
     2
  0
TEXT
  5
101C
  8
LOGO
 62
     6
 10
430.18298280501091
 20
26.277657488480731
 30
0.0
 40
15.04042591118532
  1
m/m
  7
CHINESET
 72
     1
 11
456.68278083900401
 21
33.797870444073389
 31
0.0
 73
     2
  0
LINE
  5
101D
  8
LOGO
 62
     1
 10
507.88937004607709
 20
18.757444532888201
 30
0.0
 11
176.9999999999998
 21
18.757444532888201
 31
0.0
  0
TEXT
  5
101E
  8
LOGO
  6
CONTINUOUS
 62
     5
 10
181.92298534487901
 20
-11.85756938914747
 30
0.0
 40
22.560638866777978
  1
金器工業股份有限公司
 41
0.8
  7
LOGO
  0
TEXT
  5
101F
  8
LOGO
  6
CONTINUOUS
 62
     5
 10
188.3829915883293
 20
-34.422628372320922
 30
0.0
 40
15.04042591118532
  1
MINDMAN INDUSTRIAL CO.,LTD
 41
0.85
  7
CHINESET
  0
SOLID
  5
1020
  8
LOGO
 62
     5
 10
192.6046832633323
 20
43.760011774186651
 30
0.0
 11
199.1077687665526
 21
43.760011774184512
 31
0.0
 12
226.2413324179235
 22
105.42720189093509
 32
0.0
 13
232.7444179211432
 23
105.4272018909309
 33
0.0
  0
SOLID
  5
1021
  8
LOGO
 62
     5
 10
201.7987006989238
 20
43.760011774186651
 30
0.0
 11
208.3017862021436
 21
43.760011774186651
 31
0.0
 12
232.7444179211432
 22
100.49382668159301
 32
0.0
 13
226.2413324179235
 23
76.649179836449534
 33
0.0
  0
SOLID
  5
1022
  8
LOGO
 62
     2
 10
199.1077687665526
 20
43.760011774184512
 30
0.0
 11
201.7987006989238
 21
43.760011774186651
 31
0.0
 12
232.7444179211432
 22
105.4272018909309
 32
0.0
 13
235.43534985351241
 23
105.4272018909309
 33
0.0
  0
SOLID
  5
1023
  8
LOGO
 62
     5
 10
199.2933186152907
 20
32.547795389323113
 30
0.0
 11
201.53576189226109
 21
32.547795389323113
 31
0.0
 12
199.2933186152907
 22
21.335579004461639
 32
0.0
 13
201.53576189226109
 23
21.335579004461639
 33
0.0
  0
SOLID
  5
1024
  8
LOGO
 62
     5
 10
182.1786424497588
 20
21.335579004461639
 30
0.0
 11
184.42108572673391
 21
21.335579004461639
 31
0.0
 12
190.73598053252331
 22
32.547795389323113
 32
0.0
 13
192.9784238094943
 23
32.547795389323113
 33
0.0
  0
SOLID
  5
1025
  8
LOGO
 62
     5
 10
190.73598053252331
 20
32.547795389323113
 30
0.0
 11
192.9784238094943
 21
32.547795389323113
 31
0.0
 12
190.73598053252331
 22
21.335579004461639
 32
0.0
 13
192.9784238094943
 23
21.335579004461639
 33
0.0
  0
SOLID
  5
1026
  8
LOGO
 62
     5
 10
190.73598053252331
 20
21.335579004461639
 30
0.0
 11
192.9784238094943
 21
21.335579004461639
 31
0.0
 12
199.2933186152907
 22
32.547795389323113
 32
0.0
 13
201.53576189226109
 23
32.547795389323113
 33
0.0
  0
LINE
  5
1027
  8
LOGO
 62
     1
 10
177.0
 20
-41.404259111853243
 30
0.0
 11
177.0
 21
109.0
 31
0.0
  0
TEXT
  5
1028
  8
LOGO
 62
     6
 10
299.69809358290041
 20
86.44676291762714
 30
0.0
 40
15.04042591118532
  1
比例 Scale:
 41
0.9
  7
CHINESET
 72
     4
 11
347.45816032676697
 21
93.959574088814705
 31
0.0
  0
TEXT
  5
1029
  8
LOGO
 62
     6
 10
304.955528175962
 20
56.57007698176411
 30
0.0
 40
15.04042591118532
  1
投影 View:
 41
0.9
  7
CHINESET
 72
     4
 11
347.45816032676697
 21
63.878722266444008
 31
0.0
  0
TEXT
  5
102A
  8
LOGO
 62
     6
 10
306.4259983878145
 20
26.277657488480731
 30
0.0
 40
15.04042591118532
  1
單位 Unit:
 41
0.9
  7
CHINESET
 72
     4
 11
347.45816032676697
 21
33.797870444073389
 31
0.0
  0
POLYLINE
  5
102B
  8
LOGO
 62
     5
 66
     1
 10
0.0
 20
0.0
 30
0.0
 70
     1
 40
2.2460369360703409
 41
2.2460369360703409
  0
VERTEX
  5
1495
  8
LOGO
 62
     5
 10
253.89109501194091
 20
26.94168719689128
 30
0.0
 42
1.0
  0
VERTEX
  5
1496
  8
LOGO
 62
     5
 10
262.87524275622212
 20
26.94168719689128
 30
0.0
 42
1.0
  0
SEQEND
  5
1497
  8
LOGO
 62
     5
  0
LINE
  5
102C
  8
LOGO
 62
     5
 10
275.57508451132071
 20
21.335579004461639
 30
0.0
 11
275.57508451132071
 21
28.062908835377609
 31
0.0
  0
SOLID
  5
102D
  8
LOGO
 62
     5
 10
261.74660955521779
 20
32.547795389323113
 30
0.0
 11
263.98905283218858
 21
32.547795389323113
 31
0.0
 12
261.74660955521779
 22
21.335579004461639
 32
0.0
 13
263.98905283218858
 23
21.335579004461639
 33
0.0
  0
SOLID
  5
102E
  8
LOGO
 62
     5
 10
266.60531140342988
 20
21.335579004461639
 30
0.0
 11
268.84775468040459
 21
21.335579004461639
 31
0.0
 12
266.60531140342988
 22
32.547795389323113
 32
0.0
 13
268.84775468040459
 23
32.547795389323113
 33
0.0
  0
SOLID
  5
102F
  8
LOGO
 62
     5
 10
273.33264123435032
 20
28.062908835377609
 30
0.0
 11
275.57508451132071
 21
28.062908835377311
 31
0.0
 12
273.33264123435032
 22
21.335579004461639
 32
0.0
 13
275.57508451132071
 23
21.335579004461639
 33
0.0
  0
SOLID
  5
1030
  8
LOGO
 62
     5
 10
229.60477308905629
 20
35.911460304783198
 30
0.0
 11
231.84721636602669
 21
35.911460304783198
 31
0.0
 12
229.60477308905629
 22
21.335579004461639
 32
0.0
 13
231.84721636602669
 23
21.335579004461639
 33
0.0
  0
SOLID
  5
1031
  8
LOGO
 62
     5
 10
234.46347493727461
 20
32.547795389323113
 30
0.0
 11
236.7059182142452
 21
32.547795389323113
 31
0.0
 12
234.46347493727461
 22
21.335579004461639
 32
0.0
 13
236.7059182142452
 23
21.335579004461639
 33
0.0
  0
SOLID
  5
1032
  8
LOGO
 62
     5
 10
241.1908047681907
 20
28.062908835377609
 30
0.0
 11
243.43324804516129
 21
28.062908835377609
 31
0.0
 12
241.1908047681907
 22
21.335579004461639
 32
0.0
 13
243.43324804516129
 23
21.335579004461639
 33
0.0
  0
SOLID
  5
1033
  8
LOGO
 62
     5
 10
247.91813459910699
 20
28.062908835377609
 30
0.0
 11
250.1605778760775
 21
28.062908835377609
 31
0.0
 12
247.91813459910699
 22
21.335579004457379
 32
0.0
 13
250.1605778760775
 23
21.335579004457379
 33
0.0
  0
LINE
  5
1034
  8
LOGO
 62
     1
 10
287.29645668202568
 20
18.75744453288803
 30
0.0
 11
287.29645668202568
 21
109.0
 31
0.0
  0
SOLID
  5
1035
  8
LOGO
 62
     5
 10
209.04896830203131
 20
32.547795389323113
 30
0.0
 11
211.2914115790017
 21
32.547795389323113
 31
0.0
 12
209.04896830203131
 22
21.335579004461639
 32
0.0
 13
211.2914115790017
 23
21.335579004461639
 33
0.0
  0
SOLID
  5
1036
  8
LOGO
 62
     5
 10
215.77629813294681
 20
28.062908835377609
 30
0.0
 11
218.01874140992149
 21
28.062908835377609
 31
0.0
 12
215.77629813294681
 22
21.335579004461639
 32
0.0
 13
218.01874140992149
 23
21.335579004461639
 33
0.0
  0
SOLID
  5
1037
  8
LOGO
 62
     5
 10
204.1902664538124
 20
32.547795389323113
 30
0.0
 11
206.4327097307895
 21
32.547795389323113
 31
0.0
 12
204.1902664538124
 22
21.335579004457379
 32
0.0
 13
206.4327097307895
 23
21.335579004461639
 33
0.0
  0
POLYLINE
  5
1038
  8
LOGO
 62
     5
 66
     1
 10
0.0
 20
0.0
 30
0.0
 70
     1
 40
2.2460369360703409
 41
2.2460369360703409
  0
VERTEX
  5
1498
  8
LOGO
 62
     5
 10
221.7492585457814
 20
26.94168719689128
 30
0.0
 42
1.0
  0
VERTEX
  5
1499
  8
LOGO
 62
     5
 10
230.73340629006279
 20
26.94168719689128
 30
0.0
 42
1.0
  0
SEQEND
  5
149A
  8
LOGO
 62
     5
  0
POLYLINE
  5
1039
  8
LOGO
 62
     5
 66
     1
 10
0.0
 20
0.0
 30
0.0
 40
2.2460369360703409
 41
2.2460369360703409
  0
VERTEX
  5
149B
  8
LOGO
 62
     5
 10
274.45925336148321
 20
28.062908835377641
 30
0.0
 42
1.0
  0
VERTEX
  5
149C
  8
LOGO
 62
     5
 10
267.72114255327187
 20
28.062908835377641
 30
0.0
 42
1.0
  0
SEQEND
  5
149D
  8
LOGO
 62
     5
  0
SOLID
  5
103A
  8
LOGO
 62
     5
 10
269.07199900810099
 20
43.760011774184512
 30
0.0
 11
275.57508451132071
 21
43.760011774184512
 31
0.0
 12
269.07199900810099
 22
105.4272018909309
 32
0.0
 13
275.57508451132071
 23
105.42720189093509
 33
0.0
  0
SOLID
  5
103B
  8
LOGO
 62
     5
 10
235.43534985351241
 20
105.4272018909309
 30
0.0
 11
241.9384353567319
 21
105.42720189093509
 31
0.0
 12
235.43534985351241
 22
48.693386983524512
 32
0.0
 13
241.9384353567319
 23
72.538033828668034
 33
0.0
  0
SOLID
  5
103C
  8
LOGO
 62
     5
 10
235.43534985351241
 20
48.693386983524512
 30
0.0
 11
241.9384353567319
 21
72.538033828668034
 31
0.0
 12
266.38106707573178
 22
105.42720189093509
 32
0.0
 13
259.87798157251149
 23
105.42720189093509
 33
0.0
  0
SOLID
  5
103D
  8
LOGO
 62
     5
 10
266.38106707573178
 20
100.49382668159301
 30
0.0
 11
259.87798157251149
 21
76.649179836449534
 31
0.0
 12
266.38106707573178
 22
43.760011774184512
 32
0.0
 13
259.87798157251149
 23
43.760011774184512
 33
0.0
  0
SOLID
  5
103E
  8
LOGO
 62
     2
 10
266.38106707573178
 20
105.42720189093509
 30
0.0
 11
269.07199900810099
 21
105.4272018909309
 31
0.0
 12
266.38106707573178
 22
43.760011774184512
 32
0.0
 13
269.07199900810099
 23
43.760011774184512
 33
0.0
  0
SOLID
  5
103F
  8
LOGO
 62
     5
 10
226.2413324179235
 20
43.760011774186651
 30
0.0
 11
232.7444179211432
 21
43.760011774186651
 31
0.0
 12
226.2413324179235
 22
76.649179836449534
 32
0.0
 13
232.7444179211432
 23
100.49382668159301
 33
0.0
  0
SOLID
  5
1040
  8
LOGO
 62
     2
 10
232.7444179211432
 20
105.4272018909309
 30
0.0
 11
235.43534985351241
 21
105.4272018909309
 31
0.0
 12
232.7444179211432
 22
43.760011774186651
 32
0.0
 13
235.43534985351241
 23
43.760011774186651
 33
0.0
  0
SOLID
  5
1041
  8
LOGO
 62
     5
 10
235.43534985351241
 20
43.760011774186651
 30
0.0
 11
241.9384353567319
 21
43.760011774186651
 31
0.0
 12
266.38106707573178
 22
100.49382668159301
 32
0.0
 13
259.87798157251149
 23
76.649179836449534
 33
0.0
  0
SOLID
  5
1042
  8
LOGO
 62
     2
 10
232.7444179211432
 20
43.760011774186651
 30
0.0
 11
235.43534985351241
 21
43.760011774186651
 31
0.0
 12
266.38106707573178
 22
105.42720189093509
 32
0.0
 13
269.07199900810099
 23
105.4272018909309
 33
0.0
  0
POLYLINE
  5
1043
  8
LOGO
 62
     5
 66
     1
 10
0.0
 20
0.0
 30
0.0
 40
2.2460369360703409
 41
2.2460369360703409
  0
VERTEX
  5
149E
  8
LOGO
 62
     5
 10
242.3174168953235
 20
28.062908835377641
 30
0.0
 42
1.0
  0
VERTEX
  5
149F
  8
LOGO
 62
     5
 10
235.57930608711229
 20
28.062908835377641
 30
0.0
 42
1.0
  0
SEQEND
  5
14A0
  8
LOGO
 62
     5
  0
POLYLINE
  5
1044
  8
LOGO
 62
     5
 66
     1
 10
0.0
 20
0.0
 30
0.0
 40
2.2460369360703409
 41
2.2460369360703409
  0
VERTEX
  5
14A1
  8
LOGO
 62
     5
 10
216.90291026008029
 20
28.062908835377641
 30
0.0
 42
1.0
  0
VERTEX
  5
14A2
  8
LOGO
 62
     5
 10
210.1647994518691
 20
28.062908835377641
 30
0.0
 42
1.0
  0
SEQEND
  5
14A3
  8
LOGO
 62
     5
  0
SOLID
  5
1045
  8
LOGO
 62
     5
 10
204.1902664538124
 20
34.1175056832029
 30
0.0
 11
206.4327097307895
 21
34.1175056832029
 31
0.0
 12
204.1902664538124
 22
35.911460304783198
 32
0.0
 13
206.4327097307895
 23
35.911460304783198
 33
0.0
  0
POLYLINE
  5
1046
  8
LOGO
 62
     5
 66
     1
 10
0.0
 20
0.0
 30
0.0
 70
     1
  0
VERTEX
  5
14A4
  8
LOGO
 62
     5
 10
255.01950396862361
 20
26.94168719689236
 30
0.0
 42
1.0000000573306349
  0
VERTEX
  5
14A5
  8
LOGO
 62
     5
 10
261.7468337995424
 20
26.94168719689236
 30
0.0
 42
1.0000000573306349
  0
SEQEND
  5
14A6
  8
LOGO
 62
     5
  0
CIRCLE
  5
1047
  8
LOGO
 62
     5
 10
258.38316888408292
 20
26.941687196892371
 30
0.0
 40
3.3636649154589442
  0
POLYLINE
  5
1048
  8
LOGO
 62
     5
 66
     1
 10
0.0
 20
0.0
 30
0.0
 40
2.2460369360703409
 41
2.2460369360703409
  0
VERTEX
  5
14A7
  8
LOGO
 62
     5
 10
249.04474672623959
 20
28.062908835377641
 30
0.0
 42
1.0
  0
VERTEX
  5
14A8
  8
LOGO
 62
     5
 10
242.30663591802841
 20
28.062908835377641
 30
0.0
 42
1.0
  0
SEQEND
  5
14A9
  8
LOGO
 62
     5
  0
LINE
  5
1049
  8
LOGO
 62
     1
 10
407.61986397150821
 20
18.75744453288803
 30
0.0
 11
407.61986397150821
 21
109.0
 31
0.0
  0
CIRCLE
  5
104A
  8
LOGO
  6
CONTINUOUS
 62
     6
 10
435.46909377280309
 20
63.910893847531092
 30
0.0
 40
8.7328252957536723
  0
CIRCLE
  5
104B
  8
LOGO
  6
CONTINUOUS
 62
     6
 10
435.46909377280309
 20
63.910893847531092
 30
0.0
 40
5.1166625500276606
  0
LINE
  5
104C
  8
LOGO
 62
     6
 10
462.97027523141901
 20
58.79423129750343
 30
0.0
 11
462.97027523141861
 21
69.027556397558783
 31
0.0
  0
TEXT
  5
104D
  8
LOGO
  6
CONTINUOUS
 62
     6
 10
751.0517648967666
 20
-22.603726722871599
 30
0.0
 40
12.533688259321099
  1
Model
  7
CHINESET
 72
     4
 11
774.925456819283
 21
-16.336882593211051
 31
0.0
  0
TEXT
  5
104E
  8
LOGO
  6
CONTINUOUS
 62
     7
 10
728.96859986843879
 20
58.865246962715567
 30
0.0
 40
25.06737651864221
  1
MRTH
  7
CHINESET
 72
     1
 11
774.925456819283
 21
71.39893522203667
 31
0.0
 73
     2
  0
LINE
  5
104F
  8
LOGO
 62
     6
 10
835.08716046402435
 20
93.959574088814705
 30
0.0
 11
714.76375317454165
 21
93.959574088814705
 31
0.0
  0
LINE
  5
1050
  8
LOGO
 62
     6
 10
835.08716046402435
 20
48.838296355258699
 30
0.0
 11
714.76375317454165
 21
48.838296355258699
 31
0.0
  0
LINE
  5
1051
  8
LOGO
 62
     6
 10
825.0602098565671
 20
26.277657488480731
 30
0.0
 11
724.79070378199856
 21
26.277657488480731
 31
0.0
  0
LINE
  5
1052
  8
LOGO
 62
     6
 10
825.0602098565671
 20
-28.870570852532179
 30
0.0
 11
724.79070378199856
 21
-28.870570852532289
 31
0.0
  0
TEXT
  5
1053
  8
LOGO
 62
     7
 10
520.20069385985153
 20
71.342194127632183
 30
0.0
 40
30.08085182237064
  1
訂購代號:
  7
CHINESET
  0
TEXT
  5
1054
  8
LOGO
 62
     7
 10
516.60285814288022
 20
43.11045343026219
 30
0.0
 40
20.053901214913761
  1
Order example:
 41
0.8
  7
CHINESET
  0
LINE
  5
1055
  8
LOGO
 62
     1
 10
507.88937004607709
 20
-41.404259111853243
 30
0.0
 11
507.88937004607709
 21
109.0
 31
0.0
  0
LINE
  5
1056
  8
LOGO
 62
     6
 10
490.34718124551648
 20
55.178068551777429
 30
0.0
 11
490.34718124551648
 21
72.643719143284756
 31
0.0
  0
LINE
  5
1057
  8
LOGO
 62
     6
 10
724.79070378199856
 20
26.277657488480731
 30
0.0
 11
724.79070378199856
 21
-28.870570852532289
 31
0.0
  0
LINE
  5
1058
  8
LOGO
 62
     6
 10
714.76375317454165
 20
93.959574088814705
 30
0.0
 11
714.76375317454165
 21
48.838296355258699
 31
0.0
  0
TEXT
  5
1059
  8
LOGO
  6
CONTINUOUS
 62
     7
 10
893.56558210007745
 20
58.58098133342942
 30
0.0
 40
25.06737651864221
  1
80
  7
CHINESET
 72
     1
 11
913.85822023421633
 21
71.114669592750516
 31
0.0
 73
     2
  0
LINE
  5
105A
  8
LOGO
 62
     6
 10
951.76528354575271
 20
-28.87057085253187
 30
0.0
 11
871.27191201448818
 21
-28.87057085253198
 31
0.0
  0
LINE
  5
105B
  8
LOGO
 62
     6
 10
951.76528354575271
 20
48.83829635525899
 30
0.0
 11
871.27191201448818
 21
48.83829635525899
 31
0.0
  0
LINE
  5
105C
  8
LOGO
 62
     6
 10
951.76528354575271
 20
26.27765748848098
 30
0.0
 11
871.27191201448818
 21
26.27765748848098
 31
0.0
  0
LINE
  5
105D
  8
LOGO
 62
     6
 10
951.76528354575271
 20
93.959574088815231
 30
0.0
 11
871.27191201448818
 21
93.959574088814946
 31
0.0
  0
LINE
  5
105E
  8
LOGO
 62
     6
 10
871.27191201448818
 20
26.27765748848098
 30
0.0
 11
871.27191201448818
 21
-28.87057085253187
 31
0.0
  0
LINE
  5
105F
  8
LOGO
 62
     6
 10
825.06020985656755
 20
26.277657488480731
 30
0.0
 11
825.06020985656755
 21
-28.870570852532119
 31
0.0
  0
TEXT
  5
1060
  8
LOGO
 62
     6
 10
754.87155560436929
 20
-0.7832662966046656
 30
0.0
 40
20.053901214913761
  1
型式
  7
CHINESET
 72
     4
 11
774.925456819283
 21
8.7304939254311904
 31
0.0
  0
LINE
  5
1061
  8
LOGO
 62
     6
 10
774.925456819283
 20
48.838296355258699
 30
0.0
 11
774.925456819283
 21
26.277657488480731
 31
0.0
  0
LINE
  5
1062
  8
LOGO
 62
     6
 10
871.27191201448818
 20
93.959574088814946
 30
0.0
 11
871.27191201448818
 21
48.83829635525899
 31
0.0
  0
LINE
  5
1063
  8
LOGO
 62
     6
 10
835.08716046402435
 20
93.959574088814705
 30
0.0
 11
835.08716046402435
 21
48.838296355258699
 31
0.0
  0
LINE
  5
1064
  8
LOGO
  6
CONTINUOUS
 62
     7
 10
843.54497406063558
 20
71.239108525457311
 30
0.0
 11
863.46888390550725
 21
71.239108525457311
 31
0.0
  0
LINE
  5
1065
  8
LOGO
 62
     6
 10
977.2389889407724
 20
26.277657488480731
 30
0.0
 11
977.2389889407724
 21
-28.870570852532289
 31
0.0
  0
LINE
  5
1066
  8
LOGO
 62
     6
 10
951.76528354575271
 20
26.27765748848098
 30
0.0
 11
951.76528354575271
 21
-28.870570852531721
 31
0.0
  0
TEXT
  5
1067
  8
LOGO
  6
CONTINUOUS
 62
     6
 10
896.00069803048495
 20
-22.603726722871439
 30
0.0
 40
12.533688259321099
  1
Bore
 41
0.8
  7
CHINESET
 72
     4
 11
911.51859778012044
 21
-16.336882593210881
 31
0.0
  0
TEXT
  5
1068
  8
LOGO
 62
     6
 10
892.34205474335931
 20
-1.2964566820255621
 30
0.0
 40
20.053901214913761
  1
內徑
 41
0.9
  7
CHINESET
 72
     4
 11
911.51859778012044
 21
8.7304939254313183
 31
0.0
  0
LINE
  5
1069
  8
LOGO
  6
CONTINUOUS
 62
     7
 10
959.53900159437705
 20
71.239108525457567
 30
0.0
 11
979.46291143924896
 21
71.239108525457567
 31
0.0
  0
LINE
  5
106A
  8
LOGO
 62
     6
 10
951.76528354575271
 20
93.959574088815231
 30
0.0
 11
951.76528354575271
 21
48.83829635525899
 31
0.0
  0
LINE
  5
106B
  8
LOGO
 62
     6
 10
911.51859662409095
 20
48.83829635525899
 30
0.0
 11
911.51859662409095
 21
26.27765748848098
 31
0.0
  0
LINE
  5
106C
  8
LOGO
 62
     6
 10
987.26593954822965
 20
93.959574088814705
 30
0.0
 11
987.26593954822943
 21
48.838296355258699
 31
0.0
  0
LINE
  5
106D
  8
LOGO
 62
     6
 10
1030.0860321173741
 20
48.838296355258699
 30
0.0
 11
1030.0860321173741
 21
26.277657488480731
 31
0.0
  0
LINE
  5
1073
  8
LOGO
 62
     6
 10
1080.809458198569
 20
26.277657488480731
 30
0.0
 11
1080.809458198569
 21
-29.07851624095661
 31
0.0
  0
LINE
  5
1074
  8
LOGO
 62
     6
 10
1070.782507591113
 20
93.959574088814705
 30
0.0
 11
1070.7825075911121
 21
48.83829635525867
 31
0.0
  0
LINE
  5
107D
  8
LOGO
 62
     1
 10
1107.0
 20
-41.404259111853243
 30
0.0
 11
1107.0
 21
109.0
 31
0.0
  0
ENDSEC
  0
EOF
