  0
SECTION
  2
HEADER
  9
$ACADVER
  1
AC1015
  9
$ACADMAINTVER
 70
    20
  9
$DWGCODEPAGE
  3
ANSI_950
  9
$INSBASE
 10
0.0
 20
0.0
 30
0.0
  9
$EXTMIN
 10
118.3354328515165
 20
-117.5657300502648
 30
-0.0029967132754791
  9
$EXTMAX
 10
805.9303215500126
 20
382.4556592205984
 30
327.6663147354134
  9
$LIMMIN
 10
0.0
 20
0.0
  9
$LIMMAX
 10
420.0
 20
297.0
  9
$ORTHOMODE
 70
     0
  9
$REGENMODE
 70
     1
  9
$FILLMODE
 70
     1
  9
$QTEXTMODE
 70
     0
  9
$MIRRTEXT
 70
     1
  9
$LTSCALE
 40
1.0
  9
$ATTMODE
 70
     1
  9
$TEXTSIZE
 40
3.0
  9
$TRACEWID
 40
1.0
  9
$TEXTSTYLE
  7
STANDARD
  9
$CLAYER
  8
0
  9
$CELTYPE
  6
ByLayer
  9
$CECOLOR
 62
   256
  9
$CELTSCALE
 40
1.0
  9
$DISPSILH
 70
     0
  9
$DIMSCALE
 40
1.0
  9
$DIMASZ
 40
3.0
  9
$DIMEXO
 40
1.5
  9
$DIMDLI
 40
8.0
  9
$DIMRND
 40
0.0
  9
$DIMDLE
 40
0.0
  9
$DIMEXE
 40
1.5
  9
$DIMTP
 40
0.1
  9
$DIMTM
 40
0.1
  9
$DIMTXT
 40
3.5
  9
$DIMCEN
 40
0.0
  9
$DIMTSZ
 40
0.0
  9
$DIMTOL
 70
     0
  9
$DIMLIM
 70
     0
  9
$DIMTIH
 70
     0
  9
$DIMTOH
 70
     0
  9
$DIMSE1
 70
     0
  9
$DIMSE2
 70
     0
  9
$DIMTAD
 70
     1
  9
$DIMZIN
 70
     8
  9
$DIMBLK
  1

  9
$DIMASO
 70
     1
  9
$DIMSHO
 70
     1
  9
$DIMPOST
  1

  9
$DIMAPOST
  1
"
  9
$DIMALT
 70
     0
  9
$DIMALTD
 70
     2
  9
$DIMALTF
 40
0.0393701
  9
$DIMLFAC
 40
1.0
  9
$DIMTOFL
 70
     1
  9
$DIMTVP
 40
0.0
  9
$DIMTIX
 70
     0
  9
$DIMSOXD
 70
     0
  9
$DIMSAH
 70
     0
  9
$DIMBLK1
  1

  9
$DIMBLK2
  1

  9
$DIMSTYLE
  2
AM_ISO
  9
$DIMCLRD
 70
   256
  9
$DIMCLRE
 70
   256
  9
$DIMCLRT
 70
   256
  9
$DIMTFAC
 40
0.6
  9
$DIMGAP
 40
1.0
  9
$DIMJUST
 70
     0
  9
$DIMSD1
 70
     0
  9
$DIMSD2
 70
     0
  9
$DIMTOLJ
 70
     0
  9
$DIMTZIN
 70
     8
  9
$DIMALTZ
 70
     0
  9
$DIMALTTZ
 70
     0
  9
$DIMUPT
 70
     0
  9
$DIMDEC
 70
     2
  9
$DIMTDEC
 70
     8
  9
$DIMALTU
 70
     2
  9
$DIMALTTD
 70
     2
  9
$DIMTXSTY
  7
STANDARD
  9
$DIMAUNIT
 70
     0
  9
$DIMADEC
 70
     0
  9
$DIMALTRND
 40
0.0
  9
$DIMAZIN
 70
     2
  9
$DIMDSEP
 70
    46
  9
$DIMATFIT
 70
     3
  9
$DIMFRAC
 70
     0
  9
$DIMLDRBLK
  1

  9
$DIMLUNIT
 70
     2
  9
$DIMLWD
 70
    -1
  9
$DIMLWE
 70
    -1
  9
$DIMTMOVE
 70
     0
  9
$LUNITS
 70
     2
  9
$LUPREC
 70
     2
  9
$SKETCHINC
 40
1.0
  9
$FILLETRAD
 40
2.5
  9
$AUNITS
 70
     0
  9
$AUPREC
 70
     0
  9
$MENU
  1
.
  9
$ELEVATION
 40
0.0
  9
$PELEVATION
 40
0.0
  9
$THICKNESS
 40
0.0
  9
$LIMCHECK
 70
     0
  9
$CHAMFERA
 40
2.5
  9
$CHAMFERB
 40
2.5
  9
$CHAMFERC
 40
20.0
  9
$CHAMFERD
 40
0.0
  9
$SKPOLY
 70
     0
  9
$TDCREATE
 40
2454511.659716065
  9
$TDUCREATE
 40
2454511.326382732
  9
$TDUPDATE
 40
2454701.579565973
  9
$TDUUPDATE
 40
2454701.246232639
  9
$TDINDWG
 40
0.8004409028
  9
$TDUSRTIMER
 40
0.8004409028
  9
$USRTIMER
 70
     1
  9
$ANGBASE
 50
0.0
  9
$ANGDIR
 70
     0
  9
$PDMODE
 70
     0
  9
$PDSIZE
 40
0.0
  9
$PLINEWID
 40
0.0
  9
$SPLFRAME
 70
     0
  9
$SPLINETYPE
 70
     6
  9
$SPLINESEGS
 70
     8
  9
$HANDSEED
  5
1634
  9
$SURFTAB1
 70
     6
  9
$SURFTAB2
 70
     6
  9
$SURFTYPE
 70
     6
  9
$SURFU
 70
     6
  9
$SURFV
 70
     6
  9
$UCSBASE
  2

  9
$UCSNAME
  2

  9
$UCSORG
 10
0.0
 20
0.0
 30
0.0
  9
$UCSXDIR
 10
1.0
 20
0.0
 30
0.0
  9
$UCSYDIR
 10
0.0
 20
1.0
 30
0.0
  9
$UCSORTHOREF
  2

  9
$UCSORTHOVIEW
 70
     0
  9
$UCSORGTOP
 10
0.0
 20
0.0
 30
0.0
  9
$UCSORGBOTTOM
 10
0.0
 20
0.0
 30
0.0
  9
$UCSORGLEFT
 10
0.0
 20
0.0
 30
0.0
  9
$UCSORGRIGHT
 10
0.0
 20
0.0
 30
0.0
  9
$UCSORGFRONT
 10
0.0
 20
0.0
 30
0.0
  9
$UCSORGBACK
 10
0.0
 20
0.0
 30
0.0
  9
$PUCSBASE
  2

  9
$PUCSNAME
  2

  9
$PUCSORG
 10
0.0
 20
0.0
 30
0.0
  9
$PUCSXDIR
 10
1.0
 20
0.0
 30
0.0
  9
$PUCSYDIR
 10
0.0
 20
1.0
 30
0.0
  9
$PUCSORTHOREF
  2

  9
$PUCSORTHOVIEW
 70
     0
  9
$PUCSORGTOP
 10
0.0
 20
0.0
 30
0.0
  9
$PUCSORGBOTTOM
 10
0.0
 20
0.0
 30
0.0
  9
$PUCSORGLEFT
 10
0.0
 20
0.0
 30
0.0
  9
$PUCSORGRIGHT
 10
0.0
 20
0.0
 30
0.0
  9
$PUCSORGFRONT
 10
0.0
 20
0.0
 30
0.0
  9
$PUCSORGBACK
 10
0.0
 20
0.0
 30
0.0
  9
$USERI1
 70
     0
  9
$USERI2
 70
     0
  9
$USERI3
 70
     0
  9
$USERI4
 70
     0
  9
$USERI5
 70
     0
  9
$USERR1
 40
0.0
  9
$USERR2
 40
0.0
  9
$USERR3
 40
0.0
  9
$USERR4
 40
0.0
  9
$USERR5
 40
0.0
  9
$WORLDVIEW
 70
     1
  9
$SHADEDGE
 70
     3
  9
$SHADEDIF
 70
    70
  9
$TILEMODE
 70
     1
  9
$MAXACTVP
 70
    64
  9
$PINSBASE
 10
0.0
 20
0.0
 30
0.0
  9
$PLIMCHECK
 70
     0
  9
$PEXTMIN
 10
1.000000000000000E+20
 20
1.000000000000000E+20
 30
1.000000000000000E+20
  9
$PEXTMAX
 10
-1.000000000000000E+20
 20
-1.000000000000000E+20
 30
-1.000000000000000E+20
  9
$PLIMMIN
 10
0.0
 20
0.0
  9
$PLIMMAX
 10
420.0
 20
297.0
  9
$UNITMODE
 70
     0
  9
$VISRETAIN
 70
     1
  9
$PLINEGEN
 70
     0
  9
$PSLTSCALE
 70
     1
  9
$TREEDEPTH
 70
  3020
  9
$CMLSTYLE
  2
Standard
  9
$CMLJUST
 70
     0
  9
$CMLSCALE
 40
20.0
  9
$PROXYGRAPHICS
 70
     1
  9
$MEASUREMENT
 70
     1
  9
$CELWEIGHT
370
    -1
  9
$ENDCAPS
280
     0
  9
$JOINSTYLE
280
     0
  9
$LWDISPLAY
290
     0
  9
$INSUNITS
 70
     4
  9
$HYPERLINKBASE
  1

  9
$STYLESHEET
  1
彩色出圖.ctb
  9
$XEDIT
290
     1
  9
$CEPSNTYPE
380
     0
  9
$PSTYLEMODE
290
     1
  9
$FINGERPRINTGUID
  2
{AAA01E1A-376A-4450-A17A-698DA31AD93F}
  9
$VERSIONGUID
  2
{2AF08655-EDFB-47EC-AC26-A0D2639FE7D8}
  9
$EXTNAMES
290
     1
  9
$PSVPSCALE
 40
0.0
  9
$OLESTARTUP
290
     0
  0
ENDSEC
  0
SECTION
  2
CLASSES
  0
CLASS
  1
ACDBDICTIONARYWDFLT
  2
AcDbDictionaryWithDefault
  3
ObjectDBX Classes
 90
        0
280
     0
281
     0
  0
CLASS
  1
ACDBPLACEHOLDER
  2
AcDbPlaceHolder
  3
ObjectDBX Classes
 90
        0
280
     0
281
     0
  0
CLASS
  1
LAYOUT
  2
AcDbLayout
  3
ObjectDBX Classes
 90
        0
280
     0
281
     0
  0
CLASS
  1
ACME_DOCUMENT
  2
AcMeDbDoc
  3
AcMeServices
 90
        0
280
     0
281
     0
  0
CLASS
  1
AMGSETTINGSOBJ
  2
AmgSettingsObj
  3
"AcadM|Product Description: AutoCAD Mechanical 2000|Company: Autodesk"
 90
        0
280
     0
281
     0
  0
CLASS
  1
ACMESCOPE
  2
AcMeScope
  3
AcMeServices
 90
        0
280
     0
281
     0
  0
CLASS
  1
ACMECOMMANDHISTORY
  2
AcMeCommandHistory
  3
AcMeServices
 90
        0
280
     0
281
     0
  0
CLASS
  1
ACIMSYSVARMAN
  2
AcImSysVarManager
  3
AcMeServices
 90
        0
280
     0
281
     0
  0
CLASS
  1
ACIMREALSYSVAR
  2
AcImRealSysVar
  3
AcMeServices
 90
        0
280
     0
281
     0
  0
CLASS
  1
ACIMINTSYSVAR
  2
AcImIntSysVar
  3
AcMeServices
 90
        0
280
     0
281
     0
  0
CLASS
  1
ACMEDRAWINGMAN
  2
AcMeDrawingMan
  3
AcMeServices
 90
        0
280
     0
281
     0
  0
CLASS
  1
ACMEVIEW
  2
AcMeView
  3
AcMeServices
 90
        0
280
     0
281
     0
  0
CLASS
  1
ACDBENTITYCACHE
  2
AcMeEntityCache
  3
AcMeServices
 90
        0
280
     0
281
     0
  0
CLASS
  1
GSMANAGER
  2
AcMeGSManager
  3
AcMeServices
 90
        0
280
     0
281
     0
  0
CLASS
  1
AMDTINTERNALREACTOR
  2
AmdtInternalReactor
  3
AcMeServices
 90
        0
280
     0
281
     0
  0
CLASS
  1
ACMESTATEMGR
  2
AcMeStateMgr
  3
AcMeServices
 90
        0
280
     0
281
     0
  0
CLASS
  1
ACGREFMASTER
  2
AcGrefMaster
  3
AcAttribServices
 90
        0
280
     0
281
     0
  0
CLASS
  1
ACME_DATABASE
  2
AcMeDbDatabase
  3
AcMeServices
 90
        0
280
     0
281
     0
  0
CLASS
  1
ACRFINSADJUSTERMGR
  2
AcRfInsAdjusterMgr
  3
AcMeServices
 90
        0
280
     0
281
     0
  0
CLASS
  1
ACGREFACADMASTER
  2
AcGrefacadMaster
  3
AcGrefServices
 90
        0
280
     0
281
     0
  0
CLASS
  1
AMIMASTER
  2
AmiMaster
  3
AmiServices
 90
        0
280
     0
281
     0
  0
CLASS
  1
ACMDATADICTIONARY
  2
AcmDataDictionary
  3
"AcmSymBB|Product Description: AutoCAD Mechanical 2004 DX|Company: Autodesk"
 90
        0
280
     0
281
     0
  0
CLASS
  1
ACMDATAENTRYBLOCK
  2
AcmDataEntryBlock
  3
"AcmSymBB|Product Description: AutoCAD Mechanical 2004 DX|Company: Autodesk"
 90
        0
280
     0
281
     0
  0
CLASS
  1
ACIMSTRSYSVAR
  2
AcImStrSysVar
  3
AcMeServices
 90
        0
280
     0
281
     0
  0
CLASS
  1
ACMSTANDARDISO
  2
AcmStandardISO
  3
"Amdt_StdImp|Product Description: AutoCAD Mechanical 2004 DX|Company: Autodesk"
 90
        0
280
     0
281
     0
  0
CLASS
  1
AMGOBJPROPCFG
  2
AmgObjPropCfg
  3
"AmgLay|Product Description: AutoCAD Mechanical 2000|Company: Autodesk"
 90
        1
280
     0
281
     0
  0
CLASS
  1
AMDTEDGESTANDARDISO
  2
AmdtEdgeStdISO
  3
"Amdt_StdImp|Product Description: AutoCAD Mechanical 2004 DX|Company: Autodesk"
 90
        0
280
     0
281
     0
  0
CLASS
  1
ACMSURFSTANDARDISO
  2
AcmSurfTextStdISO
  3
"Amdt_StdImp|Product Description: AutoCAD Mechanical 2004 DX|Company: Autodesk"
 90
        0
280
     0
281
     0
  0
CLASS
  1
ACMFCFSTANDARDISO
  2
AcmFCFStdISO
  3
"Amdt_StdImp|Product Description: AutoCAD Mechanical 2004 DX|Company: Autodesk"
 90
        0
280
     0
281
     0
  0
CLASS
  1
ACMWELDSTANDARDISO
  2
AcmWeldingStdISO
  3
"Amdt_StdImp|Product Description: AutoCAD Mechanical 2004 DX|Company: Autodesk"
 90
        0
280
     0
281
     0
  0
CLASS
  1
ACMIDSTANDARDISO
  2
AcmIdStdISO
  3
"Amdt_StdImp|Product Description: AutoCAD Mechanical 2004 DX|Company: Autodesk"
 90
        0
280
     0
281
     0
  0
CLASS
  1
ACMDATUMSTANDARDISO
  2
AcmDatumStdISO
  3
"Amdt_StdImp|Product Description: AutoCAD Mechanical 2004 DX|Company: Autodesk"
 90
        0
280
     0
281
     0
  0
CLASS
  1
ACMBOMSTANDARDISO
  2
AcmBOMStdISO
  3
"Amdt_StdImp|Product Description: AutoCAD Mechanical 2004 DX|Company: Autodesk"
 90
        0
280
     0
281
     0
  0
CLASS
  1
ACMDETAILSTANDARDISO
  2
AmdtDetailSymStdISO
  3
"Amdt_StdImp|Product Description: AutoCAD Mechanical 2004 DX|Company: Autodesk"
 90
        0
280
     0
281
     0
  0
CLASS
  1
ACMSECTIONSTANDARDISO
  2
AmdtSectionSymStdISO
  3
"Amdt_StdImp|Product Description: AutoCAD Mechanical 2004 DX|Company: Autodesk"
 90
        0
280
     0
281
     0
  0
CLASS
  1
ACMCENTERLINESTANDARDISO
  2
AmdtCenterLineStdISO
  3
"Amdt_StdImp|Product Description: AutoCAD Mechanical 2004 DX|Company: Autodesk"
 90
        0
280
     0
281
     0
  0
CLASS
  1
ACMNOTESTANDARDISO
  2
AmdtNoteStdISO
  3
"Amdt_StdImp|Product Description: AutoCAD Mechanical 2004 DX|Company: Autodesk"
 90
        0
280
     0
281
     0
  0
CLASS
  1
ACAMGLAYSTD
  2
AcAmgLayStd
  3
"AcAmgLayStd|Product Description: AutoCAD Mechanical 2000|Company: Autodesk"
 90
        0
280
     0
281
     0
  0
CLASS
  1
ACAMGDIMSTD
  2
AcAmgDimStd
  3
"AcAmgDimStd|Product Description: AutoCAD Mechanical 2000|Company: Autodesk"
 90
        0
280
     0
281
     0
  0
CLASS
  1
ACAMGHOLECHARTSTDISO
  2
AcAmgHoleChartStdISO
  3
ACMSYMBB_MODULE_NAME
 90
        0
280
     0
281
     0
  0
CLASS
  1
ACAMGTITLESTD
  2
AcAmgTitleStd
  3
"TITLEAPP"
 90
        0
280
     0
281
     0
  0
CLASS
  1
LAYER_INDEX
  2
AcDbLayerIndex
  3
ObjectDBX Classes
 90
    32768
280
     0
281
     0
  0
CLASS
  1
IDBUFFER
  2
AcDbIdBuffer
  3
ObjectDBX Classes
 90
    32768
280
     0
281
     0
  0
CLASS
  1
DICTIONARYVAR
  2
AcDbDictionaryVar
  3
ObjectDBX Classes
 90
        0
280
     0
281
     0
  0
CLASS
  1
AM_DRAWING_MGR
  2
AcDmDwgMgr
  3
AcMechDwgViewMgmt
 90
        0
280
     0
281
     0
  0
CLASS
  1
AM_DWG_DOCUMENT
  2
AcDmDwgDocument
  3
AcMechDwgViewMgmt
 90
        0
280
     0
281
     0
  0
CLASS
  1
AM_DWG_SHEET
  2
AcDmSheet
  3
AcMechDwgViewMgmt
 90
        0
280
     0
281
     0
  0
CLASS
  1
AM_VIEWDIMPARMAP
  2
AcDmViewDimParMap
  3
AcMechDwgViewMgmt
 90
        0
280
     0
281
     0
  0
CLASS
  1
AM_DWGMGR_NAME
  2
AcDmDwgMgrName
  3
AcMechDwgViewMgmt
 90
        0
280
     0
281
     0
  0
CLASS
  1
AMDTMENUSTATEMGR
  2
AmdtMenuStateMgr
  3
McadcomServices
 90
        0
280
     0
281
     0
  0
CLASS
  1
AMDTMCOMMENUSTATE
  2
AmdtMcomMenuState
  3
McadcomServices
 90
        0
280
     0
281
     0
  0
CLASS
  1
MAPIAMMOUDLE
  2
MApiAmModule
  3
MApiAmServices
 90
        0
280
     0
281
     0
  0
CLASS
  1
AMDTADMENUSTATE
  2
AmdtAdMenuState
  3
DesignerServices
 90
        0
280
     0
281
     0
  0
CLASS
  1
ADAPPL
  2
AcAdAppl
  3
DesignerServices
 90
        0
280
     0
281
     0
  0
CLASS
  1
DEPMGR
  2
AcAdDepMgr
  3
DesignerServices
 90
        0
280
     0
281
     0
  0
CLASS
  1
PARAMMGR
  2
AcAdParamMgr
  3
DesignerServices
 90
        0
280
     0
281
     0
  0
CLASS
  1
PARAMSCOPE
  2
AcAdParamScope
  3
DesignerServices
 90
        0
280
     0
281
     0
  0
CLASS
  1
NAMEDAPPL
  2
AcAdNamedAppl
  3
DesignerServices
 90
        0
280
     0
281
     0
  0
CLASS
  1
AMDTDMMENUSTATE
  2
AmdtDmMenuState
  3
AcMechDwgViewMgmt
 90
        0
280
     0
281
     0
  0
CLASS
  1
AMDTAMMENUSTATE
  2
AmdtAmMenuState
  3
DesignerAssemblies
 90
        0
280
     0
281
     0
  0
CLASS
  1
ACAMPROJECT
  2
AcAmProject
  3
DesignerAssemblies
 90
        0
280
     0
281
     0
  0
CLASS
  1
ACAMGRCOMPDEF
  2
AcAmGrCompDef
  3
DesignerAssemblies
 90
        0
280
     0
281
     0
  0
CLASS
  1
ACCMCONTEXT
  2
AcCmContext
  3
DesignerAssemblies
 90
        0
280
     0
281
     0
  0
CLASS
  1
ACAMCOMPDEF
  2
AcAmCompDef
  3
DesignerAssemblies
 90
        0
280
     0
281
     0
  0
CLASS
  1
ACAMCOMPDEFMGR
  2
AcAmCompDefMgr
  3
DesignerAssemblies
 90
        0
280
     0
281
     0
  0
CLASS
  1
AMCONTEXTMGR
  2
AcAmContextMgr
  3
DesignerAssemblies
 90
        0
280
     0
281
     0
  0
CLASS
  1
ACAMCONTEXTMODELER
  2
AcAmContextModeler
  3
DesignerAssemblies
 90
        0
280
     0
281
     0
  0
CLASS
  1
ACMTHREADLINESTANDARDISO
  2
AmdtThreadLineStdISO
  3
"Amdt_StdImp|Product Description: AutoCAD Mechanical 2004 DX|Company: Autodesk"
 90
        0
280
     0
281
     0
  0
CLASS
  1
CATALOGSTATE
  2
AcAmCatalogState
  3
DesignerAssemblies
 90
        0
280
     0
281
     0
  0
CLASS
  1
ACAMGRCOMPDEFSET
  2
AcAmGrCompDefSet
  3
DesignerAssemblies
 90
        0
280
     0
281
     0
  0
CLASS
  1
AMDTBROWSERDBTAB
  2
AmdtBrowserDbTab
  3
McadcomServices
 90
        0
280
     0
281
     0
  0
CLASS
  1
CBROWSERAPPOBJECT
  2
CBrowserAppObject
  3
McadcomServices
 90
        0
280
     0
281
     0
  0
CLASS
  1
DM_PLACEHOLDER
  2
AcDmSelsetPlaceholder
  3
AcMechDwgViewMgmt
 90
        0
280
     0
281
     0
  0
CLASS
  1
TABLESTYLE
  2
AcDbTableStyle
  3
ObjectDBX Classes
 90
     2047
280
     0
281
     0
  0
CLASS
  1
VAACXREFPANELOBJECT
  2
VaAcXREFPanelObject
  3
VAAC_ADDIN
 90
    32768
280
     0
281
     0
  0
CLASS
  1
VAACIMAGEINVENTORY
  2
VaAcImageInventory
  3
VAAC_ADDIN
 90
    32768
280
     0
281
     0
  0
CLASS
  1
AMDTNOTETEMPLATEDB
  2
AmdtNoteTemplateDB
  3
AMDT_STDIMP_MODULE_NAME
 90
        0
280
     0
281
     0
  0
CLASS
  1
ACMBOM
  2
AcmBom
  3
"AcmSymBB|Product Description: AutoCAD Mechanical 2004 DX|Company: Autodesk"
 90
    32768
280
     0
281
     0
  0
CLASS
  1
AMDTFORMULAUPDATEDISPATCHER
  2
AmdtFormulaUpdateDispatcher
  3
AcMeServices
 90
    32768
280
     0
281
     0
  0
CLASS
  1
ACMPARTLIST
  2
AcmPartList
  3
"AcmSymBB|Product Description: AutoCAD Mechanical 2004 DX|Company: Autodesk"
 90
    33791
280
     0
281
     1
  0
CLASS
  1
ACAMGFILTERDAT
  2
AcAmgFilterDat
  3
"AcadM|Product Description: AutoCAD Mechanical 2000|Company: Autodesk"
 90
        0
280
     0
281
     0
  0
CLASS
  1
DIMASSOC
  2
AcDbDimAssoc
  3
"AcDbDimAssoc|Product Desc:     AcDim ARX App For Dimension|Company:          Autodesk, Inc.|WEB Address:      www.autodesk.com"
 90
    32768
280
     0
281
     0
  0
CLASS
  1
MATERIAL
  2
AcDbMaterial
  3
ObjectDBX Classes
 90
        0
280
     0
281
     0
  0
CLASS
  1
ACMSTANDARDANSI
  2
AcmStandardANSI
  3
"Amdt_StdImp|Product Description: AutoCAD Mechanical 2004 DX|Company: Autodesk"
 90
        0
280
     0
281
     0
  0
CLASS
  1
ACMSURFSTANDARDANSI
  2
AcmSurfTextStdANSI
  3
"Amdt_StdImp|Product Description: AutoCAD Mechanical 2004 DX|Company: Autodesk"
 90
        0
280
     0
281
     0
  0
CLASS
  1
ACMFCFSTANDARDANSI
  2
AcmFCFStdANSI
  3
"Amdt_StdImp|Product Description: AutoCAD Mechanical 2004 DX|Company: Autodesk"
 90
        0
280
     0
281
     0
  0
CLASS
  1
ACMWELDSTANDARDANSI
  2
AcmWeldingStdANSI
  3
"Amdt_StdImp|Product Description: AutoCAD Mechanical 2004 DX|Company: Autodesk"
 90
        0
280
     0
281
     0
  0
CLASS
  1
ACMIDSTANDARDANSI
  2
AcmIdStdANSI
  3
"Amdt_StdImp|Product Description: AutoCAD Mechanical 2004 DX|Company: Autodesk"
 90
        0
280
     0
281
     0
  0
CLASS
  1
ACMDATUMSTANDARDANSI
  2
AcmDatumStdANSI
  3
"Amdt_StdImp|Product Description: AutoCAD Mechanical 2004 DX|Company: Autodesk"
 90
        0
280
     0
281
     0
  0
CLASS
  1
ACMBOMSTANDARDANSI
  2
AcmBOMStdANSI
  3
"Amdt_StdImp|Product Description: AutoCAD Mechanical 2004 DX|Company: Autodesk"
 90
        0
280
     0
281
     0
  0
CLASS
  1
ACMDETAILSTANDARDANSI
  2
AmdtDetailSymStdANSI
  3
"Amdt_StdImp|Product Description: AutoCAD Mechanical 2004 DX|Company: Autodesk"
 90
        0
280
     0
281
     0
  0
CLASS
  1
ACMSECTIONSTANDARDANSI
  2
AmdtSectionSymStdANSI
  3
"Amdt_StdImp|Product Description: AutoCAD Mechanical 2004 DX|Company: Autodesk"
 90
        0
280
     0
281
     0
  0
CLASS
  1
ACMCENTERLINESTANDARDANSI
  2
AmdtCenterLineStdANSI
  3
"Amdt_StdImp|Product Description: AutoCAD Mechanical 2004 DX|Company: Autodesk"
 90
        0
280
     0
281
     0
  0
CLASS
  1
ACMTHREADLINESTANDARDANSI
  2
AmdtThreadLineStdANSI
  3
"Amdt_StdImp|Product Description: AutoCAD Mechanical 2004 DX|Company: Autodesk"
 90
        0
280
     0
281
     0
  0
CLASS
  1
ACMNOTESTANDARDANSI
  2
AmdtNoteStdANSI
  3
"Amdt_StdImp|Product Description: AutoCAD Mechanical 2004 DX|Company: Autodesk"
 90
        0
280
     0
281
     0
  0
CLASS
  1
ACAMGHOLECHARTSTDANSI
  2
AcAmgHoleChartStdANSI
  3
ACMSYMBB_MODULE_NAME
 90
        0
280
     0
281
     0
  0
CLASS
  1
ACRFATTGENMGR
  2
AcRfAttGeneralMgr
  3
AcAttribServices
 90
        0
280
     0
281
     0
  0
ENDSEC
  0
SECTION
  2
TABLES
  0
TABLE
  2
VPORT
  5
8
330
0
100
AcDbSymbolTable
 70
     3
  0
VPORT
  5
162B
330
8
100
AcDbSymbolTableRecord
100
AcDbViewportTableRecord
  2
*Active
 70
     0
 10
0.0
 20
0.0
 11
1.0
 21
1.0
 12
462.1232875864176
 22
132.4449634208572
 13
0.0
 23
0.0
 14
2.5
 24
2.5
 15
10.0
 25
10.0
 16
0.0
 26
0.0
 36
1.0
 17
0.0
 27
0.0
 37
0.0
 40
521.413540263402
 41
1.326923076923076
 42
50.0
 43
0.0
 44
0.0
 50
0.0
 51
0.0
 71
     0
 72
   100
 73
     1
 74
     3
 75
     0
 76
     0
 77
     0
 78
     0
281
     0
 65
     1
110
0.0
120
0.0
130
0.0
111
1.0
121
0.0
131
0.0
112
0.0
122
1.0
132
0.0
 79
     0
146
0.0
  0
ENDTAB
  0
TABLE
  2
LTYPE
  5
5
330
0
100
AcDbSymbolTable
 70
    17
  0
LTYPE
  5
14
330
5
100
AcDbSymbolTableRecord
100
AcDbLinetypeTableRecord
  2
ByBlock
 70
     0
  3

 72
    65
 73
     0
 40
0.0
  0
LTYPE
  5
15
330
5
100
AcDbSymbolTableRecord
100
AcDbLinetypeTableRecord
  2
ByLayer
 70
     0
  3

 72
    65
 73
     0
 40
0.0
  0
LTYPE
  5
16
330
5
100
AcDbSymbolTableRecord
100
AcDbLinetypeTableRecord
  2
Continuous
 70
     0
  3
Solid line
 72
    65
 73
     0
 40
0.0
  0
LTYPE
  5
64
330
5
100
AcDbSymbolTableRecord
100
AcDbLinetypeTableRecord
  2
AM_ISO02W050
 70
     0
  3
__ __ __ __ __ __ __ __ __ __ __ __ __ __ __
 72
    65
 73
     2
 40
7.5
 49
6.0
 74
     0
 49
-1.5
 74
     0
  0
LTYPE
  5
65
330
5
100
AcDbSymbolTableRecord
100
AcDbLinetypeTableRecord
  2
AM_ISO08W050
 70
     0
  3
____ . ____ . ____ . ____ . ____ . ____ . ____
 72
    65
 73
     4
 40
18.0
 49
12.0
 74
     0
 49
-1.5
 74
     0
 49
3.0
 74
     0
 49
-1.5
 74
     0
  0
LTYPE
  5
66
330
5
100
AcDbSymbolTableRecord
100
AcDbLinetypeTableRecord
  2
AM_ISO09W050
 70
     0
  3
_____ . . _____ . . _____ . . ____ .. ____
 72
    65
 73
     6
 40
22.5
 49
12.0
 74
     0
 49
-1.5
 74
     0
 49
3.0
 74
     0
 49
-1.5
 74
     0
 49
3.0
 74
     0
 49
-1.5
 74
     0
  0
LTYPE
  5
67
330
5
100
AcDbSymbolTableRecord
100
AcDbLinetypeTableRecord
  2
Amconstr
 70
     0
  3
_______________________
 72
    65
 73
     2
 40
9999.0
 49
9999.0
 74
     0
 49
0.0
 74
     0
  0
LTYPE
  5
68
330
5
100
AcDbSymbolTableRecord
100
AcDbLinetypeTableRecord
  2
AM_ISO08W050x2
 70
     0
  3
__ . __ . __ . __ . __ . __
 72
    65
 73
     4
 40
9.0
 49
6.0
 74
     0
 49
-0.75
 74
     0
 49
1.5
 74
     0
 49
-0.75
 74
     0
  0
LTYPE
  5
69
330
5
100
AcDbSymbolTableRecord
100
AcDbLinetypeTableRecord
  2
AM_ISO02W050x2
 70
     0
  3
 _ _ _ _ _ _ _ _ _ _ _ _
 72
    65
 73
     2
 40
3.75
 49
3.0
 74
     0
 49
-0.75
 74
     0
  0
LTYPE
  5
6C
330
5
100
AcDbSymbolTableRecord
100
AcDbLinetypeTableRecord
  2
Amzigzag
 70
     0
  3
/\/-/\/-/\/-/\/-/\/-/\/
 72
    65
 73
     2
 40
11.0001
 49
0.0001
 74
     4
 75
   135
340
6B
 46
0.04
 50
0.0
 44
0.0
 45
0.0
 49
-11.0
 74
     0
  0
LTYPE
  5
7A
330
5
100
AcDbSymbolTableRecord
100
AcDbLinetypeTableRecord
  2
ACISOWELD
 70
     0
  3
_ _ _ _ _
 72
    65
 73
     2
 40
2.0
 49
2.0
 74
     0
 49
-1.0
 74
     0
  0
LTYPE
  5
7B
330
5
100
AcDbSymbolTableRecord
100
AcDbLinetypeTableRecord
  2
ACISOTGB
 70
     0
  3
__ . . __ . .
 72
    65
 73
     6
 40
9.0
 49
4.0
 74
     0
 49
-1.0
 74
     0
 49
1.0
 74
     0
 49
-1.0
 74
     0
 49
1.0
 74
     0
 49
-1.0
 74
     0
  0
LTYPE
  5
7C
330
5
100
AcDbSymbolTableRecord
100
AcDbLinetypeTableRecord
  2
ACISOTGL
 70
     0
  3
_ _ _ _ _
 72
    65
 73
     2
 40
3.0
 49
2.0
 74
     0
 49
-1.0
 74
     0
  0
LTYPE
  5
7E
330
5
100
AcDbSymbolTableRecord
100
AcDbLinetypeTableRecord
  2
CENTER
 70
     0
  3
__ . __
 72
    65
 73
     4
 40
7.0
 49
4.0
 74
     0
 49
-1.0
 74
     0
 49
1.0
 74
     0
 49
-1.0
 74
     0
  0
LTYPE
  5
D8
330
5
100
AcDbSymbolTableRecord
100
AcDbLinetypeTableRecord
  2
HIDDEN
 70
     0
  3
Hidden __ __ __ __ __ __ __ __ __ __ __ __ __ _
 72
    65
 73
     2
 40
9.524999999999998
 49
6.349999999999999
 74
     0
 49
-3.174999999999999
 74
     0
  0
LTYPE
  5
D9
330
5
100
AcDbSymbolTableRecord
100
AcDbLinetypeTableRecord
  2
PHANTOM2
 70
     0
  3
Phantom (.5x) ___ _ _ ___ _ _ ___ _ _ ___ _ _
 72
    65
 73
     6
 40
31.75
 49
15.875
 74
     0
 49
-3.174999999999999
 74
     0
 49
3.174999999999999
 74
     0
 49
-3.174999999999999
 74
     0
 49
3.174999999999999
 74
     0
 49
-3.174999999999999
 74
     0
  0
LTYPE
  5
ACA
330
5
100
AcDbSymbolTableRecord
100
AcDbLinetypeTableRecord
  2
PHANTOM
 70
     0
  3
__________ _ _ __________ _ _ __________ _ _ 
 72
    65
 73
     6
 40
15.0
 49
10.0
 74
     0
 49
-1.0
 74
     0
 49
1.0
 74
     0
 49
-1.0
 74
     0
 49
1.0
 74
     0
 49
-1.0
 74
     0
  0
LTYPE
  5
ACE
330
5
100
AcDbSymbolTableRecord
100
AcDbLinetypeTableRecord
  2
ACANSTGB
 70
     0
  3
__ . . __ . .
 72
    65
 73
     6
 40
0.35433070866
 49
0.15748031496
 74
     0
 49
-0.03937007874
 74
     0
 49
0.03937007874
 74
     0
 49
-0.03937007874
 74
     0
 49
0.03937007874
 74
     0
 49
-0.03937007874
 74
     0
  0
LTYPE
  5
ACF
330
5
100
AcDbSymbolTableRecord
100
AcDbLinetypeTableRecord
  2
ACANSTGL
 70
     0
  3
_ _ _ _ _
 72
    65
 73
     2
 40
0.11811023622
 49
0.07874015748
 74
     0
 49
-0.03937007874
 74
     0
  0
ENDTAB
  0
TABLE
  2
LAYER
  5
2
102
{ACAD_XDICTIONARY
360
3F9
102
}
330
0
100
AcDbSymbolTable
 70
     6
  0
LAYER
  5
10
330
2
100
AcDbSymbolTableRecord
100
AcDbLayerTableRecord
  2
0
 70
     0
 62
     7
  6
Continuous
370
    -3
390
F
  0
LAYER
  5
AD0
102
{ACAD_XDICTIONARY
360
AD1
102
}
330
2
100
AcDbSymbolTableRecord
100
AcDbLayerTableRecord
  2
UMCL1
 70
     0
 62
     7
  6
Continuous
370
    -3
390
F
  0
LAYER
  5
AD3
102
{ACAD_XDICTIONARY
360
AD4
102
}
330
2
100
AcDbSymbolTableRecord
100
AcDbLayerTableRecord
  2
UMCL2
 70
     0
 62
     2
  6
Continuous
370
    -3
390
F
  0
LAYER
  5
124C
330
2
100
AcDbSymbolTableRecord
100
AcDbLayerTableRecord
  2
AM_7
 70
     0
 62
     1
  6
CENTER
370
    25
390
F
  0
LAYER
  5
12C8
330
2
100
AcDbSymbolTableRecord
100
AcDbLayerTableRecord
  2
LOGO
 70
     0
 62
     7
  6
Continuous
370
    -3
390
F
  0
LAYER
  5
15C8
330
2
100
AcDbSymbolTableRecord
100
AcDbLayerTableRecord
  2
AM_5
 70
     0
 62
     5
  6
Continuous
370
    50
390
F
  0
ENDTAB
  0
TABLE
  2
STYLE
  5
3
330
0
100
AcDbSymbolTable
 70
     9
  0
STYLE
  5
11
330
3
100
AcDbSymbolTableRecord
100
AcDbTextStyleTableRecord
  2
STANDARD
 70
     0
 40
0.0
 41
1.0
 50
0.0
 71
     0
 42
3.0
  3
ISOCP.SHX
  4
CHINESET.SHX
  0
STYLE
  5
6B
330
3
100
AcDbSymbolTableRecord
100
AcDbTextStyleTableRecord
  2

 70
     1
 40
0.0
 41
1.0
 50
0.0
 71
     0
 42
2.5
  3
ltypeshp.shx
  4

  0
STYLE
  5
6D
330
3
100
AcDbSymbolTableRecord
100
AcDbTextStyleTableRecord
  2
ACISOTS
 70
     0
 40
1.0
 41
1.0
 50
0.0
 71
     0
 42
1.0
  3
isocp.shx
  4
chineset.shx
  0
STYLE
  5
79
330
3
100
AcDbSymbolTableRecord
100
AcDbTextStyleTableRecord
  2
ACISOGDT
 70
     0
 40
0.0
 41
1.0
 50
0.0
 71
     0
 42
2.5
  3
amgdt.shx
  4
chineset.shx
  0
STYLE
  5
AD7
330
3
100
AcDbSymbolTableRecord
100
AcDbTextStyleTableRecord
  2
ROMANS
 70
     0
 40
0.0
 41
1.0
 50
0.0
 71
     0
 42
3.0
  3
ROMANS.SHX
  4
LMP
  0
STYLE
  5
AD8
330
3
100
AcDbSymbolTableRecord
100
AcDbTextStyleTableRecord
  2
ACANSTS
 70
     0
 40
1.0
 41
1.0
 50
0.0
 71
     0
 42
2.5
  3
romans.shx
  4
chineset.shx
  0
STYLE
  5
AD9
330
3
100
AcDbSymbolTableRecord
100
AcDbTextStyleTableRecord
  2
ACANSGDT
 70
     0
 40
0.0
 41
1.0
 50
0.0
 71
     0
 42
2.5
  3
amgdtans.shx
  4

  0
STYLE
  5
12C9
330
3
100
AcDbSymbolTableRecord
100
AcDbTextStyleTableRecord
  2
CHINESET
 70
     0
 40
0.0
 41
1.0
 50
0.0
 71
     0
 42
3.0
  3
simplex.shx
  4
CHINESET.SHX
  0
ENDTAB
  0
TABLE
  2
VIEW
  5
6
330
0
100
AcDbSymbolTable
 70
     0
  0
ENDTAB
  0
TABLE
  2
UCS
  5
7
330
0
100
AcDbSymbolTable
 70
     0
  0
ENDTAB
  0
TABLE
  2
APPID
  5
9
330
0
100
AcDbSymbolTable
 70
    20
  0
APPID
  5
12
330
9
100
AcDbSymbolTableRecord
100
AcDbRegAppTableRecord
  2
ACAD
 70
     0
  0
APPID
  5
46
330
9
100
AcDbSymbolTableRecord
100
AcDbRegAppTableRecord
  2
MCAD_NO_VIS
 70
     0
  0
APPID
  5
47
330
9
100
AcDbSymbolTableRecord
100
AcDbRegAppTableRecord
  2
ACAD_TEMP_GRAPHIC
 70
     0
  0
APPID
  5
58
330
9
100
AcDbSymbolTableRecord
100
AcDbRegAppTableRecord
  2
ACATTRIBSERVICES
 70
     0
  0
APPID
  5
EE
330
9
100
AcDbSymbolTableRecord
100
AcDbRegAppTableRecord
  2
AD_DRAW
 70
     0
  0
APPID
  5
10C
330
9
100
AcDbSymbolTableRecord
100
AcDbRegAppTableRecord
  2
DESIGNERASSEMBLIES
 70
     0
  0
APPID
  5
111
330
9
100
AcDbSymbolTableRecord
100
AcDbRegAppTableRecord
  2
ACADM_DIM_EDIT
 70
     0
  0
APPID
  5
112
330
9
100
AcDbSymbolTableRecord
100
AcDbRegAppTableRecord
  2
AMDT_DM_ADJ
 70
     0
  0
APPID
  5
22C
330
9
100
AcDbSymbolTableRecord
100
AcDbRegAppTableRecord
  2
ACAD_DSTYLE_DIMTEXT_FILL
 70
     0
  0
APPID
  5
452
330
9
100
AcDbSymbolTableRecord
100
AcDbRegAppTableRecord
  2
GENIUS_GENOENT_13
 70
     0
  0
APPID
  5
453
330
9
100
AcDbSymbolTableRecord
100
AcDbRegAppTableRecord
  2
GENIUS_GENOBJ-N-CRS_13
 70
     0
  0
APPID
  5
454
330
9
100
AcDbSymbolTableRecord
100
AcDbRegAppTableRecord
  2
GENIUS_GENOLIS_13
 70
     0
  0
APPID
  5
455
330
9
100
AcDbSymbolTableRecord
100
AcDbRegAppTableRecord
  2
GENIUS_GENODEF_13
 70
     0
  0
APPID
  5
456
330
9
100
AcDbSymbolTableRecord
100
AcDbRegAppTableRecord
  2
GENIUS_GENOREF_13
 70
     0
  0
APPID
  5
6F3
330
9
100
AcDbSymbolTableRecord
100
AcDbRegAppTableRecord
  2
ACAD_PSEXT
 70
     0
  0
APPID
  5
808
330
9
100
AcDbSymbolTableRecord
100
AcDbRegAppTableRecord
  2
GENIUS_GENDTOL_13
 70
     0
  0
APPID
  5
124E
330
9
100
AcDbSymbolTableRecord
100
AcDbRegAppTableRecord
  2
GENIUS_GENOBJ-N-CEN_13
 70
     0
  0
APPID
  5
124F
330
9
100
AcDbSymbolTableRecord
100
AcDbRegAppTableRecord
  2
GENIUS_GENCEN_19
 70
     0
  0
APPID
  5
12CA
330
9
100
AcDbSymbolTableRecord
100
AcDbRegAppTableRecord
  2
GENIUS_GENREC_14
 70
     0
  0
APPID
  5
12CB
330
9
100
AcDbSymbolTableRecord
100
AcDbRegAppTableRecord
  2
GENIUS_GENOBJ-N-REC_13
 70
     0
  0
ENDTAB
  0
TABLE
  2
DIMSTYLE
  5
A
330
0
100
AcDbSymbolTable
 70
    15
100
AcDbDimStyleTable
 71
     3
340
81
340
8B
340
86
  0
DIMSTYLE
105
81
330
A
100
AcDbSymbolTableRecord
100
AcDbDimStyleTableRecord
  2
AM_ISO
 70
     0
  4
"
 41
3.0
 42
1.5
 43
8.0
 44
1.5
 47
0.1
 48
0.1
 73
     0
 74
     0
 77
     1
 78
     8
 79
     2
140
3.5
141
0.0
143
0.0393701
146
0.6
147
1.0
172
     1
176
   256
177
   256
178
   256
271
     2
272
     2
283
     0
284
     8
340
11
371
    -1
372
    -1
  0
DIMSTYLE
105
82
330
A
100
AcDbSymbolTableRecord
100
AcDbDimStyleTableRecord
  2
AM_ISO$3
 70
     0
  4
"
 41
3.0
 42
1.5
 43
8.0
 44
1.5
 47
0.1
 48
0.1
 73
     0
 77
     1
 78
     8
 79
     2
140
3.5
141
0.0
143
0.0393701
146
0.6
147
1.0
176
   256
177
   256
178
   256
271
     2
272
     2
283
     0
284
     8
288
     1
289
     0
340
11
371
    -1
372
    -1
  0
DIMSTYLE
105
83
330
A
100
AcDbSymbolTableRecord
100
AcDbDimStyleTableRecord
  2
AM_ISO$4
 70
     0
  4
"
 41
3.0
 42
1.5
 43
8.0
 44
1.5
 47
0.1
 48
0.1
 73
     0
 77
     1
 78
     8
 79
     2
140
3.5
141
0.0
143
0.0393701
146
0.6
147
1.0
176
   256
177
   256
178
   256
271
     2
272
     2
283
     0
284
     8
288
     1
289
     0
340
11
371
    -1
372
    -1
  0
DIMSTYLE
105
84
330
A
100
AcDbSymbolTableRecord
100
AcDbDimStyleTableRecord
  2
AM_ISO$6
 70
     0
  4
"
 41
3.0
 42
1.5
 43
8.0
 44
1.5
 47
0.1
 48
0.1
 73
     0
 74
     0
 78
     8
 79
     2
140
3.5
141
0.0
143
0.0393701
146
0.6
147
1.0
172
     1
176
   256
177
   256
178
   256
271
     2
272
     2
283
     0
284
     8
340
11
371
    -1
372
    -1
  0
DIMSTYLE
105
85
330
A
100
AcDbSymbolTableRecord
100
AcDbDimStyleTableRecord
  2
AM_ISO$7
 70
     0
  4
"
 41
3.0
 42
1.5
 43
8.0
 44
1.5
 47
0.1
 48
0.1
 73
     0
 74
     0
 77
     1
 78
     8
 79
     2
140
5.0
141
0.0
143
0.0393701
146
0.6
147
1.0
172
     1
176
   256
177
   256
178
   256
271
     2
272
     2
283
     0
284
     8
340
11
371
    -1
372
    -1
  0
DIMSTYLE
105
86
330
A
100
AcDbSymbolTableRecord
100
AcDbDimStyleTableRecord
  2
AM_ISO$SF
 70
     0
  4
"
 41
2.5
 42
1.0
 43
10.0
 44
1.0
 47
0.1
 48
0.1
 73
     0
 74
     0
 75
     1
 76
     1
 77
     1
 78
     8
 79
     2
140
3.5
141
0.0
143
0.0393701
146
0.71
147
1.5
172
     1
176
   256
177
   256
178
     2
271
     2
272
     3
274
     4
283
     0
284
     8
340
11
371
    -1
372
    -1
  0
DIMSTYLE
105
8B
330
A
100
AcDbSymbolTableRecord
100
AcDbDimStyleTableRecord
  2
AM_ISO$SH
 70
     0
  4
"
 41
2.5
 42
1.0
 43
10.0
 44
1.0
 47
0.1
 48
0.1
 73
     0
 74
     0
 75
     1
 76
     1
 77
     1
 78
     8
 79
     2
140
3.5
141
0.0
143
0.0393701
144
2.0
146
0.71
147
1.5
172
     1
173
     1
176
   256
177
   256
178
     2
271
     2
272
     3
274
     4
283
     0
284
     8
340
11
343
87
371
    -1
372
    -1
  0
DIMSTYLE
105
40B
330
A
100
AcDbSymbolTableRecord
100
AcDbDimStyleTableRecord
  2
AM_ISO$0
 70
     0
  4
"
 41
3.0
 42
1.5
 43
8.0
 44
1.5
 47
0.1
 48
0.1
 73
     0
 74
     0
 77
     1
 78
     8
 79
     2
140
3.5
141
0.0
143
0.0393701
146
0.6
147
1.0
172
     1
176
   256
177
   256
178
   256
271
     2
272
     2
283
     0
284
     8
340
11
371
    -1
372
    -1
  0
DIMSTYLE
105
ADB
330
A
100
AcDbSymbolTableRecord
100
AcDbDimStyleTableRecord
  2
AM_ANSI
 70
     0
  4
mm
 41
0.1
 42
0.05
 43
0.5
 44
0.1
 47
0.1
 48
0.1
 78
     7
 79
     2
140
0.12
141
0.0
146
0.71
147
0.06
176
   256
177
   256
178
     2
274
     4
284
     7
340
11
371
    -1
372
    -1
  0
DIMSTYLE
105
ADC
330
A
100
AcDbSymbolTableRecord
100
AcDbDimStyleTableRecord
  2
AM_ANSI$3
 70
     0
  4
mm
 41
0.1
 42
0.05
 43
0.5
 44
0.1
 47
0.1
 48
0.1
 78
     7
 79
     2
140
0.12
141
0.0
146
0.71
147
0.06
176
   256
177
   256
178
     2
274
     4
284
     7
288
     1
289
     0
340
11
371
    -1
372
    -1
  0
DIMSTYLE
105
ADD
330
A
100
AcDbSymbolTableRecord
100
AcDbDimStyleTableRecord
  2
AM_ANSI$4
 70
     0
  4
mm
 41
0.1
 42
0.05
 43
0.5
 44
0.1
 47
0.1
 48
0.1
 78
     7
 79
     2
140
0.12
141
0.0
146
0.71
147
0.06
176
   256
177
   256
178
     2
274
     4
284
     7
288
     1
289
     0
340
11
371
    -1
372
    -1
  0
DIMSTYLE
105
ADE
330
A
100
AcDbSymbolTableRecord
100
AcDbDimStyleTableRecord
  2
AM_ANSI$7
 70
     0
  4
mm
 41
0.1
 42
0.05
 43
0.5
 44
0.1
 47
0.1
 48
0.1
 78
     7
 79
     2
140
0.24
141
0.0
146
0.71
147
0.06
176
   256
177
   256
178
     2
274
     4
284
     7
340
11
371
    -1
372
    -1
  0
DIMSTYLE
105
ADF
330
A
100
AcDbSymbolTableRecord
100
AcDbDimStyleTableRecord
  2
AM_ANSI$SF
 70
     0
  4
mm
 41
0.1
 42
0.05
 43
0.5
 44
0.1
 47
0.1
 48
0.1
 75
     1
 76
     1
 78
     7
 79
     2
140
0.12
141
0.0
146
0.71
147
0.06
176
   256
177
   256
178
     2
274
     4
284
     7
340
11
371
    -1
372
    -1
  0
DIMSTYLE
105
AE0
330
A
100
AcDbSymbolTableRecord
100
AcDbDimStyleTableRecord
  2
AM_ANSI$SH
 70
     0
  4
mm
 41
0.1
 42
0.05
 43
0.5
 44
0.1
 47
0.1
 48
0.1
 75
     1
 76
     1
 78
     7
 79
     2
140
0.12
141
0.0
146
0.71
147
0.06
173
     1
176
   256
177
   256
178
     2
274
     4
284
     7
340
11
343
87
371
    -1
372
    -1
  0
ENDTAB
  0
TABLE
  2
BLOCK_RECORD
  5
1
330
0
100
AcDbSymbolTable
 70
     4
  0
BLOCK_RECORD
  5
1F
102
{ACAD_XDICTIONARY
360
8F
102
}
330
1
100
AcDbSymbolTableRecord
100
AcDbBlockTableRecord
  2
*Model_Space
340
22
  0
BLOCK_RECORD
  5
1B
330
1
100
AcDbSymbolTableRecord
100
AcDbBlockTableRecord
  2
*Paper_Space
340
1E
  0
BLOCK_RECORD
  5
23
330
1
100
AcDbSymbolTableRecord
100
AcDbBlockTableRecord
  2
*Paper_Space0
340
26
  0
BLOCK_RECORD
  5
87
330
1
100
AcDbSymbolTableRecord
100
AcDbBlockTableRecord
  2
GENAXEH
340
0
  0
ENDTAB
  0
ENDSEC
  0
SECTION
  2
BLOCKS
  0
BLOCK
  5
20
330
1F
100
AcDbEntity
  8
0
100
AcDbBlockBegin
  2
*Model_Space
 70
     0
 10
0.0
 20
0.0
 30
0.0
  3
*Model_Space
  1

  0
ENDBLK
  5
21
330
1F
100
AcDbEntity
  8
0
100
AcDbBlockEnd
  0
BLOCK
  5
1C
330
1B
100
AcDbEntity
 67
     1
  8
0
100
AcDbBlockBegin
  2
*Paper_Space
 70
     0
 10
0.0
 20
0.0
 30
0.0
  3
*Paper_Space
  1

  0
ENDBLK
  5
1D
330
1B
100
AcDbEntity
 67
     1
  8
0
100
AcDbBlockEnd
  0
BLOCK
  5
24
330
23
100
AcDbEntity
  8
0
100
AcDbBlockBegin
  2
*Paper_Space0
 70
     0
 10
0.0
 20
0.0
 30
0.0
  3
*Paper_Space0
  1

  0
ENDBLK
  5
25
330
23
100
AcDbEntity
  8
0
100
AcDbBlockEnd
  0
BLOCK
  5
89
330
87
100
AcDbEntity
  8
0
100
AcDbBlockBegin
  2
GENAXEH
 70
     0
 10
0.0
 20
0.0
 30
0.0
  3
GENAXEH
  1

  0
LINE
  5
88
330
87
100
AcDbEntity
  8
0
100
AcDbLine
 10
-1.0
 20
0.0
 30
0.0
 11
1.0
 21
0.0
 31
0.0
  0
ENDBLK
  5
8A
330
87
100
AcDbEntity
  8
0
100
AcDbBlockEnd
  0
ENDSEC
  0
SECTION
  2
ENTITIES
  0
TEXT
  5
C9F
330
1F
100
AcDbEntity
  8
UMCL2
 62
     5
100
AcDbText
 10
198.5932094280704
 20
320.2109962958241
 30
0.0
 40
4.0
  1
CW
  7
ROMANS
100
AcDbText
  0
TEXT
  5
CA0
330
1F
100
AcDbEntity
  8
UMCL2
 62
     5
100
AcDbText
 10
193.7075942571739
 20
287.1480473114274
 30
0.0
 40
4.0
  1
CCW
  7
ROMANS
100
AcDbText
  0
POLYLINE
  5
CA1
330
1F
100
AcDbEntity
  8
UMCL2
 62
     5
100
AcDb2dPolyline
 66
     1
 10
0.0
 20
0.0
 30
0.0
 70
     7
  0
VERTEX
  5
CA2
330
CA1
100
AcDbEntity
  8
UMCL2
 62
     5
100
AcDbVertex
100
AcDb2dVertex
 10
207.2296903390381
 20
318.2364810555942
 30
0.0
 42
-0.0185322085214218
  0
VERTEX
  5
CA3
330
CA1
100
AcDbEntity
  8
UMCL2
 62
     5
100
AcDbVertex
100
AcDb2dVertex
 10
209.2588634089177
 20
322.6375802952753
 30
0.0
  0
VERTEX
  5
CA4
330
CA1
100
AcDbEntity
  8
UMCL2
 62
     5
100
AcDbVertex
100
AcDb2dVertex
 10
208.723671004318
 20
322.9088165208405
 30
0.0
  0
VERTEX
  5
CA5
330
CA1
100
AcDbEntity
  8
UMCL2
 62
     5
100
AcDbVertex
100
AcDb2dVertex
 10
211.3461557876513
 20
324.9430141596895
 30
0.0
  0
VERTEX
  5
CA6
330
CA1
100
AcDbEntity
  8
UMCL2
 62
     5
100
AcDbVertex
100
AcDb2dVertex
 10
211.1320368250169
 20
321.6882535057972
 30
0.0
  0
VERTEX
  5
CA7
330
CA1
100
AcDbEntity
  8
UMCL2
 62
     5
100
AcDbVertex
100
AcDb2dVertex
 10
210.5968444204169
 20
321.9594897313625
 30
0.0
 42
0.018532208521422
  0
VERTEX
  5
CA8
330
CA1
100
AcDbEntity
  8
UMCL2
 62
     5
100
AcDbVertex
100
AcDb2dVertex
 10
208.6142120172774
 20
317.6593331347926
 30
0.0
  0
SEQEND
  5
CA9
330
CA1
100
AcDbEntity
  8
UMCL2
 62
     5
  0
POLYLINE
  5
CAA
330
1F
100
AcDbEntity
  8
UMCL2
 62
     5
100
AcDb2dPolyline
 66
     1
 10
0.0
 20
0.0
 30
0.0
 70
     7
  0
VERTEX
  5
CAB
330
CAA
100
AcDbEntity
  8
UMCL2
 62
     5
100
AcDbVertex
100
AcDb2dVertex
 10
207.2296903390377
 20
292.0821852139919
 30
0.0
 42
0.0185322085214218
  0
VERTEX
  5
CAC
330
CAA
100
AcDbEntity
  8
UMCL2
 62
     5
100
AcDbVertex
100
AcDb2dVertex
 10
209.2588634089172
 20
287.6810859743108
 30
0.0
  0
VERTEX
  5
CAD
330
CAA
100
AcDbEntity
  8
UMCL2
 62
     5
100
AcDbVertex
100
AcDb2dVertex
 10
208.7236710043176
 20
287.4098497487456
 30
0.0
  0
VERTEX
  5
CAE
330
CAA
100
AcDbEntity
  8
UMCL2
 62
     5
100
AcDbVertex
100
AcDb2dVertex
 10
211.3461557876509
 20
285.3756521098965
 30
0.0
  0
VERTEX
  5
CAF
330
CAA
100
AcDbEntity
  8
UMCL2
 62
     5
100
AcDbVertex
100
AcDb2dVertex
 10
211.1320368250165
 20
288.630412763789
 30
0.0
  0
VERTEX
  5
CB0
330
CAA
100
AcDbEntity
  8
UMCL2
 62
     5
100
AcDbVertex
100
AcDb2dVertex
 10
210.5968444204165
 20
288.3591765382235
 30
0.0
 42
-0.018532208521422
  0
VERTEX
  5
CB1
330
CAA
100
AcDbEntity
  8
UMCL2
 62
     5
100
AcDbVertex
100
AcDb2dVertex
 10
208.6142120172773
 20
292.6593331347927
 30
0.0
  0
SEQEND
  5
CB2
330
CAA
100
AcDbEntity
  8
UMCL2
 62
     5
  0
CIRCLE
  5
CB3
330
1F
100
AcDbEntity
  8
UMCL1
 62
     7
100
AcDbCircle
 10
234.6142135172771
 20
290.1593346347926
 30
0.0
 40
2.29999977
  0
CIRCLE
  5
CB4
330
1F
100
AcDbEntity
  8
UMCL1
 62
     7
100
AcDbCircle
 10
234.6142135172771
 20
320.1593316347926
 30
0.0
 40
2.29999977
  0
CIRCLE
  5
CB5
330
1F
100
AcDbEntity
  8
UMCL1
 62
     7
100
AcDbCircle
 10
264.6142105172771
 20
320.1593316347924
 30
0.0
 40
2.29999977
  0
CIRCLE
  5
CB6
330
1F
100
AcDbEntity
  8
UMCL1
 62
     7
100
AcDbCircle
 10
264.614210517277
 20
290.1593346347925
 30
0.0
 40
2.29999977
  0
LINE
  5
CB7
330
1F
100
AcDbEntity
  8
UMCL1
100
AcDbLine
 10
230.9677138819268
 20
137.901959497809
 30
0.0
 11
268.2607101526268
 21
137.9019594978087
 31
0.0
  0
LINE
  5
CB8
330
1F
100
AcDbEntity
  8
UMCL1
100
AcDbLine
 10
268.6142101172768
 20
138.2554594624588
 30
0.0
 11
268.6142101172769
 21
160.5484572331588
 31
0.0
  0
LINE
  5
CB9
330
1F
100
AcDbEntity
  8
UMCL1
100
AcDbLine
 10
230.6142139172769
 20
160.548457233159
 30
0.0
 11
230.6142139172767
 21
138.255459462459
 31
0.0
  0
LINE
  5
CBA
330
1F
100
AcDbEntity
  8
UMCL1
100
AcDbLine
 10
268.2607101526269
 20
160.9019571978087
 30
0.0
 11
268.6142101172769
 21
160.5484572331588
 31
0.0
  0
LINE
  5
CBB
330
1F
100
AcDbEntity
  8
UMCL1
100
AcDbLine
 10
268.2607101526268
 20
137.9019594978087
 30
0.0
 11
268.6142101172768
 21
138.2554594624588
 31
0.0
  0
LINE
  5
CBC
330
1F
100
AcDbEntity
  8
UMCL1
100
AcDbLine
 10
230.9677138819269
 20
160.901957197809
 30
0.0
 11
230.6142139172769
 21
160.548457233159
 31
0.0
  0
LINE
  5
CBD
330
1F
100
AcDbEntity
  8
UMCL1
100
AcDbLine
 10
230.6142139172767
 20
138.255459462459
 30
0.0
 11
230.9677138819268
 21
137.901959497809
 31
0.0
  0
ARC
  5
CBE
330
1F
100
AcDbEntity
  8
UMCL1
100
AcDbCircle
 10
264.1142105672772
 20
199.9019532978088
 30
0.0
 40
2.9999997
100
AcDbArc
 50
0.0
 51
90.0
  0
ARC
  5
CBF
330
1F
100
AcDbEntity
  8
UMCL1
100
AcDbCircle
 10
235.1142134672772
 20
199.901953297809
 30
0.0
 40
2.9999997
100
AcDbArc
 50
90.0
 51
180.0
  0
LWPOLYLINE
  5
CC0
330
1F
100
AcDbEntity
  8
UMCL1
100
AcDbPolyline
 90
        2
 70
     0
 43
0.0
 10
230.6142139172771
 20
321.7894998413383
 10
230.6142139172771
 20
313.1093331347927
  0
ARC
  5
CC1
330
1F
100
AcDbEntity
  8
UMCL1
100
AcDbCircle
 10
249.6142120172771
 20
305.1593331347926
 30
0.0
 40
25.249997475
100
AcDbArc
 50
131.1947511993227
 51
138.805248800676
  0
LWPOLYLINE
  5
CC2
330
1F
100
AcDbEntity
  8
UMCL1
100
AcDbPolyline
 90
        2
 70
     0
 43
0.0
 10
266.2443787238229
 20
324.1593312347925
 10
232.9840453107314
 20
324.1593312347925
  0
ARC
  5
CC3
330
1F
100
AcDbEntity
  8
UMCL1
100
AcDbCircle
 10
249.6142120172771
 20
305.1593331347926
 30
0.0
 40
25.249997475
100
AcDbArc
 50
41.19475119932276
 51
48.80524880067601
  0
LWPOLYLINE
  5
CC4
330
1F
100
AcDbEntity
  8
UMCL1
100
AcDbPolyline
 90
        2
 70
     0
 43
0.0
 10
268.614210117277
 20
288.5291664282468
 10
268.6142101172771
 20
321.7894998413383
  0
ARC
  5
CC5
330
1F
100
AcDbEntity
  8
UMCL1
100
AcDbCircle
 10
249.6142120172771
 20
305.1593331347926
 30
0.0
 40
25.249997475
100
AcDbArc
 50
221.1947511993228
 51
228.805248800676
  0
ARC
  5
CC6
330
1F
100
AcDbEntity
  8
UMCL1
100
AcDbCircle
 10
249.6142120172771
 20
305.1593331347926
 30
0.0
 40
25.249997475
100
AcDbArc
 50
311.1947511993228
 51
318.805248800676
  0
LWPOLYLINE
  5
CC7
330
1F
100
AcDbEntity
  8
UMCL1
100
AcDbPolyline
 90
        2
 70
     0
 43
0.0
 10
232.9840453107313
 20
286.1593350347925
 10
266.2443787238228
 20
286.1593350347924
  0
LINE
  5
CC8
330
1F
100
AcDbEntity
  8
UMCL1
100
AcDbLine
 10
267.1142102672771
 20
199.9019532978088
 30
0.0
 11
267.1142102672769
 21
160.9019571978087
 31
0.0
  0
LINE
  5
CC9
330
1F
100
AcDbEntity
  8
UMCL1
100
AcDbLine
 10
232.1142137672772
 20
199.901953297809
 30
0.0
 11
232.1142137672769
 21
160.901957197809
 31
0.0
  0
LINE
  5
CCA
330
1F
100
AcDbEntity
  8
UMCL1
100
AcDbLine
 10
264.1142105672772
 20
202.9019529978088
 30
0.0
 11
235.1142134672772
 21
202.9019529978091
 31
0.0
  0
LINE
  5
CCC
330
1F
100
AcDbEntity
  8
UMCL1
100
AcDbLine
 10
230.9677138819269
 20
160.901957197809
 30
0.0
 11
268.2607101526269
 21
160.9019571978087
 31
0.0
  0
LINE
  5
CCD
330
1F
100
AcDbEntity
  8
UMCL1
100
AcDbLine
 10
230.6142139172769
 20
160.548457233159
 30
0.0
 11
268.6142101172769
 21
160.5484572331588
 31
0.0
  0
LINE
  5
CCE
330
1F
100
AcDbEntity
  8
UMCL1
100
AcDbLine
 10
230.6142139172767
 20
138.255459462459
 30
0.0
 11
268.6142101172768
 21
138.2554594624588
 31
0.0
  0
CIRCLE
  5
CCF
330
1F
100
AcDbEntity
  8
UMCL1
100
AcDbCircle
 10
241.6142120172769
 20
154.4019594978089
 30
0.0
 40
2.1
  0
CIRCLE
  5
CD0
330
1F
100
AcDbEntity
  8
UMCL1
100
AcDbCircle
 10
249.6142120172772
 20
193.9019571978089
 30
0.0
 40
4.0
  0
CIRCLE
  5
CD1
330
1F
100
AcDbEntity
  8
UMCL1
100
AcDbCircle
 10
249.6142120172772
 20
193.9019571978089
 30
0.0
 40
2.1
  0
LINE
  5
CD2
330
1F
100
AcDbEntity
  8
UMCL1
100
AcDbLine
 10
242.6142120172772
 20
226.9019529978089
 30
0.0
 11
242.6142120172769
 21
202.901952997809
 31
0.0
  0
LINE
  5
CD3
330
1F
100
AcDbEntity
  8
UMCL1
100
AcDbLine
 10
256.6142120172776
 20
226.9019529978089
 30
0.0
 11
256.6142120172774
 21
202.9019529978089
 31
0.0
  0
LINE
  5
CD4
330
1F
100
AcDbEntity
  8
UMCL1
 62
     7
100
AcDbLine
 10
254.1142120172774
 20
245.2019529978088
 30
0.0
 11
245.1142120172775
 21
245.2019529978088
 31
0.0
  0
LINE
  5
CD5
330
1F
100
AcDbEntity
  8
UMCL1
 62
     7
100
AcDbLine
 10
245.1142120172775
 20
245.2019529978088
 30
0.0
 11
244.6142120172775
 21
244.7019529978088
 31
0.0
  0
LINE
  5
CD6
330
1F
100
AcDbEntity
  8
UMCL1
 62
     7
100
AcDbLine
 10
254.1142120172774
 20
245.2019529978088
 30
0.0
 11
254.6142120172774
 21
244.7019529978089
 31
0.0
  0
LINE
  5
CD7
330
1F
100
AcDbEntity
  8
UMCL1
100
AcDbLine
 10
208.6142120172774
 20
297.2093331347926
 30
0.0
 11
258.6142120172774
 21
297.2093331347926
 31
0.0
  0
LINE
  5
CD8
330
1F
100
AcDbEntity
  8
UMCL1
100
AcDbLine
 10
258.6142120172774
 20
297.2093331347926
 30
0.0
 11
258.6142120172774
 21
313.1093331347927
 31
0.0
  0
LINE
  5
CD9
330
1F
100
AcDbEntity
  8
UMCL1
100
AcDbLine
 10
258.6142120172774
 20
313.1093331347927
 30
0.0
 11
208.6142120172774
 21
313.1093331347927
 31
0.0
  0
LINE
  5
CDA
330
1F
100
AcDbEntity
  8
UMCL1
100
AcDbLine
 10
208.6142120172774
 20
313.1093331347927
 30
0.0
 11
208.6142120172774
 21
297.2093331347926
 31
0.0
  0
LINE
  5
CDB
330
1F
100
AcDbEntity
  8
UMCL1
100
AcDbLine
 10
258.6142120172774
 20
226.9019529978089
 30
0.0
 11
258.6142120172774
 21
242.8019529978088
 31
0.0
  0
LINE
  5
CDC
330
1F
100
AcDbEntity
  8
0
  6
HIDDEN
 62
     3
 48
0.4
100
AcDbLine
 10
217.1142120172774
 20
242.8019529978091
 30
0.0
 11
217.1142120172774
 21
226.9019529978091
 31
0.0
  0
LINE
  5
CDD
330
1F
100
AcDbEntity
  8
0
  6
HIDDEN
 62
     3
 48
0.4
100
AcDbLine
 10
217.6142120172774
 20
242.8019529978091
 30
0.0
 11
217.6142120172774
 21
226.9019529978091
 31
0.0
  0
LINE
  5
CDE
330
1F
100
AcDbEntity
  8
UMCL1
100
AcDbLine
 10
208.6142120172775
 20
242.8019529978091
 30
0.0
 11
208.6142120172775
 21
226.9019529978091
 31
0.0
  0
LINE
  5
CDF
330
1F
100
AcDbEntity
  8
0
  6
HIDDEN
 62
     3
 48
0.4
100
AcDbLine
 10
212.1142120172774
 20
242.8019529978091
 30
0.0
 11
212.1142120172777
 21
226.9019529978091
 31
0.0
  0
LINE
  5
CE0
330
1F
100
AcDbEntity
  8
0
  6
HIDDEN
 62
     3
 48
0.4
100
AcDbLine
 10
211.6142120172774
 20
242.8019529978091
 30
0.0
 11
211.6142120172777
 21
226.9019529978091
 31
0.0
  0
CIRCLE
  5
CE1
330
1F
100
AcDbEntity
  8
UMCL1
100
AcDbCircle
 10
214.6142120172774
 20
305.1593331347926
 30
0.0
 40
2.5
  0
CIRCLE
  5
CE2
330
1F
100
AcDbEntity
  8
UMCL1
100
AcDbCircle
 10
249.6142120172771
 20
305.1593331347926
 30
0.0
 40
5.0
  0
LWPOLYLINE
  5
CE3
330
1F
100
AcDbEntity
  8
UMCL1
100
AcDbPolyline
 90
        6
 70
     1
 43
0.0
 10
247.1142120172771
 20
306.6027088077667
 10
247.1142120172771
 20
303.7159574618186
 10
249.6142120172771
 20
302.2725817888445
 10
252.1142120172771
 20
303.7159574618186
 10
252.1142120172771
 20
306.6027088077667
 10
249.6142120172771
 20
308.0460844807408
  0
LWPOLYLINE
  5
CE4
330
1F
100
AcDbEntity
  8
UMCL1
100
AcDbPolyline
 90
        2
 70
     0
 43
0.0
 10
230.6142139172771
 20
297.2093331347926
 10
230.6142139172771
 20
288.5291664282469
  0
LINE
  5
CE5
330
1F
100
AcDbEntity
  8
UMCL1
100
AcDbLine
 10
208.6142120172775
 20
242.8019529978091
 30
0.0
 11
258.6142120172774
 21
242.8019529978088
 31
0.0
  0
LINE
  5
CE6
330
1F
100
AcDbEntity
  8
UMCL1
100
AcDbLine
 10
208.6142120172775
 20
226.9019529978091
 30
0.0
 11
258.6142120172774
 21
226.9019529978089
 31
0.0
  0
LINE
  5
CE7
330
1F
100
AcDbEntity
  8
UMCL1
 62
     7
100
AcDbLine
 10
244.6142120172775
 20
242.8019529978089
 30
0.0
 11
244.6142120172775
 21
244.7019529978088
 31
0.0
  0
LINE
  5
CE8
330
1F
100
AcDbEntity
  8
UMCL1
 62
     7
100
AcDbLine
 10
254.6142120172774
 20
242.8019529978089
 30
0.0
 11
254.6142120172774
 21
244.7019529978089
 31
0.0
  0
LINE
  5
CE9
330
1F
100
AcDbEntity
  8
UMCL1
 62
     7
100
AcDbLine
 10
244.6142120172775
 20
244.7019529978088
 30
0.0
 11
254.6142120172774
 21
244.7019529978089
 31
0.0
  0
CIRCLE
  5
CEA
330
1F
100
AcDbEntity
  8
UMCL1
100
AcDbCircle
 10
249.6142120172771
 20
305.1593331347926
 30
0.0
 40
4.5
  0
ARC
  5
CEB
330
1F
100
AcDbEntity
  8
UMCL1
 62
     7
100
AcDbCircle
 10
249.6142120172771
 20
305.1593331347926
 30
0.0
 40
17.49999825
100
AcDbArc
 50
207.0189881652895
 51
152.981011834709
  0
LINE
  5
CEC
330
1F
100
AcDbEntity
  8
AM_7
100
AcDbLine
 10
249.6142120172772
 20
327.1593312347925
 30
0.0
 11
249.6142120172769
 21
283.1593350347925
 31
0.0
  0
LINE
  5
CED
330
1F
100
AcDbEntity
  8
AM_7
100
AcDbLine
 10
271.6142101172771
 20
305.1593331347925
 30
0.0
 11
205.6142120172774
 21
305.1593331347929
 31
0.0
  0
LINE
  5
CEE
330
1F
100
AcDbEntity
  8
AM_7
100
AcDbLine
 10
214.6142120172773
 20
298.7593331347927
 30
0.0
 11
214.6142120172773
 21
311.5593331347926
 31
0.0
  0
LINE
  5
CEF
330
1F
100
AcDbEntity
  8
AM_7
100
AcDbLine
 10
239.9142132872771
 20
320.1593316347925
 30
0.0
 11
229.3142137472771
 21
320.1593316347925
 31
0.0
  0
LINE
  5
CF0
330
1F
100
AcDbEntity
  8
AM_7
100
AcDbLine
 10
234.614213517277
 20
314.8593318647926
 30
0.0
 11
234.614213517277
 21
325.4593314047926
 31
0.0
  0
LINE
  5
CF1
330
1F
100
AcDbEntity
  8
AM_7
100
AcDbLine
 10
234.6142135172772
 20
295.4593344047927
 30
0.0
 11
234.6142135172772
 21
284.8593348647927
 31
0.0
  0
LINE
  5
CF2
330
1F
100
AcDbEntity
  8
AM_7
100
AcDbLine
 10
239.9142132872771
 20
290.1593346347925
 30
0.0
 11
229.3142137472771
 21
290.1593346347925
 31
0.0
  0
LINE
  5
CF3
330
1F
100
AcDbEntity
  8
AM_7
100
AcDbLine
 10
259.314210747277
 20
290.1593346347928
 30
0.0
 11
269.914210287277
 21
290.1593346347928
 31
0.0
  0
LINE
  5
CF4
330
1F
100
AcDbEntity
  8
AM_7
100
AcDbLine
 10
264.6142105172771
 20
295.4593344047927
 30
0.0
 11
264.6142105172771
 21
284.8593348647926
 31
0.0
  0
LINE
  5
CF5
330
1F
100
AcDbEntity
  8
AM_7
100
AcDbLine
 10
264.6142105172769
 20
314.8593318647926
 30
0.0
 11
264.6142105172769
 21
325.4593314047926
 31
0.0
  0
LINE
  5
CF6
330
1F
100
AcDbEntity
  8
AM_7
100
AcDbLine
 10
259.314210747277
 20
320.1593316347927
 30
0.0
 11
269.914210287277
 21
320.1593316347927
 31
0.0
  0
TEXT
  5
CF7
330
1F
100
AcDbEntity
  8
UMCL2
 62
     5
100
AcDbText
 10
283.614210117277
 20
303.6059517476322
 30
0.0
 40
3.0
  1
30
 50
90.0
  7
ROMANS
100
AcDbText
  0
SOLID
  5
CF8
330
1F
100
AcDbEntity
  8
UMCL2
 62
     5
100
AcDbTrace
 10
285.135154650377
 20
317.2049083757926
 30
0.0
 11
284.0932655841771
 21
317.2049083757926
 31
0.0
 12
284.614210117277
 22
320.1593316347926
 32
0.0
 13
284.614210117277
 23
320.1593316347926
 33
0.0
  0
LINE
  5
CF9
330
1F
100
AcDbEntity
  8
UMCL2
 62
     5
100
AcDbLine
 10
270.9108951534151
 20
320.1593316347927
 30
0.0
 11
285.614210117277
 21
320.1593316347926
 31
0.0
  0
TEXT
  5
CFA
330
1F
100
AcDbEntity
  8
UMCL2
 62
     5
100
AcDbText
 10
291.614210117277
 20
303.6203500447411
 30
0.0
 40
3.0
  1
38
 50
90.0
  7
ROMANS
100
AcDbText
  0
SOLID
  5
CFB
330
1F
100
AcDbEntity
  8
UMCL2
 62
     5
100
AcDbTrace
 10
293.1351546503771
 20
321.2049079757924
 30
0.0
 11
292.0932655841771
 21
321.2049079757924
 31
0.0
 12
292.614210117277
 22
324.1593312347924
 32
0.0
 13
292.614210117277
 23
324.1593312347924
 33
0.0
  0
LINE
  5
CFC
330
1F
100
AcDbEntity
  8
UMCL2
 62
     5
100
AcDbLine
 10
267.5136801831101
 20
324.1593312347924
 30
0.0
 11
293.614210117277
 21
324.1593312347924
 31
0.0
  0
LWPOLYLINE
  5
CFD
330
1F
100
AcDbEntity
  8
UMCL2
 62
     5
100
AcDbPolyline
 90
        4
 70
     1
 43
0.0
 10
280.8355185463384
 20
303.2115518474861
 10
283.3139057290744
 20
303.2115518474861
 10
283.3139057290744
 20
300.8444287385417
 10
280.8355185463384
 20
300.8444287385417
  0
LWPOLYLINE
  5
CFE
330
1F
100
AcDbEntity
  8
UMCL2
 62
     5
100
AcDbPolyline
 90
        4
 70
     1
 43
0.0
 10
288.8355185463384
 20
303.2115518474861
 10
291.3139057290743
 20
303.2115518474861
 10
291.3139057290743
 20
300.8444287385417
 10
288.8355185463384
 20
300.8444287385417
  0
TEXT
  5
CFF
330
1F
100
AcDbEntity
  8
UMCL2
 62
     5
100
AcDbText
 10
275.614210117277
 20
299.9957887634901
 30
0.0
 40
3.0
  1
15.9
 50
90.0
  7
ROMANS
100
AcDbText
  0
SOLID
  5
D00
330
1F
100
AcDbEntity
  8
UMCL2
 62
     5
100
AcDbTrace
 10
277.1351546503771
 20
310.1549098757926
 30
0.0
 11
276.0932655841771
 21
310.1549098757926
 31
0.0
 12
276.6142101172771
 22
313.1093331347926
 32
0.0
 13
276.6142101172771
 23
313.1093331347926
 33
0.0
  0
LINE
  5
D01
330
1F
100
AcDbEntity
  8
UMCL2
 62
     5
100
AcDbLine
 10
259.3037440048729
 20
313.1093331347926
 30
0.0
 11
277.956117177659
 21
313.1093331347927
 31
0.0
  0
SOLID
  5
D02
330
1F
100
AcDbEntity
  8
UMCL2
 62
     5
100
AcDbTrace
 10
285.135154650377
 20
293.1137578937924
 30
0.0
 11
284.0932655841771
 21
293.1137578937924
 31
0.0
 12
284.614210117277
 22
290.1593346347925
 32
0.0
 13
284.614210117277
 23
290.1593346347925
 33
0.0
  0
LINE
  5
D03
330
1F
100
AcDbEntity
  8
UMCL2
 62
     5
100
AcDbLine
 10
270.9108951534151
 20
290.1593346347923
 30
0.0
 11
285.614210117277
 21
290.1593346347925
 31
0.0
  0
SOLID
  5
D04
330
1F
100
AcDbEntity
  8
UMCL2
 62
     5
100
AcDbTrace
 10
293.1351546503771
 20
289.1137582937926
 30
0.0
 11
292.0932655841771
 21
289.1137582937926
 31
0.0
 12
292.614210117277
 22
286.1593350347926
 32
0.0
 13
292.614210117277
 23
286.1593350347926
 33
0.0
  0
LINE
  5
D05
330
1F
100
AcDbEntity
  8
UMCL2
 62
     5
100
AcDbLine
 10
267.5136801831101
 20
286.1593350347926
 30
0.0
 11
293.614210117277
 21
286.1593350347926
 31
0.0
  0
SOLID
  5
D06
330
1F
100
AcDbEntity
  8
UMCL2
 62
     5
100
AcDbTrace
 10
277.1351546503771
 20
300.1637563937925
 30
0.0
 11
276.0932655841771
 21
300.1637563937925
 31
0.0
 12
276.6142101172771
 22
297.2093331347925
 32
0.0
 13
276.6142101172771
 23
297.2093331347925
 33
0.0
  0
LINE
  5
D07
330
1F
100
AcDbEntity
  8
UMCL2
 62
     5
100
AcDbLine
 10
259.3037440048729
 20
297.2093331347924
 30
0.0
 11
277.956117177659
 21
297.2093331347924
 31
0.0
  0
LINE
  5
D08
330
1F
100
AcDbEntity
  8
UMCL2
 62
     5
100
AcDbLine
 10
276.614210117277
 20
297.2093331347925
 30
0.0
 11
276.614210117277
 21
313.1093331347927
 31
0.0
  0
LINE
  5
D09
330
1F
100
AcDbEntity
  8
UMCL2
 62
     5
100
AcDbLine
 10
284.614210117277
 20
290.1593346347925
 30
0.0
 11
284.614210117277
 21
320.1593316347926
 31
0.0
  0
LINE
  5
D0A
330
1F
100
AcDbEntity
  8
UMCL2
 62
     5
100
AcDbLine
 10
292.614210117277
 20
286.1593350347927
 30
0.0
 11
292.614210117277
 21
324.1593312347924
 31
0.0
  0
TEXT
  5
D0B
330
1F
100
AcDbEntity
  8
UMCL2
 62
     5
100
AcDbText
 10
280.2232286629139
 20
278.2271112329922
 30
0.0
 40
3.0
  1
4-%%c4.6
  7
ROMANS
100
AcDbText
  0
SOLID
  5
D0C
330
1F
100
AcDbEntity
  8
UMCL2
 62
     5
100
AcDbTrace
 10
268.8949361314435
 20
287.0680998021614
 30
0.0
 11
268.2046118350644
 21
286.2877247691832
 31
0.0
 12
266.3369106151963
 22
288.6354241011229
 32
0.0
 13
266.3369106151963
 23
288.6354241011229
 33
0.0
  0
LINE
  5
D0D
330
1F
100
AcDbEntity
  8
UMCL2
 62
     5
100
AcDbLine
 10
279.2334037234217
 20
277.2271112329922
 30
0.0
 11
266.3369106151963
 21
288.6354241011229
 31
0.0
  0
LINE
  5
D0E
330
1F
100
AcDbEntity
  8
UMCL2
 62
     5
100
AcDbLine
 10
279.2334037234217
 20
277.2271112329922
 30
0.0
 11
296.0624717253368
 21
277.2271112329922
 31
0.0
  0
TEXT
  5
D0F
330
1F
100
AcDbEntity
  8
UMCL2
 62
     5
100
AcDbText
 10
276.0607101526268
 20
146.1830011988214
 30
0.0
 40
3.0
  1
23
 50
90.0
  7
ROMANS
100
AcDbText
  0
SOLID
  5
D10
330
1F
100
AcDbEntity
  8
UMCL2
 62
     5
100
AcDbTrace
 10
277.5816546857267
 20
157.9475339388087
 30
0.0
 11
276.5397656195268
 21
157.9475339388087
 31
0.0
 12
277.0607101526267
 22
160.9019571978087
 32
0.0
 13
277.0607101526267
 23
160.9019571978087
 33
0.0
  0
SOLID
  5
D11
330
1F
100
AcDbEntity
  8
UMCL2
 62
     5
100
AcDbTrace
 10
276.5397656195268
 20
140.8563827568088
 30
0.0
 11
277.5816546857267
 21
140.8563827568088
 31
0.0
 12
277.0607101526268
 22
137.9019594978087
 32
0.0
 13
277.0607101526268
 23
137.9019594978087
 33
0.0
  0
LINE
  5
D12
330
1F
100
AcDbEntity
  8
UMCL2
 62
     5
100
AcDbLine
 10
269.2607101526268
 20
160.9019571978087
 30
0.0
 11
278.0607101526267
 21
160.9019571978087
 31
0.0
  0
TEXT
  5
D13
330
1F
100
AcDbEntity
  8
UMCL2
 62
     5
100
AcDbText
 10
284.0607101526268
 20
167.2693506211664
 30
0.0
 40
3.0
  1
65
 50
90.0
  7
ROMANS
100
AcDbText
  0
SOLID
  5
D14
330
1F
100
AcDbEntity
  8
UMCL2
 62
     5
100
AcDbTrace
 10
285.5816546857267
 20
199.9475297388088
 30
0.0
 11
284.5397656195268
 21
199.9475297388088
 31
0.0
 12
285.0607101526267
 22
202.9019529978088
 32
0.0
 13
285.0607101526267
 23
202.9019529978088
 33
0.0
  0
SOLID
  5
D15
330
1F
100
AcDbEntity
  8
UMCL2
 62
     5
100
AcDbTrace
 10
284.5397656195268
 20
140.8563827568088
 30
0.0
 11
285.5816546857267
 21
140.8563827568088
 31
0.0
 12
285.0607101526268
 22
137.9019594978087
 32
0.0
 13
285.0607101526268
 23
137.9019594978087
 33
0.0
  0
LINE
  5
D16
330
1F
100
AcDbEntity
  8
UMCL2
 62
     5
100
AcDbLine
 10
266.3208237239394
 20
202.9019529978088
 30
0.0
 11
286.0607101526267
 21
202.9019529978088
 31
0.0
  0
TEXT
  5
D17
330
1F
100
AcDbEntity
  8
UMCL2
 62
     5
100
AcDbText
 10
292.0607101526268
 20
179.7744554252016
 30
0.0
 40
3.0
  1
89
 50
90.0
  7
ROMANS
100
AcDbText
  0
SOLID
  5
D18
330
1F
100
AcDbEntity
  8
UMCL2
 62
     5
100
AcDbTrace
 10
293.5816546857267
 20
223.9475297388088
 30
0.0
 11
292.5397656195268
 21
223.9475297388088
 31
0.0
 12
293.0607101526267
 22
226.9019529978089
 32
0.0
 13
293.0607101526267
 23
226.9019529978089
 33
0.0
  0
SOLID
  5
D19
330
1F
100
AcDbEntity
  8
UMCL2
 62
     5
100
AcDbTrace
 10
292.5397656195268
 20
140.8563827568088
 30
0.0
 11
293.5816546857267
 21
140.8563827568088
 31
0.0
 12
293.0607101526268
 22
137.9019594978087
 32
0.0
 13
293.0607101526268
 23
137.9019594978087
 33
0.0
  0
LINE
  5
D1A
330
1F
100
AcDbEntity
  8
UMCL2
 62
     5
100
AcDbLine
 10
269.2607101526268
 20
137.9019594978087
 30
0.0
 11
303.0228162525129
 21
137.9019594978087
 31
0.0
  0
TEXT
  5
D1B
330
1F
100
AcDbEntity
  8
UMCL2
 62
     5
100
AcDbText
 10
292.0607101526268
 20
229.5231997065713
 30
0.0
 40
3.0
  1
15.9
 50
90.0
  7
ROMANS
100
AcDbText
  0
SOLID
  5
D1C
330
1F
100
AcDbEntity
  8
UMCL2
 62
     5
100
AcDbTrace
 10
293.5816546857267
 20
239.8475297388088
 30
0.0
 11
292.5397656195268
 21
239.8475297388088
 31
0.0
 12
293.0607101526267
 22
242.8019529978088
 32
0.0
 13
293.0607101526267
 23
242.8019529978088
 33
0.0
  0
SOLID
  5
D1D
330
1F
100
AcDbEntity
  8
UMCL2
 62
     5
100
AcDbTrace
 10
292.5397656195268
 20
229.8563762568089
 30
0.0
 11
293.5816546857267
 21
229.8563762568089
 31
0.0
 12
293.0607101526267
 22
226.9019529978089
 32
0.0
 13
293.0607101526267
 23
226.9019529978089
 33
0.0
  0
LINE
  5
D1E
330
1F
100
AcDbEntity
  8
UMCL2
 62
     5
100
AcDbLine
 10
259.7376801788231
 20
226.9019529978089
 30
0.0
 11
294.0607101526267
 21
226.9019529978089
 31
0.0
  0
LINE
  5
D1F
330
1F
100
AcDbEntity
  8
UMCL2
 62
     5
100
AcDbLine
 10
259.6765407932067
 20
242.8019529978088
 30
0.0
 11
294.0607101526267
 21
242.8019529978088
 31
0.0
  0
TEXT
  5
D20
330
1F
100
AcDbEntity
  8
UMCL2
 62
     5
100
AcDbText
 10
300.0607101526268
 20
185.1367430639148
 30
0.0
 40
3.0
  1
107.3
 50
90.0
  7
ROMANS
100
AcDbText
  0
SOLID
  5
D21
330
1F
100
AcDbEntity
  8
UMCL2
 62
     5
100
AcDbTrace
 10
300.5397656195268
 20
140.8563827568088
 30
0.0
 11
301.5816546857267
 21
140.8563827568088
 31
0.0
 12
301.0607101526268
 22
137.9019594978088
 32
0.0
 13
301.0607101526268
 23
137.9019594978088
 33
0.0
  0
LINE
  5
D22
330
1F
100
AcDbEntity
  8
UMCL2
 62
     5
100
AcDbLine
 10
254.9107495488503
 20
245.2019529978089
 30
0.0
 11
302.4291729753794
 21
245.2019529978089
 31
0.0
  0
SOLID
  5
D23
330
1F
100
AcDbEntity
  8
UMCL2
 62
     5
100
AcDbTrace
 10
301.5816546857268
 20
242.2475297388087
 30
0.0
 11
300.5397656195269
 21
242.2475297388087
 31
0.0
 12
301.0607101526269
 22
245.2019529978088
 32
0.0
 13
301.0607101526269
 23
245.2019529978088
 33
0.0
  0
LINE
  5
D24
330
1F
100
AcDbEntity
  8
UMCL2
 62
     5
100
AcDbLine
 10
259.7376801788231
 20
204.9019529978088
 30
0.0
 11
286.3728305764442
 21
204.9019529978088
 31
0.0
  0
SOLID
  5
D25
330
1F
100
AcDbEntity
  8
UMCL2
 62
     5
100
AcDbTrace
 10
285.5816546857267
 20
223.9475297388087
 30
0.0
 11
284.5397656195268
 21
223.9475297388087
 31
0.0
 12
285.0607101526267
 22
226.9019529978087
 32
0.0
 13
285.0607101526267
 23
226.9019529978087
 33
0.0
  0
LINE
  5
D26
330
1F
100
AcDbEntity
  8
UMCL2
 62
     5
100
AcDbLine
 10
285.0607101526267
 20
204.9019529978088
 30
0.0
 11
285.0607101526268
 21
226.9019529978089
 31
0.0
  0
SOLID
  5
D27
330
1F
100
AcDbEntity
  8
UMCL2
 62
     5
100
AcDbTrace
 10
285.5816546857267
 20
207.856376256809
 30
0.0
 11
284.5397656195268
 21
207.856376256809
 31
0.0
 12
285.0607101526267
 22
204.901952997809
 32
0.0
 13
285.0607101526267
 23
204.901952997809
 33
0.0
  0
TEXT
  5
D28
330
1F
100
AcDbEntity
  8
UMCL2
 62
     5
100
AcDbText
 10
284.0607101526267
 20
212.0376377050038
 30
0.0
 40
3.0
  1
22
 50
90.0
  7
ROMANS
100
AcDbText
  0
LINE
  5
D29
330
1F
100
AcDbEntity
  8
UMCL2
 62
     5
100
AcDbLine
 10
277.0607101526268
 20
137.9019594978087
 30
0.0
 11
277.0607101526268
 21
160.9019571978088
 31
0.0
  0
LINE
  5
D2A
330
1F
100
AcDbEntity
  8
UMCL2
 62
     5
100
AcDbLine
 10
285.0607101526268
 20
137.9019594978087
 30
0.0
 11
285.0607101526268
 21
202.9019529978088
 31
0.0
  0
LINE
  5
D2B
330
1F
100
AcDbEntity
  8
UMCL2
 62
     5
100
AcDbLine
 10
293.0607101526268
 20
137.9019594978087
 30
0.0
 11
293.0607101526268
 21
242.8019529978088
 31
0.0
  0
LINE
  5
D2C
330
1F
100
AcDbEntity
  8
UMCL2
 62
     5
100
AcDbLine
 10
301.0607101526268
 20
137.9019594978088
 30
0.0
 11
301.0607101526268
 21
245.2019529978088
 31
0.0
  0
LINE
  5
D2D
330
1F
100
AcDbEntity
  8
UMCL1
  6
PHANTOM
 62
     2
100
AcDbLine
 10
258.6142120172774
 20
204.9019529978088
 30
0.0
 11
258.6142120172774
 21
220.8019529978088
 31
0.0
  0
LINE
  5
D2E
330
1F
100
AcDbEntity
  8
UMCL1
  6
PHANTOM
 62
     2
100
AcDbLine
 10
208.6142120172775
 20
220.801952997809
 30
0.0
 11
208.6142120172775
 21
204.9019529978091
 31
0.0
  0
LINE
  5
D2F
330
1F
100
AcDbEntity
  8
UMCL1
  6
PHANTOM
 62
     2
100
AcDbLine
 10
208.6142120172775
 20
220.801952997809
 30
0.0
 11
258.6142120172774
 21
220.8019529978088
 31
0.0
  0
LINE
  5
D30
330
1F
100
AcDbEntity
  8
UMCL1
  6
PHANTOM
 62
     2
100
AcDbLine
 10
208.6142120172775
 20
204.9019529978091
 30
0.0
 11
258.6142120172774
 21
204.9019529978088
 31
0.0
  0
LINE
  5
D31
330
1F
100
AcDbEntity
  8
AM_7
100
AcDbLine
 10
249.6142120172772
 20
248.793914776039
 30
0.0
 11
249.6142120172767
 21
133.9142519186011
 31
0.0
  0
LINE
  5
D32
330
1F
100
AcDbEntity
  8
AM_7
100
AcDbLine
 10
257.6142120172772
 20
193.9019571978088
 30
0.0
 11
241.6142120172771
 21
193.9019571978088
 31
0.0
  0
LINE
  5
D33
330
1F
100
AcDbEntity
  8
AM_7
100
AcDbLine
 10
214.6142120172773
 20
224.3321035364425
 30
0.0
 11
214.6142120172773
 21
245.3503523717746
 31
0.0
  0
LINE
  5
D34
330
1F
100
AcDbEntity
  8
UMCL2
 62
     5
100
AcDbLine
 10
176.5780597378777
 20
216.3658743691487
 30
0.0
 11
196.7454410362002
 21
216.3658743691486
 31
0.0
  0
SOLID
  5
D35
330
1F
100
AcDbEntity
  8
UMCL2
 62
     5
100
AcDbTrace
 10
211.8046569088329
 20
225.8500974504548
 30
0.0
 11
212.33384959938
 21
224.9526076607978
 31
0.0
 12
214.6142120172774
 22
226.9019529978091
 32
0.0
 13
214.6142120172774
 23
226.9019529978091
 33
0.0
  0
LINE
  5
D36
330
1F
100
AcDbEntity
  8
UMCL2
 62
     5
100
AcDbLine
 10
196.7454410362002
 20
216.3658743691486
 30
0.0
 11
214.6142120172774
 21
226.9019529978091
 31
0.0
  0
TEXT
  5
D37
330
1F
100
AcDbEntity
  8
UMCL2
 62
     5
100
AcDbText
 10
176.9423076472947
 20
217.3658743691487
 30
0.0
 40
3.0
  1
M6x1.0P
  7
ROMANS
100
AcDbText
  0
LINE
  5
D38
330
1F
100
AcDbEntity
  8
UMCL2
 62
     5
100
AcDbLine
 10
192.1035785034222
 20
177.8178481025015
 30
0.0
 11
216.429001282776
 21
177.8178481025015
 31
0.0
  0
SOLID
  5
D39
330
1F
100
AcDbEntity
  8
UMCL2
 62
     5
100
AcDbTrace
 10
244.9331239049171
 20
191.0542334789051
 30
0.0
 11
244.4787054738716
 21
191.9918030580795
 31
0.0
 12
247.3645253433545
 22
192.8115857614744
 32
0.0
 13
247.3645253433545
 23
192.8115857614744
 33
0.0
  0
TEXT
  5
D3A
330
1F
100
AcDbEntity
  8
UMCL2
 62
     5
100
AcDbText
 10
192.0200703166099
 20
178.8178481025015
 30
0.0
 40
3.0
  1
2-M5x0.8P
  7
ROMANS
100
AcDbText
  0
LINE
  5
D3B
330
1F
100
AcDbEntity
  8
UMCL2
 62
     5
100
AcDbLine
 10
216.429001282776
 20
177.8178481025015
 30
0.0
 11
247.3645253433543
 21
192.8115857614744
 31
0.0
  0
ARC
  5
D3C
330
1F
100
AcDbEntity
  8
UMCL1
 62
     3
100
AcDbCircle
 10
249.6142120172772
 20
193.9019571978089
 30
0.0
 40
2.5
100
AcDbArc
 50
74.50191173553988
 51
14.29987780167694
  0
TEXT
  5
D3D
330
1F
100
AcDbEntity
  8
UMCL2
 62
     5
100
AcDbText
 10
251.6933730722121
 20
175.3528953558384
 30
0.0
 40
3.0
  1
%%c35
  7
ROMANS
100
AcDbText
  0
SOLID
  5
D3E
330
1F
100
AcDbEntity
  8
UMCL2
 62
     5
100
AcDbTrace
 10
264.1597870082768
 20
173.8319508227384
 30
0.0
 11
264.1597870082768
 21
174.8738398889384
 31
0.0
 12
267.1142102672768
 22
174.3528953558384
 32
0.0
 13
267.1142102672768
 23
174.3528953558384
 33
0.0
  0
SOLID
  5
D3F
330
1F
100
AcDbEntity
  8
UMCL2
 62
     5
100
AcDbTrace
 10
235.0686370262771
 20
174.8738398889384
 30
0.0
 11
235.0686370262771
 21
173.8319508227384
 31
0.0
 12
232.1142137672771
 22
174.3528953558384
 32
0.0
 13
232.1142137672771
 23
174.3528953558384
 33
0.0
  0
LINE
  5
D40
330
1F
100
AcDbEntity
  8
UMCL2
 62
     5
100
AcDbLine
 10
232.114213767277
 20
174.3528953558384
 30
0.0
 11
267.114210267277
 21
174.3528953558384
 31
0.0
  0
ARC
  5
D41
330
1F
100
AcDbEntity
  8
UMCL1
 62
     3
100
AcDbCircle
 10
241.6142120172769
 20
154.4019594978089
 30
0.0
 40
2.5
100
AcDbArc
 50
77.61311504627824
 51
11.76274617553071
  0
TEXT
  5
D42
330
1F
100
AcDbEntity
  8
UMCL2
 62
     5
100
AcDbText
 10
230.5001086750418
 20
253.632649811009
 30
0.0
 40
3.0
  1
35
  7
ROMANS
100
AcDbText
  0
SOLID
  5
D43
330
1F
100
AcDbEntity
  8
UMCL2
 62
     5
100
AcDbTrace
 10
217.5686352762773
 20
253.153594344109
 30
0.0
 11
217.5686352762773
 21
252.111705277909
 31
0.0
 12
214.6142120172773
 22
252.632649811009
 32
0.0
 13
214.6142120172773
 23
252.632649811009
 33
0.0
  0
SOLID
  5
D44
330
1F
100
AcDbEntity
  8
UMCL2
 62
     5
100
AcDbTrace
 10
246.6597887582771
 20
252.111705277909
 30
0.0
 11
246.6597887582771
 21
253.153594344109
 31
0.0
 12
249.6142120172772
 22
252.632649811009
 32
0.0
 13
249.6142120172772
 23
252.632649811009
 33
0.0
  0
LINE
  5
D45
330
1F
100
AcDbEntity
  8
UMCL2
 62
     5
100
AcDbLine
 10
249.6142120172772
 20
252.632649811009
 30
0.0
 11
203.1836386375996
 21
252.6326498110089
 31
0.0
  0
LINE
  5
D46
330
1F
100
AcDbEntity
  8
UMCL2
 62
     5
100
AcDbLine
 10
249.6142120172772
 20
249.7939147760389
 30
0.0
 11
249.6142120172772
 21
253.6326498110089
 31
0.0
  0
LINE
  5
D47
330
1F
100
AcDbEntity
  8
UMCL2
 62
     5
100
AcDbLine
 10
214.6142120172773
 20
246.262466162528
 30
0.0
 11
214.6142120172773
 21
253.6326498110089
 31
0.0
  0
TEXT
  5
D48
330
1F
100
AcDbEntity
  8
UMCL2
 62
     5
100
AcDbText
 10
210.0615130419182
 20
253.6326498110089
 30
0.0
 40
3.0
  1
6
  7
ROMANS
100
AcDbText
  0
SOLID
  5
D49
330
1F
100
AcDbEntity
  8
UMCL2
 62
     5
100
AcDbTrace
 10
205.6597887582775
 20
252.1117052779089
 30
0.0
 11
205.6597887582775
 21
253.1535943441089
 31
0.0
 12
208.6142120172775
 22
252.632649811009
 32
0.0
 13
208.6142120172775
 23
252.632649811009
 33
0.0
  0
LINE
  5
D4A
330
1F
100
AcDbEntity
  8
UMCL2
 62
     5
100
AcDbLine
 10
218.6142120172776
 20
252.632649811009
 30
0.0
 11
208.6142120172775
 21
252.632649811009
 31
0.0
  0
TEXT
  5
D4B
330
1F
100
AcDbEntity
  8
UMCL2
 62
     5
100
AcDbText
 10
230.7828901756021
 20
261.6326498110089
 30
0.0
 40
3.0
  1
50
  7
ROMANS
100
AcDbText
  0
SOLID
  5
D4C
330
1F
100
AcDbEntity
  8
UMCL2
 62
     5
100
AcDbTrace
 10
255.6597887582774
 20
260.111705277909
 30
0.0
 11
255.6597887582774
 21
261.153594344109
 31
0.0
 12
258.6142120172774
 22
260.6326498110089
 32
0.0
 13
258.6142120172774
 23
260.6326498110089
 33
0.0
  0
SOLID
  5
D4D
330
1F
100
AcDbEntity
  8
UMCL2
 62
     5
100
AcDbTrace
 10
211.5686352762775
 20
261.153594344109
 30
0.0
 11
211.5686352762775
 21
260.111705277909
 31
0.0
 12
208.6142120172775
 22
260.6326498110089
 32
0.0
 13
208.6142120172775
 23
260.6326498110089
 33
0.0
  0
LINE
  5
D4E
330
1F
100
AcDbEntity
  8
UMCL2
 62
     5
100
AcDbLine
 10
208.6142120172775
 20
243.647235071674
 30
0.0
 11
208.6142120172775
 21
261.6326498110089
 31
0.0
  0
LINE
  5
D4F
330
1F
100
AcDbEntity
  8
UMCL2
 62
     5
100
AcDbLine
 10
258.6142120172774
 20
243.4989637815117
 30
0.0
 11
258.6142120172774
 21
261.6326498110089
 31
0.0
  0
LINE
  5
D50
330
1F
100
AcDbEntity
  8
UMCL2
 62
     5
100
AcDbLine
 10
208.6142120172775
 20
260.632649811009
 30
0.0
 11
258.6142120172774
 21
260.6326498110089
 31
0.0
  0
LINE
  5
D51
330
1F
100
AcDbEntity
  8
0
  6
HIDDEN
 62
     3
 48
0.4
100
AcDbLine
 10
244.6142120172775
 20
242.8019529978088
 30
0.0
 11
244.6142120172775
 21
237.8019529978089
 31
0.0
  0
LINE
  5
D52
330
1F
100
AcDbEntity
  8
0
  6
HIDDEN
 62
     3
 48
0.4
100
AcDbLine
 10
254.6142120172774
 20
242.8019529978088
 30
0.0
 11
254.6142120172774
 21
237.8019529978088
 31
0.0
  0
LINE
  5
D53
330
1F
100
AcDbEntity
  8
0
  6
HIDDEN
 62
     3
 48
0.4
100
AcDbLine
 10
242.6142120172772
 20
226.9019529978089
 30
0.0
 11
243.4642120172771
 21
235.4019529978089
 31
0.0
  0
LINE
  5
D54
330
1F
100
AcDbEntity
  8
0
  6
HIDDEN
 62
     3
 48
0.4
100
AcDbLine
 10
243.8642120172775
 20
237.8019529978089
 30
0.0
 11
255.3642120172774
 21
237.8019529978088
 31
0.0
  0
LINE
  5
D55
330
1F
100
AcDbEntity
  8
0
  6
HIDDEN
 62
     3
 48
0.4
100
AcDbLine
 10
243.8642120172775
 20
242.8019529978088
 30
0.0
 11
243.8642120172775
 21
237.8019529978089
 31
0.0
  0
LINE
  5
D56
330
1F
100
AcDbEntity
  8
0
  6
HIDDEN
 62
     3
 48
0.4
100
AcDbLine
 10
255.3642120172774
 20
242.8019529978088
 30
0.0
 11
255.3642120172774
 21
237.8019529978088
 31
0.0
  0
LINE
  5
D57
330
1F
100
AcDbEntity
  8
0
  6
HIDDEN
 62
     3
 48
0.4
100
AcDbLine
 10
246.614212017277
 20
237.8019529978089
 30
0.0
 11
246.614212017277
 21
234.9019529978089
 31
0.0
  0
LINE
  5
D58
330
1F
100
AcDbEntity
  8
0
  6
HIDDEN
 62
     3
 48
0.4
100
AcDbLine
 10
252.6142120172771
 20
237.8019529978089
 30
0.0
 11
252.614212017277
 21
234.9019529978089
 31
0.0
  0
LINE
  5
D59
330
1F
100
AcDbEntity
  8
0
  6
HIDDEN
 62
     3
 48
0.4
100
AcDbLine
 10
256.614212017277
 20
226.9019529978089
 30
0.0
 11
255.764212017277
 21
235.4019529978089
 31
0.0
  0
LINE
  5
D5A
330
1F
100
AcDbEntity
  8
0
  6
HIDDEN
 62
     3
 48
0.4
100
AcDbLine
 10
243.4142120172771
 20
234.9019529978089
 30
0.0
 11
255.814212017277
 21
234.9019529978089
 31
0.0
  0
LINE
  5
D5B
330
1F
100
AcDbEntity
  8
0
  6
HIDDEN
 62
     3
 48
0.4
100
AcDbLine
 10
243.4642120172771
 20
235.4019529978089
 30
0.0
 11
255.764212017277
 21
235.4019529978089
 31
0.0
  0
LINE
  5
D5C
330
1F
100
AcDbEntity
  8
0
  6
HIDDEN
 62
     3
 48
0.4
100
AcDbLine
 10
252.9142120172771
 20
237.8019529978089
 30
0.0
 11
252.9142120172771
 21
235.4019529978089
 31
0.0
  0
LINE
  5
D5D
330
1F
100
AcDbEntity
  8
0
  6
HIDDEN
 62
     3
 48
0.4
100
AcDbLine
 10
246.3142120172771
 20
237.8019529978089
 30
0.0
 11
246.3142120172771
 21
235.4019529978089
 31
0.0
  0
LINE
  5
D5E
330
1F
100
AcDbEntity
  8
0
  6
HIDDEN
 62
     3
 48
0.4
100
AcDbLine
 10
247.1142120172771
 20
237.8019529978089
 30
0.0
 11
247.1142120172771
 21
234.9019529978089
 31
0.0
  0
LINE
  5
D5F
330
1F
100
AcDbEntity
  8
0
  6
HIDDEN
 62
     3
 48
0.4
100
AcDbLine
 10
252.1142120172771
 20
237.8019529978089
 30
0.0
 11
252.1142120172771
 21
234.9019529978089
 31
0.0
  0
LINE
  5
D61
330
1F
100
AcDbEntity
  8
UMCL1
  6
Continuous
100
AcDbLine
 10
232.9840453107313
 20
160.548457233159
 30
0.0
 11
232.9840453107313
 21
138.255459462459
 31
0.0
  0
LINE
  5
D62
330
1F
100
AcDbEntity
  8
UMCL1
100
AcDbLine
 10
233.3375452753815
 20
160.901957197809
 30
0.0
 11
232.9840453107314
 21
160.548457233159
 31
0.0
  0
LINE
  5
D63
330
1F
100
AcDbEntity
  8
UMCL1
100
AcDbLine
 10
232.9840453107313
 20
138.255459462459
 30
0.0
 11
233.3375452753813
 21
137.901959497809
 31
0.0
  0
LINE
  5
D67
330
1F
100
AcDbEntity
  8
UMCL1
  6
Continuous
100
AcDbLine
 10
266.2443787238224
 20
160.548457233159
 30
0.0
 11
266.2443787238224
 21
138.255459462459
 31
0.0
  0
LINE
  5
D68
330
1F
100
AcDbEntity
  8
UMCL1
100
AcDbLine
 10
265.8908787591722
 20
160.901957197809
 30
0.0
 11
266.2443787238223
 21
160.548457233159
 31
0.0
  0
LINE
  5
D69
330
1F
100
AcDbEntity
  8
UMCL1
100
AcDbLine
 10
266.2443787238224
 20
138.255459462459
 30
0.0
 11
265.8908787591723
 21
137.901959497809
 31
0.0
  0
LINE
  5
D6C
330
1F
100
AcDbEntity
  8
AM_7
100
AcDbLine
 10
247.1142120172769
 20
154.4019594978088
 30
0.0
 11
236.114212017277
 21
154.4019594978088
 31
0.0
  0
LINE
  5
D6D
330
1F
100
AcDbEntity
  8
AM_7
100
AcDbLine
 10
241.6142120172771
 20
159.9019594978089
 30
0.0
 11
241.6142120172771
 21
148.9019594978089
 31
0.0
  0
LINE
  5
D6E
330
1F
100
AcDbEntity
  8
UMCL1
100
AcDbLine
 10
329.951740042525
 20
137.901959497809
 30
0.0
 11
367.244736313225
 21
137.9019594978087
 31
0.0
  0
LINE
  5
D6F
330
1F
100
AcDbEntity
  8
UMCL1
100
AcDbLine
 10
367.598236277875
 20
138.2554594624588
 30
0.0
 11
367.5982362778751
 21
160.5484572331588
 31
0.0
  0
LINE
  5
D70
330
1F
100
AcDbEntity
  8
UMCL1
100
AcDbLine
 10
329.5982400778751
 20
160.548457233159
 30
0.0
 11
329.598240077875
 21
138.255459462459
 31
0.0
  0
LINE
  5
D71
330
1F
100
AcDbEntity
  8
UMCL1
100
AcDbLine
 10
367.2447363132251
 20
160.9019571978087
 30
0.0
 11
367.5982362778751
 21
160.5484572331588
 31
0.0
  0
LINE
  5
D72
330
1F
100
AcDbEntity
  8
UMCL1
100
AcDbLine
 10
367.244736313225
 20
137.9019594978087
 30
0.0
 11
367.598236277875
 21
138.2554594624588
 31
0.0
  0
LINE
  5
D73
330
1F
100
AcDbEntity
  8
UMCL1
100
AcDbLine
 10
329.9517400425251
 20
160.901957197809
 30
0.0
 11
329.5982400778751
 21
160.548457233159
 31
0.0
  0
LINE
  5
D74
330
1F
100
AcDbEntity
  8
UMCL1
100
AcDbLine
 10
329.598240077875
 20
138.255459462459
 30
0.0
 11
329.951740042525
 21
137.901959497809
 31
0.0
  0
ARC
  5
D75
330
1F
100
AcDbEntity
  8
UMCL1
100
AcDbCircle
 10
363.0982367278754
 20
199.9019532978088
 30
0.0
 40
2.9999997
100
AcDbArc
 50
0.0
 51
90.0
  0
ARC
  5
D76
330
1F
100
AcDbEntity
  8
UMCL1
100
AcDbCircle
 10
334.0982396278754
 20
199.901953297809
 30
0.0
 40
2.9999997
100
AcDbArc
 50
90.0
 51
180.0
  0
LINE
  5
D77
330
1F
100
AcDbEntity
  8
UMCL1
100
AcDbLine
 10
366.0982364278754
 20
199.9019532978088
 30
0.0
 11
366.0982364278751
 21
160.9019571978087
 31
0.0
  0
LINE
  5
D78
330
1F
100
AcDbEntity
  8
UMCL1
100
AcDbLine
 10
331.0982399278754
 20
199.901953297809
 30
0.0
 11
331.0982399278751
 21
160.901957197809
 31
0.0
  0
LINE
  5
D79
330
1F
100
AcDbEntity
  8
UMCL1
100
AcDbLine
 10
363.0982367278754
 20
202.9019529978088
 30
0.0
 11
334.0982396278754
 21
202.9019529978091
 31
0.0
  0
LINE
  5
D7B
330
1F
100
AcDbEntity
  8
UMCL1
100
AcDbLine
 10
329.9517400425251
 20
160.901957197809
 30
0.0
 11
367.2447363132251
 21
160.9019571978087
 31
0.0
  0
LINE
  5
D7C
330
1F
100
AcDbEntity
  8
UMCL1
100
AcDbLine
 10
329.5982400778751
 20
160.548457233159
 30
0.0
 11
367.5982362778751
 21
160.5484572331588
 31
0.0
  0
LINE
  5
D7D
330
1F
100
AcDbEntity
  8
UMCL1
100
AcDbLine
 10
329.598240077875
 20
138.255459462459
 30
0.0
 11
367.598236277875
 21
138.2554594624588
 31
0.0
  0
LINE
  5
D7E
330
1F
100
AcDbEntity
  8
UMCL1
100
AcDbLine
 10
341.5982381778754
 20
226.9019529978089
 30
0.0
 11
341.5982381778751
 21
202.901952997809
 31
0.0
  0
LINE
  5
D7F
330
1F
100
AcDbEntity
  8
UMCL1
100
AcDbLine
 10
355.5982381778758
 20
226.9019529978089
 30
0.0
 11
355.5982381778756
 21
202.9019529978089
 31
0.0
  0
LINE
  5
D80
330
1F
100
AcDbEntity
  8
UMCL1
 62
     7
100
AcDbLine
 10
353.0982381778756
 20
245.2019529978088
 30
0.0
 11
344.0982381778757
 21
245.2019529978088
 31
0.0
  0
LINE
  5
D81
330
1F
100
AcDbEntity
  8
UMCL1
 62
     7
100
AcDbLine
 10
344.0982381778757
 20
245.2019529978088
 30
0.0
 11
343.5982381778757
 21
244.7019529978088
 31
0.0
  0
LINE
  5
D82
330
1F
100
AcDbEntity
  8
UMCL1
 62
     7
100
AcDbLine
 10
353.0982381778756
 20
245.2019529978088
 30
0.0
 11
353.5982381778756
 21
244.7019529978089
 31
0.0
  0
LINE
  5
D83
330
1F
100
AcDbEntity
  8
UMCL1
100
AcDbLine
 10
356.5482381778752
 20
226.9019529978088
 30
0.0
 11
356.5482381778752
 21
242.8019529978088
 31
0.0
  0
LINE
  5
D84
330
1F
100
AcDbEntity
  8
UMCL1
 62
     7
100
AcDbLine
 10
343.5982381778757
 20
242.8019529978089
 30
0.0
 11
343.5982381778757
 21
244.7019529978088
 31
0.0
  0
LINE
  5
D85
330
1F
100
AcDbEntity
  8
UMCL1
 62
     7
100
AcDbLine
 10
353.5982381778756
 20
242.8019529978089
 30
0.0
 11
353.5982381778756
 21
244.7019529978089
 31
0.0
  0
LINE
  5
D86
330
1F
100
AcDbEntity
  8
UMCL1
 62
     7
100
AcDbLine
 10
343.5982381778757
 20
244.7019529978088
 30
0.0
 11
353.5982381778756
 21
244.7019529978089
 31
0.0
  0
LINE
  5
D87
330
1F
100
AcDbEntity
  8
AM_7
100
AcDbLine
 10
348.5982381778753
 20
248.793914776039
 30
0.0
 11
348.5982381778749
 21
133.9142519186011
 31
0.0
  0
LINE
  5
D88
330
1F
100
AcDbEntity
  8
0
  6
HIDDEN
 62
     3
 48
0.4
100
AcDbLine
 10
343.5982381778757
 20
242.8019529978088
 30
0.0
 11
343.5982381778757
 21
237.8019529978089
 31
0.0
  0
LINE
  5
D89
330
1F
100
AcDbEntity
  8
0
  6
HIDDEN
 62
     3
 48
0.4
100
AcDbLine
 10
353.5982381778756
 20
242.8019529978088
 30
0.0
 11
353.5982381778756
 21
237.8019529978088
 31
0.0
  0
LINE
  5
D8A
330
1F
100
AcDbEntity
  8
0
  6
HIDDEN
 62
     3
 48
0.4
100
AcDbLine
 10
341.5982381778754
 20
226.9019529978089
 30
0.0
 11
342.4482381778753
 21
235.4019529978089
 31
0.0
  0
LINE
  5
D8B
330
1F
100
AcDbEntity
  8
0
  6
HIDDEN
 62
     3
 48
0.4
100
AcDbLine
 10
342.8482381778757
 20
237.8019529978089
 30
0.0
 11
354.3482381778756
 21
237.8019529978088
 31
0.0
  0
LINE
  5
D8C
330
1F
100
AcDbEntity
  8
0
  6
HIDDEN
 62
     3
 48
0.4
100
AcDbLine
 10
342.8482381778757
 20
242.8019529978088
 30
0.0
 11
342.8482381778757
 21
237.8019529978089
 31
0.0
  0
LINE
  5
D8D
330
1F
100
AcDbEntity
  8
0
  6
HIDDEN
 62
     3
 48
0.4
100
AcDbLine
 10
354.3482381778756
 20
242.8019529978088
 30
0.0
 11
354.3482381778756
 21
237.8019529978088
 31
0.0
  0
LINE
  5
D8E
330
1F
100
AcDbEntity
  8
0
  6
HIDDEN
 62
     3
 48
0.4
100
AcDbLine
 10
345.5982381778753
 20
237.8019529978089
 30
0.0
 11
345.5982381778753
 21
234.9019529978089
 31
0.0
  0
LINE
  5
D8F
330
1F
100
AcDbEntity
  8
0
  6
HIDDEN
 62
     3
 48
0.4
100
AcDbLine
 10
351.5982381778753
 20
237.8019529978089
 30
0.0
 11
351.5982381778753
 21
234.9019529978089
 31
0.0
  0
LINE
  5
D90
330
1F
100
AcDbEntity
  8
0
  6
HIDDEN
 62
     3
 48
0.4
100
AcDbLine
 10
355.5982381778751
 20
226.9019529978089
 30
0.0
 11
354.7482381778753
 21
235.4019529978089
 31
0.0
  0
LINE
  5
D91
330
1F
100
AcDbEntity
  8
0
  6
HIDDEN
 62
     3
 48
0.4
100
AcDbLine
 10
342.3982381778753
 20
234.9019529978089
 30
0.0
 11
354.7982381778752
 21
234.9019529978089
 31
0.0
  0
LINE
  5
D92
330
1F
100
AcDbEntity
  8
0
  6
HIDDEN
 62
     3
 48
0.4
100
AcDbLine
 10
342.4482381778753
 20
235.4019529978089
 30
0.0
 11
354.7482381778753
 21
235.4019529978089
 31
0.0
  0
LINE
  5
D93
330
1F
100
AcDbEntity
  8
0
  6
HIDDEN
 62
     3
 48
0.4
100
AcDbLine
 10
351.8982381778753
 20
237.8019529978089
 30
0.0
 11
351.8982381778752
 21
235.4019529978089
 31
0.0
  0
LINE
  5
D94
330
1F
100
AcDbEntity
  8
0
  6
HIDDEN
 62
     3
 48
0.4
100
AcDbLine
 10
345.2982381778753
 20
237.8019529978089
 30
0.0
 11
345.2982381778753
 21
235.4019529978089
 31
0.0
  0
LINE
  5
D95
330
1F
100
AcDbEntity
  8
0
  6
HIDDEN
 62
     3
 48
0.4
100
AcDbLine
 10
346.0982381778753
 20
237.8019529978089
 30
0.0
 11
346.0982381778753
 21
234.9019529978089
 31
0.0
  0
LINE
  5
D96
330
1F
100
AcDbEntity
  8
0
  6
HIDDEN
 62
     3
 48
0.4
100
AcDbLine
 10
351.0982381778753
 20
237.8019529978089
 30
0.0
 11
351.0982381778753
 21
234.9019529978089
 31
0.0
  0
LINE
  5
D98
330
1F
100
AcDbEntity
  8
UMCL1
  6
Continuous
100
AcDbLine
 10
331.9680714713295
 20
160.548457233159
 30
0.0
 11
331.9680714713295
 21
138.255459462459
 31
0.0
  0
LINE
  5
D99
330
1F
100
AcDbEntity
  8
UMCL1
100
AcDbLine
 10
332.3215714359796
 20
160.901957197809
 30
0.0
 11
331.9680714713296
 21
160.548457233159
 31
0.0
  0
LINE
  5
D9A
330
1F
100
AcDbEntity
  8
UMCL1
100
AcDbLine
 10
331.9680714713295
 20
138.255459462459
 30
0.0
 11
332.3215714359796
 21
137.901959497809
 31
0.0
  0
LINE
  5
D9E
330
1F
100
AcDbEntity
  8
UMCL1
  6
Continuous
100
AcDbLine
 10
365.2284048844205
 20
160.548457233159
 30
0.0
 11
365.2284048844205
 21
138.255459462459
 31
0.0
  0
LINE
  5
D9F
330
1F
100
AcDbEntity
  8
UMCL1
100
AcDbLine
 10
364.8749049197704
 20
160.901957197809
 30
0.0
 11
365.2284048844204
 21
160.548457233159
 31
0.0
  0
LINE
  5
DA0
330
1F
100
AcDbEntity
  8
UMCL1
100
AcDbLine
 10
365.2284048844205
 20
138.255459462459
 30
0.0
 11
364.8749049197705
 21
137.901959497809
 31
0.0
  0
LINE
  5
DA3
330
1F
100
AcDbEntity
  8
UMCL1
100
AcDbLine
 10
340.6482381778752
 20
226.9019529978088
 30
0.0
 11
340.6482381778752
 21
242.8019529978088
 31
0.0
  0
LINE
  5
DA4
330
1F
100
AcDbEntity
  8
UMCL1
100
AcDbLine
 10
340.6482381778752
 20
242.8019529978089
 30
0.0
 11
356.5482381778752
 21
242.8019529978088
 31
0.0
  0
LINE
  5
DA5
330
1F
100
AcDbEntity
  8
UMCL1
100
AcDbLine
 10
340.6482381778752
 20
226.9019529978089
 30
0.0
 11
356.5482381778752
 21
226.9019529978088
 31
0.0
  0
ARC
  5
DB0
330
1F
100
AcDbEntity
  8
UMCL1
 62
     3
100
AcDbCircle
 10
214.6142120172774
 20
305.1593331347926
 30
0.0
 40
3.0
100
AcDbArc
 50
78.81301155211602
 51
13.01316243151925
  0
LINE
  5
DDF
330
1F
100
AcDbEntity
  8
UMCL1
100
AcDbLine
 10
514.171755618623
 20
-34.4556133740856
 30
0.0
 11
584.1717556186231
 21
-34.45561337408583
 31
0.0
  0
LINE
  5
DE0
330
1F
100
AcDbEntity
  8
0
  6
HIDDEN
 62
     3
 48
0.4
100
AcDbLine
 10
568.1717556186229
 20
-34.45561337408583
 30
0.0
 11
568.5966953518494
 21
-25.95561337408583
 31
0.0
  0
LINE
  5
DE1
330
1F
100
AcDbEntity
  8
0
  6
HIDDEN
 62
     3
 48
0.4
100
AcDbLine
 10
582.1717556186233
 20
-34.45561337408583
 30
0.0
 11
581.7468158853971
 21
-25.95561337408583
 31
0.0
  0
LINE
  5
DE2
330
1F
100
AcDbEntity
  8
0
  6
HIDDEN
 62
     3
 48
0.4
100
AcDbLine
 10
568.6717556186231
 20
-25.95561337408583
 30
0.0
 11
581.6717556186231
 21
-25.95561337408583
 31
0.0
  0
LINE
  5
DE3
330
1F
100
AcDbEntity
  8
0
  6
HIDDEN
 62
     3
 48
0.4
100
AcDbLine
 10
569.6717556186229
 20
-18.6556133740861
 30
0.0
 11
569.6717556186229
 21
-23.6556133740861
 31
0.0
  0
LINE
  5
DE4
330
1F
100
AcDbEntity
  8
0
  6
HIDDEN
 62
     3
 48
0.4
100
AcDbLine
 10
580.6717556186231
 20
-23.6556133740861
 30
0.0
 11
580.6717556186231
 21
-18.6556133740861
 31
0.0
  0
LINE
  5
DE5
330
1F
100
AcDbEntity
  8
UMCL1
100
AcDbLine
 10
514.1717556186231
 20
-18.65561337408564
 30
0.0
 11
584.1717556186232
 21
-18.65561337408587
 31
0.0
  0
LINE
  5
DE6
330
1F
100
AcDbEntity
  8
AM_7
100
AcDbLine
 10
575.1717556186231
 20
-17.65561337408587
 30
0.0
 11
575.1717556186231
 21
-35.45561337408583
 31
0.0
  0
LINE
  5
DE7
330
1F
100
AcDbEntity
  8
UMCL1
100
AcDbLine
 10
584.1717556186231
 20
-34.45561337408583
 30
0.0
 11
584.1717556186231
 21
-18.65561337408587
 31
0.0
  0
LINE
  5
DE8
330
1F
100
AcDbEntity
  8
0
  6
HIDDEN
 62
     3
 48
0.4
100
AcDbLine
 10
578.5717556186232
 20
-23.65561337408587
 30
0.0
 11
578.571755618623
 21
-25.95561337408583
 31
0.0
  0
LINE
  5
DE9
330
1F
100
AcDbEntity
  8
0
  6
HIDDEN
 62
     3
 48
0.4
100
AcDbLine
 10
571.771755618623
 20
-23.65561337408587
 30
0.0
 11
571.771755618623
 21
-25.95561337408583
 31
0.0
  0
LINE
  5
DEA
330
1F
100
AcDbEntity
  8
UMCL1
100
AcDbLine
 10
514.171755618623
 20
-18.65561337408564
 30
0.0
 11
514.171755618623
 21
-34.4556133740856
 31
0.0
  0
LINE
  5
DEB
330
1F
100
AcDbEntity
  8
0
  6
HIDDEN
 62
     3
 48
0.4
100
AcDbLine
 10
569.6717556186229
 20
-23.6556133740861
 30
0.0
 11
580.6717556186231
 21
-23.6556133740861
 31
0.0
  0
LINE
  5
DEC
330
1F
100
AcDbEntity
  8
UMCL1
100
AcDbLine
 10
514.1717556186232
 20
16.10435571579216
 30
0.0
 11
584.1717556186234
 21
16.10435571579194
 31
0.0
  0
LINE
  5
DED
330
1F
100
AcDbEntity
  8
UMCL1
100
AcDbLine
 10
514.1717556186233
 20
31.90435571579212
 30
0.0
 11
584.1717556186234
 21
31.9043557157919
 31
0.0
  0
LINE
  5
DEE
330
1F
100
AcDbEntity
  8
UMCL1
100
AcDbLine
 10
584.1717556186234
 20
16.10435571579194
 30
0.0
 11
584.1717556186234
 21
31.9043557157919
 31
0.0
  0
LINE
  5
DEF
330
1F
100
AcDbEntity
  8
UMCL1
100
AcDbLine
 10
514.1717556186232
 20
31.90435571579212
 30
0.0
 11
514.1717556186232
 21
16.10435571579216
 31
0.0
  0
CIRCLE
  5
DF0
330
1F
100
AcDbEntity
  8
UMCL1
100
AcDbCircle
 10
575.1717556186235
 20
24.00435571579214
 30
0.0
 40
3.4
  0
CIRCLE
  5
DF1
330
1F
100
AcDbEntity
  8
UMCL1
100
AcDbCircle
 10
575.1717556186235
 20
24.00435571579214
 30
0.0
 40
5.5
  0
CIRCLE
  5
DF2
330
1F
100
AcDbEntity
  8
0
  6
HIDDEN
 62
     3
 48
0.4
100
AcDbCircle
 10
575.1717556186235
 20
24.00435571579214
 30
0.0
 40
7.0
  0
LINE
  5
DF3
330
1F
100
AcDbEntity
  8
AM_7
100
AcDbLine
 10
567.1717556186234
 20
24.00435571579214
 30
0.0
 11
573.1717556186234
 21
24.00435571579214
 31
0.0
  0
LINE
  5
DF4
330
1F
100
AcDbEntity
  8
AM_7
100
AcDbLine
 10
574.1717556186235
 20
24.00435571579214
 30
0.0
 11
576.1717556186234
 21
24.00435571579214
 31
0.0
  0
LINE
  5
DF5
330
1F
100
AcDbEntity
  8
AM_7
100
AcDbLine
 10
577.1717556186234
 20
24.00435571579214
 30
0.0
 11
583.1717556186235
 21
24.00435571579214
 31
0.0
  0
LINE
  5
DF6
330
1F
100
AcDbEntity
  8
AM_7
100
AcDbLine
 10
575.1717556186235
 20
16.00435571579214
 30
0.0
 11
575.1717556186235
 21
22.00435571579214
 31
0.0
  0
LINE
  5
DF7
330
1F
100
AcDbEntity
  8
AM_7
100
AcDbLine
 10
575.1717556186235
 20
23.00435571579214
 30
0.0
 11
575.1717556186235
 21
25.00435571579215
 31
0.0
  0
LINE
  5
DF8
330
1F
100
AcDbEntity
  8
AM_7
100
AcDbLine
 10
575.1717556186235
 20
26.00435571579215
 30
0.0
 11
575.1717556186235
 21
32.00435571579215
 31
0.0
  0
TEXT
  5
DF9
330
1F
100
AcDbEntity
  8
UMCL2
 62
     5
100
AcDbText
 10
591.5921946532578
 20
18.89081134448941
 30
0.0
 40
3.0
  1
15.9
 50
90.0
  7
ROMANS
100
AcDbText
  0
SOLID
  5
DFA
330
1F
100
AcDbEntity
  8
UMCL2
 62
     5
100
AcDbTrace
 10
593.1131391863579
 20
29.04993245679191
 30
0.0
 11
592.0712501201578
 21
29.04993245679191
 31
0.0
 12
592.5921946532578
 22
32.00435571579192
 32
0.0
 13
592.5921946532578
 23
32.00435571579192
 33
0.0
  0
LINE
  5
DFB
330
1F
100
AcDbEntity
  8
UMCL2
 62
     5
100
AcDbLine
 10
584.8612876062189
 20
32.00435571579192
 30
0.0
 11
593.9341017136398
 21
32.00435571579192
 31
0.0
  0
SOLID
  5
DFC
330
1F
100
AcDbEntity
  8
UMCL2
 62
     5
100
AcDbTrace
 10
593.1131391863579
 20
19.05877897479183
 30
0.0
 11
592.0712501201578
 21
19.05877897479183
 31
0.0
 12
592.5921946532578
 22
16.10435571579182
 32
0.0
 13
592.5921946532578
 23
16.10435571579182
 33
0.0
  0
LINE
  5
DFD
330
1F
100
AcDbEntity
  8
UMCL2
 62
     5
100
AcDbLine
 10
584.8612876062189
 20
16.10435571579182
 30
0.0
 11
593.9341017136398
 21
16.10435571579171
 31
0.0
  0
LINE
  5
DFE
330
1F
100
AcDbEntity
  8
UMCL2
 62
     5
100
AcDbLine
 10
592.5921946532578
 20
16.10435571579182
 30
0.0
 11
592.5921946532578
 21
32.00435571579192
 31
0.0
  0
LINE
  5
DFF
330
1F
100
AcDbEntity
  8
UMCL2
 62
     2
100
AcDbLine
 10
514.1717556186233
 20
15.10435571579194
 30
0.0
 11
514.1717556186233
 21
15.10435571579194
 31
0.0
  0
LINE
  5
E00
330
1F
100
AcDbEntity
  8
UMCL2
 62
     5
100
AcDbLine
 10
514.1717556186233
 20
15.10435571579194
 30
0.0
 11
514.1717556186233
 21
7.104355715791939
 31
0.0
  0
LINE
  5
E01
330
1F
100
AcDbEntity
  8
UMCL2
 62
     5
100
AcDbLine
 10
584.1717556186234
 20
15.10435571579194
 30
0.0
 11
584.1717556186234
 21
7.104355715791939
 31
0.0
  0
LINE
  5
E02
330
1F
100
AcDbEntity
  8
UMCL2
 62
     5
100
AcDbLine
 10
517.1717556186234
 20
8.104355715791939
 30
0.0
 11
581.1717556186233
 21
8.104355715791939
 31
0.0
  0
SOLID
  5
E03
330
1F
100
AcDbEntity
  8
UMCL2
 62
     5
100
AcDbTrace
 10
517.1717556186234
 20
8.604355715791939
 30
0.0
 11
517.1717556186234
 21
7.604355715791939
 31
0.0
 12
514.1717556186233
 22
8.104355715791939
 32
0.0
 13
514.1717556186233
 23
8.104355715791939
 33
0.0
  0
SOLID
  5
E04
330
1F
100
AcDbEntity
  8
UMCL2
 62
     5
100
AcDbTrace
 10
581.1717556186233
 20
8.604355715791939
 30
0.0
 11
581.1717556186233
 21
7.604355715791939
 31
0.0
 12
584.1717556186234
 22
8.104355715791939
 32
0.0
 13
584.1717556186234
 23
8.104355715791939
 33
0.0
  0
MTEXT
  5
E05
330
1F
100
AcDbEntity
  8
UMCL2
 62
     5
100
AcDbMText
 10
549.0236036914352
 20
10.60435571579194
 30
0.0
 40
3.0
 41
0.0
 71
     5
 72
     1
  1
\A1;70
  7
ROMANS
 73
     1
 44
1.0
1001
ACAD
1000
MTEXTBEGIN
1070
    73
1070
     1
1070
    44
1040
1.0
1070
    74
1070
     0
1000
MTEXTEND
  0
LINE
  5
E06
330
1F
100
AcDbEntity
  8
UMCL2
 62
     5
100
AcDbLine
 10
571.771755618623
 20
-22.55561337408563
 30
0.0
 11
571.771755618623
 21
-12.14661812506369
 31
0.0
  0
LINE
  5
E07
330
1F
100
AcDbEntity
  8
UMCL2
 62
     5
100
AcDbLine
 10
578.571755618623
 20
-22.55561337408568
 30
0.0
 11
578.571755618623
 21
-12.14661812506369
 31
0.0
  0
LINE
  5
E08
330
1F
100
AcDbEntity
  8
UMCL2
 62
     5
100
AcDbLine
 10
568.871755618623
 20
-13.1466181250637
 30
0.0
 11
565.871755618623
 21
-13.1466181250637
 31
0.0
  0
LINE
  5
E09
330
1F
100
AcDbEntity
  8
UMCL2
 62
     5
100
AcDbLine
 10
581.471755618623
 20
-13.1466181250637
 30
0.0
 11
584.4717556186229
 21
-13.1466181250637
 31
0.0
  0
MTEXT
  5
E0A
330
1F
100
AcDbEntity
  8
UMCL2
 62
     5
100
AcDbMText
 10
575.171755618623
 20
-9.146618125063696
 30
0.0
 40
3.0
 41
0.0
 71
     5
 72
     1
  1
%%c6.8
  7
ROMANS
 73
     1
 44
1.0
1001
ACAD
1000
MTEXTBEGIN
1070
    73
1070
     1
1070
    44
1040
1.0
1070
    74
1070
     0
1000
MTEXTEND
  0
LINE
  5
E0B
330
1F
100
AcDbEntity
  8
UMCL2
 62
     5
100
AcDbLine
 10
571.8717556186231
 20
-13.1466181250637
 30
0.0
 11
578.471755618623
 21
-13.1466181250637
 31
0.0
  0
SOLID
  5
E0C
330
1F
100
AcDbEntity
  8
UMCL2
 62
     5
100
AcDbTrace
 10
568.771755618623
 20
-12.64661812506369
 30
0.0
 11
568.771755618623
 21
-13.64661812506369
 31
0.0
 12
571.771755618623
 22
-13.1466181250637
 32
0.0
 13
571.771755618623
 23
-13.1466181250637
 33
0.0
  0
SOLID
  5
E0D
330
1F
100
AcDbEntity
  8
UMCL2
 62
     5
100
AcDbTrace
 10
581.5717556186229
 20
-12.64661812506369
 30
0.0
 11
581.5717556186229
 21
-13.64661812506369
 31
0.0
 12
578.571755618623
 22
-13.1466181250637
 32
0.0
 13
578.571755618623
 23
-13.1466181250637
 33
0.0
  0
LINE
  5
E0E
330
1F
100
AcDbEntity
  8
UMCL2
 62
     5
100
AcDbLine
 10
569.6717556186235
 20
-17.55561337408568
 30
0.0
 11
569.6717556186235
 21
-4.91860697317395
 31
0.0
  0
LINE
  5
E0F
330
1F
100
AcDbEntity
  8
UMCL2
 62
     5
100
AcDbLine
 10
580.6717556186233
 20
-17.55561337408568
 30
0.0
 11
580.6717556186233
 21
-4.91860697317395
 31
0.0
  0
LINE
  5
E10
330
1F
100
AcDbEntity
  8
UMCL2
 62
     5
100
AcDbLine
 10
572.4217556186235
 20
-5.91860697317395
 30
0.0
 11
577.9217556186234
 21
-5.91860697317395
 31
0.0
  0
SOLID
  5
E11
330
1F
100
AcDbEntity
  8
UMCL2
 62
     5
100
AcDbTrace
 10
572.6717556186234
 20
-5.41860697317395
 30
0.0
 11
572.6717556186234
 21
-6.41860697317395
 31
0.0
 12
569.6717556186235
 22
-5.91860697317395
 32
0.0
 13
569.6717556186235
 23
-5.91860697317395
 33
0.0
  0
SOLID
  5
E12
330
1F
100
AcDbEntity
  8
UMCL2
 62
     5
100
AcDbTrace
 10
577.6717556186233
 20
-5.41860697317395
 30
0.0
 11
577.6717556186233
 21
-6.41860697317395
 31
0.0
 12
580.6717556186233
 22
-5.91860697317395
 32
0.0
 13
580.6717556186233
 23
-5.91860697317395
 33
0.0
  0
MTEXT
  5
E13
330
1F
100
AcDbEntity
  8
UMCL2
 62
     5
100
AcDbMText
 10
575.1717556186234
 20
-3.41860697317395
 30
0.0
 40
3.0
 41
0.0
 71
     5
 72
     1
  1
%%c11
  7
ROMANS
 73
     1
 44
1.0
1001
ACAD
1000
MTEXTBEGIN
1070
    73
1070
     1
1070
    44
1040
1.0
1070
    74
1070
     0
1000
MTEXTEND
  0
TEXT
  5
E14
330
1F
100
AcDbEntity
  8
UMCL2
 62
     5
100
AcDbText
 10
599.5921946532586
 20
-31.83436666532339
 30
0.0
 40
3.0
  1
15.9
 50
90.0
  7
ROMANS
100
AcDbText
  0
SOLID
  5
E15
330
1F
100
AcDbEntity
  8
UMCL2
 62
     5
100
AcDbTrace
 10
601.1131391863585
 20
-21.51003663308598
 30
0.0
 11
600.0712501201586
 21
-21.51003663308598
 31
0.0
 12
600.5921946532586
 22
-18.55561337408596
 32
0.0
 13
600.5921946532586
 23
-18.55561337408596
 33
0.0
  0
SOLID
  5
E16
330
1F
100
AcDbEntity
  8
UMCL2
 62
     5
100
AcDbTrace
 10
600.0712501201586
 20
-31.50119011508582
 30
0.0
 11
601.1131391863585
 21
-31.50119011508582
 31
0.0
 12
600.5921946532586
 22
-34.45561337408583
 32
0.0
 13
600.5921946532586
 23
-34.45561337408583
 33
0.0
  0
LINE
  5
E17
330
1F
100
AcDbEntity
  8
UMCL2
 62
     5
100
AcDbLine
 10
585.2952237801696
 20
-34.45561337408583
 30
0.0
 11
601.5921946532586
 21
-34.45561337408583
 31
0.0
  0
LINE
  5
E18
330
1F
100
AcDbEntity
  8
UMCL2
 62
     5
100
AcDbLine
 10
585.2340843945532
 20
-18.55561337408596
 30
0.0
 11
601.5921946532586
 21
-18.55561337408596
 31
0.0
  0
LINE
  5
E19
330
1F
100
AcDbEntity
  8
UMCL2
 62
     5
100
AcDbLine
 10
600.5921946532586
 20
-34.45561337408583
 30
0.0
 11
600.5921946532586
 21
-18.55561337408596
 31
0.0
  0
LINE
  5
E1A
330
1F
100
AcDbEntity
  8
UMCL2
 62
     5
100
AcDbLine
 10
545.7557742368599
 20
-31.71679621321835
 30
0.0
 11
568.4456373347104
 21
-31.71679621321846
 31
0.0
  0
TEXT
  5
E1B
330
1F
100
AcDbEntity
  8
UMCL2
 62
     5
100
AcDbText
 10
546.0471725643934
 20
-30.91679621321834
 30
0.0
 40
2.4
  1
Taper 1:10
  7
ROMANS
100
AcDbText
  0
SOLID
  5
E1C
330
1F
100
AcDbEntity
  8
UMCL2
 62
     5
100
AcDbTrace
 10
565.4912140757104
 20
-32.23774074631843
 30
0.0
 11
565.4912140757104
 21
-31.19585168011838
 31
0.0
 12
568.4456373347104
 22
-31.71679621321846
 32
0.0
 13
568.4456373347104
 23
-31.71679621321846
 33
0.0
  0
LINE
  5
E1D
330
1F
100
AcDbEntity
  8
UMCL2
 62
     5
100
AcDbLine
 10
568.1717556186238
 20
-35.45561337408577
 30
0.0
 11
568.1717556186238
 21
-43.33907251276037
 31
0.0
  0
LINE
  5
E1E
330
1F
100
AcDbEntity
  8
UMCL2
 62
     5
100
AcDbLine
 10
582.1717556186236
 20
-35.45561337408571
 30
0.0
 11
582.1717556186236
 21
-43.33907251276037
 31
0.0
  0
LINE
  5
E1F
330
1F
100
AcDbEntity
  8
UMCL2
 62
     5
100
AcDbLine
 10
571.1717556186238
 20
-42.33907251276036
 30
0.0
 11
579.1717556186235
 21
-42.33907251276036
 31
0.0
  0
SOLID
  5
E20
330
1F
100
AcDbEntity
  8
UMCL2
 62
     5
100
AcDbTrace
 10
571.1717556186238
 20
-41.83907251276036
 30
0.0
 11
571.1717556186238
 21
-42.83907251276036
 31
0.0
 12
568.1717556186238
 22
-42.33907251276036
 32
0.0
 13
568.1717556186238
 23
-42.33907251276036
 33
0.0
  0
SOLID
  5
E21
330
1F
100
AcDbEntity
  8
UMCL2
 62
     5
100
AcDbTrace
 10
579.1717556186235
 20
-41.83907251276036
 30
0.0
 11
579.1717556186235
 21
-42.83907251276036
 31
0.0
 12
582.1717556186236
 22
-42.33907251276036
 32
0.0
 13
582.1717556186236
 23
-42.33907251276036
 33
0.0
  0
MTEXT
  5
E22
330
1F
100
AcDbEntity
  8
UMCL2
 62
     5
100
AcDbMText
 10
575.1717556186236
 20
-39.83907251276037
 30
0.0
 40
3.0
 41
0.0
 71
     5
 72
     1
  1
%%c14
  7
ROMANS
 73
     1
 44
1.0
1001
ACAD
1000
MTEXTBEGIN
1070
    73
1070
     1
1070
    44
1040
1.0
1070
    74
1070
     0
1000
MTEXTEND
  0
LINE
  5
E23
330
1F
100
AcDbEntity
  8
UMCL2
 62
     5
100
AcDbLine
 10
581.921755618624
 20
-23.55561337408585
 30
0.0
 11
591.3839780482301
 21
-23.55561337408585
 31
0.0
  0
LINE
  5
E24
330
1F
100
AcDbEntity
  8
UMCL2
 62
     5
100
AcDbLine
 10
592.7670715933839
 20
-23.55561337408585
 30
0.0
 11
593.075524820807
 21
-23.55561337408585
 31
0.0
  0
LINE
  5
E25
330
1F
100
AcDbEntity
  8
UMCL2
 62
     5
100
AcDbLine
 10
592.0755248208069
 20
-26.55561337408585
 30
0.0
 11
592.0755248208069
 21
-29.55561337408585
 31
0.0
  0
LINE
  5
E26
330
1F
100
AcDbEntity
  8
UMCL2
 62
     5
100
AcDbLine
 10
592.0755248208069
 20
-18.55561337408585
 30
0.0
 11
592.0755248208069
 21
-22.86406660150896
 31
0.0
  0
SOLID
  5
E27
330
1F
100
AcDbEntity
  8
UMCL2
 62
     5
100
AcDbTrace
 10
591.5755248208069
 20
-21.55561337408585
 30
0.0
 11
592.5755248208069
 21
-21.55561337408585
 31
0.0
 12
592.0755248208069
 22
-18.55561337408585
 32
0.0
 13
592.0755248208069
 23
-18.55561337408585
 33
0.0
  0
MTEXT
  5
E28
330
1F
100
AcDbEntity
  8
UMCL2
 62
     5
100
AcDbMText
 10
589.575524820807
 20
-21.05561337408585
 30
0.0
 40
3.0
 41
0.0
 71
     5
 72
     1
  1
\A1;5
  7
ROMANS
 11
0.0000000000000001
 21
1.0
 31
0.0
 73
     1
 44
1.0
1001
ACAD
1000
MTEXTBEGIN
1070
    73
1070
     1
1070
    44
1040
1.0
1070
    74
1070
     0
1000
MTEXTEND
  0
LINE
  5
E29
330
1F
100
AcDbEntity
  8
UMCL2
 62
     5
100
AcDbLine
 10
585.171755618624
 20
-34.45561337408583
 30
0.0
 11
593.075524820807
 21
-34.45561337408583
 31
0.0
  0
LINE
  5
E2A
330
1F
100
AcDbEntity
  8
UMCL2
 62
     5
100
AcDbLine
 10
582.3217556186237
 20
-25.95561337408572
 30
0.0
 11
593.075524820807
 21
-25.95561337408572
 31
0.0
  0
LINE
  5
E2B
330
1F
100
AcDbEntity
  8
UMCL2
 62
     5
100
AcDbLine
 10
592.0755248208069
 20
-31.45561337408583
 30
0.0
 11
592.0755248208069
 21
-28.95561337408572
 31
0.0
  0
SOLID
  5
E2C
330
1F
100
AcDbEntity
  8
UMCL2
 62
     5
100
AcDbTrace
 10
591.5755248208069
 20
-31.45561337408583
 30
0.0
 11
592.5755248208069
 21
-31.45561337408583
 31
0.0
 12
592.0755248208069
 22
-34.45561337408583
 32
0.0
 13
592.0755248208069
 23
-34.45561337408583
 33
0.0
  0
SOLID
  5
E2D
330
1F
100
AcDbEntity
  8
UMCL2
 62
     5
100
AcDbTrace
 10
591.5755248208069
 20
-28.95561337408572
 30
0.0
 11
592.5755248208069
 21
-28.95561337408572
 31
0.0
 12
592.0755248208069
 22
-25.95561337408572
 32
0.0
 13
592.0755248208069
 23
-25.95561337408572
 33
0.0
  0
MTEXT
  5
E2E
330
1F
100
AcDbEntity
  8
UMCL2
 62
     5
100
AcDbMText
 10
589.575524820807
 20
-30.20561337408577
 30
0.0
 40
3.0
 41
0.0
 71
     5
 72
     1
  1
\A1;8.5
  7
ROMANS
 11
0.0000000000000001
 21
1.0
 31
0.0
 73
     1
 44
1.0
1001
ACAD
1000
MTEXTBEGIN
1070
    73
1070
     1
1070
    44
1040
1.0
1070
    74
1070
     0
1000
MTEXTEND
  0
CIRCLE
  5
E2F
330
1F
100
AcDbEntity
  8
UMCL2
 62
     5
100
AcDbCircle
 10
592.0755248208069
 20
-23.55561337408585
 30
0.0
 40
0.6915467725768849
  0
LINE
  5
E30
330
1F
100
AcDbEntity
  8
UMCL1
100
AcDbLine
 10
632.0252054600695
 20
-34.55561337408585
 30
0.0
 11
632.0252054600695
 21
-18.65561337408587
 31
0.0
  0
LINE
  5
E31
330
1F
100
AcDbEntity
  8
0
  6
HIDDEN
 62
     3
 48
0.4
100
AcDbLine
 10
617.0752054600697
 20
-34.55561337408574
 30
0.0
 11
617.9252054600696
 21
-26.05561337408574
 31
0.0
  0
LINE
  5
E32
330
1F
100
AcDbEntity
  8
0
  6
HIDDEN
 62
     3
 48
0.4
100
AcDbLine
 10
618.32520546007
 20
-23.65561337408576
 30
0.0
 11
629.8252054600699
 21
-23.65561337408587
 31
0.0
  0
LINE
  5
E33
330
1F
100
AcDbEntity
  8
0
  6
HIDDEN
 62
     3
 48
0.4
100
AcDbLine
 10
618.32520546007
 20
-18.65561337408593
 30
0.0
 11
618.32520546007
 21
-23.65561337408582
 31
0.0
  0
LINE
  5
E34
330
1F
100
AcDbEntity
  8
0
  6
HIDDEN
 62
     3
 48
0.4
100
AcDbLine
 10
629.8252054600699
 20
-18.65561337408593
 30
0.0
 11
629.8252054600699
 21
-23.65561337408587
 31
0.0
  0
LINE
  5
E35
330
1F
100
AcDbEntity
  8
0
  6
HIDDEN
 62
     3
 48
0.4
100
AcDbLine
 10
631.0752054600694
 20
-34.55561337408574
 30
0.0
 11
630.2252054600695
 21
-26.05561337408574
 31
0.0
  0
LINE
  5
E36
330
1F
100
AcDbEntity
  8
0
  6
HIDDEN
 62
     3
 48
0.4
100
AcDbLine
 10
617.9252054600696
 20
-26.05561337408574
 30
0.0
 11
630.2252054600695
 21
-26.05561337408585
 31
0.0
  0
LINE
  5
E37
330
1F
100
AcDbEntity
  8
0
  6
HIDDEN
 62
     3
 48
0.4
100
AcDbLine
 10
627.3752054600695
 20
-23.65561337408582
 30
0.0
 11
627.3752054600695
 21
-26.05561337408585
 31
0.0
  0
LINE
  5
E38
330
1F
100
AcDbEntity
  8
0
  6
HIDDEN
 62
     3
 48
0.4
100
AcDbLine
 10
620.7752054600696
 20
-23.65561337408582
 30
0.0
 11
620.7752054600695
 21
-26.05561337408574
 31
0.0
  0
LINE
  5
E39
330
1F
100
AcDbEntity
  8
UMCL1
100
AcDbLine
 10
616.1252054600695
 20
-34.55561337408585
 30
0.0
 11
616.1252054600695
 21
-18.65561337408587
 31
0.0
  0
LINE
  5
E3A
330
1F
100
AcDbEntity
  8
UMCL1
100
AcDbLine
 10
616.1252054600695
 20
-18.65561337408582
 30
0.0
 11
632.0252054600695
 21
-18.65561337408587
 31
0.0
  0
LINE
  5
E3B
330
1F
100
AcDbEntity
  8
UMCL1
100
AcDbLine
 10
616.1252054600695
 20
-34.5556133740858
 30
0.0
 11
632.0252054600695
 21
-34.55561337408585
 31
0.0
  0
LINE
  5
E3C
330
1F
100
AcDbEntity
  8
AM_7
100
AcDbLine
 10
624.0752054600695
 20
-17.65561337408593
 30
0.0
 11
624.0752054600695
 21
-35.45561337408589
 31
0.0
  0
LINE
  5
FC3
330
1F
100
AcDbEntity
  8
AM_7
100
AcDbLine
 10
623.4723795041343
 20
310.1593331347928
 30
0.0
 11
559.4723814041342
 21
310.1593331347928
 31
0.0
  0
LINE
  5
FC4
330
1F
100
AcDbEntity
  8
UMCL1
100
AcDbLine
 10
561.4723814041342
 20
302.2093331347927
 30
0.0
 11
611.4723814041342
 21
302.2093331347927
 31
0.0
  0
LINE
  5
FC5
330
1F
100
AcDbEntity
  8
UMCL1
100
AcDbLine
 10
611.4723814041342
 20
318.1093331347927
 30
0.0
 11
561.4723814041342
 21
318.1093331347927
 31
0.0
  0
LWPOLYLINE
  5
FC6
330
1F
100
AcDbEntity
  8
UMCL1
100
AcDbPolyline
 90
        2
 70
     0
 43
0.0
 10
585.8422146975884
 20
291.1593350347928
 10
619.10254811068
 20
291.1593350347928
  0
LWPOLYLINE
  5
FC7
330
1F
100
AcDbEntity
  8
UMCL1
100
AcDbPolyline
 90
        2
 70
     0
 43
0.0
 10
619.10254811068
 20
329.1593312347928
 10
585.8422146975884
 20
329.1593312347928
  0
CIRCLE
  5
FC8
330
1F
100
AcDbEntity
  8
UMCL1
100
AcDbCircle
 10
602.4723814041342
 20
310.1593331347928
 30
0.0
 40
5.75
  0
CIRCLE
  5
FC9
330
1F
100
AcDbEntity
  8
UMCL1
100
AcDbCircle
 10
602.4723814041342
 20
310.1593331347928
 30
0.0
 40
5.0
  0
CIRCLE
  5
FCA
330
1F
100
AcDbEntity
  8
UMCL1
100
AcDbCircle
 10
602.4723814041342
 20
310.1593331347928
 30
0.0
 40
4.5
  0
LINE
  5
FCB
330
1F
100
AcDbEntity
  8
UMCL1
100
AcDbLine
 10
599.1723814041343
 20
324.8593312347928
 30
0.0
 11
605.7723814041342
 21
324.8593312347928
 31
0.0
  0
LINE
  5
FCC
330
1F
100
AcDbEntity
  8
UMCL1
100
AcDbLine
 10
599.1723814041343
 20
328.1593312347928
 30
0.0
 11
599.8723814041341
 21
328.1593312347928
 31
0.0
  0
LWPOLYLINE
  5
FCD
330
1F
100
AcDbEntity
  8
UMCL1
100
AcDbPolyline
 90
        2
 70
     0
 43
0.0
 10
621.4723795041343
 20
293.529166428247
 10
621.4723795041343
 20
326.7894998413385
  0
LINE
  5
FCE
330
1F
100
AcDbEntity
  8
AM_7
100
AcDbLine
 10
602.4723814041342
 20
331.1593312347928
 30
0.0
 11
602.4723814041342
 21
289.1593350347928
 31
0.0
  0
ARC
  5
FCF
330
1F
100
AcDbEntity
  8
UMCL1
100
AcDbCircle
 10
617.4723799041343
 20
295.1593346347928
 30
0.0
 40
4.0
100
AcDbArc
 50
90.00000000001303
 51
180.0000000000097
  0
CIRCLE
  5
FD0
330
1F
100
AcDbEntity
  8
UMCL1
100
AcDbCircle
 10
617.4723799041343
 20
295.1593346347928
 30
0.0
 40
2.29999977
  0
ARC
  5
FD1
330
1F
100
AcDbEntity
  8
UMCL1
100
AcDbCircle
 10
602.4723814041342
 20
310.1593331347926
 30
0.0
 40
25.249997475
100
AcDbArc
 50
311.1947511993228
 51
318.8052488006795
  0
LWPOLYLINE
  5
FD2
330
1F
100
AcDbEntity
  8
UMCL1
100
AcDbPolyline
 90
        2
 70
     0
 43
0.0
 10
613.4723799041343
 20
295.1593346347928
 10
613.4723799041341
 20
291.1593350347928
  0
LINE
  5
FD3
330
1F
100
AcDbEntity
  8
UMCL1
100
AcDbLine
 10
611.4723814041342
 20
302.2093331347927
 30
0.0
 11
611.4723814041342
 21
318.1093331347927
 31
0.0
  0
LWPOLYLINE
  5
FD4
330
1F
100
AcDbEntity
  8
UMCL1
100
AcDbPolyline
 90
        6
 70
     1
 43
0.0
 10
604.9723814041342
 20
311.6027088077668
 10
602.4723814041342
 20
313.0460844807409
 10
599.9723814041342
 20
311.6027088077668
 10
599.9723814041342
 20
308.7159574618187
 10
602.4723814041342
 20
307.2725817888446
 10
604.9723814041342
 20
308.7159574618187
  0
CIRCLE
  5
FD5
330
1F
100
AcDbEntity
  8
UMCL1
100
AcDbCircle
 10
617.4723799041343
 20
325.1593316347928
 30
0.0
 40
2.29999977
  0
ARC
  5
FD6
330
1F
100
AcDbEntity
  8
UMCL1
100
AcDbCircle
 10
617.4723799041341
 20
325.1593316347928
 30
0.0
 40
4.0
100
AcDbArc
 50
180.000000000013
 51
270.000000000013
  0
LWPOLYLINE
  5
FD7
330
1F
100
AcDbEntity
  8
UMCL1
100
AcDbPolyline
 90
        2
 70
     0
 43
0.0
 10
617.4723799041341
 20
321.1593316347927
 10
621.4723795041342
 20
321.1593316347927
  0
ARC
  5
FD8
330
1F
100
AcDbEntity
  8
UMCL1
100
AcDbCircle
 10
602.4723814041342
 20
310.1593331347928
 30
0.0
 40
25.249997475
100
AcDbArc
 50
41.19475119932046
 51
48.80524880067723
  0
POINT
  5
FD9
330
1F
100
AcDbEntity
  8
UMCL1
100
AcDbPoint
 10
621.4723795041344
 20
326.7894998413384
 30
0.0
 50
90.0
  0
LWPOLYLINE
  5
FDA
330
1F
100
AcDbEntity
  8
UMCL1
100
AcDbPolyline
 90
        2
 70
     0
 43
0.0
 10
613.4723799041341
 20
325.1593316347927
 10
613.4723799041341
 20
329.1593312347927
  0
LINE
  5
FDB
330
1F
100
AcDbEntity
  8
UMCL1
100
AcDbLine
 10
605.7723814041342
 20
328.1593312347928
 30
0.0
 11
605.7723814041342
 21
324.8593312347928
 31
0.0
  0
LINE
  5
FDD
330
1F
100
AcDbEntity
  8
UMCL1
100
AcDbLine
 10
605.0723814041342
 20
329.036146243117
 30
0.0
 11
605.0723814041342
 21
328.1593312347928
 31
0.0
  0
LINE
  5
FDE
330
1F
100
AcDbEntity
  8
UMCL1
100
AcDbLine
 10
605.0723814041342
 20
328.1593312347928
 30
0.0
 11
605.7723814041342
 21
328.1593312347928
 31
0.0
  0
LINE
  5
FDF
330
1F
100
AcDbEntity
  8
UMCL1
100
AcDbLine
 10
599.8723814041341
 20
329.036146243117
 30
0.0
 11
599.8723814041341
 21
328.1593312347928
 31
0.0
  0
ARC
  5
FE0
330
1F
100
AcDbEntity
  8
UMCL1
100
AcDbCircle
 10
587.4723829041342
 20
295.1593346347927
 30
0.0
 40
4.0
100
AcDbArc
 50
0.0000000000130276
 51
90.00000000001303
  0
LWPOLYLINE
  5
FE1
330
1F
100
AcDbEntity
  8
UMCL1
100
AcDbPolyline
 90
        2
 70
     0
 43
0.0
 10
583.4723833041342
 20
302.2093331347927
 10
583.4723833041342
 20
293.529166428247
  0
CIRCLE
  5
FE2
330
1F
100
AcDbEntity
  8
UMCL1
100
AcDbCircle
 10
587.4723829041342
 20
295.1593346347928
 30
0.0
 40
2.29999977
  0
LWPOLYLINE
  5
FE3
330
1F
100
AcDbEntity
  8
UMCL1
100
AcDbPolyline
 90
        2
 70
     0
 43
0.0
 10
591.4723829041342
 20
295.1593346347927
 10
591.4723829041342
 20
291.1593350347926
  0
ARC
  5
FE4
330
1F
100
AcDbEntity
  8
UMCL1
100
AcDbCircle
 10
602.4723814041342
 20
310.1593331347928
 30
0.0
 40
25.249997475
100
AcDbArc
 50
221.1947511993205
 51
228.8052488006773
  0
LWPOLYLINE
  5
FE5
330
1F
100
AcDbEntity
  8
UMCL1
100
AcDbPolyline
 90
        2
 70
     0
 43
0.0
 10
583.4723833041342
 20
326.7894998413385
 10
583.4723833041342
 20
318.1093331347927
  0
LWPOLYLINE
  5
FE6
330
1F
100
AcDbEntity
  8
UMCL1
100
AcDbPolyline
 90
        2
 70
     0
 43
0.0
 10
587.4723829041342
 20
299.1593346347927
 10
583.4723833041343
 20
299.1593346347928
  0
ARC
  5
FE7
330
1F
100
AcDbEntity
  8
UMCL1
100
AcDbCircle
 10
587.4723829041341
 20
325.1593316347927
 30
0.0
 40
4.0
100
AcDbArc
 50
270.000000000013
 51
0.0000000000097707
  0
LWPOLYLINE
  5
FE8
330
1F
100
AcDbEntity
  8
UMCL1
100
AcDbPolyline
 90
        2
 70
     0
 43
0.0
 10
591.4723829041341
 20
325.1593316347927
 10
591.4723829041342
 20
329.1593312347926
  0
LINE
  5
FE9
330
1F
100
AcDbEntity
  8
UMCL1
100
AcDbLine
 10
599.1723814041343
 20
328.1593312347928
 30
0.0
 11
599.1723814041343
 21
324.8593312347928
 31
0.0
  0
CIRCLE
  5
FEA
330
1F
100
AcDbEntity
  8
UMCL1
100
AcDbCircle
 10
587.4723829041342
 20
325.1593316347928
 30
0.0
 40
2.29999977
  0
LWPOLYLINE
  5
FEB
330
1F
100
AcDbEntity
  8
UMCL1
100
AcDbPolyline
 90
        2
 70
     0
 43
0.0
 10
587.4723829041341
 20
321.1593316347927
 10
583.4723833041342
 20
321.1593316347927
  0
ARC
  5
FEC
330
1F
100
AcDbEntity
  8
UMCL1
100
AcDbCircle
 10
602.4723814041342
 20
310.1593331347928
 30
0.0
 40
25.249997475
100
AcDbArc
 50
131.1947511993227
 51
138.8052488006795
  0
LINE
  5
FED
330
1F
100
AcDbEntity
  8
UMCL1
100
AcDbLine
 10
561.4723814041342
 20
318.1093331347927
 30
0.0
 11
561.4723814041342
 21
302.2093331347927
 31
0.0
  0
LINE
  5
FEE
330
1F
100
AcDbEntity
  8
UMCL1
100
AcDbLine
 10
605.7723814041342
 20
292.1593350347928
 30
0.0
 11
605.0723814041342
 21
292.1593350347928
 31
0.0
  0
LINE
  5
FEF
330
1F
100
AcDbEntity
  8
UMCL1
100
AcDbLine
 10
605.7723814041342
 20
295.4593350347927
 30
0.0
 11
599.1723814041343
 21
295.4593350347927
 31
0.0
  0
LINE
  5
FF0
330
1F
100
AcDbEntity
  8
UMCL1
100
AcDbLine
 10
599.1723814041343
 20
292.1593350347928
 30
0.0
 11
599.1723814041343
 21
295.4593350347927
 31
0.0
  0
LINE
  5
FF1
330
1F
100
AcDbEntity
  8
UMCL1
100
AcDbLine
 10
599.8723814041341
 20
291.2825200264687
 30
0.0
 11
599.8723814041341
 21
292.1593350347928
 31
0.0
  0
LINE
  5
FF2
330
1F
100
AcDbEntity
  8
UMCL1
100
AcDbLine
 10
599.8723814041341
 20
292.1593350347928
 30
0.0
 11
599.1723814041343
 21
292.1593350347928
 31
0.0
  0
LINE
  5
FF3
330
1F
100
AcDbEntity
  8
UMCL1
100
AcDbLine
 10
605.0723814041342
 20
291.2825200264687
 30
0.0
 11
605.0723814041342
 21
292.1593350347928
 31
0.0
  0
LINE
  5
FF4
330
1F
100
AcDbEntity
  8
UMCL1
100
AcDbLine
 10
605.7723814041342
 20
292.1593350347928
 30
0.0
 11
605.7723814041342
 21
295.4593350347927
 31
0.0
  0
TEXT
  5
FF5
330
1F
100
AcDbEntity
  8
UMCL2
 62
     5
100
AcDbText
 10
636.4723795041343
 20
308.6059517476324
 30
0.0
 40
3.0
  1
30
 50
90.0
  7
ROMANS
100
AcDbText
  0
SOLID
  5
FF6
330
1F
100
AcDbEntity
  8
UMCL2
 62
     5
100
AcDbTrace
 10
637.9933240372342
 20
322.2049083757928
 30
0.0
 11
636.9514349710343
 21
322.2049083757928
 31
0.0
 12
637.4723795041343
 22
325.1593316347928
 32
0.0
 13
637.4723795041343
 23
325.1593316347928
 33
0.0
  0
LINE
  5
FF7
330
1F
100
AcDbEntity
  8
UMCL2
 62
     5
100
AcDbLine
 10
623.7690645402724
 20
325.1593316347929
 30
0.0
 11
638.4723795041343
 21
325.1593316347928
 31
0.0
  0
TEXT
  5
FF8
330
1F
100
AcDbEntity
  8
UMCL2
 62
     5
100
AcDbText
 10
644.4723795041343
 20
308.6203500447413
 30
0.0
 40
3.0
  1
38
 50
90.0
  7
ROMANS
100
AcDbText
  0
SOLID
  5
FF9
330
1F
100
AcDbEntity
  8
UMCL2
 62
     5
100
AcDbTrace
 10
645.9933240372342
 20
326.2049079757926
 30
0.0
 11
644.9514349710343
 21
326.2049079757926
 31
0.0
 12
645.4723795041343
 22
329.1593312347926
 32
0.0
 13
645.4723795041343
 23
329.1593312347926
 33
0.0
  0
LINE
  5
FFA
330
1F
100
AcDbEntity
  8
UMCL2
 62
     5
100
AcDbLine
 10
620.3718495699672
 20
329.1593312347926
 30
0.0
 11
646.4723795041343
 21
329.1593312347926
 31
0.0
  0
LWPOLYLINE
  5
FFB
330
1F
100
AcDbEntity
  8
UMCL2
 62
     5
100
AcDbPolyline
 90
        4
 70
     1
 43
0.0
 10
633.6936879331956
 20
308.2115518474863
 10
636.1720751159317
 20
308.2115518474863
 10
636.1720751159317
 20
305.8444287385419
 10
633.6936879331956
 20
305.8444287385419
  0
LWPOLYLINE
  5
FFC
330
1F
100
AcDbEntity
  8
UMCL2
 62
     5
100
AcDbPolyline
 90
        4
 70
     1
 43
0.0
 10
641.6936879331956
 20
308.2115518474863
 10
644.1720751159316
 20
308.2115518474863
 10
644.1720751159316
 20
305.8444287385419
 10
641.6936879331956
 20
305.8444287385419
  0
TEXT
  5
FFD
330
1F
100
AcDbEntity
  8
UMCL2
 62
     5
100
AcDbText
 10
628.4723795041343
 20
304.9957887634903
 30
0.0
 40
3.0
  1
15.9
 50
90.0
  7
ROMANS
100
AcDbText
  0
SOLID
  5
FFE
330
1F
100
AcDbEntity
  8
UMCL2
 62
     5
100
AcDbTrace
 10
629.9933240372342
 20
315.1549098757927
 30
0.0
 11
628.9514349710343
 21
315.1549098757927
 31
0.0
 12
629.4723795041343
 22
318.1093331347927
 32
0.0
 13
629.4723795041343
 23
318.1093331347927
 33
0.0
  0
LINE
  5
FFF
330
1F
100
AcDbEntity
  8
UMCL2
 62
     5
100
AcDbLine
 10
612.1619133917302
 20
318.1093331347928
 30
0.0
 11
630.8142865645163
 21
318.1093331347928
 31
0.0
  0
SOLID
  5
1000
330
1F
100
AcDbEntity
  8
UMCL2
 62
     5
100
AcDbTrace
 10
637.9933240372342
 20
298.1137578937926
 30
0.0
 11
636.9514349710343
 21
298.1137578937926
 31
0.0
 12
637.4723795041343
 22
295.1593346347926
 32
0.0
 13
637.4723795041343
 23
295.1593346347926
 33
0.0
  0
LINE
  5
1001
330
1F
100
AcDbEntity
  8
UMCL2
 62
     5
100
AcDbLine
 10
623.7690645402724
 20
295.1593346347925
 30
0.0
 11
638.4723795041343
 21
295.1593346347926
 31
0.0
  0
SOLID
  5
1002
330
1F
100
AcDbEntity
  8
UMCL2
 62
     5
100
AcDbTrace
 10
645.9933240372342
 20
294.1137582937928
 30
0.0
 11
644.9514349710343
 21
294.1137582937928
 31
0.0
 12
645.4723795041343
 22
291.1593350347928
 32
0.0
 13
645.4723795041343
 23
291.1593350347928
 33
0.0
  0
LINE
  5
1003
330
1F
100
AcDbEntity
  8
UMCL2
 62
     5
100
AcDbLine
 10
620.3718495699672
 20
291.1593350347928
 30
0.0
 11
646.4723795041343
 21
291.1593350347928
 31
0.0
  0
SOLID
  5
1004
330
1F
100
AcDbEntity
  8
UMCL2
 62
     5
100
AcDbTrace
 10
629.9933240372342
 20
305.1637563937926
 30
0.0
 11
628.9514349710343
 21
305.1637563937926
 31
0.0
 12
629.4723795041343
 22
302.2093331347927
 32
0.0
 13
629.4723795041343
 23
302.2093331347927
 33
0.0
  0
LINE
  5
1005
330
1F
100
AcDbEntity
  8
UMCL2
 62
     5
100
AcDbLine
 10
612.1619133917302
 20
302.2093331347926
 30
0.0
 11
630.8142865645163
 21
302.2093331347926
 31
0.0
  0
LINE
  5
1006
330
1F
100
AcDbEntity
  8
UMCL2
 62
     5
100
AcDbLine
 10
629.4723795041343
 20
302.2093331347926
 30
0.0
 11
629.4723795041343
 21
318.1093331347928
 31
0.0
  0
LINE
  5
1007
330
1F
100
AcDbEntity
  8
UMCL2
 62
     5
100
AcDbLine
 10
637.4723795041343
 20
295.1593346347926
 30
0.0
 11
637.4723795041343
 21
325.1593316347928
 31
0.0
  0
LINE
  5
1008
330
1F
100
AcDbEntity
  8
UMCL2
 62
     5
100
AcDbLine
 10
645.4723795041343
 20
291.1593350347928
 30
0.0
 11
645.4723795041343
 21
329.1593312347926
 31
0.0
  0
TEXT
  5
1009
330
1F
100
AcDbEntity
  8
UMCL2
 62
     5
100
AcDbText
 10
633.0813980497712
 20
283.2271112329924
 30
0.0
 40
3.0
  1
4-%%c4.6
  7
ROMANS
100
AcDbText
  0
SOLID
  5
100A
330
1F
100
AcDbEntity
  8
UMCL2
 62
     5
100
AcDbTrace
 10
621.7531055183008
 20
292.0680998021617
 30
0.0
 11
621.0627812219216
 21
291.2877247691834
 31
0.0
 12
619.1950800020535
 22
293.635424101123
 32
0.0
 13
619.1950800020535
 23
293.635424101123
 33
0.0
  0
LINE
  5
100B
330
1F
100
AcDbEntity
  8
UMCL2
 62
     5
100
AcDbLine
 10
632.0915731102789
 20
282.2271112329925
 30
0.0
 11
619.1950800020535
 21
293.6354241011231
 31
0.0
  0
LINE
  5
100C
330
1F
100
AcDbEntity
  8
UMCL2
 62
     5
100
AcDbLine
 10
632.0915731102789
 20
282.2271112329925
 30
0.0
 11
648.9206411121941
 21
282.2271112329925
 31
0.0
  0
LINE
  5
100D
330
1F
100
AcDbEntity
  8
AM_7
100
AcDbLine
 10
617.472379904134
 20
319.8593318647926
 30
0.0
 11
617.472379904134
 21
330.4593314047927
 31
0.0
  0
LINE
  5
100E
330
1F
100
AcDbEntity
  8
AM_7
100
AcDbLine
 10
612.1723801341341
 20
325.1593316347928
 30
0.0
 11
622.7723796741342
 21
325.1593316347928
 31
0.0
  0
LINE
  5
100F
330
1F
100
AcDbEntity
  8
AM_7
100
AcDbLine
 10
617.4723799041341
 20
289.8593348647926
 30
0.0
 11
617.4723799041341
 21
300.4593344047927
 31
0.0
  0
LINE
  5
1010
330
1F
100
AcDbEntity
  8
AM_7
100
AcDbLine
 10
612.1723801341342
 20
295.1593346347928
 30
0.0
 11
622.7723796741343
 21
295.1593346347928
 31
0.0
  0
LINE
  5
1011
330
1F
100
AcDbEntity
  8
AM_7
100
AcDbLine
 10
587.4723829041341
 20
289.8593348647926
 30
0.0
 11
587.4723829041341
 21
300.4593344047927
 31
0.0
  0
LINE
  5
1012
330
1F
100
AcDbEntity
  8
AM_7
100
AcDbLine
 10
582.1723831341342
 20
295.1593346347928
 30
0.0
 11
592.7723826741343
 21
295.1593346347928
 31
0.0
  0
LINE
  5
1013
330
1F
100
AcDbEntity
  8
AM_7
100
AcDbLine
 10
587.4723829041341
 20
319.8593318647926
 30
0.0
 11
587.4723829041341
 21
330.4593314047927
 31
0.0
  0
LINE
  5
1014
330
1F
100
AcDbEntity
  8
AM_7
100
AcDbLine
 10
582.1723831341342
 20
325.1593316347928
 30
0.0
 11
592.7723826741343
 21
325.1593316347928
 31
0.0
  0
TEXT
  5
1015
330
1F
100
AcDbEntity
  8
UMCL2
 62
     5
100
AcDbText
 10
551.4513788149272
 20
325.2109962958242
 30
0.0
 40
4.0
  1
CW
  7
ROMANS
100
AcDbText
  0
TEXT
  5
1016
330
1F
100
AcDbEntity
  8
UMCL2
 62
     5
100
AcDbText
 10
546.5657636440307
 20
292.1480473114275
 30
0.0
 40
4.0
  1
CCW
  7
ROMANS
100
AcDbText
  0
POLYLINE
  5
1017
330
1F
100
AcDbEntity
  8
UMCL2
 62
     5
100
AcDb2dPolyline
 66
     1
 10
0.0
 20
0.0
 30
0.0
 70
     7
  0
VERTEX
  5
1018
330
1017
100
AcDbEntity
  8
UMCL2
 62
     5
100
AcDbVertex
100
AcDb2dVertex
 10
560.0878597258949
 20
323.2364810555943
 30
0.0
 42
-0.0185322085214218
  0
VERTEX
  5
1019
330
1017
100
AcDbEntity
  8
UMCL2
 62
     5
100
AcDbVertex
100
AcDb2dVertex
 10
562.1170327957745
 20
327.6375802952754
 30
0.0
  0
VERTEX
  5
101A
330
1017
100
AcDbEntity
  8
UMCL2
 62
     5
100
AcDbVertex
100
AcDb2dVertex
 10
561.5818403911748
 20
327.9088165208406
 30
0.0
  0
VERTEX
  5
101B
330
1017
100
AcDbEntity
  8
UMCL2
 62
     5
100
AcDbVertex
100
AcDb2dVertex
 10
564.2043251745081
 20
329.9430141596896
 30
0.0
  0
VERTEX
  5
101C
330
1017
100
AcDbEntity
  8
UMCL2
 62
     5
100
AcDbVertex
100
AcDb2dVertex
 10
563.9902062118737
 20
326.6882535057973
 30
0.0
  0
VERTEX
  5
101D
330
1017
100
AcDbEntity
  8
UMCL2
 62
     5
100
AcDbVertex
100
AcDb2dVertex
 10
563.4550138072738
 20
326.9594897313626
 30
0.0
 42
0.018532208521422
  0
VERTEX
  5
101E
330
1017
100
AcDbEntity
  8
UMCL2
 62
     5
100
AcDbVertex
100
AcDb2dVertex
 10
561.4723814041342
 20
322.6593331347928
 30
0.0
  0
SEQEND
  5
101F
330
1017
100
AcDbEntity
  8
UMCL2
 62
     5
  0
POLYLINE
  5
1020
330
1F
100
AcDbEntity
  8
UMCL2
 62
     5
100
AcDb2dPolyline
 66
     1
 10
0.0
 20
0.0
 30
0.0
 70
     7
  0
VERTEX
  5
1021
330
1020
100
AcDbEntity
  8
UMCL2
 62
     5
100
AcDbVertex
100
AcDb2dVertex
 10
560.0878597258945
 20
297.082185213992
 30
0.0
 42
0.0185322085214218
  0
VERTEX
  5
1022
330
1020
100
AcDbEntity
  8
UMCL2
 62
     5
100
AcDbVertex
100
AcDb2dVertex
 10
562.1170327957741
 20
292.6810859743109
 30
0.0
  0
VERTEX
  5
1023
330
1020
100
AcDbEntity
  8
UMCL2
 62
     5
100
AcDbVertex
100
AcDb2dVertex
 10
561.5818403911744
 20
292.4098497487457
 30
0.0
  0
VERTEX
  5
1024
330
1020
100
AcDbEntity
  8
UMCL2
 62
     5
100
AcDbVertex
100
AcDb2dVertex
 10
564.2043251745077
 20
290.3756521098966
 30
0.0
  0
VERTEX
  5
1025
330
1020
100
AcDbEntity
  8
UMCL2
 62
     5
100
AcDbVertex
100
AcDb2dVertex
 10
563.9902062118733
 20
293.6304127637891
 30
0.0
  0
VERTEX
  5
1026
330
1020
100
AcDbEntity
  8
UMCL2
 62
     5
100
AcDbVertex
100
AcDb2dVertex
 10
563.4550138072732
 20
293.3591765382237
 30
0.0
 42
-0.018532208521422
  0
VERTEX
  5
1027
330
1020
100
AcDbEntity
  8
UMCL2
 62
     5
100
AcDbVertex
100
AcDb2dVertex
 10
561.4723814041341
 20
297.6593331347928
 30
0.0
  0
SEQEND
  5
1028
330
1020
100
AcDbEntity
  8
UMCL2
 62
     5
  0
CIRCLE
  5
1029
330
1F
100
AcDbEntity
  8
UMCL1
100
AcDbCircle
 10
567.4723814041342
 20
310.1593331347928
 30
0.0
 40
2.5
  0
LINE
  5
102A
330
1F
100
AcDbEntity
  8
AM_7
100
AcDbLine
 10
567.4723814041341
 20
303.7593331347928
 30
0.0
 11
567.4723814041341
 21
316.5593331347927
 31
0.0
  0
ARC
  5
102B
330
1F
100
AcDbEntity
  8
UMCL1
 62
     3
100
AcDbCircle
 10
567.4723814041342
 20
310.1593331347928
 30
0.0
 40
3.0
100
AcDbArc
 50
78.81301155211445
 51
13.01316243151962
  0
LINE
  5
102C
330
1F
100
AcDbEntity
  8
UMCL1
100
AcDbLine
 10
701.4210077197954
 20
207.9019529978089
 30
0.0
 11
701.4210077197954
 21
231.9019594978089
 31
0.0
  0
LINE
  5
102D
330
1F
100
AcDbEntity
  8
UMCL1
100
AcDbLine
 10
687.4210216297956
 20
207.9019529978089
 30
0.0
 11
687.4210216297954
 21
231.9019594978089
 31
0.0
  0
LINE
  5
102E
330
1F
100
AcDbEntity
  8
0
  6
HIDDEN
 62
     3
 48
0.4
100
AcDbLine
 10
696.9210121747956
 20
242.8019594978088
 30
0.0
 11
696.9210121747956
 21
238.9019524978088
 31
0.0
  0
LINE
  5
102F
330
1F
100
AcDbEntity
  8
0
  6
HIDDEN
 62
     3
 48
0.4
100
AcDbLine
 10
697.4210146747957
 20
242.8019594978088
 30
0.0
 11
697.4210146747959
 21
238.9019524978088
 31
0.0
  0
LINE
  5
1030
330
1F
100
AcDbEntity
  8
0
  6
HIDDEN
 62
     3
 48
0.4
100
AcDbLine
 10
691.9210171747955
 20
238.9019524978088
 30
0.0
 11
691.9210171747955
 21
242.8019594978088
 31
0.0
  0
LINE
  5
1031
330
1F
100
AcDbEntity
  8
0
  6
HIDDEN
 62
     3
 48
0.4
100
AcDbLine
 10
691.4210146747958
 20
242.8019594978088
 30
0.0
 11
691.4210146747957
 21
238.9019524978088
 31
0.0
  0
LINE
  5
1032
330
1F
100
AcDbEntity
  8
AM_7
100
AcDbLine
 10
694.4210146747957
 20
250.8019594978088
 30
0.0
 11
694.4210146747957
 21
135.9019594978086
 31
0.0
  0
LINE
  5
1033
330
1F
100
AcDbEntity
  8
UMCL1
100
AcDbLine
 10
686.4710146747957
 20
247.8019594978089
 30
0.0
 11
702.3710146747958
 21
247.8019594978089
 31
0.0
  0
LINE
  5
1034
330
1F
100
AcDbEntity
  8
UMCL1
100
AcDbLine
 10
702.3710146747958
 20
231.9019594978089
 30
0.0
 11
686.4710146747957
 21
231.9019594978089
 31
0.0
  0
LINE
  5
1035
330
1F
100
AcDbEntity
  8
0
  6
HIDDEN
 62
     3
 48
0.4
100
AcDbLine
 10
700.1710146747957
 20
242.8019594978088
 30
0.0
 11
688.6710146747957
 21
242.8019594978088
 31
0.0
  0
LINE
  5
1036
330
1F
100
AcDbEntity
  8
0
  6
HIDDEN
 62
     3
 48
0.4
100
AcDbLine
 10
688.6710146747957
 20
242.8019594978088
 30
0.0
 11
688.6710146747957
 21
247.8019594978089
 31
0.0
  0
LINE
  5
1037
330
1F
100
AcDbEntity
  8
0
  6
HIDDEN
 62
     3
 48
0.4
100
AcDbLine
 10
689.4210146747957
 20
242.8019594978088
 30
0.0
 11
689.4210146747957
 21
247.8019594978089
 31
0.0
  0
LINE
  5
1038
330
1F
100
AcDbEntity
  8
0
  6
HIDDEN
 62
     3
 48
0.4
100
AcDbLine
 10
700.5954301988893
 20
238.9019524978088
 30
0.0
 11
688.2465991507014
 21
238.9019524978088
 31
0.0
  0
LINE
  5
1039
330
1F
100
AcDbEntity
  8
0
  6
HIDDEN
 62
     3
 48
0.4
100
AcDbLine
 10
700.9960749415697
 20
240.4019594978089
 30
0.0
 11
687.8459544080221
 21
240.4019594978089
 31
0.0
  0
LINE
  5
103A
330
1F
100
AcDbEntity
  8
0
  6
HIDDEN
 62
     3
 48
0.4
100
AcDbLine
 10
687.4210146747957
 20
231.9019594978089
 30
0.0
 11
687.8459544080221
 21
240.4019594978089
 31
0.0
  0
ARC
  5
103B
330
1F
100
AcDbEntity
  8
0
  6
HIDDEN
 62
     3
 48
0.4
100
AcDbCircle
 10
688.2465991507016
 20
238.4019529978088
 30
0.0
 40
0.4999995000000001
100
AcDbArc
 50
90.0
 51
177.1380000000003
  0
LINE
  5
103C
330
1F
100
AcDbEntity
  8
0
  6
HIDDEN
 62
     3
 48
0.4
100
AcDbLine
 10
691.0210146747958
 20
242.8019594978088
 30
0.0
 11
691.0210146747957
 21
240.401959497809
 31
0.0
  0
LINE
  5
103D
330
1F
100
AcDbEntity
  8
UMCL1
100
AcDbLine
 10
701.4210077197954
 20
231.9019594978089
 30
0.0
 11
702.3710146747959
 21
231.9019594978089
 31
0.0
  0
LINE
  5
103E
330
1F
100
AcDbEntity
  8
0
  6
HIDDEN
 62
     3
 48
0.4
100
AcDbLine
 10
700.1710146747957
 20
247.8019594978089
 30
0.0
 11
700.1710146747957
 21
242.8019594978088
 31
0.0
  0
LINE
  5
103F
330
1F
100
AcDbEntity
  8
0
  6
HIDDEN
 62
     3
 48
0.4
100
AcDbLine
 10
699.4210146747957
 20
247.8019594978089
 30
0.0
 11
699.4210146747957
 21
242.8019594978088
 31
0.0
  0
LINE
  5
1040
330
1F
100
AcDbEntity
  8
0
  6
HIDDEN
 62
     3
 48
0.4
100
AcDbLine
 10
701.4210146747957
 20
231.9019594978089
 30
0.0
 11
700.9960749415697
 21
240.4019594978089
 31
0.0
  0
LINE
  5
1041
330
1F
100
AcDbEntity
  8
0
  6
HIDDEN
 62
     3
 48
0.4
100
AcDbLine
 10
697.8210146747957
 20
242.8019594978088
 30
0.0
 11
697.8210146747958
 21
240.4019594978089
 31
0.0
  0
ARC
  5
1042
330
1F
100
AcDbEntity
  8
0
  6
HIDDEN
 62
     3
 48
0.4
100
AcDbCircle
 10
700.5954301988893
 20
238.4019529978088
 30
0.0
 40
0.4999995000000001
100
AcDbArc
 50
2.862000000006126
 51
90.0
  0
LINE
  5
1043
330
1F
100
AcDbEntity
  8
UMCL1
100
AcDbLine
 10
676.4210165747957
 20
207.9019529978089
 30
0.0
 11
712.4210127747958
 21
207.9019529978089
 31
0.0
  0
LINE
  5
1044
330
1F
100
AcDbEntity
  8
UMCL1
100
AcDbLine
 10
713.0675128101458
 20
137.9019594978086
 30
0.0
 11
675.7745165394458
 21
137.9019594978087
 31
0.0
  0
LINE
  5
1047
330
1F
100
AcDbEntity
  8
UMCL1
100
AcDbLine
 10
675.4210165747958
 20
138.2554594624588
 30
0.0
 11
675.4210165747958
 21
206.9019529978088
 31
0.0
  0
LINE
  5
1049
330
1F
100
AcDbEntity
  8
UMCL1
100
AcDbLine
 10
675.4210165747958
 20
197.9019529978088
 30
0.0
 11
683.4210161747957
 21
197.9019529978088
 31
0.0
  0
LINE
  5
104A
330
1F
100
AcDbEntity
  8
UMCL1
100
AcDbLine
 10
676.4210165747957
 20
207.9019529978089
 30
0.0
 11
675.4210165747958
 21
206.9019529978088
 31
0.0
  0
LINE
  5
104B
330
1F
100
AcDbEntity
  8
UMCL1
100
AcDbLine
 10
683.4210161747957
 20
206.9019529978088
 30
0.0
 11
705.4210131747956
 21
206.9019529978089
 31
0.0
  0
LWPOLYLINE
  5
104C
330
1F
100
AcDbEntity
  8
UMCL1
100
AcDbPolyline
 90
        2
 70
     0
 43
0.0
 10
683.4210161747957
 20
207.9019529978089
 10
683.4210161747957
 20
197.9019529978088
  0
LINE
  5
104D
330
1F
100
AcDbEntity
  8
UMCL1
100
AcDbLine
 10
675.7745165394458
 20
137.9019594978087
 30
0.0
 11
675.4210165747958
 21
138.2554594624588
 31
0.0
  0
LINE
  5
1050
330
1F
100
AcDbEntity
  8
UMCL1
100
AcDbLine
 10
713.4210127747958
 20
206.9019529978088
 30
0.0
 11
713.4210127747958
 21
138.2554594624587
 31
0.0
  0
LINE
  5
1052
330
1F
100
AcDbEntity
  8
UMCL1
100
AcDbLine
 10
713.4210127747958
 20
197.9019529978088
 30
0.0
 11
705.4210131747956
 21
197.9019529978088
 31
0.0
  0
LWPOLYLINE
  5
1053
330
1F
100
AcDbEntity
  8
UMCL1
100
AcDbPolyline
 90
        2
 70
     0
 43
0.0
 10
705.4210131747956
 20
207.9019529978089
 10
705.4210131747956
 20
197.9019529978088
  0
LINE
  5
1054
330
1F
100
AcDbEntity
  8
UMCL1
100
AcDbLine
 10
713.4210127747958
 20
206.9019529978088
 30
0.0
 11
712.4210127747958
 21
207.9019529978089
 31
0.0
  0
LINE
  5
1055
330
1F
100
AcDbEntity
  8
UMCL1
100
AcDbLine
 10
713.4210127747958
 20
138.2554594624587
 30
0.0
 11
713.0675128101458
 21
137.9019594978086
 31
0.0
  0
LINE
  5
1056
330
1F
100
AcDbEntity
  8
UMCL1
100
AcDbLine
 10
702.4210077197955
 20
207.9019529978089
 30
0.0
 11
702.8576993401214
 21
207.9019529978089
 31
0.0
  0
LINE
  5
1057
330
1F
100
AcDbEntity
  8
UMCL1
100
AcDbLine
 10
702.3710146747958
 20
231.9019594978088
 30
0.0
 11
702.3710146747958
 21
247.8019594978087
 31
0.0
  0
LINE
  5
1058
330
1F
100
AcDbEntity
  8
UMCL1
100
AcDbLine
 10
686.4710146747957
 20
231.9019594978088
 30
0.0
 11
686.4710146747957
 21
247.8019594978087
 31
0.0
  0
CIRCLE
  5
1059
330
1F
100
AcDbEntity
  8
UMCL1
100
AcDbCircle
 10
694.4210146747957
 20
198.9019538978089
 30
0.0
 40
4.0
  0
CIRCLE
  5
105A
330
1F
100
AcDbEntity
  8
UMCL1
100
AcDbCircle
 10
694.4210146747957
 20
198.9019538978089
 30
0.0
 40
2.1
  0
LINE
  5
105B
330
1F
100
AcDbEntity
  8
AM_7
100
AcDbLine
 10
702.4210146747957
 20
198.9019538978087
 30
0.0
 11
686.4210146747957
 21
198.9019538978087
 31
0.0
  0
ARC
  5
105C
330
1F
100
AcDbEntity
  8
UMCL1
 62
     3
100
AcDbCircle
 10
694.4210146747957
 20
198.9019538978089
 30
0.0
 40
2.5
100
AcDbArc
 50
74.50191173553718
 51
14.29987780167774
  0
CIRCLE
  5
105D
330
1F
100
AcDbEntity
  8
UMCL1
100
AcDbCircle
 10
686.4210146747956
 20
154.4019578478087
 30
0.0
 40
2.1
  0
ARC
  5
105E
330
1F
100
AcDbEntity
  8
UMCL1
 62
     3
100
AcDbCircle
 10
686.4210146747956
 20
154.4019578478087
 30
0.0
 40
2.5
100
AcDbArc
 50
77.61311504628141
 51
11.76274617553197
  0
LINE
  5
105F
330
1F
100
AcDbEntity
  8
AM_7
100
AcDbLine
 10
691.9210146747956
 20
154.4019578478086
 30
0.0
 11
680.9210146747956
 21
154.4019578478086
 31
0.0
  0
LINE
  5
1060
330
1F
100
AcDbEntity
  8
AM_7
100
AcDbLine
 10
686.4210146747957
 20
159.9019578478087
 30
0.0
 11
686.4210146747957
 21
148.9019578478087
 31
0.0
  0
CIRCLE
  5
1061
330
1F
100
AcDbEntity
  8
UMCL1
100
AcDbCircle
 10
686.4210146747956
 20
154.4019578478087
 30
0.0
 40
4.0
  0
LINE
  5
1062
330
1F
100
AcDbEntity
  8
UMCL1
 62
     7
100
AcDbLine
 10
698.9210146747957
 20
250.2019594978088
 30
0.0
 11
689.9210146747957
 21
250.2019594978087
 31
0.0
  0
LINE
  5
1063
330
1F
100
AcDbEntity
  8
UMCL1
 62
     7
100
AcDbLine
 10
689.9210146747957
 20
250.2019594978087
 30
0.0
 11
689.4210146747957
 21
249.7019594978088
 31
0.0
  0
LINE
  5
1064
330
1F
100
AcDbEntity
  8
UMCL1
 62
     7
100
AcDbLine
 10
698.9210146747957
 20
250.2019594978088
 30
0.0
 11
699.4210146747957
 21
249.7019594978088
 31
0.0
  0
LINE
  5
1065
330
1F
100
AcDbEntity
  8
UMCL1
 62
     7
100
AcDbLine
 10
689.4210146747957
 20
247.8019594978089
 30
0.0
 11
689.4210146747957
 21
249.7019594978088
 31
0.0
  0
LINE
  5
1066
330
1F
100
AcDbEntity
  8
UMCL1
 62
     7
100
AcDbLine
 10
699.4210146747957
 20
247.8019594978089
 30
0.0
 11
699.4210146747957
 21
249.7019594978088
 31
0.0
  0
LINE
  5
1067
330
1F
100
AcDbEntity
  8
UMCL1
 62
     7
100
AcDbLine
 10
689.4210146747957
 20
249.7019594978088
 30
0.0
 11
699.4210146747957
 21
249.7019594978088
 31
0.0
  0
LINE
  5
1068
330
1F
100
AcDbEntity
  8
UMCL1
  6
Continuous
100
AcDbLine
 10
713.4210127747958
 20
138.2554594624587
 30
0.0
 11
675.4210165747958
 21
138.2554594624588
 31
0.0
  0
LINE
  5
106A
330
1F
100
AcDbEntity
  8
UMCL2
 62
     5
100
AcDbLine
 10
715.7123908759926
 20
181.8140749205588
 30
0.0
 11
741.9319906556495
 21
181.8140749205588
 31
0.0
  0
TEXT
  5
106B
330
1F
100
AcDbEntity
  8
UMCL2
 62
     5
100
AcDbText
 10
715.7224905168054
 20
182.8140749205588
 30
0.0
 40
3.0
  1
2-M5x0.8P
  7
ROMANS
100
AcDbText
  0
LINE
  5
106C
330
1F
100
AcDbEntity
  8
UMCL2
 62
     5
100
AcDbLine
 10
715.7123908759926
 20
181.8140749205588
 30
0.0
 11
696.0092506449496
 21
197.3430161965015
 31
0.0
  0
SOLID
  5
106D
330
1F
100
AcDbEntity
  8
UMCL2
 62
     5
100
AcDbTrace
 10
697.9957013510542
 20
195.1019911521404
 30
0.0
 11
698.6432657768414
 21
195.9181977073223
 31
0.0
 12
696.005014865689
 22
197.3463546068578
 32
0.0
 13
696.005014865689
 23
197.3463546068578
 33
0.0
  0
LINE
  5
106E
330
1F
100
AcDbEntity
  8
UMCL1
100
AcDbLine
 10
609.4723744491337
 20
207.9019529978089
 30
0.0
 11
609.4723744491337
 21
231.9019529978088
 31
0.0
  0
LINE
  5
106F
330
1F
100
AcDbEntity
  8
UMCL1
100
AcDbLine
 10
595.4723883591339
 20
207.9019529978089
 30
0.0
 11
595.4723883591336
 21
231.9019529978088
 31
0.0
  0
LINE
  5
1070
330
1F
100
AcDbEntity
  8
0
  6
HIDDEN
 62
     3
 48
0.4
100
AcDbLine
 10
604.9723789041338
 20
242.8019529978088
 30
0.0
 11
604.9723789041338
 21
238.9019459978088
 31
0.0
  0
LINE
  5
1071
330
1F
100
AcDbEntity
  8
0
  6
HIDDEN
 62
     3
 48
0.4
100
AcDbLine
 10
605.472381404134
 20
242.8019529978088
 30
0.0
 11
605.4723814041342
 21
238.9019459978088
 31
0.0
  0
LINE
  5
1072
330
1F
100
AcDbEntity
  8
0
  6
HIDDEN
 62
     3
 48
0.4
100
AcDbLine
 10
599.9723839041338
 20
238.9019459978088
 30
0.0
 11
599.9723839041338
 21
242.8019529978088
 31
0.0
  0
LINE
  5
1073
330
1F
100
AcDbEntity
  8
0
  6
HIDDEN
 62
     3
 48
0.4
100
AcDbLine
 10
599.4723814041341
 20
242.8019529978088
 30
0.0
 11
599.472381404134
 21
238.9019459978087
 31
0.0
  0
LINE
  5
1074
330
1F
100
AcDbEntity
  8
AM_7
100
AcDbLine
 10
602.4723814041339
 20
253.2236391730586
 30
0.0
 11
602.4723814041339
 21
135.9019594978086
 31
0.0
  0
LINE
  5
1075
330
1F
100
AcDbEntity
  8
0
  6
HIDDEN
 62
     3
 48
0.4
100
AcDbLine
 10
608.222381404134
 20
242.8019529978088
 30
0.0
 11
596.7223814041339
 21
242.8019529978088
 31
0.0
  0
LINE
  5
1076
330
1F
100
AcDbEntity
  8
0
  6
HIDDEN
 62
     3
 48
0.4
100
AcDbLine
 10
596.7223814041339
 20
242.8019529978088
 30
0.0
 11
596.7223814041339
 21
247.8019529978088
 31
0.0
  0
LINE
  5
1077
330
1F
100
AcDbEntity
  8
0
  6
HIDDEN
 62
     3
 48
0.4
100
AcDbLine
 10
597.472381404134
 20
242.8019529978088
 30
0.0
 11
597.472381404134
 21
247.8019529978088
 31
0.0
  0
LINE
  5
1078
330
1F
100
AcDbEntity
  8
0
  6
HIDDEN
 62
     3
 48
0.4
100
AcDbLine
 10
608.6467969282275
 20
238.9019459978088
 30
0.0
 11
596.2979658800398
 21
238.9019459978087
 31
0.0
  0
LINE
  5
1079
330
1F
100
AcDbEntity
  8
0
  6
HIDDEN
 62
     3
 48
0.4
100
AcDbLine
 10
609.0474416709079
 20
240.4019529978088
 30
0.0
 11
595.8973211373603
 21
240.4019529978088
 31
0.0
  0
LINE
  5
107A
330
1F
100
AcDbEntity
  8
0
  6
HIDDEN
 62
     3
 48
0.4
100
AcDbLine
 10
595.472381404134
 20
231.9019529978088
 30
0.0
 11
595.8973211373603
 21
240.4019529978088
 31
0.0
  0
ARC
  5
107B
330
1F
100
AcDbEntity
  8
0
  6
HIDDEN
 62
     3
 48
0.4
100
AcDbCircle
 10
596.2979658800398
 20
238.4019464978088
 30
0.0
 40
0.4999995000000001
100
AcDbArc
 50
90.0
 51
177.1380000000003
  0
LINE
  5
107C
330
1F
100
AcDbEntity
  8
0
  6
HIDDEN
 62
     3
 48
0.4
100
AcDbLine
 10
599.0723814041341
 20
242.8019529978088
 30
0.0
 11
599.072381404134
 21
240.401952997809
 31
0.0
  0
LINE
  5
107D
330
1F
100
AcDbEntity
  8
0
  6
HIDDEN
 62
     3
 48
0.4
100
AcDbLine
 10
608.222381404134
 20
247.8019529978088
 30
0.0
 11
608.222381404134
 21
242.8019529978088
 31
0.0
  0
LINE
  5
107E
330
1F
100
AcDbEntity
  8
0
  6
HIDDEN
 62
     3
 48
0.4
100
AcDbLine
 10
607.472381404134
 20
247.8019529978088
 30
0.0
 11
607.472381404134
 21
242.8019529978088
 31
0.0
  0
LINE
  5
107F
330
1F
100
AcDbEntity
  8
0
  6
HIDDEN
 62
     3
 48
0.4
100
AcDbLine
 10
609.472381404134
 20
231.9019529978088
 30
0.0
 11
609.0474416709079
 21
240.4019529978088
 31
0.0
  0
LINE
  5
1080
330
1F
100
AcDbEntity
  8
0
  6
HIDDEN
 62
     3
 48
0.4
100
AcDbLine
 10
605.8723814041339
 20
242.8019529978088
 30
0.0
 11
605.8723814041341
 21
240.4019529978088
 31
0.0
  0
ARC
  5
1081
330
1F
100
AcDbEntity
  8
0
  6
HIDDEN
 62
     3
 48
0.4
100
AcDbCircle
 10
608.6467969282275
 20
238.4019464978088
 30
0.0
 40
0.4999995000000001
100
AcDbArc
 50
2.862000000006126
 51
90.0
  0
LINE
  5
1082
330
1F
100
AcDbEntity
  8
UMCL1
100
AcDbLine
 10
584.4723833041339
 20
207.9019529978089
 30
0.0
 11
620.472379504134
 21
207.9019529978089
 31
0.0
  0
LINE
  5
1083
330
1F
100
AcDbEntity
  8
UMCL1
100
AcDbLine
 10
605.0723814041339
 20
206.9019529978088
 30
0.0
 11
613.4723799041339
 21
206.9019529978088
 31
0.0
  0
LINE
  5
1084
330
1F
100
AcDbEntity
  8
UMCL1
100
AcDbLine
 10
621.1188795394839
 20
137.9019594978086
 30
0.0
 11
583.8258832687841
 21
137.9019594978087
 31
0.0
  0
ARC
  5
1085
330
1F
100
AcDbEntity
  8
UMCL1
100
AcDbCircle
 10
602.4723814041339
 20
155.9019594978088
 30
0.0
 40
3.300000000000011
100
AcDbArc
 50
141.9877204556695
 51
38.01227954435521
  0
LINE
  5
1086
330
1F
100
AcDbEntity
  8
AM_7
100
AcDbLine
 10
608.7723814041339
 20
155.9019594978088
 30
0.0
 11
596.1723814041341
 21
155.9019594978086
 31
0.0
  0
LINE
  5
1089
330
1F
100
AcDbEntity
  8
UMCL1
100
AcDbLine
 10
583.4723833041339
 20
138.2554594624588
 30
0.0
 11
583.4723833041339
 21
206.9019529978088
 31
0.0
  0
LINE
  5
108B
330
1F
100
AcDbEntity
  8
UMCL1
100
AcDbLine
 10
605.0723814041339
 20
157.9341996410991
 30
0.0
 11
605.0723814041339
 21
207.9019529978089
 31
0.0
  0
LINE
  5
108D
330
1F
100
AcDbEntity
  8
UMCL1
100
AcDbLine
 10
599.8723814041332
 20
157.9341996410978
 30
0.0
 11
599.8723814041339
 21
207.9019529978089
 31
0.0
  0
LINE
  5
1091
330
1F
100
AcDbEntity
  8
UMCL1
100
AcDbLine
 10
583.4723833041339
 20
197.9019529978088
 30
0.0
 11
591.472382904134
 21
197.9019529978088
 31
0.0
  0
LINE
  5
1094
330
1F
100
AcDbEntity
  8
UMCL1
100
AcDbLine
 10
584.4723833041339
 20
207.9019529978089
 30
0.0
 11
583.4723833041339
 21
206.9019529978088
 31
0.0
  0
LINE
  5
1099
330
1F
100
AcDbEntity
  8
UMCL1
100
AcDbLine
 10
591.472382904134
 20
206.9019529978088
 30
0.0
 11
599.8723814041339
 21
206.9019529978088
 31
0.0
  0
LWPOLYLINE
  5
109A
330
1F
100
AcDbEntity
  8
UMCL1
100
AcDbPolyline
 90
        2
 70
     0
 43
0.0
 10
591.472382904134
 20
207.9019529978089
 10
591.472382904134
 20
197.9019529978088
  0
LINE
  5
10A4
330
1F
100
AcDbEntity
  8
UMCL1
100
AcDbLine
 10
583.8258832687841
 20
137.9019594978087
 30
0.0
 11
583.4723833041339
 21
138.2554594624588
 31
0.0
  0
LINE
  5
10A7
330
1F
100
AcDbEntity
  8
UMCL1
100
AcDbLine
 10
621.4723795041341
 20
206.9019529978088
 30
0.0
 11
621.4723795041341
 21
138.2554594624587
 31
0.0
  0
LINE
  5
10AA
330
1F
100
AcDbEntity
  8
UMCL1
100
AcDbLine
 10
621.4723795041341
 20
197.9019529978088
 30
0.0
 11
613.4723799041339
 21
197.9019529978088
 31
0.0
  0
LWPOLYLINE
  5
10AB
330
1F
100
AcDbEntity
  8
UMCL1
100
AcDbPolyline
 90
        2
 70
     0
 43
0.0
 10
613.4723799041339
 20
207.9019529978089
 10
613.4723799041339
 20
197.9019529978088
  0
LINE
  5
10AC
330
1F
100
AcDbEntity
  8
UMCL1
100
AcDbLine
 10
621.4723795041341
 20
206.9019529978088
 30
0.0
 11
620.472379504134
 21
207.9019529978089
 31
0.0
  0
LINE
  5
10AD
330
1F
100
AcDbEntity
  8
UMCL1
100
AcDbLine
 10
621.4723795041341
 20
138.2554594624587
 30
0.0
 11
621.1188795394839
 21
137.9019594978086
 31
0.0
  0
LINE
  5
10AE
330
1F
100
AcDbEntity
  8
UMCL1
100
AcDbLine
 10
610.4723744491336
 20
207.9019529978089
 30
0.0
 11
610.9090660694596
 21
207.9019529978089
 31
0.0
  0
LINE
  5
10AF
330
1F
100
AcDbEntity
  8
UMCL1
100
AcDbLine
 10
611.4723814041342
 20
231.9019529978088
 30
0.0
 11
611.4723814041342
 21
247.8019529978088
 31
0.0
  0
LINE
  5
10B0
330
1F
100
AcDbEntity
  8
0
  6
HIDDEN
 62
     3
 48
0.4
100
AcDbLine
 10
569.9723814041342
 20
247.801952997809
 30
0.0
 11
569.9723814041342
 21
231.9019529978091
 31
0.0
  0
LINE
  5
10B1
330
1F
100
AcDbEntity
  8
0
  6
HIDDEN
 62
     3
 48
0.4
100
AcDbLine
 10
570.4723814041342
 20
247.801952997809
 30
0.0
 11
570.4723814041342
 21
231.9019529978091
 31
0.0
  0
LINE
  5
10B2
330
1F
100
AcDbEntity
  8
UMCL1
100
AcDbLine
 10
561.4723814041345
 20
247.801952997809
 30
0.0
 11
561.4723814041345
 21
231.9019529978091
 31
0.0
  0
LINE
  5
10B3
330
1F
100
AcDbEntity
  8
0
  6
HIDDEN
 62
     3
 48
0.4
100
AcDbLine
 10
564.9723814041343
 20
247.801952997809
 30
0.0
 11
564.9723814041347
 21
231.9019529978091
 31
0.0
  0
LINE
  5
10B4
330
1F
100
AcDbEntity
  8
0
  6
HIDDEN
 62
     3
 48
0.4
100
AcDbLine
 10
564.4723814041343
 20
247.801952997809
 30
0.0
 11
564.4723814041347
 21
231.9019529978091
 31
0.0
  0
LINE
  5
10B5
330
1F
100
AcDbEntity
  8
UMCL1
100
AcDbLine
 10
561.4723814041345
 20
247.801952997809
 30
0.0
 11
611.4723814041342
 21
247.8019529978088
 31
0.0
  0
LINE
  5
10B6
330
1F
100
AcDbEntity
  8
UMCL1
100
AcDbLine
 10
561.4723814041345
 20
231.9019529978091
 30
0.0
 11
611.4723814041342
 21
231.9019529978088
 31
0.0
  0
LINE
  5
10B7
330
1F
100
AcDbEntity
  8
UMCL1
  6
PHANTOM
 62
     2
100
AcDbLine
 10
611.4723814041342
 20
209.9019529978089
 30
0.0
 11
611.4723814041342
 21
225.8019529978088
 31
0.0
  0
LINE
  5
10B8
330
1F
100
AcDbEntity
  8
UMCL1
  6
PHANTOM
 62
     2
100
AcDbLine
 10
561.4723814041343
 20
225.8019529978091
 30
0.0
 11
561.4723814041343
 21
209.9019529978091
 31
0.0
  0
LINE
  5
10B9
330
1F
100
AcDbEntity
  8
UMCL1
  6
PHANTOM
 62
     2
100
AcDbLine
 10
561.4723814041343
 20
225.8019529978091
 30
0.0
 11
611.4723814041342
 21
225.8019529978088
 31
0.0
  0
LINE
  5
10BA
330
1F
100
AcDbEntity
  8
UMCL1
  6
PHANTOM
 62
     2
100
AcDbLine
 10
561.4723814041343
 20
209.9019529978091
 30
0.0
 11
611.4723814041342
 21
209.9019529978089
 31
0.0
  0
TEXT
  5
10BB
330
1F
100
AcDbEntity
  8
UMCL2
 62
     5
100
AcDbText
 10
636.9188795394836
 20
172.9359721211663
 30
0.0
 40
3.0
  1
70
 50
90.0
  7
ROMANS
100
AcDbText
  0
SOLID
  5
10BC
330
1F
100
AcDbEntity
  8
UMCL2
 62
     5
100
AcDbTrace
 10
638.4398240725833
 20
204.9475297388088
 30
0.0
 11
637.3979350063835
 21
204.9475297388088
 31
0.0
 12
637.9188795394834
 22
207.9019529978089
 32
0.0
 13
637.9188795394834
 23
207.9019529978089
 33
0.0
  0
SOLID
  5
10BD
330
1F
100
AcDbEntity
  8
UMCL2
 62
     5
100
AcDbTrace
 10
637.3979350063836
 20
140.8563827568086
 30
0.0
 11
638.4398240725836
 21
140.8563827568086
 31
0.0
 12
637.9188795394837
 22
137.9019594978086
 32
0.0
 13
637.9188795394837
 23
137.9019594978086
 33
0.0
  0
LINE
  5
10BE
330
1F
100
AcDbEntity
  8
UMCL2
 62
     5
100
AcDbLine
 10
621.4723795041341
 20
207.9019529978089
 30
0.0
 11
638.9188795394834
 21
207.9019529978089
 31
0.0
  0
TEXT
  5
10BF
330
1F
100
AcDbEntity
  8
UMCL2
 62
     5
100
AcDbText
 10
644.9188795394836
 20
185.4410769252015
 30
0.0
 40
3.0
  1
94
 50
90.0
  7
ROMANS
100
AcDbText
  0
SOLID
  5
10C0
330
1F
100
AcDbEntity
  8
UMCL2
 62
     5
100
AcDbTrace
 10
646.4398240725836
 20
228.9475297388088
 30
0.0
 11
645.3979350063836
 21
228.9475297388088
 31
0.0
 12
645.9188795394837
 22
231.9019529978088
 32
0.0
 13
645.9188795394837
 23
231.9019529978088
 33
0.0
  0
SOLID
  5
10C1
330
1F
100
AcDbEntity
  8
UMCL2
 62
     5
100
AcDbTrace
 10
645.3979350063836
 20
140.8563827568086
 30
0.0
 11
646.4398240725836
 21
140.8563827568086
 31
0.0
 12
645.9188795394837
 22
137.9019594978086
 32
0.0
 13
645.9188795394837
 23
137.9019594978086
 33
0.0
  0
LINE
  5
10C2
330
1F
100
AcDbEntity
  8
UMCL2
 62
     5
100
AcDbLine
 10
622.1188795394835
 20
137.9019594978086
 30
0.0
 11
655.8809856393698
 21
137.9019594978086
 31
0.0
  0
TEXT
  5
10C3
330
1F
100
AcDbEntity
  8
UMCL2
 62
     5
100
AcDbText
 10
644.9188795394836
 20
234.5231997065713
 30
0.0
 40
3.0
  1
15.9
 50
90.0
  7
ROMANS
100
AcDbText
  0
SOLID
  5
10C4
330
1F
100
AcDbEntity
  8
UMCL2
 62
     5
100
AcDbTrace
 10
646.4398240725836
 20
244.8475297388087
 30
0.0
 11
645.3979350063836
 21
244.8475297388087
 31
0.0
 12
645.9188795394837
 22
247.8019529978087
 32
0.0
 13
645.9188795394837
 23
247.8019529978087
 33
0.0
  0
SOLID
  5
10C5
330
1F
100
AcDbEntity
  8
UMCL2
 62
     5
100
AcDbTrace
 10
645.3979350063836
 20
234.8563762568089
 30
0.0
 11
646.4398240725836
 21
234.8563762568089
 31
0.0
 12
645.9188795394837
 22
231.9019529978088
 32
0.0
 13
645.9188795394837
 23
231.9019529978088
 33
0.0
  0
LINE
  5
10C6
330
1F
100
AcDbEntity
  8
UMCL2
 62
     5
100
AcDbLine
 10
612.5958495656798
 20
231.9019529978088
 30
0.0
 11
646.9188795394837
 21
231.9019529978088
 31
0.0
  0
LINE
  5
10C7
330
1F
100
AcDbEntity
  8
UMCL2
 62
     5
100
AcDbLine
 10
612.5347101800635
 20
247.8019529978087
 30
0.0
 11
646.9188795394837
 21
247.8019529978087
 31
0.0
  0
TEXT
  5
10C8
330
1F
100
AcDbEntity
  8
UMCL2
 62
     5
100
AcDbText
 10
652.9188795394836
 20
190.8033645639147
 30
0.0
 40
3.0
  1
112.3
 50
90.0
  7
ROMANS
100
AcDbText
  0
SOLID
  5
10C9
330
1F
100
AcDbEntity
  8
UMCL2
 62
     5
100
AcDbTrace
 10
653.3979350063837
 20
140.8563827568086
 30
0.0
 11
654.4398240725836
 21
140.8563827568086
 31
0.0
 12
653.9188795394836
 22
137.9019594978087
 32
0.0
 13
653.9188795394836
 23
137.9019594978087
 33
0.0
  0
LINE
  5
10CA
330
1F
100
AcDbEntity
  8
UMCL2
 62
     5
100
AcDbLine
 10
607.7689189357071
 20
250.2019529978089
 30
0.0
 11
655.2873423622361
 21
250.2019529978089
 31
0.0
  0
SOLID
  5
10CB
330
1F
100
AcDbEntity
  8
UMCL2
 62
     5
100
AcDbTrace
 10
654.4398240725836
 20
247.2475297388087
 30
0.0
 11
653.3979350063837
 21
247.2475297388087
 31
0.0
 12
653.9188795394836
 22
250.2019529978087
 32
0.0
 13
653.9188795394836
 23
250.2019529978087
 33
0.0
  0
LINE
  5
10CC
330
1F
100
AcDbEntity
  8
UMCL2
 62
     5
100
AcDbLine
 10
612.5958495656798
 20
209.9019529978089
 30
0.0
 11
639.230999963301
 21
209.9019529978089
 31
0.0
  0
SOLID
  5
10CD
330
1F
100
AcDbEntity
  8
UMCL2
 62
     5
100
AcDbTrace
 10
638.4398240725836
 20
228.9475297388086
 30
0.0
 11
637.3979350063836
 21
228.9475297388086
 31
0.0
 12
637.9188795394837
 22
231.9019529978086
 32
0.0
 13
637.9188795394837
 23
231.9019529978086
 33
0.0
  0
LINE
  5
10CE
330
1F
100
AcDbEntity
  8
UMCL2
 62
     5
100
AcDbLine
 10
637.9188795394837
 20
209.9019529978089
 30
0.0
 11
637.9188795394837
 21
231.9019529978088
 31
0.0
  0
SOLID
  5
10CF
330
1F
100
AcDbEntity
  8
UMCL2
 62
     5
100
AcDbTrace
 10
638.4398240725836
 20
212.856376256809
 30
0.0
 11
637.3979350063836
 21
212.856376256809
 31
0.0
 12
637.9188795394837
 22
209.901952997809
 32
0.0
 13
637.9188795394837
 23
209.901952997809
 33
0.0
  0
TEXT
  5
10D0
330
1F
100
AcDbEntity
  8
UMCL2
 62
     5
100
AcDbText
 10
636.9188795394836
 20
217.0376377050038
 30
0.0
 40
3.0
  1
22
 50
90.0
  7
ROMANS
100
AcDbText
  0
LINE
  5
10D1
330
1F
100
AcDbEntity
  8
UMCL2
 62
     5
100
AcDbLine
 10
637.9188795394837
 20
137.9019594978086
 30
0.0
 11
637.9188795394837
 21
207.9019529978089
 31
0.0
  0
LINE
  5
10D2
330
1F
100
AcDbEntity
  8
UMCL2
 62
     5
100
AcDbLine
 10
645.9188795394834
 20
137.9019594978086
 30
0.0
 11
645.9188795394837
 21
247.8019529978087
 31
0.0
  0
LINE
  5
10D3
330
1F
100
AcDbEntity
  8
UMCL2
 62
     5
100
AcDbLine
 10
653.9188795394836
 20
137.9019594978087
 30
0.0
 11
653.9188795394836
 21
250.2019529978088
 31
0.0
  0
LINE
  5
10D4
330
1F
100
AcDbEntity
  8
UMCL1
 62
     7
100
AcDbLine
 10
606.9723814041339
 20
250.2019529978088
 30
0.0
 11
597.972381404134
 21
250.2019529978087
 31
0.0
  0
LINE
  5
10D5
330
1F
100
AcDbEntity
  8
UMCL1
 62
     7
100
AcDbLine
 10
597.972381404134
 20
250.2019529978087
 30
0.0
 11
597.472381404134
 21
249.7019529978087
 31
0.0
  0
LINE
  5
10D6
330
1F
100
AcDbEntity
  8
UMCL1
 62
     7
100
AcDbLine
 10
606.9723814041339
 20
250.2019529978088
 30
0.0
 11
607.472381404134
 21
249.7019529978088
 31
0.0
  0
LINE
  5
10D7
330
1F
100
AcDbEntity
  8
UMCL1
 62
     7
100
AcDbLine
 10
597.472381404134
 20
247.8019529978088
 30
0.0
 11
597.472381404134
 21
249.7019529978087
 31
0.0
  0
LINE
  5
10D8
330
1F
100
AcDbEntity
  8
UMCL1
 62
     7
100
AcDbLine
 10
607.472381404134
 20
247.8019529978088
 30
0.0
 11
607.472381404134
 21
249.7019529978088
 31
0.0
  0
LINE
  5
10D9
330
1F
100
AcDbEntity
  8
UMCL1
 62
     7
100
AcDbLine
 10
597.472381404134
 20
249.7019529978087
 30
0.0
 11
607.472381404134
 21
249.7019529978088
 31
0.0
  0
LINE
  5
10DA
330
1F
100
AcDbEntity
  8
UMCL1
  6
Continuous
100
AcDbLine
 10
583.4723833041339
 20
138.2554594624588
 30
0.0
 11
621.4723795041341
 21
138.2554594624588
 31
0.0
  0
LINE
  5
10DB
330
1F
100
AcDbEntity
  8
UMCL2
 62
     5
100
AcDbLine
 10
529.4362291247345
 20
221.3658743691486
 30
0.0
 11
549.603610423057
 21
221.3658743691486
 31
0.0
  0
SOLID
  5
10DC
330
1F
100
AcDbEntity
  8
UMCL2
 62
     5
100
AcDbTrace
 10
564.6628262956896
 20
230.8500974504548
 30
0.0
 11
565.1920189862368
 21
229.9526076607977
 31
0.0
 12
567.4723814041342
 22
231.9019529978091
 32
0.0
 13
567.4723814041342
 23
231.9019529978091
 33
0.0
  0
LINE
  5
10DD
330
1F
100
AcDbEntity
  8
UMCL2
 62
     5
100
AcDbLine
 10
549.603610423057
 20
221.3658743691486
 30
0.0
 11
567.4723814041342
 21
231.9019529978091
 31
0.0
  0
TEXT
  5
10DE
330
1F
100
AcDbEntity
  8
UMCL2
 62
     5
100
AcDbText
 10
529.8004770341515
 20
222.3658743691486
 30
0.0
 40
3.0
  1
M6x1.0P
  7
ROMANS
100
AcDbText
  0
TEXT
  5
10DF
330
1F
100
AcDbEntity
  8
UMCL2
 62
     5
100
AcDbText
 10
583.3582780618987
 20
258.6326498110089
 30
0.0
 40
3.0
  1
35
  7
ROMANS
100
AcDbText
  0
SOLID
  5
10E0
330
1F
100
AcDbEntity
  8
UMCL2
 62
     5
100
AcDbTrace
 10
570.4268046631341
 20
258.1535943441089
 30
0.0
 11
570.4268046631341
 21
257.111705277909
 31
0.0
 12
567.4723814041342
 22
257.6326498110089
 32
0.0
 13
567.4723814041342
 23
257.6326498110089
 33
0.0
  0
SOLID
  5
10E1
330
1F
100
AcDbEntity
  8
UMCL2
 62
     5
100
AcDbTrace
 10
599.5179581451341
 20
257.111705277909
 30
0.0
 11
599.5179581451341
 21
258.1535943441089
 31
0.0
 12
602.4723814041339
 22
257.6326498110089
 32
0.0
 13
602.4723814041339
 23
257.6326498110089
 33
0.0
  0
LINE
  5
10E2
330
1F
100
AcDbEntity
  8
UMCL2
 62
     5
100
AcDbLine
 10
602.4723814041339
 20
257.6326498110089
 30
0.0
 11
556.0418080244565
 21
257.6326498110088
 31
0.0
  0
LINE
  5
10E3
330
1F
100
AcDbEntity
  8
UMCL2
 62
     5
100
AcDbLine
 10
602.4723814041339
 20
254.793914776039
 30
0.0
 11
602.4723814041339
 21
258.6326498110089
 31
0.0
  0
LINE
  5
10E4
330
1F
100
AcDbEntity
  8
UMCL2
 62
     5
100
AcDbLine
 10
567.4723814041342
 20
251.262466162528
 30
0.0
 11
567.4723814041342
 21
258.6326498110089
 31
0.0
  0
TEXT
  5
10E5
330
1F
100
AcDbEntity
  8
UMCL2
 62
     5
100
AcDbText
 10
562.9196824287751
 20
258.6326498110089
 30
0.0
 40
3.0
  1
6
  7
ROMANS
100
AcDbText
  0
SOLID
  5
10E6
330
1F
100
AcDbEntity
  8
UMCL2
 62
     5
100
AcDbTrace
 10
558.5179581451343
 20
257.1117052779089
 30
0.0
 11
558.5179581451343
 21
258.1535943441089
 31
0.0
 12
561.4723814041345
 22
257.6326498110089
 32
0.0
 13
561.4723814041345
 23
257.6326498110089
 33
0.0
  0
LINE
  5
10E7
330
1F
100
AcDbEntity
  8
UMCL2
 62
     5
100
AcDbLine
 10
571.4723814041344
 20
257.6326498110089
 30
0.0
 11
561.4723814041345
 21
257.6326498110089
 31
0.0
  0
TEXT
  5
10E8
330
1F
100
AcDbEntity
  8
UMCL2
 62
     5
100
AcDbText
 10
583.6410595624591
 20
266.6326498110089
 30
0.0
 40
3.0
  1
50
  7
ROMANS
100
AcDbText
  0
SOLID
  5
10E9
330
1F
100
AcDbEntity
  8
UMCL2
 62
     5
100
AcDbTrace
 10
608.5179581451343
 20
265.111705277909
 30
0.0
 11
608.5179581451343
 21
266.1535943441089
 31
0.0
 12
611.4723814041342
 22
265.632649811009
 32
0.0
 13
611.4723814041342
 23
265.632649811009
 33
0.0
  0
SOLID
  5
10EA
330
1F
100
AcDbEntity
  8
UMCL2
 62
     5
100
AcDbTrace
 10
564.4268046631343
 20
266.1535943441089
 30
0.0
 11
564.4268046631343
 21
265.111705277909
 31
0.0
 12
561.4723814041345
 22
265.632649811009
 32
0.0
 13
561.4723814041345
 23
265.632649811009
 33
0.0
  0
LINE
  5
10EB
330
1F
100
AcDbEntity
  8
UMCL2
 62
     5
100
AcDbLine
 10
561.4723814041345
 20
248.647235071674
 30
0.0
 11
561.4723814041345
 21
266.6326498110089
 31
0.0
  0
LINE
  5
10EC
330
1F
100
AcDbEntity
  8
UMCL2
 62
     5
100
AcDbLine
 10
611.4723814041342
 20
248.4989637815118
 30
0.0
 11
611.4723814041342
 21
266.6326498110089
 31
0.0
  0
LINE
  5
10ED
330
1F
100
AcDbEntity
  8
UMCL2
 62
     5
100
AcDbLine
 10
561.4723814041345
 20
265.632649811009
 30
0.0
 11
611.4723814041342
 21
265.632649811009
 31
0.0
  0
LINE
  5
10EE
330
1F
100
AcDbEntity
  8
AM_7
100
AcDbLine
 10
567.4723814041342
 20
229.3321035364426
 30
0.0
 11
567.4723814041342
 21
250.3503523717745
 31
0.0
  0
LINE
  5
10EF
330
1F
100
AcDbEntity
  8
UMCL2
 62
     5
100
AcDbLine
 10
622.1188795394839
 20
137.9019594978086
 30
0.0
 11
630.4723795041343
 21
137.9019594978086
 31
0.0
  0
LINE
  5
10F0
330
1F
100
AcDbEntity
  8
UMCL2
 62
     5
100
AcDbLine
 10
622.4723795041341
 20
197.9019529978088
 30
0.0
 11
630.4723795041343
 21
197.9019529978088
 31
0.0
  0
LINE
  5
10F1
330
1F
100
AcDbEntity
  8
UMCL2
 62
     5
100
AcDbLine
 10
629.4723795041343
 20
140.9019594978086
 30
0.0
 11
629.4723795041343
 21
194.9019529978088
 31
0.0
  0
SOLID
  5
10F2
330
1F
100
AcDbEntity
  8
UMCL2
 62
     5
100
AcDbTrace
 10
628.9723795041343
 20
140.9019594978086
 30
0.0
 11
629.9723795041343
 21
140.9019594978086
 31
0.0
 12
629.4723795041343
 22
137.9019594978086
 32
0.0
 13
629.4723795041343
 23
137.9019594978086
 33
0.0
  0
SOLID
  5
10F3
330
1F
100
AcDbEntity
  8
UMCL2
 62
     5
100
AcDbTrace
 10
628.9723795041343
 20
194.9019529978088
 30
0.0
 11
629.9723795041343
 21
194.9019529978088
 31
0.0
 12
629.4723795041343
 22
197.9019529978088
 32
0.0
 13
629.4723795041343
 23
197.9019529978088
 33
0.0
  0
MTEXT
  5
10F4
330
1F
100
AcDbEntity
  8
UMCL2
 62
     5
100
AcDbMText
 10
626.9723795041342
 20
167.9019562478088
 30
0.0
 40
3.0
 41
0.0
 71
     5
 72
     1
  1
\A1;60
  7
ROMANS
 11
0.0000000000000001
 21
1.0
 31
0.0
 73
     1
 44
1.0
1001
ACAD
1000
MTEXTBEGIN
1070
    73
1070
     1
1070
    44
1040
1.0
1070
    74
1070
     0
1000
MTEXTEND
  0
LINE
  5
10F5
330
1F
100
AcDbEntity
  8
UMCL2
 62
     5
100
AcDbLine
 10
622.4723795041341
 20
197.9019529978088
 30
0.0
 11
630.4723795041343
 21
197.9019529978088
 31
0.0
  0
LINE
  5
10F6
330
1F
100
AcDbEntity
  8
UMCL2
 62
     5
100
AcDbLine
 10
629.4723795041343
 20
200.9019529978088
 30
0.0
 11
629.4723795041343
 21
204.9019529978088
 31
0.0
  0
MTEXT
  5
10F7
330
1F
100
AcDbEntity
  8
UMCL2
 62
     5
100
AcDbMText
 10
626.6597332836036
 20
202.9019529978088
 30
0.0
 40
3.0
 41
0.0
 71
     5
 72
     1
  1
\A1;10
  7
ROMANS
 11
0.0000000000000001
 21
1.0
 31
0.0
 73
     1
 44
1.0
1001
ACAD
1000
MTEXTBEGIN
1070
    73
1070
     1
1070
    44
1040
1.0
1070
    74
1070
     0
1000
MTEXTEND
  0
SOLID
  5
10F8
330
1F
100
AcDbEntity
  8
UMCL2
 62
     5
100
AcDbTrace
 10
628.9723795041343
 20
200.9019529978088
 30
0.0
 11
629.9723795041343
 21
200.9019529978088
 31
0.0
 12
629.4723795041343
 22
197.9019529978088
 32
0.0
 13
629.4723795041343
 23
197.9019529978088
 33
0.0
  0
SOLID
  5
10F9
330
1F
100
AcDbEntity
  8
UMCL2
 62
     5
100
AcDbTrace
 10
628.9723795041343
 20
204.9019529978088
 30
0.0
 11
629.9723795041343
 21
204.9019529978088
 31
0.0
 12
629.4723795041343
 22
207.9019529978089
 32
0.0
 13
629.4723795041343
 23
207.9019529978089
 33
0.0
  0
LINE
  5
10FA
330
1F
100
AcDbEntity
  8
UMCL2
 62
     5
100
AcDbLine
 10
583.4723833041338
 20
327.7894998413381
 30
0.0
 11
583.4723833041338
 21
335.6233645590701
 31
0.0
  0
LINE
  5
10FB
330
1F
100
AcDbEntity
  8
UMCL2
 62
     5
100
AcDbLine
 10
591.4723829041342
 20
330.1593312347928
 30
0.0
 11
591.4723829041342
 21
335.6233645590701
 31
0.0
  0
MTEXT
  5
10FC
330
1F
100
AcDbEntity
  8
UMCL2
 62
     5
100
AcDbMText
 10
587.472383104134
 20
338.6550835222351
 30
0.0
 40
3.0
 41
0.0
 71
     5
 72
     1
  1
\A1;8
  7
ROMANS
 73
     1
 44
1.0
1001
ACAD
1000
MTEXTBEGIN
1070
    73
1070
     1
1070
    44
1040
1.0
1070
    74
1070
     0
1000
MTEXTEND
  0
LINE
  5
10FD
330
1F
100
AcDbEntity
  8
UMCL2
 62
     5
100
AcDbLine
 10
583.4723833041338
 20
334.6233645590701
 30
0.0
 11
591.4723829041342
 21
334.6233645590701
 31
0.0
  0
SOLID
  5
10FE
330
1F
100
AcDbEntity
  8
UMCL2
 62
     5
100
AcDbTrace
 10
586.4723833041337
 20
334.1233645590701
 30
0.0
 11
586.4723833041337
 21
335.1233645590701
 31
0.0
 12
583.4723833041338
 22
334.6233645590701
 32
0.0
 13
583.4723833041338
 23
334.6233645590701
 33
0.0
  0
SOLID
  5
10FF
330
1F
100
AcDbEntity
  8
UMCL2
 62
     5
100
AcDbTrace
 10
588.4723829041343
 20
334.1233645590701
 30
0.0
 11
588.4723829041343
 21
335.1233645590701
 31
0.0
 12
591.4723829041342
 22
334.6233645590701
 32
0.0
 13
591.4723829041342
 23
334.6233645590701
 33
0.0
  0
CIRCLE
  5
1100
330
1F
100
AcDbEntity
  8
UMCL1
  6
PHANTOM
 62
     4
100
AcDbCircle
 10
684.6765998785586
 20
305.8620670072685
 30
0.0
 40
9.254509451322263
  0
LINE
  5
1101
330
1F
100
AcDbEntity
  8
UMCL1
100
AcDbLine
 10
681.3930531681916
 20
312.4620670072685
 30
0.0
 11
681.3930531681916
 21
299.2620670072684
 31
0.0
  0
MTEXT
  5
1102
330
1F
100
AcDbEntity
  8
UMCL2
 62
     5
100
AcDbMText
 10
698.6519479525602
 20
305.8620670072685
 30
0.0
 40
3.0
 41
0.0
 71
     5
 72
     1
  1
5.3
  7
ROMANS
 11
0.0000000000000001
 21
1.0
 31
0.0
 73
     1
 44
1.0
1001
ACAD
1000
MTEXTBEGIN
1070
    73
1070
     1
1070
    44
1040
1.0
1070
    74
1070
     0
1000
MTEXTEND
  0
SOLID
  5
1103
330
1F
100
AcDbEntity
  8
UMCL2
 62
     5
100
AcDbTrace
 10
700.7504374094383
 20
308.5620670072685
 30
0.0
 11
701.5837707427717
 21
308.5620670072685
 31
0.0
 12
701.167104076105
 22
311.0620670072685
 32
0.0
 13
701.167104076105
 23
311.0620670072685
 33
0.0
  0
LINE
  5
1104
330
1F
100
AcDbEntity
  8
UMCL2
 62
     5
100
AcDbLine
 10
709.167104076105
 20
301.7620670072685
 30
0.0
 11
709.167104076105
 21
309.9620670072685
 31
0.0
  0
LINE
  5
1105
330
1F
100
AcDbEntity
  8
UMCL1
100
AcDbLine
 10
689.9930531681916
 20
313.4371095552522
 30
0.0
 11
689.9930531681916
 21
298.2870244592848
 31
0.0
  0
LINE
  5
1106
330
1F
100
AcDbEntity
  8
UMCL1
100
AcDbLine
 10
687.9930531681916
 20
299.2620670072685
 30
0.0
 11
681.3930531681916
 21
299.2620670072684
 31
0.0
  0
LINE
  5
1107
330
1F
100
AcDbEntity
  8
AM_7
100
AcDbLine
 10
693.9311093298808
 20
305.8620670072685
 30
0.0
 11
675.4220904272362
 21
305.8620670072685
 31
0.0
  0
MTEXT
  5
1108
330
1F
100
AcDbEntity
  8
UMCL2
 62
     5
100
AcDbMText
 10
684.6930531681916
 20
291.1526455739597
 30
0.0
 40
3.0
 41
0.0
 71
     5
 72
     1
  1
\A1;3.3
  7
ROMANS
 73
     1
 44
1.0
1001
ACAD
1000
MTEXTBEGIN
1070
    73
1070
     1
1070
    44
1040
1.0
1070
    74
1070
     0
1000
MTEXTEND
  0
LINE
  5
1109
330
1F
100
AcDbEntity
  8
UMCL2
 62
     5
100
AcDbLine
 10
681.3930531681916
 20
288.6075575559462
 30
0.0
 11
687.9930531681916
 21
288.6075575559462
 31
0.0
  0
LINE
  5
110A
330
1F
100
AcDbEntity
  8
UMCL2
 62
     5
100
AcDbLine
 10
681.3930531681916
 20
280.6075575559462
 30
0.0
 11
689.9930531681916
 21
280.6075575559462
 31
0.0
  0
MTEXT
  5
110B
330
1F
100
AcDbEntity
  8
UMCL2
 62
     5
100
AcDbMText
 10
685.7232275337814
 20
283.1526455739597
 30
0.0
 40
3.0
 41
0.0
 71
     5
 72
     1
  1
\A1;4.3
  7
ROMANS
 73
     1
 44
1.0
1001
ACAD
1000
MTEXTBEGIN
1070
    73
1070
     1
1070
    44
1040
1.0
1070
    74
1070
     0
1000
MTEXTEND
  0
LINE
  5
110C
330
1F
100
AcDbEntity
  8
UMCL2
 62
     5
100
AcDbLine
 10
681.3930531681916
 20
298.2620670072685
 30
0.0
 11
681.3930531681916
 21
279.6075575559462
 31
0.0
  0
SOLID
  5
110D
330
1F
100
AcDbEntity
  8
UMCL2
 62
     5
100
AcDbTrace
 10
683.8930531681916
 20
281.0242242226129
 30
0.0
 11
683.8930531681916
 21
280.1908908892796
 31
0.0
 12
681.3930531681916
 22
280.6075575559462
 32
0.0
 13
681.3930531681916
 23
280.6075575559462
 33
0.0
  0
SOLID
  5
110E
330
1F
100
AcDbEntity
  8
UMCL2
 62
     5
100
AcDbTrace
 10
683.8930531681916
 20
289.0242242226129
 30
0.0
 11
683.8930531681916
 21
288.1908908892796
 31
0.0
 12
681.3930531681916
 22
288.6075575559462
 32
0.0
 13
681.3930531681916
 23
288.6075575559462
 33
0.0
  0
POINT
  5
110F
330
1F
100
AcDbEntity
  8
UMCL1
100
AcDbPoint
 10
681.3930531681916
 20
299.2620670072684
 30
0.0
  0
LINE
  5
1110
330
1F
100
AcDbEntity
  8
UMCL2
 62
     5
100
AcDbLine
 10
688.9930531681916
 20
299.2620670072685
 30
0.0
 11
710.167104076105
 21
299.2620670072685
 31
0.0
  0
MTEXT
  5
1111
330
1F
100
AcDbEntity
  8
UMCL2
 62
     5
100
AcDbMText
 10
706.6519479525602
 20
305.8620670072685
 30
0.0
 40
3.0
 41
0.0
 71
     5
 72
     1
  1
6.6
  7
ROMANS
 11
0.0000000000000001
 21
1.0
 31
0.0
 73
     1
 44
1.0
1001
ACAD
1000
MTEXTBEGIN
1070
    73
1070
     1
1070
    44
1040
1.0
1070
    74
1070
     0
1000
MTEXTEND
  0
LINE
  5
1112
330
1F
100
AcDbEntity
  8
UMCL2
 62
     5
100
AcDbLine
 10
687.9930531681916
 20
298.2620670072685
 30
0.0
 11
687.9930531681916
 21
287.6075575559462
 31
0.0
  0
LINE
  5
1113
330
1F
100
AcDbEntity
  8
UMCL2
 62
     5
100
AcDbLine
 10
689.9930531681916
 20
297.0933562407756
 30
0.0
 11
689.9930531681916
 21
279.6075575559462
 31
0.0
  0
SOLID
  5
1114
330
1F
100
AcDbEntity
  8
UMCL2
 62
     5
100
AcDbTrace
 10
687.4930531681916
 20
281.0242242226129
 30
0.0
 11
687.4930531681916
 21
280.1908908892796
 31
0.0
 12
689.9930531681916
 22
280.6075575559462
 32
0.0
 13
689.9930531681916
 23
280.6075575559462
 33
0.0
  0
POINT
  5
1115
330
1F
100
AcDbEntity
  8
UMCL2
 62
     5
100
AcDbPoint
 10
687.9930531681916
 20
280.6075575559462
 30
0.0
  0
SOLID
  5
1116
330
1F
100
AcDbEntity
  8
UMCL2
 62
     5
100
AcDbTrace
 10
685.4930531681916
 20
289.0242242226129
 30
0.0
 11
685.4930531681916
 21
288.1908908892796
 31
0.0
 12
687.9930531681916
 22
288.6075575559462
 32
0.0
 13
687.9930531681916
 23
288.6075575559462
 33
0.0
  0
POINT
  5
1117
330
1F
100
AcDbEntity
  8
UMCL2
 62
     5
100
AcDbPoint
 10
687.9930531681916
 20
288.6075575559462
 30
0.0
  0
LINE
  5
1118
330
1F
100
AcDbEntity
  8
UMCL2
 62
     5
100
AcDbLine
 10
690.7466831848398
 20
300.6620670072684
 30
0.0
 11
702.167104076105
 21
300.6620670072684
 31
0.0
  0
LINE
  5
1119
330
1F
100
AcDbEntity
  8
UMCL1
100
AcDbLine
 10
687.9930531681916
 20
300.6620670072685
 30
0.0
 11
687.9930531681916
 21
299.2620670072684
 31
0.0
  0
POINT
  5
111A
330
1F
100
AcDbEntity
  8
UMCL1
100
AcDbPoint
 10
687.9930531681916
 20
299.2620670072685
 30
0.0
  0
POINT
  5
111B
330
1F
100
AcDbEntity
  8
UMCL1
100
AcDbPoint
 10
687.9930531681916
 20
299.2620670072685
 30
0.0
  0
LINE
  5
111C
330
1F
100
AcDbEntity
  8
UMCL1
100
AcDbLine
 10
689.7466831848398
 20
300.6620670072684
 30
0.0
 11
687.9930531681916
 21
300.6620670072685
 31
0.0
  0
POINT
  5
111D
330
1F
100
AcDbEntity
  8
UMCL1
100
AcDbPoint
 10
689.7466831848398
 20
300.6620670072684
 30
0.0
  0
LINE
  5
111E
330
1F
100
AcDbEntity
  8
UMCL2
 62
     5
100
AcDbLine
 10
701.167104076105
 20
303.1620670072684
 30
0.0
 11
701.167104076105
 21
308.5620670072685
 31
0.0
  0
SOLID
  5
111F
330
1F
100
AcDbEntity
  8
UMCL2
 62
     5
100
AcDbTrace
 10
700.7504374094383
 20
303.1620670072684
 30
0.0
 11
701.5837707427717
 21
303.1620670072684
 31
0.0
 12
701.167104076105
 22
300.6620670072684
 32
0.0
 13
701.167104076105
 23
300.6620670072684
 33
0.0
  0
SOLID
  5
1120
330
1F
100
AcDbEntity
  8
UMCL2
 62
     5
100
AcDbTrace
 10
708.7504374094383
 20
301.7620670072685
 30
0.0
 11
709.5837707427717
 21
301.7620670072685
 31
0.0
 12
709.167104076105
 22
299.2620670072685
 32
0.0
 13
709.167104076105
 23
299.2620670072685
 33
0.0
  0
LINE
  5
1121
330
1F
100
AcDbEntity
  8
UMCL1
100
AcDbLine
 10
687.9930531681916
 20
312.4620670072685
 30
0.0
 11
681.3930531681916
 21
312.4620670072685
 31
0.0
  0
LINE
  5
1122
330
1F
100
AcDbEntity
  8
UMCL2
 62
     5
100
AcDbLine
 10
688.9930531681916
 20
312.4620670072685
 30
0.0
 11
710.167104076105
 21
312.4620670072685
 31
0.0
  0
LINE
  5
1123
330
1F
100
AcDbEntity
  8
UMCL2
 62
     5
100
AcDbLine
 10
690.7466831848398
 20
311.0620670072685
 30
0.0
 11
702.167104076105
 21
311.0620670072685
 31
0.0
  0
LINE
  5
1124
330
1F
100
AcDbEntity
  8
UMCL1
100
AcDbLine
 10
687.9930531681916
 20
312.4620670072685
 30
0.0
 11
687.9930531681916
 21
311.0620670072685
 31
0.0
  0
POINT
  5
1125
330
1F
100
AcDbEntity
  8
UMCL1
100
AcDbPoint
 10
689.7466831848398
 20
311.0620670072685
 30
0.0
  0
POINT
  5
1126
330
1F
100
AcDbEntity
  8
UMCL1
100
AcDbPoint
 10
687.9930531681916
 20
312.4620670072685
 30
0.0
  0
LINE
  5
1127
330
1F
100
AcDbEntity
  8
UMCL1
100
AcDbLine
 10
689.9930531681916
 20
311.0620670072684
 30
0.0
 11
687.9930531681916
 21
311.0620670072685
 31
0.0
  0
POINT
  5
1128
330
1F
100
AcDbEntity
  8
UMCL2
 62
     5
100
AcDbPoint
 10
701.167104076105
 20
311.0620670072685
 30
0.0
  0
SOLID
  5
1129
330
1F
100
AcDbEntity
  8
UMCL2
 62
     5
100
AcDbTrace
 10
708.7504374094383
 20
309.9620670072685
 30
0.0
 11
709.5837707427717
 21
309.9620670072685
 31
0.0
 12
709.167104076105
 22
312.4620670072685
 32
0.0
 13
709.167104076105
 23
312.4620670072685
 33
0.0
  0
POINT
  5
112A
330
1F
100
AcDbEntity
  8
UMCL2
 62
     5
100
AcDbPoint
 10
709.167104076105
 20
312.4620670072685
 30
0.0
  0
LINE
  5
112B
330
1F
100
AcDbEntity
  8
UMCL1
100
AcDbLine
 10
617.4723799041333
 20
299.1593346347928
 30
0.0
 11
621.4723795041343
 21
299.1593346347928
 31
0.0
  0
LINE
  5
112C
330
1F
100
AcDbEntity
  8
0
  6
HIDDEN
 62
     3
 48
0.4
100
AcDbLine
 10
583.4723833041342
 20
318.1093331347927
 30
0.0
 11
583.4723833041342
 21
302.2093331347928
 31
0.0
  0
LINE
  5
112D
330
1F
100
AcDbEntity
  8
0
  6
HIDDEN
 62
     3
 48
0.4
100
AcDbLine
 10
587.7723833041343
 20
306.8593331347928
 30
0.0
 11
587.7723833041343
 21
313.4593331347927
 31
0.0
  0
LINE
  5
112E
330
1F
100
AcDbEntity
  8
0
  6
HIDDEN
 62
     3
 48
0.4
100
AcDbLine
 10
584.4723833041342
 20
306.8593331347928
 30
0.0
 11
584.4723833041342
 21
307.5593331347927
 31
0.0
  0
LINE
  5
112F
330
1F
100
AcDbEntity
  8
0
  6
HIDDEN
 62
     3
 48
0.4
100
AcDbLine
 10
584.4723833041342
 20
313.4593331347927
 30
0.0
 11
587.7723833041343
 21
313.4593331347927
 31
0.0
  0
LINE
  5
1130
330
1F
100
AcDbEntity
  8
0
  6
HIDDEN
 62
     3
 48
0.4
100
AcDbLine
 10
583.5955682958101
 20
312.7593331347928
 30
0.0
 11
584.4723833041342
 21
312.7593331347928
 31
0.0
  0
LINE
  5
1131
330
1F
100
AcDbEntity
  8
0
  6
HIDDEN
 62
     3
 48
0.4
100
AcDbLine
 10
584.4723833041342
 20
312.7593331347928
 30
0.0
 11
584.4723833041342
 21
313.4593331347927
 31
0.0
  0
LINE
  5
1132
330
1F
100
AcDbEntity
  8
0
  6
HIDDEN
 62
     3
 48
0.4
100
AcDbLine
 10
583.5955682958101
 20
307.5593331347927
 30
0.0
 11
584.4723833041342
 21
307.5593331347927
 31
0.0
  0
LINE
  5
1133
330
1F
100
AcDbEntity
  8
0
  6
HIDDEN
 62
     3
 48
0.4
100
AcDbLine
 10
584.4723833041342
 20
306.8593331347928
 30
0.0
 11
587.7723833041343
 21
306.8593331347928
 31
0.0
  0
LINE
  5
11C4
330
1F
100
AcDbEntity
  8
UMCL1
100
AcDbLine
 10
316.2721207411432
 20
13.65515303122299
 30
0.0
 11
366.2721207411432
 21
13.65515303122299
 31
0.0
  0
LINE
  5
11C5
330
1F
100
AcDbEntity
  8
UMCL1
100
AcDbLine
 10
366.2721207411432
 20
13.65515303122299
 30
0.0
 11
366.2721207411432
 21
29.55515303122309
 31
0.0
  0
LINE
  5
11C6
330
1F
100
AcDbEntity
  8
UMCL1
100
AcDbLine
 10
366.2721207411432
 20
29.55515303122309
 30
0.0
 11
316.2721207411432
 21
29.55515303122309
 31
0.0
  0
LINE
  5
11C7
330
1F
100
AcDbEntity
  8
UMCL1
100
AcDbLine
 10
316.2721207411432
 20
29.55515303122309
 30
0.0
 11
316.2721207411432
 21
13.65515303122299
 31
0.0
  0
LINE
  5
11C8
330
1F
100
AcDbEntity
  8
UMCL1
100
AcDbLine
 10
366.2721207411432
 20
-36.90481605865466
 30
0.0
 11
366.2721207411432
 21
-21.00481605865468
 31
0.0
  0
LINE
  5
11C9
330
1F
100
AcDbEntity
  8
0
  6
HIDDEN
 62
     3
 48
0.4
100
AcDbLine
 10
324.7721207411432
 20
-21.00481605865446
 30
0.0
 11
324.7721207411432
 21
-36.90481605865443
 31
0.0
  0
LINE
  5
11CA
330
1F
100
AcDbEntity
  8
0
  6
HIDDEN
 62
     3
 48
0.4
100
AcDbLine
 10
325.2721207411432
 20
-21.00481605865446
 30
0.0
 11
325.2721207411432
 21
-36.90481605865443
 31
0.0
  0
LINE
  5
11CB
330
1F
100
AcDbEntity
  8
UMCL1
100
AcDbLine
 10
316.2721207411433
 20
-21.00481605865446
 30
0.0
 11
316.2721207411433
 21
-36.90481605865443
 31
0.0
  0
LINE
  5
11CC
330
1F
100
AcDbEntity
  8
0
  6
HIDDEN
 62
     3
 48
0.4
100
AcDbLine
 10
319.7721207411433
 20
-21.00481605865446
 30
0.0
 11
319.7721207411436
 21
-36.90481605865443
 31
0.0
  0
LINE
  5
11CD
330
1F
100
AcDbEntity
  8
0
  6
HIDDEN
 62
     3
 48
0.4
100
AcDbLine
 10
319.2721207411433
 20
-21.00481605865446
 30
0.0
 11
319.2721207411436
 21
-36.90481605865443
 31
0.0
  0
CIRCLE
  5
11CE
330
1F
100
AcDbEntity
  8
UMCL1
100
AcDbCircle
 10
322.2721207411432
 20
21.60515303122304
 30
0.0
 40
2.5
  0
LINE
  5
11CF
330
1F
100
AcDbEntity
  8
UMCL1
100
AcDbLine
 10
316.2721207411433
 20
-21.00481605865446
 30
0.0
 11
366.2721207411432
 21
-21.00481605865468
 31
0.0
  0
LINE
  5
11D0
330
1F
100
AcDbEntity
  8
UMCL1
100
AcDbLine
 10
316.2721207411433
 20
-36.90481605865443
 30
0.0
 11
366.2721207411432
 21
-36.90481605865466
 31
0.0
  0
TEXT
  5
11D1
330
1F
100
AcDbEntity
  8
UMCL2
 62
     5
100
AcDbText
 10
373.6925597757777
 20
16.44160865992046
 30
0.0
 40
3.0
  1
15.9
 50
90.0
  7
ROMANS
100
AcDbText
  0
SOLID
  5
11D2
330
1F
100
AcDbEntity
  8
UMCL2
 62
     5
100
AcDbTrace
 10
375.2135043088778
 20
26.60072977222296
 30
0.0
 11
374.1716152426778
 21
26.60072977222296
 31
0.0
 12
374.6925597757778
 22
29.55515303122297
 32
0.0
 13
374.6925597757778
 23
29.55515303122297
 33
0.0
  0
LINE
  5
11D3
330
1F
100
AcDbEntity
  8
UMCL2
 62
     5
100
AcDbLine
 10
366.9616527287387
 20
29.55515303122297
 30
0.0
 11
376.0344668361597
 21
29.55515303122297
 31
0.0
  0
SOLID
  5
11D4
330
1F
100
AcDbEntity
  8
UMCL2
 62
     5
100
AcDbTrace
 10
375.2135043088778
 20
16.60957629022289
 30
0.0
 11
374.1716152426778
 21
16.60957629022289
 31
0.0
 12
374.6925597757778
 22
13.65515303122288
 32
0.0
 13
374.6925597757778
 23
13.65515303122288
 33
0.0
  0
LINE
  5
11D5
330
1F
100
AcDbEntity
  8
UMCL2
 62
     5
100
AcDbLine
 10
366.9616527287387
 20
13.65515303122288
 30
0.0
 11
376.0344668361597
 21
13.65515303122277
 31
0.0
  0
LINE
  5
11D6
330
1F
100
AcDbEntity
  8
UMCL2
 62
     5
100
AcDbLine
 10
374.6925597757778
 20
13.65515303122288
 30
0.0
 11
374.6925597757778
 21
29.55515303122297
 31
0.0
  0
TEXT
  5
11D7
330
1F
100
AcDbEntity
  8
UMCL2
 62
     5
100
AcDbText
 10
381.6925597757779
 20
-34.28356934989216
 30
0.0
 40
3.0
  1
15.9
 50
90.0
  7
ROMANS
100
AcDbText
  0
SOLID
  5
11D8
330
1F
100
AcDbEntity
  8
UMCL2
 62
     5
100
AcDbTrace
 10
383.2135043088778
 20
-23.95923931765475
 30
0.0
 11
382.1716152426778
 21
-23.95923931765475
 31
0.0
 12
382.6925597757778
 22
-21.00481605865474
 32
0.0
 13
382.6925597757778
 23
-21.00481605865474
 33
0.0
  0
SOLID
  5
11D9
330
1F
100
AcDbEntity
  8
UMCL2
 62
     5
100
AcDbTrace
 10
382.1716152426778
 20
-33.95039279965465
 30
0.0
 11
383.2135043088778
 21
-33.95039279965465
 31
0.0
 12
382.6925597757778
 22
-36.90481605865466
 32
0.0
 13
382.6925597757778
 23
-36.90481605865466
 33
0.0
  0
LINE
  5
11DA
330
1F
100
AcDbEntity
  8
UMCL2
 62
     5
100
AcDbLine
 10
367.3955889026889
 20
-36.90481605865466
 30
0.0
 11
383.6925597757778
 21
-36.90481605865466
 31
0.0
  0
LINE
  5
11DB
330
1F
100
AcDbEntity
  8
UMCL2
 62
     5
100
AcDbLine
 10
367.3344495170725
 20
-21.00481605865474
 30
0.0
 11
383.6925597757778
 21
-21.00481605865474
 31
0.0
  0
LINE
  5
11DC
330
1F
100
AcDbEntity
  8
AM_7
100
AcDbLine
 10
322.2721207411431
 20
-39.47466552002095
 30
0.0
 11
322.2721207411431
 21
-18.45641668468897
 31
0.0
  0
LINE
  5
11DD
330
1F
100
AcDbEntity
  8
UMCL2
 62
     5
100
AcDbLine
 10
284.2359684617436
 20
-47.44089468731482
 30
0.0
 11
304.403349760066
 21
-47.44089468731488
 31
0.0
  0
SOLID
  5
11DE
330
1F
100
AcDbEntity
  8
UMCL2
 62
     5
100
AcDbTrace
 10
319.4625656326987
 20
-37.95667160600874
 30
0.0
 11
319.9917583232458
 21
-38.85416139566576
 31
0.0
 12
322.2721207411432
 22
-36.90481605865443
 32
0.0
 13
322.2721207411432
 23
-36.90481605865443
 33
0.0
  0
LINE
  5
11DF
330
1F
100
AcDbEntity
  8
UMCL2
 62
     5
100
AcDbLine
 10
304.403349760066
 20
-47.44089468731488
 30
0.0
 11
322.2721207411432
 21
-36.90481605865443
 31
0.0
  0
TEXT
  5
11E0
330
1F
100
AcDbEntity
  8
UMCL2
 62
     5
100
AcDbText
 10
284.6002163711604
 20
-46.44089468731482
 30
0.0
 40
3.0
  1
M6x1.0P
  7
ROMANS
100
AcDbText
  0
LINE
  5
11E1
330
1F
100
AcDbEntity
  8
0
  6
HIDDEN
 62
     3
 48
0.4
100
AcDbLine
 10
350.272120741143
 20
-36.90481605865455
 30
0.0
 11
351.122120741143
 21
-28.40481605865455
 31
0.0
  0
LINE
  5
11E2
330
1F
100
AcDbEntity
  8
0
  6
HIDDEN
 62
     3
 48
0.4
100
AcDbLine
 10
351.7721207411434
 20
-26.00481605865457
 30
0.0
 11
362.7721207411432
 21
-26.00481605865468
 31
0.0
  0
LINE
  5
11E3
330
1F
100
AcDbEntity
  8
0
  6
HIDDEN
 62
     3
 48
0.4
100
AcDbLine
 10
351.7721207411434
 20
-21.00481605865474
 30
0.0
 11
351.7721207411434
 21
-26.00481605865463
 31
0.0
  0
LINE
  5
11E4
330
1F
100
AcDbEntity
  8
0
  6
HIDDEN
 62
     3
 48
0.4
100
AcDbLine
 10
362.7721207411432
 20
-21.00481605865474
 30
0.0
 11
362.7721207411432
 21
-26.00481605865468
 31
0.0
  0
LINE
  5
11E5
330
1F
100
AcDbEntity
  8
0
  6
HIDDEN
 62
     3
 48
0.4
100
AcDbLine
 10
364.2721207411428
 20
-36.90481605865455
 30
0.0
 11
363.4221207411429
 21
-28.40481605865455
 31
0.0
  0
LINE
  5
11E6
330
1F
100
AcDbEntity
  8
0
  6
HIDDEN
 62
     3
 48
0.4
100
AcDbLine
 10
351.122120741143
 20
-28.40481605865455
 30
0.0
 11
363.4221207411429
 21
-28.40481605865466
 31
0.0
  0
LINE
  5
11E7
330
1F
100
AcDbEntity
  8
0
  6
HIDDEN
 62
     3
 48
0.4
100
AcDbLine
 10
360.6721207411429
 20
-26.00481605865463
 30
0.0
 11
360.6721207411429
 21
-28.40481605865466
 31
0.0
  0
LINE
  5
11E8
330
1F
100
AcDbEntity
  8
0
  6
HIDDEN
 62
     3
 48
0.4
100
AcDbLine
 10
353.8721207411429
 20
-26.00481605865463
 30
0.0
 11
353.8721207411429
 21
-28.40481605865455
 31
0.0
  0
LINE
  5
11E9
330
1F
100
AcDbEntity
  8
UMCL1
100
AcDbLine
 10
414.1255705825894
 20
-36.90481605865466
 30
0.0
 11
414.1255705825894
 21
-21.00481605865468
 31
0.0
  0
LINE
  5
11EA
330
1F
100
AcDbEntity
  8
0
  6
HIDDEN
 62
     3
 48
0.4
100
AcDbLine
 10
399.1755705825897
 20
-36.90481605865455
 30
0.0
 11
400.0255705825895
 21
-28.40481605865455
 31
0.0
  0
LINE
  5
11EB
330
1F
100
AcDbEntity
  8
0
  6
HIDDEN
 62
     3
 48
0.4
100
AcDbLine
 10
400.42557058259
 20
-26.00481605865457
 30
0.0
 11
411.9255705825898
 21
-26.00481605865468
 31
0.0
  0
LINE
  5
11EC
330
1F
100
AcDbEntity
  8
0
  6
HIDDEN
 62
     3
 48
0.4
100
AcDbLine
 10
400.42557058259
 20
-21.00481605865474
 30
0.0
 11
400.42557058259
 21
-26.00481605865463
 31
0.0
  0
LINE
  5
11ED
330
1F
100
AcDbEntity
  8
0
  6
HIDDEN
 62
     3
 48
0.4
100
AcDbLine
 10
411.9255705825898
 20
-21.00481605865474
 30
0.0
 11
411.9255705825898
 21
-26.00481605865468
 31
0.0
  0
LINE
  5
11EE
330
1F
100
AcDbEntity
  8
0
  6
HIDDEN
 62
     3
 48
0.4
100
AcDbLine
 10
413.1755705825894
 20
-36.90481605865455
 30
0.0
 11
412.3255705825895
 21
-28.40481605865455
 31
0.0
  0
LINE
  5
11EF
330
1F
100
AcDbEntity
  8
0
  6
HIDDEN
 62
     3
 48
0.4
100
AcDbLine
 10
400.0255705825895
 20
-28.40481605865455
 30
0.0
 11
412.3255705825895
 21
-28.40481605865466
 31
0.0
  0
LINE
  5
11F0
330
1F
100
AcDbEntity
  8
0
  6
HIDDEN
 62
     3
 48
0.4
100
AcDbLine
 10
409.4755705825895
 20
-26.00481605865463
 30
0.0
 11
409.4755705825894
 21
-28.40481605865466
 31
0.0
  0
LINE
  5
11F1
330
1F
100
AcDbEntity
  8
0
  6
HIDDEN
 62
     3
 48
0.4
100
AcDbLine
 10
402.8755705825895
 20
-26.00481605865463
 30
0.0
 11
402.8755705825895
 21
-28.40481605865455
 31
0.0
  0
LINE
  5
11F2
330
1F
100
AcDbEntity
  8
UMCL1
100
AcDbLine
 10
398.2255705825895
 20
-36.90481605865466
 30
0.0
 11
398.2255705825895
 21
-21.00481605865468
 31
0.0
  0
LINE
  5
11F3
330
1F
100
AcDbEntity
  8
UMCL1
100
AcDbLine
 10
398.2255705825895
 20
-21.00481605865462
 30
0.0
 11
414.1255705825894
 21
-21.00481605865468
 31
0.0
  0
LINE
  5
11F4
330
1F
100
AcDbEntity
  8
UMCL1
100
AcDbLine
 10
398.2255705825895
 20
-36.90481605865461
 30
0.0
 11
414.1255705825894
 21
-36.90481605865466
 31
0.0
  0
ARC
  5
11F5
330
1F
100
AcDbEntity
  8
UMCL1
 62
     3
100
AcDbCircle
 10
322.2721207411432
 20
21.60515303122304
 30
0.0
 40
3.0
100
AcDbArc
 50
78.81301155211635
 51
13.01316243151775
  0
LINE
  5
11F6
330
1F
100
AcDbEntity
  8
AM_7
100
AcDbLine
 10
349.2721207411429
 20
21.60515303122304
 30
0.0
 11
355.2721207411429
 21
21.60515303122304
 31
0.0
  0
LINE
  5
11F7
330
1F
100
AcDbEntity
  8
AM_7
100
AcDbLine
 10
356.2721207411429
 20
21.60515303122304
 30
0.0
 11
358.2721207411429
 21
21.60515303122304
 31
0.0
  0
LINE
  5
11F8
330
1F
100
AcDbEntity
  8
AM_7
100
AcDbLine
 10
359.2721207411429
 20
21.60515303122304
 30
0.0
 11
365.2721207411429
 21
21.60515303122304
 31
0.0
  0
LINE
  5
11F9
330
1F
100
AcDbEntity
  8
AM_7
100
AcDbLine
 10
357.2721207411429
 20
13.60515303122304
 30
0.0
 11
357.2721207411429
 21
19.60515303122304
 31
0.0
  0
LINE
  5
11FA
330
1F
100
AcDbEntity
  8
AM_7
100
AcDbLine
 10
357.2721207411429
 20
20.60515303122304
 30
0.0
 11
357.2721207411429
 21
22.60515303122304
 31
0.0
  0
LINE
  5
11FB
330
1F
100
AcDbEntity
  8
AM_7
100
AcDbLine
 10
357.2721207411429
 20
23.60515303122304
 30
0.0
 11
357.2721207411429
 21
29.60515303122304
 31
0.0
  0
LINE
  5
11FC
330
1F
100
AcDbEntity
  8
AM_7
100
AcDbLine
 10
314.2721207411432
 20
21.60515303122304
 30
0.0
 11
320.2721207411432
 21
21.60515303122304
 31
0.0
  0
LINE
  5
11FD
330
1F
100
AcDbEntity
  8
AM_7
100
AcDbLine
 10
321.2721207411432
 20
21.60515303122304
 30
0.0
 11
323.2721207411432
 21
21.60515303122304
 31
0.0
  0
LINE
  5
11FE
330
1F
100
AcDbEntity
  8
AM_7
100
AcDbLine
 10
324.2721207411432
 20
21.60515303122304
 30
0.0
 11
330.2721207411432
 21
21.60515303122304
 31
0.0
  0
LINE
  5
11FF
330
1F
100
AcDbEntity
  8
AM_7
100
AcDbLine
 10
322.2721207411432
 20
13.60515303122304
 30
0.0
 11
322.2721207411432
 21
19.60515303122304
 31
0.0
  0
LINE
  5
1200
330
1F
100
AcDbEntity
  8
AM_7
100
AcDbLine
 10
322.2721207411432
 20
20.60515303122304
 30
0.0
 11
322.2721207411432
 21
22.60515303122304
 31
0.0
  0
LINE
  5
1201
330
1F
100
AcDbEntity
  8
AM_7
100
AcDbLine
 10
322.2721207411432
 20
23.60515303122304
 30
0.0
 11
322.2721207411432
 21
29.60515303122304
 31
0.0
  0
LINE
  5
1202
330
1F
100
AcDbEntity
  8
UMCL2
 62
     5
100
AcDbLine
 10
382.6925597757778
 20
-36.90481605865466
 30
0.0
 11
382.6925597757778
 21
-21.00481605865474
 31
0.0
  0
LINE
  5
1203
330
1F
100
AcDbEntity
  8
AM_7
100
AcDbLine
 10
357.2721207411423
 20
-20.00481605865468
 30
0.0
 11
357.2721207411423
 21
-37.80481605865464
 31
0.0
  0
LINE
  5
1204
330
1F
100
AcDbEntity
  8
AM_7
100
AcDbLine
 10
406.1755705825895
 20
-20.00481605865474
 30
0.0
 11
406.1755705825895
 21
-37.8048160586547
 31
0.0
  0
CIRCLE
  5
1205
330
1F
100
AcDbEntity
  8
UMCL1
100
AcDbCircle
 10
357.2721207411429
 20
21.60515303122304
 30
0.0
 40
3.4
  0
CIRCLE
  5
1206
330
1F
100
AcDbEntity
  8
UMCL1
100
AcDbCircle
 10
357.2721207411429
 20
21.60515303122304
 30
0.0
 40
5.5
  0
CIRCLE
  5
1207
330
1F
100
AcDbEntity
  8
0
  6
HIDDEN
 62
     3
 48
0.4
100
AcDbCircle
 10
357.2721207411429
 20
21.60515303122304
 30
0.0
 40
7.0
  0
LINE
  5
1208
330
1F
100
AcDbEntity
  8
UMCL2
 62
     5
100
AcDbLine
 10
327.8561393593792
 20
-34.16599889778718
 30
0.0
 11
350.5460024572297
 21
-34.16599889778723
 31
0.0
  0
TEXT
  5
1209
330
1F
100
AcDbEntity
  8
UMCL2
 62
     5
100
AcDbText
 10
327.1886396491047
 20
-33.36599889778711
 30
0.0
 40
2.4
  1
Taper 1:10
  7
ROMANS
100
AcDbText
  0
SOLID
  5
120A
330
1F
100
AcDbEntity
  8
UMCL2
 62
     5
100
AcDbTrace
 10
347.5915791982297
 20
-34.6869434308872
 30
0.0
 11
347.5915791982297
 21
-33.64505436468721
 31
0.0
 12
350.5460024572297
 22
-34.16599889778723
 32
0.0
 13
350.5460024572297
 23
-34.16599889778723
 33
0.0
  0
LINE
  5
120B
330
1F
100
AcDbEntity
  8
UMCL2
 62
     5
100
AcDbLine
 10
316.2721207411432
 20
12.65515303122299
 30
0.0
 11
316.2721207411432
 21
4.655153031222994
 31
0.0
  0
LINE
  5
120C
330
1F
100
AcDbEntity
  8
UMCL2
 62
     5
100
AcDbLine
 10
322.2721207411432
 20
12.60515303122304
 30
0.0
 11
322.2721207411432
 21
4.655153031222994
 31
0.0
  0
LINE
  5
120D
330
1F
100
AcDbEntity
  8
UMCL2
 62
     5
100
AcDbLine
 10
313.2721207411432
 20
5.655153031222994
 30
0.0
 11
310.2721207411432
 21
5.655153031222994
 31
0.0
  0
LINE
  5
120E
330
1F
100
AcDbEntity
  8
UMCL2
 62
     5
100
AcDbLine
 10
325.2721207411432
 20
5.655153031222994
 30
0.0
 11
328.2721207411432
 21
5.655153031222994
 31
0.0
  0
LINE
  5
120F
330
1F
100
AcDbEntity
  8
UMCL2
 62
     5
100
AcDbLine
 10
316.2721207411432
 20
5.655153031222994
 30
0.0
 11
322.2721207411432
 21
5.655153031222994
 31
0.0
  0
SOLID
  5
1210
330
1F
100
AcDbEntity
  8
UMCL2
 62
     5
100
AcDbTrace
 10
313.2721207411432
 20
6.155153031222994
 30
0.0
 11
313.2721207411432
 21
5.155153031222994
 31
0.0
 12
316.2721207411432
 22
5.655153031222994
 32
0.0
 13
316.2721207411432
 23
5.655153031222994
 33
0.0
  0
SOLID
  5
1211
330
1F
100
AcDbEntity
  8
UMCL2
 62
     5
100
AcDbTrace
 10
325.2721207411432
 20
6.155153031222994
 30
0.0
 11
325.2721207411432
 21
5.155153031222994
 31
0.0
 12
322.2721207411432
 22
5.655153031222994
 32
0.0
 13
322.2721207411432
 23
5.655153031222994
 33
0.0
  0
MTEXT
  5
1212
330
1F
100
AcDbEntity
  8
UMCL2
 62
     5
100
AcDbMText
 10
319.2721207411432
 20
8.155153031222994
 30
0.0
 40
3.0
 41
0.0
 71
     5
 72
     1
  1
\A1;6
  7
ROMANS
 73
     1
 44
1.0
1001
ACAD
1000
MTEXTBEGIN
1070
    73
1070
     1
1070
    44
1040
1.0
1070
    74
1070
     0
1000
MTEXTEND
  0
LINE
  5
1213
330
1F
100
AcDbEntity
  8
UMCL2
 62
     5
100
AcDbLine
 10
322.2721207411432
 20
12.60515303122304
 30
0.0
 11
322.2721207411432
 21
4.655153031222994
 31
0.0
  0
LINE
  5
1214
330
1F
100
AcDbEntity
  8
UMCL2
 62
     5
100
AcDbLine
 10
357.2721207411429
 20
12.60515303122304
 30
0.0
 11
357.2721207411429
 21
4.655153031222994
 31
0.0
  0
LINE
  5
1215
330
1F
100
AcDbEntity
  8
UMCL2
 62
     5
100
AcDbLine
 10
325.2721207411432
 20
5.655153031222994
 30
0.0
 11
354.2721207411429
 21
5.655153031222994
 31
0.0
  0
SOLID
  5
1216
330
1F
100
AcDbEntity
  8
UMCL2
 62
     5
100
AcDbTrace
 10
325.2721207411432
 20
6.155153031222994
 30
0.0
 11
325.2721207411432
 21
5.155153031222994
 31
0.0
 12
322.2721207411432
 22
5.655153031222994
 32
0.0
 13
322.2721207411432
 23
5.655153031222994
 33
0.0
  0
SOLID
  5
1217
330
1F
100
AcDbEntity
  8
UMCL2
 62
     5
100
AcDbTrace
 10
354.2721207411429
 20
6.155153031222994
 30
0.0
 11
354.2721207411429
 21
5.155153031222994
 31
0.0
 12
357.2721207411429
 22
5.655153031222994
 32
0.0
 13
357.2721207411429
 23
5.655153031222994
 33
0.0
  0
MTEXT
  5
1218
330
1F
100
AcDbEntity
  8
UMCL2
 62
     5
100
AcDbMText
 10
339.772120741143
 20
8.155153031222994
 30
0.0
 40
3.0
 41
0.0
 71
     5
 72
     1
  1
\A1;35
  7
ROMANS
 73
     1
 44
1.0
1001
ACAD
1000
MTEXTBEGIN
1070
    73
1070
     1
1070
    44
1040
1.0
1070
    74
1070
     0
1000
MTEXTEND
  0
LINE
  5
1219
330
1F
100
AcDbEntity
  8
UMCL2
 62
     5
100
AcDbLine
 10
316.2721207411432
 20
12.65515303122299
 30
0.0
 11
316.2721207411432
 21
-3.344846968777005
 31
0.0
  0
LINE
  5
121A
330
1F
100
AcDbEntity
  8
UMCL2
 62
     5
100
AcDbLine
 10
366.2721207411432
 20
12.65515303122299
 30
0.0
 11
366.2721207411432
 21
-3.344846968777005
 31
0.0
  0
LINE
  5
121B
330
1F
100
AcDbEntity
  8
UMCL2
 62
     5
100
AcDbLine
 10
319.2721207411432
 20
-2.344846968777005
 30
0.0
 11
363.2721207411432
 21
-2.344846968777005
 31
0.0
  0
SOLID
  5
121C
330
1F
100
AcDbEntity
  8
UMCL2
 62
     5
100
AcDbTrace
 10
319.2721207411432
 20
-1.844846968777005
 30
0.0
 11
319.2721207411432
 21
-2.844846968777005
 31
0.0
 12
316.2721207411432
 22
-2.344846968777005
 32
0.0
 13
316.2721207411432
 23
-2.344846968777005
 33
0.0
  0
SOLID
  5
121D
330
1F
100
AcDbEntity
  8
UMCL2
 62
     5
100
AcDbTrace
 10
363.2721207411432
 20
-1.844846968777005
 30
0.0
 11
363.2721207411432
 21
-2.844846968777005
 31
0.0
 12
366.2721207411432
 22
-2.344846968777005
 32
0.0
 13
366.2721207411432
 23
-2.344846968777005
 33
0.0
  0
MTEXT
  5
121E
330
1F
100
AcDbEntity
  8
UMCL2
 62
     5
100
AcDbMText
 10
341.2721207411432
 20
0.1551530312229943
 30
0.0
 40
3.0
 41
0.0
 71
     5
 72
     1
  1
\A1;50
  7
ROMANS
 73
     1
 44
1.0
1001
ACAD
1000
MTEXTBEGIN
1070
    73
1070
     1
1070
    44
1040
1.0
1070
    74
1070
     0
1000
MTEXTEND
  0
LINE
  5
121F
330
1F
100
AcDbEntity
  8
UMCL2
 62
     5
100
AcDbLine
 10
350.272120741143
 20
-37.90481605865455
 30
0.0
 11
350.272120741143
 21
-45.7882751973292
 31
0.0
  0
LINE
  5
1220
330
1F
100
AcDbEntity
  8
UMCL2
 62
     5
100
AcDbLine
 10
364.2721207411428
 20
-37.90481605865455
 30
0.0
 11
364.2721207411428
 21
-45.7882751973292
 31
0.0
  0
LINE
  5
1221
330
1F
100
AcDbEntity
  8
UMCL2
 62
     5
100
AcDbLine
 10
353.272120741143
 20
-44.78827519732919
 30
0.0
 11
361.2721207411428
 21
-44.78827519732919
 31
0.0
  0
SOLID
  5
1222
330
1F
100
AcDbEntity
  8
UMCL2
 62
     5
100
AcDbTrace
 10
353.272120741143
 20
-44.28827519732919
 30
0.0
 11
353.272120741143
 21
-45.2882751973292
 31
0.0
 12
350.272120741143
 22
-44.78827519732919
 32
0.0
 13
350.272120741143
 23
-44.78827519732919
 33
0.0
  0
SOLID
  5
1223
330
1F
100
AcDbEntity
  8
UMCL2
 62
     5
100
AcDbTrace
 10
361.2721207411428
 20
-44.28827519732919
 30
0.0
 11
361.2721207411428
 21
-45.2882751973292
 31
0.0
 12
364.2721207411428
 22
-44.78827519732919
 32
0.0
 13
364.2721207411428
 23
-44.78827519732919
 33
0.0
  0
MTEXT
  5
1224
330
1F
100
AcDbEntity
  8
UMCL2
 62
     5
100
AcDbMText
 10
357.2721207411429
 20
-42.28827519732919
 30
0.0
 40
3.0
 41
0.0
 71
     5
 72
     1
  1
%%c14
  7
ROMANS
 73
     1
 44
1.0
1001
ACAD
1000
MTEXTBEGIN
1070
    73
1070
     1
1070
    44
1040
1.0
1070
    74
1070
     0
1000
MTEXTEND
  0
LINE
  5
1225
330
1F
100
AcDbEntity
  8
UMCL2
 62
     5
100
AcDbLine
 10
353.8721207411429
 20
-25.00481605865457
 30
0.0
 11
353.8721207411429
 21
-14.59582080963264
 31
0.0
  0
LINE
  5
1226
330
1F
100
AcDbEntity
  8
UMCL2
 62
     5
100
AcDbLine
 10
360.6721207411429
 20
-25.00481605865463
 30
0.0
 11
360.6721207411429
 21
-14.59582080963264
 31
0.0
  0
LINE
  5
1227
330
1F
100
AcDbEntity
  8
UMCL2
 62
     5
100
AcDbLine
 10
350.9721207411429
 20
-15.59582080963264
 30
0.0
 11
347.9721207411429
 21
-15.59582080963264
 31
0.0
  0
LINE
  5
1228
330
1F
100
AcDbEntity
  8
UMCL2
 62
     5
100
AcDbLine
 10
363.572120741143
 20
-15.59582080963264
 30
0.0
 11
366.572120741143
 21
-15.59582080963264
 31
0.0
  0
MTEXT
  5
1229
330
1F
100
AcDbEntity
  8
UMCL2
 62
     5
100
AcDbMText
 10
357.2721207411429
 20
-11.59582080963264
 30
0.0
 40
3.0
 41
0.0
 71
     5
 72
     1
  1
%%c6.8
  7
ROMANS
 73
     1
 44
1.0
1001
ACAD
1000
MTEXTBEGIN
1070
    73
1070
     1
1070
    44
1040
1.0
1070
    74
1070
     0
1000
MTEXTEND
  0
LINE
  5
122A
330
1F
100
AcDbEntity
  8
UMCL2
 62
     5
100
AcDbLine
 10
353.9721207411429
 20
-15.59582080963264
 30
0.0
 11
360.572120741143
 21
-15.59582080963264
 31
0.0
  0
SOLID
  5
122B
330
1F
100
AcDbEntity
  8
UMCL2
 62
     5
100
AcDbTrace
 10
350.8721207411429
 20
-15.09582080963264
 30
0.0
 11
350.8721207411429
 21
-16.09582080963264
 31
0.0
 12
353.8721207411429
 22
-15.59582080963264
 32
0.0
 13
353.8721207411429
 23
-15.59582080963264
 33
0.0
  0
SOLID
  5
122C
330
1F
100
AcDbEntity
  8
UMCL2
 62
     5
100
AcDbTrace
 10
363.6721207411429
 20
-15.09582080963264
 30
0.0
 11
363.6721207411429
 21
-16.09582080963264
 31
0.0
 12
360.6721207411429
 22
-15.59582080963264
 32
0.0
 13
360.6721207411429
 23
-15.59582080963264
 33
0.0
  0
LINE
  5
122D
330
1F
100
AcDbEntity
  8
UMCL2
 62
     5
100
AcDbLine
 10
351.7721207411434
 20
-20.00481605865463
 30
0.0
 11
351.7721207411434
 21
-7.367809657742895
 31
0.0
  0
LINE
  5
122E
330
1F
100
AcDbEntity
  8
UMCL2
 62
     5
100
AcDbLine
 10
362.7721207411432
 20
-20.00481605865463
 30
0.0
 11
362.7721207411432
 21
-7.367809657742895
 31
0.0
  0
LINE
  5
122F
330
1F
100
AcDbEntity
  8
UMCL2
 62
     5
100
AcDbLine
 10
354.5221207411433
 20
-8.367809657742895
 30
0.0
 11
360.0221207411432
 21
-8.367809657742895
 31
0.0
  0
SOLID
  5
1230
330
1F
100
AcDbEntity
  8
UMCL2
 62
     5
100
AcDbTrace
 10
354.7721207411433
 20
-7.867809657742895
 30
0.0
 11
354.7721207411433
 21
-8.867809657742895
 31
0.0
 12
351.7721207411434
 22
-8.367809657742895
 32
0.0
 13
351.7721207411434
 23
-8.367809657742895
 33
0.0
  0
SOLID
  5
1231
330
1F
100
AcDbEntity
  8
UMCL2
 62
     5
100
AcDbTrace
 10
359.7721207411432
 20
-7.867809657742895
 30
0.0
 11
359.7721207411432
 21
-8.867809657742895
 31
0.0
 12
362.7721207411432
 22
-8.367809657742895
 32
0.0
 13
362.7721207411432
 23
-8.367809657742895
 33
0.0
  0
MTEXT
  5
1232
330
1F
100
AcDbEntity
  8
UMCL2
 62
     5
100
AcDbMText
 10
357.2721207411433
 20
-5.867809657742895
 30
0.0
 40
3.0
 41
0.0
 71
     5
 72
     1
  1
%%c11
  7
ROMANS
 73
     1
 44
1.0
1001
ACAD
1000
MTEXTBEGIN
1070
    73
1070
     1
1070
    44
1040
1.0
1070
    74
1070
     0
1000
MTEXTEND
  0
LINE
  5
1233
330
1F
100
AcDbEntity
  8
UMCL2
 62
     5
100
AcDbLine
 10
364.0221207411432
 20
-26.00481605865468
 30
0.0
 11
373.4843431707493
 21
-26.00481605865468
 31
0.0
  0
LINE
  5
1234
330
1F
100
AcDbEntity
  8
UMCL2
 62
     5
100
AcDbLine
 10
374.8674367159031
 20
-26.00481605865468
 30
0.0
 11
375.1758899433262
 21
-26.00481605865468
 31
0.0
  0
LINE
  5
1235
330
1F
100
AcDbEntity
  8
UMCL2
 62
     5
100
AcDbLine
 10
374.1758899433262
 20
-29.00481605865468
 30
0.0
 11
374.1758899433262
 21
-32.00481605865468
 31
0.0
  0
LINE
  5
1236
330
1F
100
AcDbEntity
  8
UMCL2
 62
     5
100
AcDbLine
 10
374.1758899433262
 20
-21.00481605865468
 30
0.0
 11
374.1758899433262
 21
-25.3132692860778
 31
0.0
  0
SOLID
  5
1237
330
1F
100
AcDbEntity
  8
UMCL2
 62
     5
100
AcDbTrace
 10
373.6758899433262
 20
-24.00481605865468
 30
0.0
 11
374.6758899433262
 21
-24.00481605865468
 31
0.0
 12
374.1758899433262
 22
-21.00481605865468
 32
0.0
 13
374.1758899433262
 23
-21.00481605865468
 33
0.0
  0
MTEXT
  5
1238
330
1F
100
AcDbEntity
  8
UMCL2
 62
     5
100
AcDbMText
 10
371.6758899433262
 20
-23.50481605865468
 30
0.0
 40
3.0
 41
0.0
 71
     5
 72
     1
  1
\A1;5
  7
ROMANS
 11
0.0000000000000001
 21
1.0
 31
0.0
 73
     1
 44
1.0
1001
ACAD
1000
MTEXTBEGIN
1070
    73
1070
     1
1070
    44
1040
1.0
1070
    74
1070
     0
1000
MTEXTEND
  0
LINE
  5
1239
330
1F
100
AcDbEntity
  8
UMCL2
 62
     5
100
AcDbLine
 10
367.2721207411432
 20
-36.90481605865466
 30
0.0
 11
375.1758899433262
 21
-36.90481605865466
 31
0.0
  0
LINE
  5
123A
330
1F
100
AcDbEntity
  8
UMCL2
 62
     5
100
AcDbLine
 10
364.4221207411429
 20
-28.40481605865455
 30
0.0
 11
375.1758899433262
 21
-28.40481605865455
 31
0.0
  0
LINE
  5
123B
330
1F
100
AcDbEntity
  8
UMCL2
 62
     5
100
AcDbLine
 10
374.1758899433262
 20
-33.90481605865466
 30
0.0
 11
374.1758899433262
 21
-31.40481605865455
 31
0.0
  0
SOLID
  5
123C
330
1F
100
AcDbEntity
  8
UMCL2
 62
     5
100
AcDbTrace
 10
373.6758899433262
 20
-33.90481605865466
 30
0.0
 11
374.6758899433262
 21
-33.90481605865466
 31
0.0
 12
374.1758899433262
 22
-36.90481605865466
 32
0.0
 13
374.1758899433262
 23
-36.90481605865466
 33
0.0
  0
SOLID
  5
123D
330
1F
100
AcDbEntity
  8
UMCL2
 62
     5
100
AcDbTrace
 10
373.6758899433262
 20
-31.40481605865455
 30
0.0
 11
374.6758899433262
 21
-31.40481605865455
 31
0.0
 12
374.1758899433262
 22
-28.40481605865455
 32
0.0
 13
374.1758899433262
 23
-28.40481605865455
 33
0.0
  0
MTEXT
  5
123E
330
1F
100
AcDbEntity
  8
UMCL2
 62
     5
100
AcDbMText
 10
371.6758899433262
 20
-32.65481605865455
 30
0.0
 40
3.0
 41
0.0
 71
     5
 72
     1
  1
\A1;8.5
  7
ROMANS
 11
0.0000000000000001
 21
1.0
 31
0.0
 73
     1
 44
1.0
1001
ACAD
1000
MTEXTBEGIN
1070
    73
1070
     1
1070
    44
1040
1.0
1070
    74
1070
     0
1000
MTEXTEND
  0
CIRCLE
  5
123F
330
1F
100
AcDbEntity
  8
UMCL2
 62
     5
100
AcDbCircle
 10
374.1758899433262
 20
-26.00481605865468
 30
0.0
 40
0.6915467725768849
  0
TEXT
  5
1274
330
1F
100
AcDbEntity
  8
0
100
AcDbText
 10
139.3587066076657
 20
361.1507873898397
 30
0.0
 40
8.0
  1
MTAS-25
100
AcDbText
  0
TEXT
  5
1275
330
1F
100
AcDbEntity
  8
0
100
AcDbText
 10
483.2850491078156
 20
361.1507873898397
 30
0.0
 40
8.0
  1
MTAS-25M
100
AcDbText
  0
TEXT
  5
14E0
330
1F
100
AcDbEntity
  8
LOGO
 62
     7
100
AcDbText
 10
231.2727985567319
 20
-89.46351264124848
 30
0.0
 40
6.665701357466062
  1
Order example:
 41
0.8
  7
CHINESET
100
AcDbText
  0
TEXT
  5
14E1
330
1F
100
AcDbEntity
  8
LOGO
 62
     7
100
AcDbText
 10
232.4686805033691
 20
-80.07958528101289
 30
0.0
 40
9.998552036199093
  1
訂購代號：
  7
CHINESET
100
AcDbText
  0
LINE
  5
14E2
330
1F
100
AcDbEntity
  8
LOGO
 62
     4
100
AcDbLine
 10
228.3765287081537
 20
-117.5552952864567
 30
0.0
 11
228.3765287081537
 21
-67.56253510546094
 31
0.0
  0
TEXT
  5
14E3
330
1F
100
AcDbEntity
  8
LOGO
  6
Continuous
100
AcDbText
 10
136.3500804887821
 20
-107.7342929945533
 30
0.0
 40
7.498914027149322
  1
金器工業股份有限公司
  7
CHINESET
100
AcDbText
  0
TEXT
  5
14E4
330
1F
100
AcDbEntity
  8
LOGO
  6
Continuous
100
AcDbText
 10
122.5760590078864
 20
-115.2346762209143
 30
0.0
 40
4.999276018099546
  1
MINDMAN INDUSTRIAL CO., LTD.
 41
0.85
  7
CHINESET
100
AcDbText
  0
LINE
  5
14E5
330
1F
100
AcDbEntity
  8
LOGO
 62
     4
100
AcDbLine
 10
228.3765287081537
 20
-77.5610871416601
 30
0.0
 11
155.0538137760266
 21
-77.5610871416601
 31
0.0
  0
LINE
  5
14E6
330
1F
100
AcDbEntity
  8
LOGO
 62
     4
100
AcDbLine
 10
228.3765287081537
 20
-87.55963917785924
 30
0.0
 11
155.0538137760266
 21
-87.55963917785924
 31
0.0
  0
LINE
  5
14E7
330
1F
100
AcDbEntity
  8
LOGO
 62
     4
100
AcDbLine
 10
228.3765287081537
 20
-97.55819121405785
 30
0.0
 11
118.3924563099635
 21
-97.55819121405785
 31
0.0
  0
LINE
  5
14E8
330
1F
100
AcDbEntity
  8
LOGO
 62
     4
100
AcDbLine
 10
155.0538137760266
 20
-97.55819121405785
 30
0.0
 11
155.0538137760266
 21
-67.56253510546094
 31
0.0
  0
TEXT
  5
14E9
330
1F
100
AcDbEntity
  8
LOGO
100
AcDbText
 10
205.1664286527049
 20
-95.0585532050089
 30
0.0
 40
4.999276018099546
  1
mm
  7
CHINESET
 72
     1
 11
211.3560084846376
 21
-92.55891519595911
 31
0.0
100
AcDbText
 73
     2
  0
TEXT
  5
14EA
330
1F
100
AcDbEntity
  8
LOGO
100
AcDbText
 10
202.5477602622717
 20
-75.06144913261057
 30
0.0
 40
4.999276018099546
  1
1 : 1
  7
CHINESET
 72
     1
 11
211.3560084846376
 21
-72.5618111235608
 31
0.0
100
AcDbText
 73
     2
  0
LINE
  5
14EB
330
1F
100
AcDbEntity
  8
LOGO
 62
     4
100
AcDbLine
 10
195.0480219208232
 20
-97.55819121405785
 30
0.0
 11
195.0480219208232
 21
-67.56253510546094
 31
0.0
  0
TEXT
  5
14EC
330
1F
100
AcDbEntity
  8
LOGO
100
AcDbText
 10
159.1759846713079
 20
-75.05898885897962
 30
327.6443144001245
 40
4.999276018099546
  1
比例 Scale:
 41
0.9
  7
CHINESET
 72
     4
 11
175.0509178484248
 21
-72.5618111235608
 31
327.6443144001245
100
AcDbText
  0
TEXT
  5
14ED
330
1F
100
AcDbEntity
  8
LOGO
100
AcDbText
 10
158.8880799363369
 20
-84.98967834752495
 30
327.6443144001245
 40
4.999276018099546
  1
投影  View:
 41
0.9
  7
CHINESET
 72
     4
 11
175.0509178484248
 21
-82.56036315975995
 31
327.6443144001245
100
AcDbText
  0
TEXT
  5
14EE
330
1F
100
AcDbEntity
  8
LOGO
100
AcDbText
 10
159.3768484398922
 20
-95.0585532050089
 30
327.6443144001245
 40
4.999276018099546
  1
單位  Unit:
 41
0.9
  7
CHINESET
 72
     4
 11
175.0509178484248
 21
-92.55891519595911
 31
327.6443144001245
100
AcDbText
  0
LWPOLYLINE
  5
14EF
330
1F
100
AcDbEntity
  8
LOGO
 62
     4
100
AcDbPolyline
 90
        4
 70
     1
 43
0.0
 10
118.3924563099635
 20
-67.56253510546097
 10
805.8924563099633
 20
-67.56253510546097
 10
805.8924563099633
 20
382.4447047135427
 10
118.3924563099635
 20
382.4447047135427
1001
GENIUS_GENREC_14
1002
{
1000
PYDIR
1011
118.3924563099635
1021
382.4447047135427
1031
0.0
1002
}
1002
{
1000
PXDIR
1011
805.8924563099633
1021
-67.56253510546097
1031
0.0
1002
}
1002
{
1000
PORI
1011
118.3924563099635
1021
-67.56253510546097
1031
0.0
1002
}
1002
{
1000
PINS
1011
118.3924563099635
1021
-67.56253510546097
1031
0.0
1002
}
1002
{
1000
PINS2
1011
805.8924563099633
1021
382.4447047135427
1031
0.0
1002
}
1002
{
1000
C
1070
     1
1002
}
1001
GENIUS_GENODEF_13
1002
{
1000
HIER
1070
     0
1002
}
1002
{
1000
MANEDIT
1070
     0
1002
}
1002
{
1000
NOSEL
1070
     0
1002
}
1002
{
1000
BEHIND
1070
     0
1002
}
1002
{
1000
OTHER
1070
     0
1002
}
1002
{
1000
REACTOR
1002
}
1001
GENIUS_GENOBJ-N-REC_13
1002
{
1000
OWNER
1000
GEN
1002
}
  0
SOLID
  5
14F0
330
1F
100
AcDbEntity
  8
LOGO
 62
     5
100
AcDbTrace
 10
123.5792854110191
 20
-89.24760642487433
 30
0.0
 11
125.7408411802426
 21
-89.24760642487489
 31
0.0
 12
134.7597462863127
 22
-68.75009482016799
 32
0.0
 13
136.9213020555373
 23
-68.75009482016912
 33
0.0
  0
SOLID
  5
14F1
330
1F
100
AcDbEntity
  8
LOGO
 62
     5
100
AcDbTrace
 10
126.6352780502684
 20
-89.24760642487433
 30
0.0
 11
128.7968338194919
 21
-89.24760642487433
 31
0.0
 12
136.9213020555373
 22
-70.38989574854531
 32
0.0
 13
134.7597462863127
 23
-78.31560023569841
 33
0.0
  0
SOLID
  5
14F2
330
1F
100
AcDbEntity
  8
LOGO
 62
     2
100
AcDbTrace
 10
125.7408411802426
 20
-89.24760642487489
 30
0.0
 11
126.6352780502684
 21
-89.24760642487433
 31
0.0
 12
136.9213020555373
 22
-68.75009482016912
 32
0.0
 13
137.815738925562
 23
-68.75009482016912
 33
0.0
  0
SOLID
  5
14F3
330
1F
100
AcDbEntity
  8
LOGO
 62
     5
100
AcDbTrace
 10
120.1137814345482
 20
-96.70124700840325
 30
0.0
 11
120.8591454929019
 21
-96.70124700840325
 31
0.0
 12
122.9581486957256
 22
-92.97442671663906
 32
0.0
 13
123.7035127540771
 23
-92.97442671663906
 33
0.0
  0
SOLID
  5
14F4
330
1F
100
AcDbEntity
  8
LOGO
 62
     5
100
AcDbTrace
 10
122.9581486957256
 20
-92.97442671663906
 30
0.0
 11
123.7035127540771
 21
-92.97442671663906
 31
0.0
 12
122.9581486957256
 22
-96.70124700840325
 32
0.0
 13
123.7035127540771
 23
-96.70124700840325
 33
0.0
  0
SOLID
  5
14F5
330
1F
100
AcDbEntity
  8
LOGO
 62
     5
100
AcDbTrace
 10
122.9581486957256
 20
-96.70124700840325
 30
0.0
 11
123.7035127540771
 21
-96.70124700840325
 31
0.0
 12
125.8025159569042
 22
-92.97442671663906
 32
0.0
 13
126.5478800152568
 23
-92.97442671663906
 33
0.0
  0
SOLID
  5
14F6
330
1F
100
AcDbEntity
  8
LOGO
 62
     5
100
AcDbTrace
 10
125.8025159569042
 20
-92.97442671663906
 30
0.0
 11
126.5478800152568
 21
-92.97442671663906
 31
0.0
 12
125.8025159569042
 22
-96.70124700840325
 32
0.0
 13
126.5478800152568
 23
-96.70124700840325
 33
0.0
  0
POLYLINE
  5
14F7
330
1F
100
AcDbEntity
  8
LOGO
 62
     5
100
AcDb2dPolyline
 66
     1
 10
0.0
 20
0.0
 30
0.0
 40
0.7465585520361989
 41
0.7465585520361989
  0
VERTEX
  5
14F8
330
14F7
100
AcDbEntity
  8
LOGO
 62
     5
100
AcDbVertex
100
AcDb2dVertex
 10
150.7868652814279
 20
-94.46515483334485
 30
0.0
 42
1.0
  0
VERTEX
  5
14F9
330
14F7
100
AcDbEntity
  8
LOGO
 62
     5
100
AcDbVertex
100
AcDb2dVertex
 10
148.5471896253188
 20
-94.46515483334485
 30
0.0
 42
1.0
  0
SEQEND
  5
14FA
330
14F7
100
AcDbEntity
  8
LOGO
 62
     5
  0
POLYLINE
  5
14FB
330
1F
100
AcDbEntity
  8
LOGO
 62
     5
100
AcDb2dPolyline
 66
     1
 10
0.0
 20
0.0
 30
0.0
 70
     1
  0
VERTEX
  5
14FC
330
14FB
100
AcDbEntity
  8
LOGO
 62
     5
100
AcDbVertex
100
AcDb2dVertex
 10
144.3253013927797
 20
-94.83783686252172
 30
0.0
 42
1.000000057330635
  0
VERTEX
  5
14FD
330
14FB
100
AcDbEntity
  8
LOGO
 62
     5
100
AcDbVertex
100
AcDb2dVertex
 10
146.5613935678386
 20
-94.83783686252172
 30
0.0
 42
1.000000057330635
  0
SEQEND
  5
14FE
330
14FB
100
AcDbEntity
  8
LOGO
 62
     5
  0
CIRCLE
  5
14FF
330
1F
100
AcDbEntity
  8
LOGO
 62
     5
100
AcDbCircle
 10
145.4433474803108
 20
-94.83783686252172
 30
0.0
 40
1.118046087529411
  0
POLYLINE
  5
1500
330
1F
100
AcDbEntity
  8
LOGO
 62
     5
100
AcDb2dPolyline
 66
     1
 10
0.0
 20
0.0
 30
0.0
 70
     1
 40
0.7465585520361989
 41
0.7465585520361989
  0
VERTEX
  5
1501
330
1500
100
AcDbEntity
  8
LOGO
 62
     5
100
AcDbVertex
100
AcDb2dVertex
 10
143.9502303762374
 20
-94.83783686252172
 30
0.0
 42
1.0
  0
VERTEX
  5
1502
330
1500
100
AcDbEntity
  8
LOGO
 62
     5
100
AcDbVertex
100
AcDb2dVertex
 10
146.936464584382
 20
-94.83783686252172
 30
0.0
 42
1.0
  0
SEQEND
  5
1503
330
1500
100
AcDbEntity
  8
LOGO
 62
     5
  0
LINE
  5
1504
330
1F
100
AcDbEntity
  8
LOGO
100
AcDbLine
 10
151.157755570078
 20
-96.70124700840325
 30
0.0
 11
151.157755570078
 21
-94.46515483334485
 31
0.0
  0
SOLID
  5
1505
330
1F
100
AcDbEntity
  8
LOGO
 62
     5
100
AcDbTrace
 10
146.5613190314361
 20
-92.97442671663906
 30
0.0
 11
147.3066830897876
 21
-92.97442671663906
 31
0.0
 12
146.5613190314361
 22
-96.70124700840325
 32
0.0
 13
147.3066830897876
 23
-96.70124700840325
 33
0.0
  0
SOLID
  5
1506
330
1F
100
AcDbEntity
  8
LOGO
 62
     5
100
AcDbTrace
 10
148.1762993366665
 20
-96.70124700840325
 30
0.0
 11
148.9216633950202
 21
-96.70124700840325
 31
0.0
 12
148.1762993366665
 22
-92.97442671663906
 32
0.0
 13
148.9216633950202
 23
-92.97442671663906
 33
0.0
  0
SOLID
  5
1507
330
1F
100
AcDbEntity
  8
LOGO
 62
     5
100
AcDbTrace
 10
150.4123915117266
 20
-94.46515483334485
 30
0.0
 11
151.157755570078
 21
-94.46515483334485
 31
0.0
 12
150.4123915117266
 22
-96.70124700840325
 32
0.0
 13
151.157755570078
 23
-96.70124700840325
 33
0.0
  0
SOLID
  5
1508
330
1F
100
AcDbEntity
  8
LOGO
 62
     5
100
AcDbTrace
 10
148.101762930831
 20
-70.38989574854531
 30
0.0
 11
145.9402071616086
 21
-78.31560023569841
 31
0.0
 12
148.101762930831
 22
-89.24760642487489
 32
0.0
 13
145.9402071616086
 23
-89.24760642487489
 33
0.0
  0
SOLID
  5
1509
330
1F
100
AcDbEntity
  8
LOGO
 62
     5
100
AcDbTrace
 10
148.9961998008557
 20
-89.24760642487489
 30
0.0
 11
151.157755570078
 21
-89.24760642487489
 31
0.0
 12
148.9961998008557
 22
-68.75009482016912
 32
0.0
 13
151.157755570078
 23
-68.75009482016799
 33
0.0
  0
SOLID
  5
150A
330
1F
100
AcDbEntity
  8
LOGO
 62
     2
100
AcDbTrace
 10
148.101762930831
 20
-68.75009482016799
 30
0.0
 11
148.9961998008557
 21
-68.75009482016912
 31
0.0
 12
148.101762930831
 22
-89.24760642487489
 32
0.0
 13
148.9961998008557
 23
-89.24760642487489
 33
0.0
  0
POLYLINE
  5
150B
330
1F
100
AcDbEntity
  8
LOGO
 62
     5
100
AcDb2dPolyline
 66
     1
 10
0.0
 20
0.0
 30
0.0
 40
0.7465585520361989
 41
0.7465585520361989
  0
VERTEX
  5
150C
330
150B
100
AcDbEntity
  8
LOGO
 62
     5
100
AcDbVertex
100
AcDb2dVertex
 10
140.1032640874321
 20
-94.46515483334485
 30
0.0
 42
1.0
  0
VERTEX
  5
150D
330
150B
100
AcDbEntity
  8
LOGO
 62
     5
100
AcDbVertex
100
AcDb2dVertex
 10
137.863588431323
 20
-94.46515483334485
 30
0.0
 42
1.0
  0
SEQEND
  5
150E
330
150B
100
AcDbEntity
  8
LOGO
 62
     5
  0
POLYLINE
  5
150F
330
1F
100
AcDbEntity
  8
LOGO
 62
     5
100
AcDb2dPolyline
 66
     1
 10
0.0
 20
0.0
 30
0.0
 40
0.7465585520361989
 41
0.7465585520361989
  0
VERTEX
  5
1510
330
150F
100
AcDbEntity
  8
LOGO
 62
     5
100
AcDbVertex
100
AcDb2dVertex
 10
142.3393562624887
 20
-94.46515483334485
 30
0.0
 42
1.0
  0
VERTEX
  5
1511
330
150F
100
AcDbEntity
  8
LOGO
 62
     5
100
AcDbVertex
100
AcDb2dVertex
 10
140.0996806063808
 20
-94.46515483334485
 30
0.0
 42
1.0
  0
SEQEND
  5
1512
330
150F
100
AcDbEntity
  8
LOGO
 62
     5
  0
POLYLINE
  5
1513
330
1F
100
AcDbEntity
  8
LOGO
 62
     5
100
AcDb2dPolyline
 66
     1
 10
0.0
 20
0.0
 30
0.0
 40
0.7465585520361989
 41
0.7465585520361989
  0
VERTEX
  5
1514
330
1513
100
AcDbEntity
  8
LOGO
 62
     5
100
AcDbVertex
100
AcDb2dVertex
 10
131.6557550684929
 20
-94.46515483334485
 30
0.0
 42
1.0
  0
VERTEX
  5
1515
330
1513
100
AcDbEntity
  8
LOGO
 62
     5
100
AcDbVertex
100
AcDb2dVertex
 10
129.416079412385
 20
-94.46515483334485
 30
0.0
 42
1.0
  0
SEQEND
  5
1516
330
1513
100
AcDbEntity
  8
LOGO
 62
     5
  0
SOLID
  5
1517
330
1F
100
AcDbEntity
  8
LOGO
 62
     5
100
AcDbTrace
 10
129.0451891237337
 20
-92.97442671663906
 30
0.0
 11
129.7905531820852
 21
-92.97442671663906
 31
0.0
 12
129.0451891237337
 22
-96.70124700840325
 32
0.0
 13
129.7905531820852
 23
-96.70124700840325
 33
0.0
  0
SOLID
  5
1518
330
1F
100
AcDbEntity
  8
LOGO
 62
     5
100
AcDbTrace
 10
131.2812812987927
 20
-94.46515483334485
 30
0.0
 11
132.0266453571464
 21
-94.46515483334485
 31
0.0
 12
131.2812812987927
 22
-96.70124700840325
 32
0.0
 13
132.0266453571464
 23
-96.70124700840325
 33
0.0
  0
POLYLINE
  5
1519
330
1F
100
AcDbEntity
  8
LOGO
 62
     5
100
AcDb2dPolyline
 66
     1
 10
0.0
 20
0.0
 30
0.0
 70
     1
 40
0.7465585520361989
 41
0.7465585520361989
  0
VERTEX
  5
151A
330
1519
100
AcDbEntity
  8
LOGO
 62
     5
100
AcDbVertex
100
AcDb2dVertex
 10
133.2666291822404
 20
-94.83783686252172
 30
0.0
 42
1.0
  0
VERTEX
  5
151B
330
1519
100
AcDbEntity
  8
LOGO
 62
     5
100
AcDbVertex
100
AcDb2dVertex
 10
136.2528633903862
 20
-94.83783686252172
 30
0.0
 42
1.0
  0
SEQEND
  5
151C
330
1519
100
AcDbEntity
  8
LOGO
 62
     5
  0
SOLID
  5
151D
330
1F
100
AcDbEntity
  8
LOGO
 62
     5
100
AcDbTrace
 10
135.877717837438
 20
-91.85638062910902
 30
0.0
 11
136.6230818957906
 21
-91.85638062910902
 31
0.0
 12
135.877717837438
 22
-96.70124700840325
 32
0.0
 13
136.6230818957906
 23
-96.70124700840325
 33
0.0
  0
SOLID
  5
151E
330
1F
100
AcDbEntity
  8
LOGO
 62
     5
100
AcDbTrace
 10
137.4926981426729
 20
-92.97442671663906
 30
0.0
 11
138.2380622010243
 21
-92.97442671663906
 31
0.0
 12
137.4926981426729
 22
-96.70124700840325
 32
0.0
 13
138.2380622010243
 23
-96.70124700840325
 33
0.0
  0
SOLID
  5
151F
330
1F
100
AcDbEntity
  8
LOGO
 62
     5
100
AcDbTrace
 10
139.7287903177296
 20
-94.46515483334485
 30
0.0
 11
140.4741543760833
 21
-94.46515483334485
 31
0.0
 12
139.7287903177296
 22
-96.70124700840325
 32
0.0
 13
140.4741543760833
 23
-96.70124700840325
 33
0.0
  0
SOLID
  5
1520
330
1F
100
AcDbEntity
  8
LOGO
 62
     5
100
AcDbTrace
 10
141.9648824927885
 20
-94.46515483334485
 30
0.0
 11
142.7102465511411
 21
-94.46515483334485
 31
0.0
 12
141.9648824927885
 22
-96.70124700840439
 32
0.0
 13
142.7102465511411
 23
-96.70124700840439
 33
0.0
  0
SOLID
  5
1521
330
1F
100
AcDbEntity
  8
LOGO
 62
     5
100
AcDbTrace
 10
127.4302088185
 20
-92.45267187579178
 30
0.0
 11
128.1755728768548
 21
-92.45267187579178
 31
0.0
 12
127.4302088185
 22
-91.85638062910902
 32
0.0
 13
128.1755728768548
 23
-91.85638062910902
 33
0.0
  0
SOLID
  5
1522
330
1F
100
AcDbEntity
  8
LOGO
 62
     5
100
AcDbTrace
 10
127.4302088185
 20
-92.97442671663906
 30
0.0
 11
128.1755728768548
 21
-92.97442671663906
 31
0.0
 12
127.4302088185
 22
-96.70124700840439
 32
0.0
 13
128.1755728768548
 23
-96.70124700840325
 33
0.0
  0
SOLID
  5
1523
330
1F
100
AcDbEntity
  8
LOGO
 62
     5
100
AcDbTrace
 10
134.7597462863127
 20
-89.24760642487433
 30
0.0
 11
136.9213020555373
 21
-89.24760642487433
 31
0.0
 12
134.7597462863127
 22
-78.31560023569841
 32
0.0
 13
136.9213020555373
 23
-70.38989574854531
 33
0.0
  0
SOLID
  5
1524
330
1F
100
AcDbEntity
  8
LOGO
 62
     5
100
AcDbTrace
 10
137.815738925562
 20
-68.75009482016912
 30
0.0
 11
139.9772946947844
 21
-68.75009482016799
 31
0.0
 12
137.815738925562
 22
-87.60780549649814
 32
0.0
 13
139.9772946947844
 23
-79.68210100934505
 33
0.0
  0
SOLID
  5
1525
330
1F
100
AcDbEntity
  8
LOGO
 62
     2
100
AcDbTrace
 10
136.9213020555373
 20
-68.75009482016912
 30
0.0
 11
137.815738925562
 21
-68.75009482016912
 31
0.0
 12
136.9213020555373
 22
-89.24760642487433
 32
0.0
 13
137.815738925562
 23
-89.24760642487433
 33
0.0
  0
SOLID
  5
1526
330
1F
100
AcDbEntity
  8
LOGO
 62
     5
100
AcDbTrace
 10
137.815738925562
 20
-87.60780549649814
 30
0.0
 11
139.9772946947844
 21
-79.68210100934505
 31
0.0
 12
148.101762930831
 22
-68.75009482016799
 32
0.0
 13
145.9402071616086
 23
-68.75009482016799
 33
0.0
  0
SOLID
  5
1527
330
1F
100
AcDbEntity
  8
LOGO
 62
     5
100
AcDbTrace
 10
137.815738925562
 20
-89.24760642487433
 30
0.0
 11
139.9772946947844
 21
-89.24760642487433
 31
0.0
 12
148.101762930831
 22
-70.38989574854531
 32
0.0
 13
145.9402071616086
 23
-78.31560023569841
 33
0.0
  0
SOLID
  5
1528
330
1F
100
AcDbEntity
  8
LOGO
 62
     2
100
AcDbTrace
 10
136.9213020555373
 20
-89.24760642487433
 30
0.0
 11
137.815738925562
 21
-89.24760642487433
 31
0.0
 12
148.101762930831
 22
-68.75009482016799
 32
0.0
 13
148.9961998008557
 23
-68.75009482016912
 33
0.0
  0
LWPOLYLINE
  5
1529
330
1F
100
AcDbEntity
  8
LOGO
 62
     4
100
AcDbPolyline
 90
        4
 70
     1
 43
0.0
 10
118.3924563099635
 20
-67.56253510546097
 10
805.8924563099633
 20
-67.56253510546097
 10
805.8924563099633
 20
-117.5552952864573
 10
118.3924563099635
 20
-117.5552952864573
1001
GENIUS_GENREC_14
1002
{
1000
PYDIR
1011
118.3924563099635
1021
-117.5552952864573
1031
0.0
1002
}
1002
{
1000
PXDIR
1011
805.8924563099633
1021
-67.56253510546097
1031
0.0
1002
}
1002
{
1000
PORI
1011
118.3924563099635
1021
-67.56253510546097
1031
0.0
1002
}
1002
{
1000
PINS
1011
118.3924563099635
1021
-67.56253510546097
1031
0.0
1002
}
1002
{
1000
PINS2
1011
805.8924563099633
1021
-117.5552952864573
1031
0.0
1002
}
1002
{
1000
C
1070
     1
1002
}
1001
GENIUS_GENOBJ-N-REC_13
1002
{
1000
OWNER
1000
GEN
1002
}
1001
GENIUS_GENODEF_13
1002
{
1000
HIER
1070
     0
1002
}
1002
{
1000
MANEDIT
1070
     0
1002
}
1002
{
1000
NOSEL
1070
     0
1002
}
1002
{
1000
BEHIND
1070
     0
1002
}
1002
{
1000
OTHER
1070
     0
1002
}
1002
{
1000
REACTOR
1002
}
  0
LINE
  5
152A
330
1F
100
AcDbEntity
  8
LOGO
 62
     4
100
AcDbLine
 10
330.4678583331094
 20
-95.0585532050079
 30
0.0
 11
330.4678583331094
 21
-113.3892319380405
 31
0.0
  0
LINE
  5
152B
330
1F
100
AcDbEntity
  8
LOGO
 62
     4
100
AcDbLine
 10
297.1393515457789
 20
-95.0585532050079
 30
0.0
 11
297.1393515457789
 21
-113.3892319380405
 31
0.0
  0
LINE
  5
152C
330
1F
100
AcDbEntity
  8
LOGO
 62
     4
100
AcDbLine
 10
330.4678583331094
 20
-113.3892319380405
 30
0.0
 11
297.1393515457789
 21
-113.3892319380405
 31
0.0
  0
LINE
  5
152D
330
1F
100
AcDbEntity
  8
LOGO
 62
     4
100
AcDbLine
 10
336.4456802242917
 20
-72.5618111235608
 30
0.0
 11
297.1393515457789
 21
-72.5618111235608
 31
0.0
  0
LINE
  5
152E
330
1F
100
AcDbEntity
  8
LOGO
 62
     4
100
AcDbLine
 10
336.4456802242917
 20
-87.55963917785924
 30
0.0
 11
297.1393515457789
 21
-87.55963917785924
 31
0.0
  0
LINE
  5
152F
330
1F
100
AcDbEntity
  8
LOGO
 62
     4
100
AcDbLine
 10
297.1393515457789
 20
-72.5618111235608
 30
0.0
 11
297.1393515457789
 21
-87.55963917785924
 31
0.0
  0
LINE
  5
1530
330
1F
100
AcDbEntity
  8
LOGO
 62
     4
100
AcDbLine
 10
336.4456802242917
 20
-72.5618111235608
 30
0.0
 11
336.4456802242917
 21
-87.55963917785924
 31
0.0
  0
LINE
  5
1531
330
1F
100
AcDbEntity
  8
LOGO
 62
     4
100
AcDbLine
 10
315.5425158850353
 20
-87.55963917785924
 30
0.0
 11
315.5425158850353
 21
-95.0585532050079
 31
0.0
  0
TEXT
  5
1532
330
1F
100
AcDbEntity
  8
LOGO
  6
Continuous
100
AcDbText
 10
299.8042307039789
 20
-84.42886449834679
 30
0.0
 40
8.75
  1
MTAS
  7
CHINESET
100
AcDbText
  0
LINE
  5
1533
330
1F
100
AcDbEntity
  8
LOGO
 62
     4
100
AcDbLine
 10
330.4678583331094
 20
-95.0585532050079
 30
0.0
 11
297.1393515457789
 21
-95.0585532050079
 31
0.0
  0
TEXT
  5
1534
330
1F
100
AcDbEntity
  8
LOGO
  6
Continuous
100
AcDbText
 10
307.8343638573865
 20
-110.8018955059802
 30
327.6443144001245
 40
3.75
  1
Model
 41
0.8
  7
CHINESET
100
AcDbText
  0
TEXT
  5
1535
330
1F
100
AcDbEntity
  8
LOGO
100
AcDbText
 10
306.8362357623887
 20
-103.8502036886618
 30
327.6443144001245
 40
6.25
  1
型號
  7
CHINESET
100
AcDbText
  0
LINE
  5
1536
330
1F
100
AcDbEntity
  8
LOGO
  6
Continuous
100
AcDbLine
 10
338.0400733018059
 20
-80.11384982789513
 30
0.0
 11
344.6625669241548
 21
-80.11384982789513
 31
0.0
  0
LINE
  5
1537
330
1F
100
AcDbEntity
  8
LOGO
 62
     4
100
AcDbLine
 10
334.1558215400324
 20
-95.0585532050079
 30
0.0
 11
334.1558215400324
 21
-113.3892319380405
 31
0.0
  0
LINE
  5
1538
330
1F
100
AcDbEntity
  8
LOGO
 62
     4
100
AcDbLine
 10
363.5174613504922
 20
-113.3892319380405
 30
0.0
 11
334.1558215400324
 21
-113.3892319380405
 31
0.0
  0
LINE
  5
1539
330
1F
100
AcDbEntity
  8
LOGO
 62
     4
100
AcDbLine
 10
364.9425875392184
 20
-72.5618111235608
 30
0.0
 11
346.4258405881641
 21
-72.5618111235608
 31
0.0
  0
LINE
  5
153A
330
1F
100
AcDbEntity
  8
LOGO
 62
     4
100
AcDbLine
 10
364.9425875392184
 20
-87.55963917785924
 30
0.0
 11
346.4258405881641
 21
-87.55963917785924
 31
0.0
  0
LINE
  5
153B
330
1F
100
AcDbEntity
  8
LOGO
 62
     4
100
AcDbLine
 10
346.4258405881641
 20
-72.5618111235608
 30
0.0
 11
346.4258405881641
 21
-87.55963917785924
 31
0.0
  0
LINE
  5
153C
330
1F
100
AcDbEntity
  8
LOGO
 62
     4
100
AcDbLine
 10
364.9425875392184
 20
-72.5618111235608
 30
0.0
 11
364.9425875392184
 21
-87.55963917785924
 31
0.0
  0
LINE
  5
153D
330
1F
100
AcDbEntity
  8
LOGO
 62
     4
100
AcDbLine
 10
357.9489494917415
 20
-87.55963917785924
 30
0.0
 11
357.9489494917415
 21
-95.0585532050079
 31
0.0
  0
TEXT
  5
153E
330
1F
100
AcDbEntity
  8
LOGO
  6
Continuous
100
AcDbText
 10
348.4220113980258
 20
-84.42886449834679
 30
0.0
 40
8.75
  1
25
  7
CHINESET
100
AcDbText
  0
LINE
  5
153F
330
1F
100
AcDbEntity
  8
LOGO
 62
     4
100
AcDbLine
 10
363.5174613504922
 20
-95.0585532050079
 30
0.0
 11
334.1558215400324
 21
-95.0585532050079
 31
0.0
  0
LINE
  5
1540
330
1F
100
AcDbEntity
  8
LOGO
  6
Continuous
100
AcDbLine
 10
395.3967895194809
 20
-80.11384982789513
 30
0.0
 11
402.0192831418309
 21
-80.11384982789513
 31
0.0
  0
LINE
  5
1541
330
1F
100
AcDbEntity
  8
LOGO
 62
     4
100
AcDbLine
 10
363.5174613504922
 20
-95.0585532050079
 30
0.0
 11
363.5174613504922
 21
-113.3892319380405
 31
0.0
  0
TEXT
  5
1542
330
1F
100
AcDbEntity
  8
LOGO
  6
Continuous
100
AcDbText
 10
341.1367815396797
 20
-110.8018955059802
 30
327.6443144001245
 40
3.75
  1
Tube I.D.
 41
0.8
  7
CHINESET
100
AcDbText
  0
TEXT
  5
1543
330
1F
100
AcDbEntity
  8
LOGO
100
AcDbText
 10
343.603644387688
 20
-103.8502036886618
 30
327.6443144001245
 40
6.25
  1
內徑
  7
CHINESET
100
AcDbText
  0
LINE
  5
1544
330
1F
100
AcDbEntity
  8
LOGO
 62
     4
100
AcDbLine
 10
392.2340467956805
 20
-72.5618111235608
 30
0.0
 11
368.5232662576835
 21
-72.5618111235608
 31
0.0
  0
LINE
  5
1545
330
1F
100
AcDbEntity
  8
LOGO
 62
     4
100
AcDbLine
 10
392.2340467956805
 20
-87.55963917785924
 30
0.0
 11
368.5232662576835
 21
-87.55963917785924
 31
0.0
  0
LINE
  5
1546
330
1F
100
AcDbEntity
  8
LOGO
 62
     4
100
AcDbLine
 10
368.5232662576835
 20
-72.5618111235608
 30
0.0
 11
368.5232662576835
 21
-87.55963917785924
 31
0.0
  0
LINE
  5
1547
330
1F
100
AcDbEntity
  8
LOGO
 62
     4
100
AcDbLine
 10
392.2340467956805
 20
-72.5618111235608
 30
0.0
 11
392.2340467956805
 21
-87.55963917785924
 31
0.0
  0
TEXT
  5
1548
330
1F
100
AcDbEntity
  8
LOGO
  6
Continuous
100
AcDbText
 10
372.0088004711887
 20
-84.42886449834679
 30
0.0
 40
8.75
  1
(M)
  7
CHINESET
100
AcDbText
  0
LINE
  5
1549
330
1F
100
AcDbEntity
  8
LOGO
 62
     4
100
AcDbLine
 10
395.8019443475486
 20
-95.0585532050079
 30
0.0
 11
395.8019443475486
 21
-113.3892319380405
 31
0.0
  0
LINE
  5
154A
330
1F
100
AcDbEntity
  8
LOGO
 62
     4
100
AcDbLine
 10
368.6505623014956
 20
-95.0585532050079
 30
0.0
 11
368.6505623014956
 21
-113.3892319380405
 31
0.0
  0
LINE
  5
154B
330
1F
100
AcDbEntity
  8
LOGO
 62
     4
100
AcDbLine
 10
395.8019443475486
 20
-113.3892319380405
 30
0.0
 11
368.6505623014956
 21
-113.3892319380405
 31
0.0
  0
LINE
  5
154C
330
1F
100
AcDbEntity
  8
LOGO
 62
     4
100
AcDbLine
 10
395.8019443475486
 20
-95.0585532050079
 30
0.0
 11
368.6505623014956
 21
-95.0585532050079
 31
0.0
  0
TEXT
  5
154D
330
1F
100
AcDbEntity
  8
LOGO
  6
Continuous
100
AcDbText
 10
374.5525739960432
 20
-110.8018955059802
 30
327.6443144001245
 40
3.75
  1
Magnet
 41
0.8
  7
CHINESET
100
AcDbText
  0
TEXT
  5
154E
330
1F
100
AcDbEntity
  8
LOGO
100
AcDbText
 10
372.552756463465
 20
-103.8502036886618
 30
327.6443144001245
 40
6.25
  1
附磁石
  7
CHINESET
100
AcDbText
  0
LINE
  5
154F
330
1F
100
AcDbEntity
  8
LOGO
 62
     4
100
AcDbLine
 10
380.3786565266831
 20
-87.55963917785924
 30
0.0
 11
380.3786565266831
 21
-95.0585532050079
 31
0.0
  0
TEXT
  5
1550
330
1F
100
AcDbEntity
  8
LOGO
100
AcDbText
 10
230.6928676862479
 20
-114.8957001766533
 30
0.0
 40
5.0
  1
10808210
 41
0.7
  7
CHINESET
 72
     1
 11
242.8595343529146
 21
-114.8957001766533
 31
0.0
100
AcDbText
  0
LINE
  5
1551
330
1F
100
AcDbEntity
  8
LOGO
 62
     4
100
AcDbLine
 10
258.3765287081515
 20
-107.5567432502564
 30
0.0
 11
258.3765287081537
 21
-117.5552952864561
 31
0.0
  0
LINE
  5
1552
330
1F
100
AcDbEntity
  8
LOGO
 62
     4
100
AcDbLine
 10
258.3765287081515
 20
-107.5567432502564
 30
0.0
 11
228.3765287081537
 21
-107.5567432502564
 31
0.0
  0
CIRCLE
  5
1553
330
1F
100
AcDbEntity
  8
LOGO
  6
Continuous
100
AcDbCircle
 10
204.304806767894
 20
-82.54966967177301
 30
0.0
 40
2.902697325801578
  0
CIRCLE
  5
1554
330
1F
100
AcDbEntity
  8
LOGO
  6
Continuous
100
AcDbCircle
 10
204.304806767894
 20
-82.54966967177301
 30
0.0
 40
1.700723671663992
  0
LINE
  5
1555
330
1F
100
AcDbEntity
  8
LOGO
100
AcDbLine
 10
222.5456935779853
 20
-85.45236699757515
 30
0.0
 11
222.5456935779853
 21
-79.64697234597088
 31
0.0
  0
LINE
  5
1556
330
1F
100
AcDbEntity
  8
LOGO
100
AcDbLine
 10
213.4459040843747
 20
-84.2503933434367
 30
0.0
 11
213.4459040843747
 21
-80.84894600010875
 31
0.0
  0
LINE
  5
1557
330
1F
100
AcDbEntity
  8
LOGO
  6
Continuous
100
AcDbLine
 10
213.4459040843747
 20
-80.84894600010875
 30
0.0
 11
222.5456935779853
 21
-79.64697234597088
 31
0.0
  0
LINE
  5
1558
330
1F
100
AcDbEntity
  8
LOGO
  6
Continuous
100
AcDbLine
 10
213.4459040843747
 20
-84.2503933434367
 30
0.0
 11
222.5456935779853
 21
-85.45236699757515
 31
0.0
  0
LINE
  5
1559
330
1F
100
AcDbEntity
  8
LOGO
  6
AM_ISO08W050x2
 48
0.3
100
AcDbLine
 10
200.3033950398067
 20
-82.54966967177301
 30
0.0
 11
208.3062184959813
 21
-82.54966967177301
 31
0.0
1001
GENIUS_GENOREF_13
1005
1593
  0
LINE
  5
155A
330
1F
100
AcDbEntity
  8
LOGO
  6
AM_ISO08W050x2
 48
0.3
100
AcDbLine
 10
204.304806767894
 20
-86.55108139986031
 30
0.0
 11
204.304806767894
 21
-78.54825794368571
 31
0.0
1001
GENIUS_GENOREF_13
1005
1592
  0
LINE
  5
155B
330
1F
100
AcDbEntity
  8
LOGO
  6
CENTER
 48
0.5
100
AcDbLine
 10
212.7181738523514
 20
-82.54966967177301
 30
0.0
 11
223.4620129224545
 21
-82.54966967177301
 31
0.0
1001
GENIUS_GENOREF_13
1005
1591
  0
LINE
  5
155C
330
1F
100
AcDbEntity
  8
LOGO
 62
     4
100
AcDbLine
 10
445.953339367718
 20
-95.0585532050079
 30
0.0
 11
445.953339367718
 21
-113.3892319380405
 31
0.0
  0
LINE
  5
155D
330
1F
100
AcDbEntity
  8
LOGO
 62
     4
100
AcDbLine
 10
399.6397299501019
 20
-95.0585532050079
 30
0.0
 11
399.6397299501019
 21
-113.3892319380405
 31
0.0
  0
LINE
  5
155E
330
1F
100
AcDbEntity
  8
LOGO
 62
     4
100
AcDbLine
 10
445.953339367718
 20
-113.3892319380405
 30
0.0
 11
399.6397299501019
 21
-113.3892319380405
 31
0.0
  0
LINE
  5
155F
330
1F
100
AcDbEntity
  8
LOGO
 62
     4
100
AcDbLine
 10
427.7050618611055
 20
-72.5618111235608
 30
0.0
 11
404.9917310477759
 21
-72.5618111235608
 31
0.0
  0
LINE
  5
1560
330
1F
100
AcDbEntity
  8
LOGO
 62
     4
100
AcDbLine
 10
427.7050618611055
 20
-87.55963917785924
 30
0.0
 11
404.9917310477759
 21
-87.55963917785924
 31
0.0
  0
LINE
  5
1561
330
1F
100
AcDbEntity
  8
LOGO
 62
     4
100
AcDbLine
 10
404.9917310477759
 20
-72.5618111235608
 30
0.0
 11
404.9917310477759
 21
-87.55963917785924
 31
0.0
  0
LINE
  5
1562
330
1F
100
AcDbEntity
  8
LOGO
 62
     4
100
AcDbLine
 10
427.7050618611055
 20
-72.5618111235608
 30
0.0
 11
427.7050618611055
 21
-87.55963917785924
 31
0.0
  0
LINE
  5
1563
330
1F
100
AcDbEntity
  8
LOGO
 62
     4
100
AcDbLine
 10
416.3483964544407
 20
-87.55963917785924
 30
0.0
 11
416.3483964544407
 21
-95.0585532050079
 31
0.0
  0
TEXT
  5
1564
330
1F
100
AcDbEntity
  8
LOGO
  6
Continuous
100
AcDbText
 10
407.6026477352798
 20
-84.42886449834679
 30
0.0
 40
8.75
  1
CW
  7
CHINESET
100
AcDbText
  0
LINE
  5
1565
330
1F
100
AcDbEntity
  8
LOGO
 62
     4
100
AcDbLine
 10
445.953339367718
 20
-95.0585532050079
 30
0.0
 11
399.6397299501019
 21
-95.0585532050079
 31
0.0
  0
TEXT
  5
1566
330
1F
100
AcDbEntity
  8
LOGO
  6
Continuous
100
AcDbText
 10
402.3196047587613
 20
-110.8018955059802
 30
327.6443144001245
 40
3.75
  1
Rotating direction
 41
0.8
  7
CHINESET
100
AcDbText
  0
TEXT
  5
1567
330
1F
100
AcDbEntity
  8
LOGO
100
AcDbText
 10
409.8290568743914
 20
-103.8502036886618
 30
327.6443144001245
 40
6.25
  1
旋轉方向
  7
CHINESET
100
AcDbText
  0
LINE
  5
1568
330
1F
100
AcDbEntity
  8
LOGO
 62
     4
100
AcDbLine
 10
488.2181417406219
 20
-95.0585532050079
 30
0.0
 11
488.2181417406219
 21
-113.3892319380405
 31
0.0
  0
LINE
  5
1569
330
1F
100
AcDbEntity
  8
LOGO
 62
     4
100
AcDbLine
 10
449.8892291802771
 20
-95.0585532050079
 30
0.0
 11
449.8892291802771
 21
-113.3892319380405
 31
0.0
  0
LINE
  5
156A
330
1F
100
AcDbEntity
  8
LOGO
 62
     4
100
AcDbLine
 10
488.2181417406219
 20
-113.3892319380405
 30
0.0
 11
449.8892291802771
 21
-113.3892319380405
 31
0.0
  0
LINE
  5
156B
330
1F
100
AcDbEntity
  8
LOGO
 62
     4
100
AcDbLine
 10
461.7239991566771
 20
-72.5618111235608
 30
0.0
 11
441.2432492849189
 21
-72.5618111235608
 31
0.0
  0
LINE
  5
156C
330
1F
100
AcDbEntity
  8
LOGO
 62
     4
100
AcDbLine
 10
461.7239991566771
 20
-87.55963917785924
 30
0.0
 11
441.2432492849189
 21
-87.55963917785924
 31
0.0
  0
LINE
  5
156D
330
1F
100
AcDbEntity
  8
LOGO
 62
     4
100
AcDbLine
 10
441.2432492849189
 20
-72.5618111235608
 30
0.0
 11
441.2432492849189
 21
-87.55963917785924
 31
0.0
  0
LINE
  5
156E
330
1F
100
AcDbEntity
  8
LOGO
 62
     4
100
AcDbLine
 10
461.7239991566771
 20
-72.5618111235608
 30
0.0
 11
461.7239991566771
 21
-87.55963917785924
 31
0.0
  0
LINE
  5
156F
330
1F
100
AcDbEntity
  8
LOGO
 62
     4
100
AcDbLine
 10
455.4730975486395
 20
-87.55963917785924
 30
0.0
 11
455.4730975486395
 21
-95.0585532050079
 31
0.0
  0
TEXT
  5
1570
330
1F
100
AcDbEntity
  8
LOGO
  6
Continuous
100
AcDbText
 10
445.0700494123898
 20
-84.42886449834679
 30
0.0
 40
8.75
  1
90
  7
CHINESET
100
AcDbText
  0
LINE
  5
1571
330
1F
100
AcDbEntity
  8
LOGO
 62
     4
100
AcDbLine
 10
488.2181417406219
 20
-95.0585532050079
 30
0.0
 11
449.8892291802771
 21
-95.0585532050079
 31
0.0
  0
TEXT
  5
1572
330
1F
100
AcDbEntity
  8
LOGO
  6
Continuous
100
AcDbText
 10
452.5691039889365
 20
-110.8018955059802
 30
327.6443144001245
 40
3.75
  1
Rotating angle
 41
0.8
  7
CHINESET
100
AcDbText
  0
TEXT
  5
1573
330
1F
100
AcDbEntity
  8
LOGO
100
AcDbText
 10
455.9531303755252
 20
-103.8502036886618
 30
327.6443144001245
 40
6.25
  1
旋轉角度
  7
CHINESET
100
AcDbText
  0
LINE
  5
1574
330
1F
100
AcDbEntity
  8
LOGO
  6
Continuous
100
AcDbLine
 10
430.867804584906
 20
-80.11384982789513
 30
0.0
 11
437.4902982072558
 21
-80.11384982789513
 31
0.0
  0
LINE
  5
1575
330
1F
100
AcDbEntity
  8
LOGO
 62
     4
100
AcDbLine
 10
525.8763372452126
 20
-95.0585532050079
 30
0.0
 11
525.8763372452126
 21
-113.3892319380405
 31
0.0
  0
LINE
  5
1576
330
1F
100
AcDbEntity
  8
LOGO
 62
     4
100
AcDbLine
 10
493.4156724575037
 20
-95.0585532050079
 30
0.0
 11
493.4156724575037
 21
-113.3892319380405
 31
0.0
  0
LINE
  5
1577
330
1F
100
AcDbEntity
  8
LOGO
 62
     4
100
AcDbLine
 10
525.8763372452126
 20
-113.3892319380405
 30
0.0
 11
493.4156724575037
 21
-113.3892319380405
 31
0.0
  0
LINE
  5
1578
330
1F
100
AcDbEntity
  8
LOGO
 62
     4
100
AcDbLine
 10
495.0836037598783
 20
-72.5618111235608
 30
0.0
 11
474.60285388812
 21
-72.5618111235608
 31
0.0
  0
LINE
  5
1579
330
1F
100
AcDbEntity
  8
LOGO
 62
     4
100
AcDbLine
 10
495.0836037598783
 20
-87.55963917785924
 30
0.0
 11
474.60285388812
 21
-87.55963917785924
 31
0.0
  0
LINE
  5
157A
330
1F
100
AcDbEntity
  8
LOGO
 62
     4
100
AcDbLine
 10
474.60285388812
 20
-72.5618111235608
 30
0.0
 11
474.60285388812
 21
-87.55963917785924
 31
0.0
  0
LINE
  5
157B
330
1F
100
AcDbEntity
  8
LOGO
 62
     4
100
AcDbLine
 10
495.0836037598783
 20
-72.5618111235608
 30
0.0
 11
495.0836037598783
 21
-87.55963917785924
 31
0.0
  0
LINE
  5
157C
330
1F
100
AcDbEntity
  8
LOGO
 62
     4
100
AcDbLine
 10
503.7449765639548
 20
-91.30909619143357
 30
0.0
 11
503.7449765639548
 21
-95.0585532050079
 31
0.0
  0
LINE
  5
157D
330
1F
100
AcDbEntity
  8
LOGO
 62
     4
100
AcDbLine
 10
525.8763372452126
 20
-95.0585532050079
 30
0.0
 11
493.4156724575037
 21
-95.0585532050079
 31
0.0
  0
TEXT
  5
157E
330
1F
100
AcDbEntity
  8
LOGO
  6
Continuous
100
AcDbText
 10
499.5921208999136
 20
-110.8018955059802
 30
327.6443144001245
 40
3.75
  1
Mounting
 41
0.8
  7
CHINESET
100
AcDbText
  0
TEXT
  5
157F
330
1F
100
AcDbEntity
  8
LOGO
100
AcDbText
 10
496.6730171945182
 20
-103.8502036886618
 30
327.6443144001245
 40
6.25
  1
固定型式
  7
CHINESET
100
AcDbText
  0
LINE
  5
1580
330
1F
100
AcDbEntity
  8
LOGO
 62
     4
100
AcDbLine
 10
580.4248813944361
 20
-95.0585532050079
 30
0.0
 11
580.4248813944361
 21
-113.3892319380405
 31
0.0
  0
LINE
  5
1581
330
1F
100
AcDbEntity
  8
LOGO
 62
     4
100
AcDbLine
 10
529.9432308700245
 20
-95.0585532050079
 30
0.0
 11
529.9432308700245
 21
-113.3892319380405
 31
0.0
  0
LINE
  5
1582
330
1F
100
AcDbEntity
  8
LOGO
 62
     4
100
AcDbLine
 10
580.4248813944361
 20
-113.3892319380405
 30
0.0
 11
529.9432308700245
 21
-113.3892319380405
 31
0.0
  0
LINE
  5
1583
330
1F
100
AcDbEntity
  8
LOGO
 62
     4
100
AcDbLine
 10
528.0424343990428
 20
-72.5618111235608
 30
0.0
 11
507.5616845272845
 21
-72.5618111235608
 31
0.0
  0
LINE
  5
1584
330
1F
100
AcDbEntity
  8
LOGO
 62
     4
100
AcDbLine
 10
528.0424343990428
 20
-87.55963917785924
 30
0.0
 11
507.5616845272845
 21
-87.55963917785924
 31
0.0
  0
LINE
  5
1585
330
1F
100
AcDbEntity
  8
LOGO
 62
     4
100
AcDbLine
 10
507.5616845272845
 20
-72.5618111235608
 30
0.0
 11
507.5616845272845
 21
-87.55963917785924
 31
0.0
  0
LINE
  5
1586
330
1F
100
AcDbEntity
  8
LOGO
 62
     4
100
AcDbLine
 10
528.0424343990428
 20
-72.5618111235608
 30
0.0
 11
528.0424343990428
 21
-87.55963917785924
 31
0.0
  0
LINE
  5
1587
330
1F
100
AcDbEntity
  8
LOGO
 62
     4
100
AcDbLine
 10
580.4248813944361
 20
-95.0585532050079
 30
0.0
 11
529.9432308700245
 21
-95.0585532050079
 31
0.0
  0
TEXT
  5
1588
330
1F
100
AcDbEntity
  8
LOGO
  6
Continuous
100
AcDbText
 10
532.6231056786839
 20
-110.8018955059802
 30
327.6443144001245
 40
3.75
  1
Clamping arm front
 41
0.8
  7
CHINESET
100
AcDbText
  0
TEXT
  5
1589
330
1F
100
AcDbEntity
  8
LOGO
100
AcDbText
 10
543.3600469431503
 20
-103.8502036886618
 30
327.6443144001245
 40
6.25
  1
壓板型式
  7
CHINESET
100
AcDbText
  0
LINE
  5
158A
330
1F
100
AcDbEntity
  8
LOGO
  6
Continuous
100
AcDbLine
 10
464.8867418804775
 20
-80.11384982789513
 30
0.0
 11
471.5092355028278
 21
-80.11384982789513
 31
0.0
  0
LINE
  5
158B
330
1F
100
AcDbEntity
  8
LOGO
 62
     4
100
AcDbLine
 10
484.8432288239991
 20
-87.55963917785924
 30
0.0
 11
484.8432288239991
 21
-91.30909619143357
 31
0.0
  0
LINE
  5
158C
330
1F
100
AcDbEntity
  8
LOGO
 62
     4
100
AcDbLine
 10
484.8432288239991
 20
-91.30909619143357
 30
0.0
 11
503.7449765639548
 21
-91.30909619143357
 31
0.0
  0
LINE
  5
158D
330
1F
100
AcDbEntity
  8
LOGO
  6
Continuous
100
AcDbLine
 10
498.2463464836787
 20
-80.11384982789513
 30
0.0
 11
504.8688401060287
 21
-80.11384982789513
 31
0.0
  0
LINE
  5
158E
330
1F
100
AcDbEntity
  8
LOGO
 62
     4
100
AcDbLine
 10
555.1840561322303
 20
-91.30909619143357
 30
0.0
 11
555.1840561322303
 21
-95.0585532050079
 31
0.0
  0
LINE
  5
158F
330
1F
100
AcDbEntity
  8
LOGO
 62
     4
100
AcDbLine
 10
517.8020594631637
 20
-87.55963917785924
 30
0.0
 11
517.8020594631637
 21
-91.30909619143357
 31
0.0
  0
LINE
  5
1590
330
1F
100
AcDbEntity
  8
LOGO
 62
     4
100
AcDbLine
 10
517.8020594631637
 20
-91.30909619143357
 30
0.0
 11
555.1840561322303
 21
-91.30909619143357
 31
0.0
  0
POINT
  5
1591
330
1F
100
AcDbEntity
  8
0
 60
     1
100
AcDbPoint
 10
-1260.822680323498
 20
-1560.993268715076
 30
0.0
1001
GENIUS_GENOBJ-N-CRS_13
1002
{
1000
OWNER
1000
GEN
1002
}
1001
GENIUS_GENOLIS_13
1002
{
1000
ENT
1005
0
1005
0
1005
0
1005
155B
1002
}
1001
GENIUS_GENOENT_13
1002
{
1000
MYREF
1005
1591
1002
}
1002
{
1000
GRP
1005
0
1002
}
1001
GENIUS_GENODEF_13
1002
{
1000
HIER
1070
    10
1002
}
1002
{
1000
MANEDIT
1070
     1
1002
}
1002
{
1000
NOSEL
1070
     0
1002
}
1002
{
1000
BEHIND
1070
     0
1002
}
1002
{
1000
OTHER
1070
     0
1002
}
1002
{
1000
REACTOR
1002
}
  0
POINT
  5
1592
330
1F
100
AcDbEntity
  8
0
 60
     1
100
AcDbPoint
 10
-1272.147265546353
 20
-1552.11768223644
 30
0.0
1001
GENIUS_GENOBJ-N-CRS_13
1002
{
1000
OWNER
1000
GEN
1002
}
1001
GENIUS_GENOLIS_13
1002
{
1000
ENT
1005
0
1005
0
1005
0
1005
155A
1002
}
1001
GENIUS_GENOENT_13
1002
{
1000
MYREF
1005
1592
1002
}
1002
{
1000
GRP
1005
0
1002
}
1001
GENIUS_GENODEF_13
1002
{
1000
HIER
1070
    10
1002
}
1002
{
1000
MANEDIT
1070
     1
1002
}
1002
{
1000
NOSEL
1070
     0
1002
}
1002
{
1000
BEHIND
1070
     0
1002
}
1002
{
1000
OTHER
1070
     0
1002
}
1002
{
1000
REACTOR
1002
}
  0
POINT
  5
1593
330
1F
100
AcDbEntity
  8
0
 60
     1
100
AcDbPoint
 10
-1265.788591848516
 20
-1560.993268715076
 30
0.0
1001
GENIUS_GENOBJ-N-CRS_13
1002
{
1000
OWNER
1000
GEN
1002
}
1001
GENIUS_GENOLIS_13
1002
{
1000
ENT
1005
0
1005
0
1005
0
1005
1559
1002
}
1001
GENIUS_GENOENT_13
1002
{
1000
MYREF
1005
1593
1002
}
1002
{
1000
GRP
1005
0
1002
}
1001
GENIUS_GENODEF_13
1002
{
1000
HIER
1070
    10
1002
}
1002
{
1000
MANEDIT
1070
     1
1002
}
1002
{
1000
NOSEL
1070
     0
1002
}
1002
{
1000
BEHIND
1070
     0
1002
}
1002
{
1000
OTHER
1070
     0
1002
}
1002
{
1000
REACTOR
1002
}
  0
LINE
  5
1594
330
1F
100
AcDbEntity
  8
LOGO
 62
     4
100
AcDbLine
 10
462.1424563099635
 20
382.4447047135427
 30
0.0
 11
462.1424563099635
 21
109.8407356156908
 31
0.0
  0
LINE
  5
1596
330
1F
100
AcDbEntity
  8
LOGO
 62
     4
100
AcDbLine
 10
118.3924563099635
 20
109.8407356156908
 30
0.0
 11
805.8924563099633
 21
109.8407356156908
 31
0.0
  0
TEXT
  5
1598
330
1F
100
AcDbEntity
  8
0
100
AcDbText
 10
139.3587066076657
 20
77.48889199966038
 30
0.0
 40
8.0
  1
Clamping arm front
100
AcDbText
  0
TEXT
  5
159C
330
1F
100
AcDbEntity
  8
0
100
AcDbText
 10
274.0079147585904
 20
45.93178152942527
 30
0.0
 40
8.0
  1
Standard type
100
AcDbText
  0
TEXT
  5
159E
330
1F
100
AcDbEntity
  8
0
100
AcDbText
 10
485.571841227272
 20
45.93178152942527
 30
0.0
 40
8.0
  1
Extension type
100
AcDbText
  0
ENDSEC
  0
SECTION
  2
OBJECTS
  0
DICTIONARY
  5
C
330
0
100
AcDbDictionary
281
     1
  3
ACAD_COLOR
350
BE
  3
ACAD_GROUP
350
D
  3
ACAD_LAYOUT
350
1A
  3
ACAD_MATERIAL
350
BD
  3
ACAD_MLINESTYLE
350
17
  3
ACAD_PLOTSETTINGS
350
19
  3
ACAD_PLOTSTYLENAME
350
E
  3
ACAD_TABLESTYLE
350
11A
  3
ACDBHEADERROUNDTRIPXREC
350
162D
  3
AcDbVariableDictionary
350
94
  3
AcmDictionary
350
5B
  3
AMG
350
41
  3
AMGSNAPSETTINGS
350
1B8
  3
DWGPROPS
350
162C
  0
DICTIONARY
  5
3F9
330
2
100
AcDbDictionary
280
     1
281
     1
  3
ACAD_LAYERFILTERS
360
5B7
  3
ACAD_LAYERSTATES
360
12CC
  3
ACLYDICTIONARY
360
5B6
  0
DICTIONARY
  5
AD1
330
AD0
100
AcDbDictionary
280
     1
281
     1
  3
ACAD_XREC_ROUNDTRIP
360
AD2
  0
DICTIONARY
  5
AD4
330
AD3
100
AcDbDictionary
280
     1
281
     1
  3
ACAD_XREC_ROUNDTRIP
360
AD5
  0
DICTIONARY
  5
8F
330
1F
100
AcDbDictionary
280
     1
281
     1
  0
DICTIONARY
  5
BE
102
{ACAD_REACTORS
330
C
102
}
330
C
100
AcDbDictionary
281
     1
  0
DICTIONARY
  5
D
102
{ACAD_REACTORS
330
C
102
}
330
C
100
AcDbDictionary
281
     1
  0
DICTIONARY
  5
1A
102
{ACAD_REACTORS
330
C
102
}
330
C
100
AcDbDictionary
281
     1
  3
Model
350
22
  3
配置1
350
1E
  3
配置2
350
26
  0
DICTIONARY
  5
BD
102
{ACAD_REACTORS
330
C
102
}
330
C
100
AcDbDictionary
281
     1
  3
Global
350
AE1
  0
DICTIONARY
  5
17
102
{ACAD_REACTORS
330
C
102
}
330
C
100
AcDbDictionary
281
     1
  3
Standard
350
18
  0
DICTIONARY
  5
19
102
{ACAD_REACTORS
330
C
102
}
330
C
100
AcDbDictionary
281
     1
  0
ACDBDICTIONARYWDFLT
  5
E
102
{ACAD_REACTORS
330
C
102
}
330
C
100
AcDbDictionary
281
     1
  3
Normal
350
F
100
AcDbDictionaryWithDefault
340
F
  0
DICTIONARY
  5
11A
102
{ACAD_REACTORS
330
C
102
}
330
C
100
AcDbDictionary
281
     1
  3
Standard
350
11B
  0
DICTIONARY
  5
162D
102
{ACAD_REACTORS
330
C
102
}
330
C
100
AcDbDictionary
281
     1
  0
DICTIONARY
  5
94
102
{ACAD_REACTORS
330
C
102
}
330
C
100
AcDbDictionary
281
     1
  3
CTABLESTYLE
350
138
  3
DIMASSOC
350
96
  3
INDEXCTL
350
95
  3
PROJECTNAME
350
162A
  0
DICTIONARY
  5
5B
102
{ACAD_REACTORS
330
C
102
}
330
C
100
AcDbDictionary
281
     1
  3
AcmBOM
350
1B5
  3
AcmStdDictionary
350
61
  3
AMDTSECTSYM_ARROWCOLOR
350
123
  0
DICTIONARY
  5
41
102
{ACAD_REACTORS
330
C
102
}
330
C
100
AcDbDictionary
281
     1
  0
DICTIONARY
  5
1B8
102
{ACAD_REACTORS
330
C
102
}
330
C
100
AcDbDictionary
281
     1
  0
XRECORD
  5
162C
102
{ACAD_REACTORS
330
C
102
}
330
C
100
AcDbXrecord
280
     1
  1
DWGPROPS COOKIE
  2

  3

  4

  6

  7

  8

  9

300
AmdtFileType=84
301
=
302
=
303
=
304
=
305
=
306
=
307
=
308
=
309
=
 40
0.8004405324074074
 41
2454511.659716065
 42
2454701.579565973
  1

 90
        1
  0
DICTIONARY
  5
5B7
102
{ACAD_REACTORS
330
3F9
102
}
330
3F9
100
AcDbDictionary
281
     1
  0
DICTIONARY
  5
12CC
102
{ACAD_REACTORS
330
3F9
102
}
330
3F9
100
AcDbDictionary
281
     1
  0
DICTIONARY
  5
5B6
102
{ACAD_REACTORS
330
3F9
102
}
330
3F9
100
AcDbDictionary
281
     1
1001
ACAD
1000
<All
  0
XRECORD
  5
AD2
102
{ACAD_REACTORS
330
AD1
102
}
330
AD1
100
AcDbXrecord
280
     1
102
MATERIAL
340
AE1
  0
XRECORD
  5
AD5
102
{ACAD_REACTORS
330
AD4
102
}
330
AD4
100
AcDbXrecord
280
     1
102
MATERIAL
340
AE1
  0
LAYOUT
  5
22
102
{ACAD_XDICTIONARY
360
1630
102
}
102
{ACAD_REACTORS
330
1A
102
}
330
1A
100
AcDbPlotSettings
  1

  2
\\RD\EPSON Stylus C63 Series單色
  4
A4
  6

 40
3.757083177566528
 41
3.757076978683471
 42
3.757080078125
 43
3.757080078125
 44
209.9733276367187
 45
296.9683227539062
 46
0.0
 47
0.0
 48
0.0
 49
0.0
140
0.0
141
0.0
142
1.0
143
0.3405120737814363
 70
 11952
 72
     1
 73
     0
 74
     0
  7
彩色出圖.ctb
 75
     0
147
2.936753428137963
148
-2047.07469463503
149
-1261.649717473083
100
AcDbLayout
  1
Model
 70
     1
 71
     0
 10
0.0
 20
0.0
 11
12.0
 21
9.0
 12
0.0
 22
0.0
 32
0.0
 14
0.0
 24
0.0
 34
0.0
 15
0.0
 25
0.0
 35
0.0
146
0.0
 13
0.0
 23
0.0
 33
0.0
 16
1.0
 26
0.0
 36
0.0
 17
0.0
 27
1.0
 37
0.0
 76
     0
330
1F
1001
ACAD_PSEXT
1000
\\RD\EPSON Stylus C63 Series單色
1000
EPSON Stylus C63 Series
1000
\\RD
1000

1070
     0
  0
LAYOUT
  5
1E
102
{ACAD_XDICTIONARY
360
162E
102
}
102
{ACAD_REACTORS
330
1A
102
}
330
1A
100
AcDbPlotSettings
  1

  2

  4

  6

 40
0.0
 41
0.0
 42
0.0
 43
0.0
 44
0.0
 45
0.0
 46
0.0
 47
0.0
 48
0.0
 49
0.0
140
0.0
141
0.0
142
1.0
143
1.0
 70
   688
 72
     0
 73
     0
 74
     5
  7
彩色出圖.ctb
 75
    16
147
1.0
148
0.0
149
0.0
100
AcDbLayout
  1
配置1
 70
     1
 71
     1
 10
0.0
 20
0.0
 11
420.0
 21
297.0
 12
0.0
 22
0.0
 32
0.0
 14
1.000000000000000E+20
 24
1.000000000000000E+20
 34
1.000000000000000E+20
 15
-1.000000000000000E+20
 25
-1.000000000000000E+20
 35
-1.000000000000000E+20
146
0.0
 13
0.0
 23
0.0
 33
0.0
 16
1.0
 26
0.0
 36
0.0
 17
0.0
 27
1.0
 37
0.0
 76
     0
330
1B
  0
LAYOUT
  5
26
102
{ACAD_XDICTIONARY
360
1632
102
}
102
{ACAD_REACTORS
330
1A
102
}
330
1A
100
AcDbPlotSettings
  1

  2

  4

  6

 40
0.0
 41
0.0
 42
0.0
 43
0.0
 44
0.0
 45
0.0
 46
0.0
 47
0.0
 48
0.0
 49
0.0
140
0.0
141
0.0
142
1.0
143
1.0
 70
   688
 72
     0
 73
     0
 74
     5
  7
彩色出圖.ctb
 75
    16
147
1.0
148
0.0
149
0.0
100
AcDbLayout
  1
配置2
 70
     1
 71
     2
 10
0.0
 20
0.0
 11
12.0
 21
9.0
 12
0.0
 22
0.0
 32
0.0
 14
0.0
 24
0.0
 34
0.0
 15
0.0
 25
0.0
 35
0.0
146
0.0
 13
0.0
 23
0.0
 33
0.0
 16
1.0
 26
0.0
 36
0.0
 17
0.0
 27
1.0
 37
0.0
 76
     0
330
23
  0
MATERIAL
  5
AE1
102
{ACAD_XDICTIONARY
360
AE2
102
}
102
{ACAD_REACTORS
330
BD
102
}
330
BD
100
AcDbMaterial
  1
Global
  0
MLINESTYLE
  5
18
102
{ACAD_REACTORS
330
17
102
}
330
17
100
AcDbMlineStyle
  2
STANDARD
 70
     0
  3

 62
   256
 51
90.0
 52
90.0
 71
     2
 49
0.5
 62
   256
  6
BYLAYER
 49
-0.5
 62
   256
  6
BYLAYER
  0
ACDBPLACEHOLDER
  5
F
102
{ACAD_REACTORS
330
E
102
}
330
E
  0
TABLESTYLE
  5
11B
102
{ACAD_REACTORS
330
11A
102
}
330
11A
100
AcDbTableStyle
  3
Standard
 70
     0
 71
     0
 40
1.5
 41
1.5
280
     0
281
     0
  7
STANDARD
140
4.5
170
     2
 62
     0
 63
     7
283
     0
274
    -2
284
     1
 64
     0
275
    -2
285
     1
 65
     0
276
    -2
286
     1
 66
     0
277
    -2
287
     1
 67
     0
278
    -2
288
     1
 68
     0
279
    -2
289
     1
 69
     0
  7
STANDARD
140
6.0
170
     5
 62
     0
 63
     7
283
     0
274
    -2
284
     1
 64
     0
275
    -2
285
     1
 65
     0
276
    -2
286
     1
 66
     0
277
    -2
287
     1
 67
     0
278
    -2
288
     1
 68
     0
279
    -2
289
     1
 69
     0
  7
STANDARD
140
4.5
170
     5
 62
     0
 63
     7
283
     0
274
    -2
284
     1
 64
     0
275
    -2
285
     1
 65
     0
276
    -2
286
     1
 66
     0
277
    -2
287
     1
 67
     0
278
    -2
288
     1
 68
     0
279
    -2
289
     1
 69
     0
  0
DICTIONARYVAR
  5
138
102
{ACAD_REACTORS
330
94
102
}
330
94
100
DictionaryVariables
280
     0
  1
STANDARD
  0
DICTIONARYVAR
  5
96
102
{ACAD_REACTORS
330
94
102
}
330
94
100
DictionaryVariables
280
     0
  1
2
  0
DICTIONARYVAR
  5
95
102
{ACAD_REACTORS
330
94
102
}
330
94
100
DictionaryVariables
280
     0
  1
0
  0
DICTIONARYVAR
  5
162A
102
{ACAD_REACTORS
330
94
102
}
330
94
100
DictionaryVariables
280
     0
  1

  0
DICTIONARY
  5
1B5
102
{ACAD_REACTORS
330
5B
102
}
330
5B
100
AcDbDictionary
281
     1
  0
DICTIONARY
  5
61
102
{ACAD_REACTORS
330
5B
102
}
330
5B
100
AcDbDictionary
281
     1
  0
XRECORD
  5
123
102
{ACAD_REACTORS
330
5B
102
}
330
5B
100
AcDbXrecord
280
     1
 90
-1023410169
  0
DICTIONARY
  5
1630
330
22
100
AcDbDictionary
280
     1
281
     1
  3
ACAD_XREC_ROUNDTRIP
360
1631
  0
DICTIONARY
  5
162E
330
1E
100
AcDbDictionary
280
     1
281
     1
  3
ACAD_XREC_ROUNDTRIP
360
162F
  0
DICTIONARY
  5
1632
330
26
100
AcDbDictionary
280
     1
281
     1
  3
ACAD_XREC_ROUNDTRIP
360
1633
  0
DICTIONARY
  5
AE2
330
AE1
100
AcDbDictionary
280
     1
281
     1
  3
ACAD_XREC_ROUNDTRIP
360
AE3
  0
XRECORD
  5
1631
102
{ACAD_REACTORS
330
1630
102
}
330
1630
100
AcDbXrecord
280
     1
102
SHADEPLOT
 70
     0
102
SHADEPLOTRESLEVEL
 70
     2
102
SHADEPLOTCUSTOMDPI
 70
   300
  0
XRECORD
  5
162F
102
{ACAD_REACTORS
330
162E
102
}
330
162E
100
AcDbXrecord
280
     1
102
SHADEPLOT
 70
     0
102
SHADEPLOTRESLEVEL
 70
     2
102
SHADEPLOTCUSTOMDPI
 70
   300
  0
XRECORD
  5
1633
102
{ACAD_REACTORS
330
1632
102
}
330
1632
100
AcDbXrecord
280
     1
102
SHADEPLOT
 70
     0
102
SHADEPLOTRESLEVEL
 70
     2
102
SHADEPLOTCUSTOMDPI
 70
   300
  0
XRECORD
  5
AE3
102
{ACAD_REACTORS
330
AE2
102
}
330
AE2
100
AcDbXrecord
280
     1
102
MATERIAL
148
0.0
149
0.0
149
0.0
 93
        0
 94
       63
282
     0
 72
     1
 77
     1
171
     1
175
     1
179
     1
273
     0
  0
ENDSEC
  0
EOF
