  0
SECTION
  2
HEADER
  9
$ACADVER
  1
AC1009
  9
$INSBASE
 10
0.0
 20
0.0
 30
0.0
  9
$EXTMIN
 10
185.86065972067939
 20
192.6196310862662
 30
-0.000000000000013
  9
$EXTMAX
 10
505.99127394472168
 20
466.97570952933251
 30
0.0000000000000023
  9
$LIMMIN
 10
0.0
 20
0.0
  9
$LIMMAX
 10
1188.0
 20
840.0
  9
$ORTHOMODE
 70
     1
  9
$REGENMODE
 70
     1
  9
$FILLMODE
 70
     1
  9
$QTEXTMODE
 70
     0
  9
$MIRRTEXT
 70
     1
  9
$DRAGMODE
 70
     2
  9
$LTSCALE
 40
1.0
  9
$OSMODE
 70
    39
  9
$ATTMODE
 70
     1
  9
$TEXTSIZE
 40
3.0
  9
$TRACEWID
 40
0.05
  9
$TEXTSTYLE
  7
ITALICT
  9
$CLAYER
  8
0
  9
$CELTYPE
  6
CONTINUOUS
  9
$CECOLOR
 62
   256
  9
$DIMSCALE
 40
1.0
  9
$DIMASZ
 40
3.0
  9
$DIMEXO
 40
1.0
  9
$DIMDLI
 40
1.4824161510814720E+016
  9
$DIMRND
 40
0.0
  9
$DIMDLE
 40
0.0
  9
$DIMEXE
 40
1.0
  9
$DIMTP
 40
0.15
  9
$DIMTM
 40
-0.1
  9
$DIMTXT
 40
3.0
  9
$DIMCEN
 40
2.0
  9
$DIMTSZ
 40
0.0
  9
$DIMTOL
 70
     0
  9
$DIMLIM
 70
     0
  9
$DIMTIH
 70
     0
  9
$DIMTOH
 70
     0
  9
$DIMSE1
 70
     0
  9
$DIMSE2
 70
     0
  9
$DIMTAD
 70
     1
  9
$DIMZIN
 70
     0
  9
$DIMBLK
  1

  9
$DIMASO
 70
     0
  9
$DIMSHO
 70
     0
  9
$DIMPOST
  1

  9
$DIMAPOST
  1

  9
$DIMALT
 70
     0
  9
$DIMALTD
 70
     2
  9
$DIMALTF
 40
25.399999999999999
  9
$DIMLFAC
 40
1.0
  9
$DIMTOFL
 70
     1
  9
$DIMTVP
 40
1.0
  9
$DIMTIX
 70
     0
  9
$DIMSOXD
 70
     0
  9
$DIMSAH
 70
     0
  9
$DIMBLK1
  1

  9
$DIMBLK2
  1

  9
$DIMSTYLE
  2
STANDARD
  9
$DIMCLRD
 70
     0
  9
$DIMCLRE
 70
     0
  9
$DIMCLRT
 70
     0
  9
$DIMTFAC
 40
1.0
  9
$DIMGAP
 40
1.0
  9
$LUNITS
 70
     2
  9
$LUPREC
 70
     2
  9
$SKETCHINC
 40
0.1
  9
$FILLETRAD
 40
0.0
  9
$AUNITS
 70
     0
  9
$AUPREC
 70
     2
  9
$MENU
  1
ACAD
  9
$ELEVATION
 40
0.0
  9
$PELEVATION
 40
0.0
  9
$THICKNESS
 40
0.0
  9
$LIMCHECK
 70
     0
  9
$BLIPMODE
 70
     0
  9
$CHAMFERA
 40
0.0
  9
$CHAMFERB
 40
0.0
  9
$SKPOLY
 70
     1
  9
$TDCREATE
 40
2450580.7034460641
  9
$TDUPDATE
 40
2452055.572953993
  9
$TDINDWG
 40
0.5046933333
  9
$TDUSRTIMER
 40
0.5046933333
  9
$USRTIMER
 70
     1
  9
$ANGBASE
 50
0.0
  9
$ANGDIR
 70
     0
  9
$PDMODE
 70
     0
  9
$PDSIZE
 40
0.0
  9
$PLINEWID
 40
0.0
  9
$COORDS
 70
     2
  9
$SPLFRAME
 70
     0
  9
$SPLINETYPE
 70
     6
  9
$SPLINESEGS
 70
     8
  9
$ATTDIA
 70
     0
  9
$ATTREQ
 70
     1
  9
$HANDLING
 70
 12289
  9
$HANDSEED
  5
14C2D
  9
$SURFTAB1
 70
     6
  9
$SURFTAB2
 70
     6
  9
$SURFTYPE
 70
     6
  9
$SURFU
 70
     6
  9
$SURFV
 70
     6
  9
$UCSNAME
  2

  9
$UCSORG
 10
0.0
 20
0.0
 30
0.0
  9
$UCSXDIR
 10
1.0
 20
0.0
 30
0.0
  9
$UCSYDIR
 10
0.0
 20
1.0
 30
0.0
  9
$PUCSNAME
  2

  9
$PUCSORG
 10
0.0
 20
0.0
 30
0.0
  9
$PUCSXDIR
 10
1.0
 20
0.0
 30
0.0
  9
$PUCSYDIR
 10
0.0
 20
1.0
 30
0.0
  9
$USERI1
 70
     0
  9
$USERI2
 70
-31485
  9
$USERI3
 70
     0
  9
$USERI4
 70
     0
  9
$USERI5
 70
     0
  9
$USERR1
 40
0.0
  9
$USERR2
 40
0.0
  9
$USERR3
 40
0.0
  9
$USERR4
 40
0.0
  9
$USERR5
 40
0.0
  9
$WORLDVIEW
 70
     1
  9
$SHADEDGE
 70
     3
  9
$SHADEDIF
 70
    70
  9
$TILEMODE
 70
     1
  9
$MAXACTVP
 70
    16
  9
$PLIMCHECK
 70
     0
  9
$PEXTMIN
 10
1.0000000000000000E+020
 20
1.0000000000000000E+020
 30
1.0000000000000000E+020
  9
$PEXTMAX
 10
-1.0000000000000000E+020
 20
-1.0000000000000000E+020
 30
-1.0000000000000000E+020
  9
$PLIMMIN
 10
0.0
 20
0.0
  9
$PLIMMAX
 10
12.0
 20
9.0
  9
$UNITMODE
 70
     0
  9
$VISRETAIN
 70
     0
  9
$PLINEGEN
 70
     0
  9
$PSLTSCALE
 70
     0
  0
ENDSEC
  0
SECTION
  2
TABLES
  0
TABLE
  2
VPORT
 70
     3
  0
VPORT
  2
*ACTIVE
 70
     0
 10
0.0
 20
0.0
 11
1.0
 21
1.0
 12
345.30848391224572
 22
329.5935175353024
 13
0.0
 23
0.0
 14
1.0
 24
1.0
 15
0.0
 25
0.0
 16
0.0
 26
0.0
 36
1.0
 17
0.0
 27
0.0
 37
0.0
 40
277.77627400238072
 41
1.7274401473296499
 42
1.0
 43
0.0
 44
0.0
 50
0.0
 51
0.0
 71
     0
 72
   100
 73
     1
 74
     1
 75
     0
 76
     0
 77
     0
 78
     0
  0
ENDTAB
  0
TABLE
  2
LTYPE
 70
     4
  0
LTYPE
  2
CONTINUOUS
 70
     0
  3
Solid line
 72
    65
 73
     0
 40
0.0
  0
LTYPE
  2
CENTER
 70
     0
  3
____________________ _ ____________________ _ 
 72
    65
 73
     4
 40
34.5
 49
30.0
 49
-1.5
 49
1.5
 49
-1.5
  0
LTYPE
  2
HIDDEN
 70
     0
  3
___ ___ ___ ___ ___ ___ ___ ___ ___ ___ 
 72
    65
 73
     2
 40
6.0
 49
4.5
 49
-1.5
  0
LTYPE
  2
PHANTOM
 70
     0
  3
__________ _ _ __________ _ _ __________ _ _ 
 72
    65
 73
     6
 40
15.0
 49
10.0
 49
-1.0
 49
1.0
 49
-1.0
 49
1.0
 49
-1.0
  0
ENDTAB
  0
TABLE
  2
LAYER
 70
     6
  0
LAYER
  2
0
 70
     0
 62
     7
  6
CONTINUOUS
  0
LAYER
  2
LOGO
 70
     0
 62
     7
  6
CONTINUOUS
  0
LAYER
  2
DIM
 70
     0
 62
     5
  6
CONTINUOUS
  0
LAYER
  2
CENTER
 70
     0
 62
     1
  6
CONTINUOUS
  0
LAYER
  2
HIDDEN
 70
     0
 62
     3
  6
CONTINUOUS
  0
LAYER
  2
UMCL3
 70
     0
 62
     1
  6
CONTINUOUS
  0
ENDTAB
  0
TABLE
  2
STYLE
 70
     7
  0
STYLE
  2
STANDARD
 70
     0
 40
0.0
 41
1.0
 50
0.0
 71
     0
 42
3.0
  3
txt
  4

  0
STYLE
  2
ITALICT
 70
     0
 40
0.0
 41
1.0
 50
0.0
 71
     0
 42
3.0
  3
ITALICT.SHX
  4

  0
STYLE
  2
ROMANSS
 70
     0
 40
0.0
 41
1.0
 50
0.0
 71
     0
 42
3.0
  3
ROMANSS.SHX
  4
LMP
  0
STYLE
  2
CHINESET
 70
     0
 40
0.0
 41
1.0
 50
0.0
 71
     0
 42
5.0
  3
simplex.shx
  4
chineset.shx
  0
STYLE
  2
LOGO
 70
     0
 40
0.0
 41
1.0
 50
0.0
 71
     0
 42
5.0
  3
txt
  4

  0
STYLE
  2
ROMANS
 70
     0
 40
0.0
 41
1.0
 50
0.0
 71
     0
 42
3.0
  3
ROMANS.SHX
  4
LMP
  0
STYLE
  2
ROMANS1
 70
     0
 40
0.0
 41
1.0
 50
0.0
 71
     0
 42
3.0
  3
ROMANS.SHX
  4

  0
ENDTAB
  0
TABLE
  2
VIEW
 70
     0
  0
ENDTAB
  0
TABLE
  2
UCS
 70
     0
  0
ENDTAB
  0
TABLE
  2
APPID
 70
     1
  0
APPID
  2
ACAD
 70
     0
  0
ENDTAB
  0
TABLE
  2
DIMSTYLE
 70
     1
  0
DIMSTYLE
  2
STANDARD
 70
     0
  3

  4

  5

  6

  7

 40
1.0
 41
0.18
 42
0.0625
 43
0.38
 44
0.18
 45
0.0
 46
0.0
 47
0.0
 48
0.0
140
0.18
141
0.09
142
0.0
143
25.399999999999999
144
1.0
145
0.0
146
1.0
147
0.09
 71
     0
 72
     0
 73
     1
 74
     1
 75
     0
 76
     0
 77
     0
 78
     0
170
     0
171
     2
172
     0
173
     0
174
     0
175
     0
176
     0
177
     0
178
     0
  0
ENDTAB
  0
ENDSEC
  0
SECTION
  2
BLOCKS
  0
BLOCK
  8
0
  2
$MODEL_SPACE
 70
     0
 10
0.0
 20
0.0
 30
0.0
  3
$MODEL_SPACE
  1

  0
ENDBLK
  5
3E
  8
0
  0
BLOCK
 67
     1
  8
0
  2
$PAPER_SPACE
 70
     0
 10
0.0
 20
0.0
 30
0.0
  3
$PAPER_SPACE
  1

  0
ENDBLK
  5
3C
 67
     1
  8
0
  0
ENDSEC
  0
SECTION
  2
ENTITIES
  0
LINE
  5
B2B
  8
0
 62
     4
 10
185.86272374947831
 20
232.92671314659441
 30
0.0
 11
185.86272374947831
 21
466.9577453877942
 31
0.0
  0
LINE
  5
B2D
  8
0
 62
     4
 10
505.92834892189939
 20
232.92671314659441
 30
0.0
 11
185.86272374947831
 21
232.92671314659441
 31
0.0
  0
LINE
  5
B2E
  8
0
 62
     4
 10
185.86272374947831
 20
466.9577453877942
 30
0.0
 11
505.9283489218995
 21
466.95774538779358
 31
0.0
  0
LINE
  5
B2F
  8
0
 62
     4
 10
505.9283489218995
 20
466.95774538779381
 30
0.0
 11
505.92834892189939
 21
232.92671314659441
 31
0.0
  0
LINE
  5
D2E
  8
LOGO
 62
     1
 10
505.92834892189939
 20
192.67417446185979
 30
0.0
 11
185.86272374947831
 21
192.67417446185979
 31
0.0
  0
LINE
  5
D2F
  8
LOGO
 62
     1
 10
505.92834892189939
 20
232.92671314659441
 30
0.0
 11
185.86272374947831
 21
232.92671314659441
 31
0.0
  0
TEXT
  5
D35
  8
LOGO
 62
     7
 10
277.71317590953089
 20
222.8483929141041
 30
0.0
 40
8.0505077369469227
  1
訂購代號:
  7
CHINESET
  0
TEXT
  5
D36
  8
LOGO
 62
     7
 10
276.75029080086529
 20
215.29276090428741
 30
0.0
 40
5.3670051579646154
  1
Order example:
 41
0.8
  7
CHINESET
  0
TEXT
  5
D37
  8
LOGO
  6
CONTINUOUS
 62
     5
 10
188.9091421950921
 20
194.5426611861391
 30
0.0
 40
4.0252538684734613
  1
MINDMAN INDUSTRIAL CO.,LTD
 41
0.85
  7
CHINESET
  0
TEXT
  5
D38
  8
LOGO
  6
CONTINUOUS
 62
     5
 10
187.18025730344351
 20
200.5817249400985
 30
0.0
 40
6.0378808027101938
  1
金器工業股份有限公司
 41
0.8
  7
LOGO
  0
SOLID
  5
D39
  8
LOGO
 62
     2
 10
200.7815455440136
 20
215.46660154231989
 30
0.0
 11
201.50171691645539
 21
215.46660154231989
 31
0.0
 12
209.78368769952931
 22
231.97052882743279
 32
0.0
 13
210.50385907197111
 23
231.97052882743159
 33
0.0
  0
SOLID
  5
D3A
  8
LOGO
 62
     5
 10
201.50171691645539
 20
215.46660154231989
 30
0.0
 11
203.24213106652149
 21
215.46660154231989
 31
0.0
 12
209.78368769952931
 22
230.65021464462319
 32
0.0
 13
208.0432735494629
 23
224.26869609437929
 33
0.0
  0
SOLID
  5
D3B
  8
LOGO
 62
     5
 10
201.50171691645539
 20
216.78691572512841
 30
0.0
 11
203.24213106652149
 21
223.16843427537219
 31
0.0
 12
209.78368769952931
 22
231.97052882743279
 32
0.0
 13
208.0432735494629
 23
231.97052882743279
 33
0.0
  0
LINE
  5
D3C
  8
LOGO
 62
     1
 10
274.41830885589451
 20
208.7751899357537
 30
0.0
 11
185.86272374947819
 21
208.7751899357537
 31
0.0
  0
SOLID
  5
D3D
  8
LOGO
 62
     2
 10
200.7815455440136
 20
231.97052882743159
 30
0.0
 11
201.50171691645539
 21
231.97052882743159
 31
0.0
 12
200.7815455440136
 22
215.46660154231989
 32
0.0
 13
201.50171691645539
 23
215.46660154231989
 33
0.0
  0
SOLID
  5
D3E
  8
LOGO
 62
     2
 10
191.7794033884974
 20
215.46660154231941
 30
0.0
 11
192.49957476093971
 21
215.46660154231989
 31
0.0
 12
200.7815455440136
 22
231.97052882743159
 32
0.0
 13
201.50171691645539
 23
231.97052882743159
 33
0.0
  0
SOLID
  5
D3F
  8
LOGO
 62
     5
 10
201.50171691645539
 20
231.97052882743159
 30
0.0
 11
203.24213106652149
 21
231.97052882743279
 31
0.0
 12
201.50171691645539
 22
216.78691572512841
 32
0.0
 13
203.24213106652149
 23
223.16843427537219
 33
0.0
  0
SOLID
  5
D40
  8
LOGO
 62
     5
 10
199.04113139394741
 20
215.46660154231989
 30
0.0
 11
200.7815455440136
 21
215.46660154231989
 31
0.0
 12
199.04113139394741
 22
224.26869609437929
 32
0.0
 13
200.7815455440136
 23
230.65021464462319
 33
0.0
  0
SOLID
  5
D41
  8
LOGO
 62
     5
 10
192.49957476093971
 20
215.46660154231989
 30
0.0
 11
194.23998891100581
 21
215.46660154231989
 31
0.0
 12
200.7815455440136
 22
230.65021464462319
 32
0.0
 13
199.04113139394741
 23
224.26869609437929
 33
0.0
  0
SOLID
  5
D42
  8
LOGO
 62
     5
 10
190.03898923843099
 20
215.46660154231989
 30
0.0
 11
191.7794033884974
 21
215.46660154231941
 31
0.0
 12
199.04113139394741
 22
231.97052882743279
 32
0.0
 13
200.7815455440136
 23
231.97052882743159
 33
0.0
  0
LINE
  5
D43
  8
LOGO
 62
     1
 10
185.86272374947831
 20
192.67417446185979
 30
0.0
 11
185.86272374947831
 21
232.92671314659441
 31
0.0
  0
SOLID
  5
D44
  8
LOGO
 62
     5
 10
193.13962706819609
 20
212.46588749048109
 30
0.0
 11
193.73976987856491
 21
212.46588749048109
 31
0.0
 12
193.13962706819609
 22
209.46517343864181
 32
0.0
 13
193.73976987856491
 23
209.46517343864289
 33
0.0
  0
SOLID
  5
D45
  8
LOGO
 62
     5
 10
193.13962706819609
 20
212.8859874577382
 30
0.0
 11
193.73976987856491
 21
212.8859874577382
 31
0.0
 12
193.13962706819609
 22
213.36610170603299
 32
0.0
 13
193.73976987856491
 23
213.36610170603299
 33
0.0
  0
SOLID
  5
D46
  8
LOGO
 62
     5
 10
191.82906190553919
 20
212.46588749048109
 30
0.0
 11
192.4292047159062
 21
212.46588749048109
 31
0.0
 12
191.82906190553919
 22
209.46517343864289
 32
0.0
 13
192.4292047159062
 23
209.46517343864289
 33
0.0
  0
SOLID
  5
D47
  8
LOGO
 62
     5
 10
189.5388702297916
 20
209.46517343864289
 30
0.0
 11
190.13901304015889
 21
209.46517343864289
 31
0.0
 12
191.82906190553919
 22
212.46588749048109
 32
0.0
 13
192.4292047159062
 23
212.46588749048109
 33
0.0
  0
SOLID
  5
D48
  8
LOGO
 62
     5
 10
189.5388702297916
 20
212.46588749048109
 30
0.0
 11
190.13901304015889
 21
212.46588749048109
 31
0.0
 12
189.5388702297916
 22
209.46517343864289
 32
0.0
 13
190.13901304015889
 23
209.46517343864289
 33
0.0
  0
SOLID
  5
D49
  8
LOGO
 62
     5
 10
187.24867855404489
 20
209.46517343864289
 30
0.0
 11
187.84882136441311
 21
209.46517343864289
 31
0.0
 12
189.5388702297916
 22
212.46588749048109
 32
0.0
 13
190.13901304015889
 23
212.46588749048109
 33
0.0
  0
SOLID
  5
D4A
  8
LOGO
 62
     5
 10
204.84247188464809
 20
211.26560186974561
 30
0.0
 11
205.4426146950151
 21
211.26560186974561
 31
0.0
 12
204.84247188464809
 22
209.46517343864181
 32
0.0
 13
205.4426146950151
 23
209.46517343864181
 33
0.0
  0
SOLID
  5
D4B
  8
LOGO
 62
     5
 10
203.0420434535452
 20
211.26560186974561
 30
0.0
 11
203.64218626391249
 21
211.26560186974561
 31
0.0
 12
203.0420434535452
 22
209.46517343864289
 32
0.0
 13
203.64218626391249
 23
209.46517343864289
 33
0.0
  0
SOLID
  5
D4C
  8
LOGO
 62
     5
 10
201.2416150224426
 20
212.46588749048109
 30
0.0
 11
201.8417578328098
 21
212.46588749048109
 31
0.0
 12
201.2416150224426
 22
209.46517343864289
 32
0.0
 13
201.8417578328098
 23
209.46517343864289
 33
0.0
  0
SOLID
  5
D4D
  8
LOGO
 62
     5
 10
199.94128559521829
 20
213.36610170603299
 30
0.0
 11
200.54142840558549
 21
213.36610170603299
 31
0.0
 12
199.94128559521829
 22
209.46517343864289
 32
0.0
 13
200.54142840558549
 23
209.46517343864289
 33
0.0
  0
POLYLINE
  5
D4E
  8
LOGO
 62
     5
 66
     1
 10
0.0
 20
0.0
 30
0.0
 70
     1
 40
0.6011045776920371
 41
0.6011045776920371
  0
VERTEX
  5
14BFC
  8
LOGO
 62
     5
 10
197.83892223856279
 20
210.96553046456179
 30
0.0
 42
1.0
  0
VERTEX
  5
14BFD
  8
LOGO
 62
     5
 10
200.24334054933101
 20
210.96553046456179
 30
0.0
 42
1.0
  0
SEQEND
  5
14BFE
  8
LOGO
 62
     5
  0
SOLID
  5
D4F
  8
LOGO
 62
     5
 10
196.24038492652301
 20
211.26560186974561
 30
0.0
 11
196.8405277368914
 21
211.26560186974561
 31
0.0
 12
196.24038492652301
 22
209.46517343864289
 32
0.0
 13
196.8405277368914
 23
209.46517343864289
 33
0.0
  0
SOLID
  5
D50
  8
LOGO
 62
     5
 10
194.4399564954204
 20
212.46588749048109
 30
0.0
 11
195.04009930578761
 21
212.46588749048109
 31
0.0
 12
194.4399564954204
 22
209.46517343864289
 32
0.0
 13
195.04009930578761
 23
209.46517343864289
 33
0.0
  0
POLYLINE
  5
D51
  8
LOGO
 62
     5
 66
     1
 10
0.0
 20
0.0
 30
0.0
 40
0.6011045776920371
 41
0.6011045776920371
  0
VERTEX
  5
14BFF
  8
LOGO
 62
     5
 10
196.5418989826936
 20
211.2656018697455
 30
0.0
 42
1.0
  0
VERTEX
  5
14C00
  8
LOGO
 62
     5
 10
194.7385852496173
 20
211.2656018697455
 30
0.0
 42
1.0
  0
SEQEND
  5
14C01
  8
LOGO
 62
     5
  0
POLYLINE
  5
D52
  8
LOGO
 62
     5
 66
     1
 10
0.0
 20
0.0
 30
0.0
 40
0.6011045776920371
 41
0.6011045776920371
  0
VERTEX
  5
14C02
  8
LOGO
 62
     5
 10
205.14398594081831
 20
211.2656018697455
 30
0.0
 42
1.0
  0
VERTEX
  5
14C03
  8
LOGO
 62
     5
 10
203.3406722077421
 20
211.2656018697455
 30
0.0
 42
1.0
  0
SEQEND
  5
14C04
  8
LOGO
 62
     5
  0
POLYLINE
  5
D53
  8
LOGO
 62
     5
 66
     1
 10
0.0
 20
0.0
 30
0.0
 40
0.6011045776920371
 41
0.6011045776920371
  0
VERTEX
  5
14C05
  8
LOGO
 62
     5
 10
203.34355750971551
 20
211.2656018697455
 30
0.0
 42
1.0
  0
VERTEX
  5
14C06
  8
LOGO
 62
     5
 10
201.5402437766393
 20
211.2656018697455
 30
0.0
 42
1.0
  0
SEQEND
  5
14C07
  8
LOGO
 62
     5
  0
CIRCLE
  5
D54
  8
LOGO
  6
CONTINUOUS
 62
     6
 10
255.03654407434519
 20
220.85956158865471
 30
0.0
 40
1.3693671871256861
  0
CIRCLE
  5
D55
  8
LOGO
  6
CONTINUOUS
 62
     6
 10
255.03654407434519
 20
220.85956158865471
 30
0.0
 40
2.3371571398316249
  0
LINE
  5
D56
  8
LOGO
 62
     1
 10
274.41830885589451
 20
216.82569767270061
 30
0.0
 11
215.3812521182837
 21
216.82569767270061
 31
0.0
  0
LINE
  5
D57
  8
LOGO
 62
     1
 10
274.41830885589451
 20
224.8762054096475
 30
0.0
 11
215.3812521182837
 21
224.8762054096475
 31
0.0
  0
TEXT
  5
D58
  8
LOGO
 62
     6
 10
253.62182757975049
 20
226.88883234388419
 30
0.0
 40
4.0252538684734613
  1
1 : 1
  7
CHINESET
 72
     1
 11
260.71394153848939
 21
228.90145927812091
 31
0.0
 73
     2
  0
TEXT
  5
D59
  8
LOGO
 62
     6
 10
253.62182757975049
 20
210.78781686999039
 30
0.0
 40
4.0252538684734613
  1
m/m
  7
CHINESET
 72
     1
 11
260.71394153848939
 21
212.80044380422709
 31
0.0
 73
     2
  0
SOLID
  5
D5A
  8
LOGO
 62
     2
 10
209.78368769952931
 20
231.97052882743279
 30
0.0
 11
210.50385907197111
 21
231.97052882743159
 31
0.0
 12
209.78368769952931
 22
215.46660154231941
 32
0.0
 13
210.50385907197111
 23
215.46660154231941
 33
0.0
  0
SOLID
  5
D5B
  8
LOGO
 62
     5
 10
210.50385907197111
 20
215.46660154231941
 30
0.0
 11
212.24427322203729
 21
215.46660154231941
 31
0.0
 12
210.50385907197111
 22
231.97052882743159
 32
0.0
 13
212.24427322203729
 23
231.97052882743279
 33
0.0
  0
SOLID
  5
D5C
  8
LOGO
 62
     5
 10
209.78368769952931
 20
230.65021464462319
 30
0.0
 11
208.0432735494629
 21
224.26869609437929
 31
0.0
 12
209.78368769952931
 22
215.46660154231941
 32
0.0
 13
208.0432735494629
 23
215.46660154231941
 33
0.0
  0
LINE
  5
D5D
  8
LOGO
 62
     1
 10
215.3812521182837
 20
208.77518993575359
 30
0.0
 11
215.3812521182837
 21
232.92671314659441
 31
0.0
  0
LINE
  5
D5E
  8
LOGO
 62
     1
 10
247.58328306607129
 20
208.77518993575359
 30
0.0
 11
247.58328306607129
 21
232.92671314659441
 31
0.0
  0
TEXT
  5
D5F
  8
LOGO
 62
     6
 10
220.5008718822485
 20
210.78781686999039
 30
0.0
 40
4.0252538684734613
  1
單位 Unit:
 41
0.9
  7
CHINESET
 72
     4
 11
231.48226759217769
 21
212.80044380422709
 31
0.0
  0
SOLID
  5
D60
  8
LOGO
 62
     5
 10
211.6441304116702
 20
211.26560186974561
 30
0.0
 11
212.24427322203729
 21
211.2656018697455
 31
0.0
 12
211.6441304116702
 22
209.46517343864289
 32
0.0
 13
212.24427322203729
 23
209.46517343864289
 33
0.0
  0
SOLID
  5
D61
  8
LOGO
 62
     5
 10
209.84370198056629
 20
209.46517343864289
 30
0.0
 11
210.44384479093449
 21
209.46517343864289
 31
0.0
 12
209.84370198056629
 22
212.46588749048109
 32
0.0
 13
210.44384479093449
 23
212.46588749048109
 33
0.0
  0
SOLID
  5
D62
  8
LOGO
 62
     5
 10
208.54337255334369
 20
212.46588749048109
 30
0.0
 11
209.14351536371089
 21
212.46588749048109
 31
0.0
 12
208.54337255334369
 22
209.46517343864289
 32
0.0
 13
209.14351536371089
 23
209.46517343864289
 33
0.0
  0
LINE
  5
D63
  8
LOGO
 62
     5
 10
212.24427322203729
 20
209.46517343864289
 30
0.0
 11
212.24427322203729
 21
211.26560186974561
 31
0.0
  0
POLYLINE
  5
D64
  8
LOGO
 62
     5
 66
     1
 10
0.0
 20
0.0
 30
0.0
 70
     1
 40
0.6011045776920371
 41
0.6011045776920371
  0
VERTEX
  5
14C08
  8
LOGO
 62
     5
 10
206.4410091966877
 20
210.96553046456179
 30
0.0
 42
1.0
  0
VERTEX
  5
14C09
  8
LOGO
 62
     5
 10
208.84542750745581
 20
210.96553046456179
 30
0.0
 42
1.0
  0
SEQEND
  5
14C0A
  8
LOGO
 62
     5
  0
CIRCLE
  5
D65
  8
LOGO
 62
     5
 10
207.6432183520721
 20
210.96553046456199
 30
0.0
 40
0.9002142155515948
  0
POLYLINE
  5
D66
  8
LOGO
 62
     5
 66
     1
 10
0.0
 20
0.0
 30
0.0
 70
     1
  0
VERTEX
  5
14C0B
  8
LOGO
 62
     5
 10
206.7430041365204
 20
210.96553046456199
 30
0.0
 42
1.0000000573306349
  0
VERTEX
  5
14C0C
  8
LOGO
 62
     5
 10
208.54343256762391
 20
210.96553046456199
 30
0.0
 42
1.0000000573306349
  0
SEQEND
  5
14C0D
  8
LOGO
 62
     5
  0
POLYLINE
  5
D67
  8
LOGO
 62
     5
 66
     1
 10
0.0
 20
0.0
 30
0.0
 40
0.6011045776920371
 41
0.6011045776920371
  0
VERTEX
  5
14C0E
  8
LOGO
 62
     5
 10
211.9456444678404
 20
211.2656018697455
 30
0.0
 42
1.0
  0
VERTEX
  5
14C0F
  8
LOGO
 62
     5
 10
210.1423307347643
 20
211.2656018697455
 30
0.0
 42
1.0
  0
SEQEND
  5
14C10
  8
LOGO
 62
     5
  0
TEXT
  5
D68
  8
LOGO
 62
     6
 10
220.10733143707191
 20
218.89494624722951
 30
0.0
 40
4.0252538684734613
  1
投影 View:
 41
0.9
  7
CHINESET
 72
     4
 11
231.48226759217769
 21
220.850951541174
 31
0.0
  0
TEXT
  5
D69
  8
LOGO
 62
     6
 10
218.70028957144029
 20
226.89081327590611
 30
0.0
 40
4.0252538684734613
  1
比例 Scale:
 41
0.9
  7
CHINESET
 72
     4
 11
231.48226759217769
 21
228.90145927812091
 31
0.0
  0
LINE
  5
D6A
  8
LOGO
 62
     1
 10
274.41830885589451
 20
192.67417446185979
 30
0.0
 11
274.41830885589451
 21
232.92671314659441
 31
0.0
  0
LINE
  5
D6B
  8
LOGO
  6
CONTINUOUS
 62
     6
 10
262.39665725914273
 20
219.4901944015291
 30
0.0
 11
269.72351073329378
 21
218.52240444882321
 31
0.0
  0
LINE
  5
D6C
  8
LOGO
  6
CONTINUOUS
 62
     6
 10
262.39665725914273
 20
222.2289287757805
 30
0.0
 11
269.72351073329378
 21
223.19671872848639
 31
0.0
  0
LINE
  5
D6D
  8
LOGO
 62
     6
 10
262.39665725914273
 20
219.4901944015291
 30
0.0
 11
262.39665725914273
 21
222.2289287757805
 31
0.0
  0
LINE
  5
D6E
  8
LOGO
 62
     6
 10
269.72351073329378
 20
218.52240444882321
 30
0.0
 11
269.72351073329378
 21
223.19671872848639
 31
0.0
  0
LINE
  5
D6F
  8
LOGO
 62
     6
 10
357.45647876509179
 20
196.0285526855877
 30
0.0
 11
330.6214529752686
 21
196.02855268558761
 31
0.0
  0
LINE
  5
D70
  8
LOGO
 62
     6
 10
357.45647876509179
 20
210.78781686999039
 30
0.0
 11
330.6214529752686
 21
210.78781686999039
 31
0.0
  0
LINE
  5
D71
  8
LOGO
 62
     6
 10
360.1399813440741
 20
216.82569767270061
 30
0.0
 11
327.93795039628628
 21
216.82569767270061
 31
0.0
  0
LINE
  5
D72
  8
LOGO
 62
     6
 10
360.1399813440741
 20
228.90145927812091
 30
0.0
 11
327.93795039628628
 21
228.90145927812091
 31
0.0
  0
TEXT
  5
D73
  8
LOGO
  6
CONTINUOUS
 62
     7
 10
331.5798467534766
 20
219.5092002516829
 30
0.0
 40
6.7087564474557677
  1
MTHD
  7
CHINESET
 72
     1
 11
344.03896587018011
 21
222.8635784754108
 31
0.0
 73
     2
  0
LINE
  5
D74
  8
LOGO
 62
     6
 10
327.93795039628628
 20
228.90145927812091
 30
0.0
 11
327.93795039628628
 21
216.82569767270061
 31
0.0
  0
LINE
  5
D75
  8
LOGO
 62
     6
 10
330.6214529752686
 20
210.78781686999039
 30
0.0
 11
330.6214529752686
 21
196.02855268558761
 31
0.0
  0
TEXT
  5
D76
  8
LOGO
  6
CONTINUOUS
 62
     6
 10
337.64967401546028
 20
197.70574179745159
 30
0.0
 40
3.3543782237278839
  1
Model
  7
CHINESET
 72
     4
 11
344.03896587018011
 21
199.3829309093156
 31
0.0
  0
TEXT
  5
D77
  8
LOGO
 62
     6
 10
338.67196071221548
 20
203.54552939797321
 30
0.0
 40
5.3670051579646154
  1
型式
  7
CHINESET
 72
     4
 11
344.03896587018011
 21
206.0916873567713
 31
0.0
  0
LINE
  5
D78
  8
LOGO
 62
     6
 10
344.03896587018011
 20
216.82569767270061
 30
0.0
 11
344.03896587018011
 21
210.78781686999039
 31
0.0
  0
LINE
  5
D79
  8
LOGO
 62
     6
 10
360.13998134407422
 20
228.90145927812091
 30
0.0
 11
360.13998134407422
 21
216.82569767270061
 31
0.0
  0
LINE
  5
D7A
  8
LOGO
 62
     6
 10
357.45647876509179
 20
210.78781686999039
 30
0.0
 11
357.45647876509179
 21
196.0285526855877
 31
0.0
  0
LINE
  5
D7B
  8
LOGO
  6
CONTINUOUS
 62
     7
 10
362.2204535881728
 20
222.82080421938289
 30
0.0
 11
367.55266928816468
 21
222.82080421938289
 31
0.0
  0
LINE
  5
D82
  8
LOGO
 62
     6
 10
391.18334479715151
 20
228.90145927812111
 30
0.0
 11
391.18334479715151
 21
216.82569767270061
 31
0.0
  0
LINE
  5
D83
  8
LOGO
 62
     6
 10
369.64098575386561
 20
228.90145927812091
 30
0.0
 11
369.64098575386561
 21
216.82569767270061
 31
0.0
  0
LINE
  5
D85
  8
LOGO
 62
     6
 10
391.18334479715151
 20
196.0285526855877
 30
0.0
 11
369.64098575386561
 21
196.02855268558761
 31
0.0
  0
LINE
  5
D86
  8
LOGO
 62
     6
 10
391.18334479715151
 20
216.82569767270061
 30
0.0
 11
369.64098575386561
 21
216.82569767270061
 31
0.0
  0
LINE
  5
D87
  8
LOGO
 62
     6
 10
391.18334479715151
 20
210.78781686999039
 30
0.0
 11
369.64098575386561
 21
210.78781686999039
 31
0.0
  0
LINE
  5
D88
  8
LOGO
 62
     6
 10
369.64098575386561
 20
210.78781686999039
 30
0.0
 11
369.64098575386561
 21
196.0285526855877
 31
0.0
  0
TEXT
  5
D89
  8
LOGO
  6
CONTINUOUS
 62
     6
 10
376.25912556994081
 20
197.70574179745159
 30
0.0
 40
3.3543782237278839
  1
Bore
 41
0.8
  7
CHINESET
 72
     4
 11
380.41216527550858
 21
199.3829309093156
 31
0.0
  0
TEXT
  5
D8A
  8
LOGO
 62
     6
 10
375.2799665932049
 20
203.40818477778899
 30
0.0
 40
5.3670051579646154
  1
內徑
 41
0.9
  7
CHINESET
 72
     4
 11
380.41216527550858
 21
206.0916873567713
 31
0.0
  0
LINE
  5
D8B
  8
LOGO
 62
     6
 10
380.41216496612162
 20
216.82569767270061
 30
0.0
 11
380.41216496612162
 21
210.78781686999039
 31
0.0
  0
LINE
  5
D8C
  8
LOGO
 62
     6
 10
391.18334479715151
 20
210.78781686999039
 30
0.0
 11
391.18334479715151
 21
196.0285526855877
 31
0.0
  0
LINE
  5
D8E
  8
LOGO
 62
     6
 10
391.18334479715151
 20
228.90145927812111
 30
0.0
 11
369.64098575386561
 21
228.90145927812091
 31
0.0
  0
TEXT
  5
D8F
  8
LOGO
  6
CONTINUOUS
 62
     7
 10
375.6074179735644
 20
219.4331225308313
 30
0.0
 40
6.7087564474557677
  1
25
  7
CHINESET
 72
     1
 11
381.03831605007622
 21
222.7875007545592
 31
0.0
 73
     2
  0
LINE
  5
D9E
  8
LOGO
 62
     1
 10
505.92834892189939
 20
192.67417446185979
 30
0.0
 11
505.92834892189939
 21
232.92671314659441
 31
0.0
  0
LINE
  5
DAD
  8
LOGO
 62
     6
 10
400.68434920694301
 20
228.90145927812111
 30
0.0
 11
400.68434920694301
 21
216.8256976727007
 31
0.0
  0
LINE
  5
DAE
  8
LOGO
 62
     6
 10
442.22670825022902
 20
228.90145927812111
 30
0.0
 11
442.22670825022902
 21
216.8256976727007
 31
0.0
  0
TEXT
  5
DAF
  8
LOGO
 62
     6
 10
411.99618213767309
 20
203.57040110002569
 30
0.0
 40
5.3670051579646154
  1
旋轉方向
 41
0.9
  7
CHINESET
 72
     4
 11
421.45552872858582
 21
206.09168735677139
 31
0.0
  0
TEXT
  5
DB0
  8
LOGO
  6
CONTINUOUS
 62
     6
 10
403.56551153537038
 20
198.26480483473961
 30
0.0
 40
3.3543782237278839
  1
Rotating direction
 41
0.8
  7
CHINESET
 72
     4
 11
421.45552872858582
 21
199.3829309093156
 31
0.0
  0
LINE
  5
DB1
  8
LOGO
 62
     6
 10
442.22670825022902
 20
210.78781686999039
 30
0.0
 11
400.68434920694301
 21
210.78781686999039
 31
0.0
  0
LINE
  5
DB2
  8
LOGO
 62
     6
 10
442.22670825022902
 20
216.8256976727007
 30
0.0
 11
400.68434920694301
 21
216.8256976727007
 31
0.0
  0
LINE
  5
DB3
  8
LOGO
 62
     6
 10
442.22670825022902
 20
196.02855268558781
 30
0.0
 11
400.68434920694301
 21
196.0285526855877
 31
0.0
  0
LINE
  5
DB4
  8
LOGO
 62
     6
 10
400.68434920694301
 20
210.78781686999039
 30
0.0
 11
400.68434920694301
 21
196.02855268558781
 31
0.0
  0
LINE
  5
DB5
  8
LOGO
 62
     6
 10
421.45552872858599
 20
216.8256976727007
 30
0.0
 11
421.45552872858599
 21
210.78781686999039
 31
0.0
  0
LINE
  5
DB6
  8
LOGO
 62
     6
 10
442.22670825022902
 20
210.78781686999039
 30
0.0
 11
442.22670825022902
 21
196.02855268558781
 31
0.0
  0
LINE
  5
DB7
  8
LOGO
 62
     6
 10
442.22670825022902
 20
228.90145927812111
 30
0.0
 11
400.68434920694301
 21
228.90145927812111
 31
0.0
  0
LINE
  5
DB8
  8
LOGO
  6
CONTINUOUS
 62
     7
 10
393.26381704125038
 20
222.82080421938301
 30
0.0
 11
398.59603274124203
 21
222.82080421938301
 31
0.0
  0
TEXT
  5
DCEA
  8
UMCL3
  6
CONTINUOUS
 62
     2
 10
766.23679790982271
 20
285.02499111941353
 30
0.0
 40
2.5
  1

 41
0.8
  7
ROMANS1
 72
     1
 11
766.23679790982271
 21
286.27499111941353
 31
0.0
 73
     2
  0
TEXT
  5
DCED
  8
UMCL3
  6
CONTINUOUS
 62
     2
 10
741.15575056207274
 20
285.02499111941353
 30
0.0
 40
2.5
  1

 41
0.8
  7
ROMANS1
 72
     1
 11
741.15575056207274
 21
286.27499111941353
 31
0.0
 73
     2
  0
TEXT
  5
DCF2
  8
UMCL3
  6
CONTINUOUS
 62
     2
 10
719.57470321432265
 20
285.02499111941353
 30
0.0
 40
2.5
  1

 41
0.8
  7
ROMANS1
 72
     1
 11
719.57470321432265
 21
286.27499111941353
 31
0.0
 73
     2
  0
TEXT
  5
DD0D
  8
UMCL3
 62
     2
 10
716.36931152386535
 20
289.1485161689501
 30
0.0
 40
3.2999999999999998
  1

 41
0.9
  7
ROMANS
  0
TEXT
  5
DD17
  8
UMCL3
 62
     2
 10
734.45035887161544
 20
289.1485161689501
 30
0.0
 40
3.2999999999999998
  1

 41
0.9
  7
ROMANS
  0
TEXT
  5
DD1A
  8
UMCL3
 62
     2
 10
759.53140621936552
 20
289.1485161689501
 30
0.0
 40
3.2999999999999998
  1

 41
0.9
  7
ROMANS
  0
LINE
  5
14A20
  8
0
 10
221.15883228142951
 20
344.82052074179148
 30
0.0
 11
361.1588322814307
 21
344.82052074179131
 31
0.0
  0
LINE
  5
14A21
  8
0
 10
361.1588322814307
 20
363.82052074179131
 30
0.0
 11
221.15883228142951
 21
363.82052074179148
 31
0.0
  0
LINE
  5
14A22
  8
0
  6
PHANTOM
 62
     6
 10
221.15883228142951
 20
322.8205207417916
 30
0.0
 11
361.1588322814307
 21
322.82052074179131
 31
0.0
  0
LINE
  5
14A23
  8
0
  6
PHANTOM
 62
     6
 10
361.1588322814307
 20
341.82052074179131
 30
0.0
 11
221.15883228142951
 21
341.8205207417916
 31
0.0
  0
LINE
  5
14A24
  8
0
 10
361.15883228143002
 20
443.99735589777578
 30
0.0
 11
221.15883228143019
 21
443.99735589777617
 31
0.0
  0
LINE
  5
14A25
  8
0
 10
221.15883228142999
 20
424.99735589777617
 30
0.0
 11
361.15883228143019
 21
424.99735589777578
 31
0.0
  0
LINE
  5
14A26
  8
DIM
 10
317.35883228143001
 20
270.8205207417916
 30
0.0
 11
370.15883228143059
 21
270.82052074179182
 31
0.0
  0
LINE
  5
14A27
  8
DIM
 10
311.15883228143002
 20
319.82052074179148
 30
0.0
 11
378.1588322814307
 21
319.82052074179182
 31
0.0
  0
LINE
  5
14A28
  8
DIM
 10
317.35883228143001
 20
243.8205207417916
 30
0.0
 11
395.12093838131659
 21
243.8205207417918
 31
0.0
  0
LINE
  5
14A29
  8
DIM
 10
329.0199041469188
 20
398.6973477644255
 30
0.0
 11
347.9841898611466
 21
398.6973477644255
 31
0.0
  0
TEXT
  5
14A2A
  8
DIM
 10
333.0199041469188
 20
399.6973477644255
 30
0.0
 40
3.0
  1
4-%%c6.8
  7
ROMANS
  0
LINE
  5
14A2B
  8
DIM
 10
221.15883228142951
 20
371.82052074179148
 30
0.0
 11
361.1588322814307
 21
371.82052074179148
 31
0.0
  0
LINE
  5
14A2C
  8
DIM
 10
342.84466966808549
 20
292.91715451915269
 30
0.0
 11
314.15883228143002
 21
306.82052074179131
 31
0.0
  0
LINE
  5
14A2D
  8
DIM
 10
300.39399168171047
 20
354.3205207417916
 30
0.0
 11
378.54705620197518
 21
354.32052074179182
 31
0.0
  0
LINE
  5
14A2E
  8
CENTER
  6
CENTER
 10
364.09808889174082
 20
434.49735589777578
 30
0.0
 11
314.47332138736277
 21
434.49735589777578
 31
0.0
  0
ARC
  5
14A2F
  8
0
 10
291.15883228143002
 20
434.497355897776
 30
0.0
 40
34.25
 50
310.61295988215801
 51
319.38704011784188
  0
CIRCLE
  5
14A30
  8
0
 10
311.15883228143002
 20
414.497355897776
 30
0.0
 40
3.3999999999999999
  0
ARC
  5
14A31
  8
0
 10
291.15883228143002
 20
434.497355897776
 30
0.0
 40
23.0
 50
204.3961652827447
 51
335.60383471725521
  0
CIRCLE
  5
14A32
  8
0
 10
271.15883228143002
 20
414.497355897776
 30
0.0
 40
3.3999999999999999
  0
ARC
  5
14A33
  8
0
 10
291.15883228143002
 20
434.497355897776
 30
0.0
 40
34.25
 50
220.61295988215801
 51
229.38704011784191
  0
SOLID
  5
14A34
  8
DIM
 10
316.26345819708757
 20
410.67729406289891
 30
0.0
 11
315.5731339007084
 21
409.89691902992058
 31
0.0
 12
313.7054326808402
 22
412.24461836186032
 32
0.0
 13
313.7054326808402
 23
412.24461836186032
 33
0.0
  0
LINE
  5
14A35
  8
DIM
 10
329.0199041469188
 20
398.6973477644255
 30
0.0
 11
313.7054326808402
 21
412.24461836186032
 31
0.0
  0
LINE
  5
14A36
  8
DIM
 10
278.65883228143002
 20
433.49735589777578
 30
0.0
 11
278.65883228143002
 21
399.2432889533838
 31
0.0
  0
LINE
  5
14A37
  8
DIM
 10
303.6588322814298
 20
433.49735589777578
 30
0.0
 11
303.6588322814298
 21
399.2432889533838
 31
0.0
  0
LINE
  5
14A38
  8
CENTER
  6
CENTER
 10
311.15883228143019
 20
420.89735589777609
 30
0.0
 11
311.15883228143019
 21
408.0973558977762
 31
0.0
  0
LINE
  5
14A39
  8
CENTER
  6
CENTER
 10
271.15883228143019
 20
420.89735589777609
 30
0.0
 11
271.15883228143019
 21
408.09735589777591
 31
0.0
  0
LINE
  5
14A3A
  8
CENTER
  6
CENTER
 10
291.15883228143002
 20
462.41084048114328
 30
0.0
 11
291.15883228143002
 21
406.4078093667157
 31
0.0
  0
LINE
  5
14A3B
  8
0
 10
314.15883228143002
 20
315.82052074179148
 30
0.0
 11
314.15883228143002
 21
270.8205207417916
 31
0.0
  0
LINE
  5
14A3C
  8
0
 10
268.15883228143002
 20
315.82052074179148
 30
0.0
 11
268.15883228143002
 21
270.8205207417916
 31
0.0
  0
LINE
  5
14A3D
  8
CENTER
  6
CENTER
 10
291.15883228143002
 20
366.4270398814794
 30
0.0
 11
291.15883228143002
 21
240.21526900412519
 31
0.0
  0
LINE
  5
14A3E
  8
0
 10
265.95883228142998
 20
243.8205207417916
 30
0.0
 11
316.35883228143001
 21
243.8205207417916
 31
0.0
  0
LINE
  5
14A3F
  8
0
 10
265.95883228142998
 20
270.8205207417916
 30
0.0
 11
316.35883228143001
 21
270.8205207417916
 31
0.0
  0
LINE
  5
14A40
  8
0
 10
265.15883228143002
 20
270.02052074179159
 30
0.0
 11
317.15883228143002
 21
270.02052074179159
 31
0.0
  0
LINE
  5
14A41
  8
0
 10
265.15883228143002
 20
244.62052074179149
 30
0.0
 11
317.15883228143002
 21
244.62052074179149
 31
0.0
  0
SOLID
  5
14A42
  8
DIM
 10
271.11325554043009
 20
287.79240343292111
 30
0.0
 11
271.11325554043009
 21
286.75051436672101
 31
0.0
 12
268.15883228143002
 22
287.27145889982103
 32
0.0
 13
268.15883228143002
 23
287.27145889982103
 33
0.0
  0
LINE
  5
14A43
  8
DIM
 10
268.15883228143002
 20
287.27145889982103
 30
0.0
 11
314.15883228143002
 21
287.27145889982103
 31
0.0
  0
LINE
  5
14A44
  8
0
  6
CONTINUOUS
 10
268.86393376181348
 20
270.02052074179159
 30
0.0
 11
268.86393376181348
 21
244.62052074179149
 31
0.0
  0
LINE
  5
14A45
  8
0
 10
265.15883228143002
 20
270.02052074179159
 30
0.0
 11
265.15883228143002
 21
244.62052074179149
 31
0.0
  0
LINE
  5
14A46
  8
HIDDEN
  6
HIDDEN
 10
267.7588322814301
 20
270.8205207417916
 30
0.0
 11
267.7588322814301
 21
243.8205207417916
 31
0.0
  0
LINE
  5
14A47
  8
0
 10
268.86393376181348
 20
244.62052074179149
 30
0.0
 11
269.6639337618135
 21
243.8205207417916
 31
0.0
  0
LINE
  5
14A48
  8
0
 10
265.15883228143002
 20
244.62052074179149
 30
0.0
 11
265.95883228142998
 21
243.8205207417916
 31
0.0
  0
LINE
  5
14A49
  8
0
 10
269.6639337618135
 20
270.8205207417916
 30
0.0
 11
268.86393376181348
 21
270.02052074179159
 31
0.0
  0
LINE
  5
14A4A
  8
0
 10
265.95883228142998
 20
270.8205207417916
 30
0.0
 11
265.15883228143002
 21
270.02052074179159
 31
0.0
  0
LINE
  5
14A4B
  8
0
 10
317.15883228143002
 20
244.62052074179149
 30
0.0
 11
317.15883228143002
 21
270.02052074179159
 31
0.0
  0
LINE
  5
14A4C
  8
0
  6
CONTINUOUS
 10
313.4537308010465
 20
270.02052074179159
 30
0.0
 11
313.4537308010465
 21
244.62052074179149
 31
0.0
  0
LINE
  5
14A4D
  8
CENTER
  6
CENTER
 10
271.15883228143019
 20
276.21748146328332
 30
0.0
 11
271.15883228143019
 21
240.0361931690463
 31
0.0
  0
LINE
  5
14A4E
  8
CENTER
  6
CENTER
 10
311.15883228143019
 20
276.21748146328332
 30
0.0
 11
311.15883228143019
 21
239.98000272954161
 31
0.0
  0
LINE
  5
14A4F
  8
HIDDEN
  6
HIDDEN
 10
307.7588322814301
 20
270.8205207417916
 30
0.0
 11
307.7588322814301
 21
243.8205207417916
 31
0.0
  0
LINE
  5
14A50
  8
HIDDEN
  6
HIDDEN
 10
314.55883228143011
 20
270.8205207417916
 30
0.0
 11
314.55883228143011
 21
243.8205207417916
 31
0.0
  0
LINE
  5
14A51
  8
HIDDEN
  6
HIDDEN
 10
274.55883228143011
 20
270.8205207417916
 30
0.0
 11
274.55883228143011
 21
243.8205207417916
 31
0.0
  0
LINE
  5
14A52
  8
0
 10
316.35883228143001
 20
243.8205207417916
 30
0.0
 11
317.15883228143002
 21
244.62052074179149
 31
0.0
  0
LINE
  5
14A53
  8
0
 10
312.65373080104649
 20
243.8205207417916
 30
0.0
 11
313.4537308010465
 21
244.62052074179149
 31
0.0
  0
LINE
  5
14A54
  8
CENTER
  6
CENTER
 10
303.549530039606
 20
260.82052074179131
 30
0.0
 11
319.549530039606
 21
260.82052074179131
 31
0.0
  0
TEXT
  5
14A55
  8
DIM
 10
293.23799333636498
 20
288.27145889982103
 30
0.0
 40
3.0
  1
%%c46
  7
ROMANS
  0
LINE
  5
14A56
  8
0
 10
317.15883228143002
 20
270.02052074179159
 30
0.0
 11
316.35883228143001
 21
270.8205207417916
 31
0.0
  0
LINE
  5
14A57
  8
0
 10
313.4537308010465
 20
270.02052074179159
 30
0.0
 11
312.65373080104649
 21
270.8205207417916
 31
0.0
  0
SOLID
  5
14A58
  8
DIM
 10
311.2044090224299
 20
286.75051436672101
 30
0.0
 11
311.2044090224299
 21
287.79240343292111
 31
0.0
 12
314.15883228143002
 22
287.27145889982103
 32
0.0
 13
314.15883228143002
 23
287.27145889982103
 33
0.0
  0
LINE
  5
14A59
  8
HIDDEN
  6
HIDDEN
 10
308.15883228143019
 20
265.34885072824397
 30
0.0
 11
317.15883228143019
 21
265.82052074179131
 31
0.0
  0
LINE
  5
14A5A
  8
HIDDEN
  6
HIDDEN
 10
308.15883228143019
 20
264.59885072824397
 30
0.0
 11
317.15883228143019
 21
265.07052074179131
 31
0.0
  0
LINE
  5
14A5B
  8
HIDDEN
  6
HIDDEN
 10
308.15883228143019
 20
257.04219075533882
 30
0.0
 11
317.15883228143019
 21
256.57052074179131
 31
0.0
  0
LINE
  5
14A5C
  8
HIDDEN
  6
HIDDEN
 10
308.15883228143019
 20
256.29219075533882
 30
0.0
 11
317.15883228143019
 21
255.82052074179131
 31
0.0
  0
POLYLINE
  5
14A5D
  8
0
 66
     1
 10
0.0
 20
0.0
 30
0.0
  0
VERTEX
  5
14C11
  8
0
 10
268.86393376181348
 20
408.497355897776
 30
0.0
  0
VERTEX
  5
14C12
  8
0
 10
313.4537308010465
 20
408.497355897776
 30
0.0
  0
SEQEND
  5
14C13
  8
0
  0
LINE
  5
14A5E
  8
0
 62
     4
 10
314.15883228143002
 20
315.82052074179148
 30
0.0
 11
268.15883228143002
 21
315.82052074179148
 31
0.0
  0
ARC
  5
14A5F
  8
0
 10
272.15883228143002
 20
315.82052074179131
 30
0.0
 40
4.0
 50
90.0
 51
180.0
  0
LINE
  5
14A60
  8
DIM
 10
265.15883228143002
 20
384.497355897776
 30
0.0
 11
317.15883228143002
 21
384.497355897776
 31
0.0
  0
LINE
  5
14A61
  8
0
 10
221.15883228142951
 20
363.82052074179148
 30
0.0
 11
221.15883228142951
 21
344.82052074179148
 31
0.0
  0
LINE
  5
14A62
  8
0
  6
PHANTOM
 62
     6
 10
221.15883228142951
 20
337.8205207417916
 30
0.0
 11
221.15883228142951
 21
322.8205207417916
 31
0.0
  0
SOLID
  5
14A63
  8
DIM
 10
224.11325554042941
 20
372.3414652748915
 30
0.0
 11
224.11325554042941
 21
371.29957620869158
 31
0.0
 12
221.15883228142951
 22
371.82052074179148
 32
0.0
 13
221.15883228142951
 23
371.82052074179148
 33
0.0
  0
LINE
  5
14A64
  8
DIM
 10
221.15883228142951
 20
364.8205207417916
 30
0.0
 11
221.15883228142951
 21
372.8205207417916
 31
0.0
  0
SOLID
  5
14A65
  8
DIM
 10
268.11325554043009
 20
385.01830043087602
 30
0.0
 11
268.11325554043009
 21
383.9764113646761
 31
0.0
 12
265.15883228143002
 22
384.497355897776
 32
0.0
 13
265.15883228143002
 23
384.497355897776
 33
0.0
  0
LINE
  5
14A66
  8
DIM
 10
265.15883228143002
 20
411.20245737815952
 30
0.0
 11
265.15883228143002
 21
383.497355897776
 31
0.0
  0
CIRCLE
  5
14A67
  8
0
 10
291.15883228143002
 20
354.32052074179131
 30
0.0
 40
4.0
  0
LINE
  5
14A68
  8
0
 10
310.15883228143002
 20
319.82052074179148
 30
0.0
 11
272.15883228143002
 21
319.82052074179131
 31
0.0
  0
LINE
  5
14A69
  8
DIM
 10
313.24503500616191
 20
334.43665124601159
 30
0.0
 11
293.97667818983467
 21
351.48155183803669
 31
0.0
  0
LINE
  5
14A6A
  8
CENTER
  6
CENTER
 10
299.92271748366801
 20
306.82052074179131
 30
0.0
 11
315.92271748366801
 21
306.82052074179131
 31
0.0
  0
LINE
  5
14A6B
  8
0
 10
300.15883228143002
 20
343.02052074179142
 30
0.0
 11
299.40883228143002
 21
344.52052074179142
 31
0.0
  0
LINE
  5
14A6C
  8
0
 10
299.40883228143002
 20
344.52052074179142
 30
0.0
 11
299.40883228143002
 21
344.82052074179148
 31
0.0
  0
LINE
  5
14A6D
  8
0
 10
282.90883228143002
 20
344.82052074179148
 30
0.0
 11
282.90883228143002
 21
344.52052074179142
 31
0.0
  0
LINE
  5
14A6E
  8
0
 10
282.90883228143002
 20
344.52052074179142
 30
0.0
 11
282.15883228143002
 21
343.02052074179142
 31
0.0
  0
LINE
  5
14A6F
  8
0
 10
282.15883228143002
 20
343.02052074179142
 30
0.0
 11
300.15883228143002
 21
343.02052074179142
 31
0.0
  0
LINE
  5
14A70
  8
0
 10
282.90883228143002
 20
344.52052074179142
 30
0.0
 11
299.40883228143002
 21
344.52052074179142
 31
0.0
  0
LINE
  5
14A71
  8
0
 10
282.15883228143002
 20
343.02052074179142
 30
0.0
 11
282.15883228143002
 21
319.82052074179148
 31
0.0
  0
LINE
  5
14A72
  8
0
 10
300.15883228143002
 20
343.02052074179142
 30
0.0
 11
300.15883228143002
 21
319.82052074179148
 31
0.0
  0
SOLID
  5
14A73
  8
DIM
 10
296.5347037060821
 20
349.91422753907523
 30
0.0
 11
295.84437940970292
 21
349.13385250609713
 31
0.0
 12
293.97667818983467
 22
351.48155183803669
 32
0.0
 13
293.97667818983467
 23
351.48155183803669
 33
0.0
  0
LINE
  5
14A74
  8
CENTER
  6
CENTER
 10
283.15883228143002
 20
354.32052074179131
 30
0.0
 11
299.15883228143002
 21
354.32052074179131
 31
0.0
  0
ARC
  5
14A75
  8
0
 10
310.15883228143002
 20
315.82052074179148
 30
0.0
 40
4.0
 50
0.0
 51
90.0
  0
TEXT
  5
14A76
  8
DIM
 10
315.91836593270273
 20
335.43665124601171
 30
0.0
 40
3.0
  1
%%c8
  7
ROMANS
  0
LINE
  5
14A77
  8
DIM
 10
313.24503500616191
 20
334.43665124601159
 30
0.0
 11
322.2360003236372
 21
334.43665124601159
 31
0.0
  0
SOLID
  5
14A78
  8
DIM
 10
316.59023371986717
 20
305.0631684592222
 30
0.0
 11
317.04465215091273
 21
306.00073803839649
 31
0.0
 12
314.15883228143002
 22
306.82052074179131
 32
0.0
 13
314.15883228143002
 23
306.82052074179131
 33
0.0
  0
LINE
  5
14A79
  8
HIDDEN
  6
HIDDEN
 10
305.15883228143019
 20
310.59885072824397
 30
0.0
 11
314.15883228143019
 21
311.07052074179131
 31
0.0
  0
LINE
  5
14A7A
  8
HIDDEN
  6
HIDDEN
 10
305.15883228143019
 20
303.04219075533859
 30
0.0
 11
314.15883228143019
 21
302.57052074179131
 31
0.0
  0
LINE
  5
14A7B
  8
HIDDEN
  6
HIDDEN
 10
305.15883228143019
 20
302.29219075533859
 30
0.0
 11
314.15883228143019
 21
301.82052074179131
 31
0.0
  0
LINE
  5
14A7C
  8
HIDDEN
  6
HIDDEN
 10
305.15883228143019
 20
311.34885072824397
 30
0.0
 11
314.15883228143019
 21
311.82052074179131
 31
0.0
  0
LINE
  5
14A7D
  8
DIM
 10
271.15883228143019
 20
392.497355897776
 30
0.0
 11
311.15883228143002
 21
392.497355897776
 31
0.0
  0
POLYLINE
  5
14A7E
  8
DIM
 66
     1
 10
0.0
 20
0.0
 30
0.0
 70
     1
  0
VERTEX
  5
14C14
  8
DIM
 10
289.21105099412353
 20
396.27604746871469
 30
0.0
  0
VERTEX
  5
14C15
  8
DIM
 10
289.21105099412353
 20
393.79766028597868
 30
0.0
  0
VERTEX
  5
14C16
  8
DIM
 10
286.84392788517903
 20
393.79766028597868
 30
0.0
  0
VERTEX
  5
14C17
  8
DIM
 10
286.84392788517903
 20
396.27604746871469
 30
0.0
  0
SEQEND
  5
14C18
  8
DIM
  0
TEXT
  5
14A7F
  8
DIM
 10
289.6054508942695
 20
393.497355897776
 30
0.0
 40
3.0
  1
40
  7
ROMANS
  0
TEXT
  5
14A80
  8
DIM
 10
288.4060724100097
 20
401.497355897776
 30
0.0
 40
3.0
  1
25
  7
ROMANS
  0
POLYLINE
  5
14A81
  8
DIM
 66
     1
 10
0.0
 20
0.0
 30
0.0
 70
     1
  0
VERTEX
  5
14C19
  8
DIM
 10
289.21105099412353
 20
388.27604746871469
 30
0.0
  0
VERTEX
  5
14C1A
  8
DIM
 10
289.21105099412353
 20
385.79766028597868
 30
0.0
  0
VERTEX
  5
14C1B
  8
DIM
 10
286.84392788517903
 20
385.79766028597868
 30
0.0
  0
VERTEX
  5
14C1C
  8
DIM
 10
286.84392788517903
 20
388.27604746871469
 30
0.0
  0
SEQEND
  5
14C1D
  8
DIM
  0
TEXT
  5
14A82
  8
DIM
 10
289.61984919137848
 20
385.497355897776
 30
0.0
 40
3.0
  1
52
  7
ROMANS
  0
SOLID
  5
14A83
  8
DIM
 10
281.61325554043009
 20
401.01830043087602
 30
0.0
 11
281.61325554043009
 21
399.9764113646761
 31
0.0
 12
278.65883228143002
 22
400.497355897776
 32
0.0
 13
278.65883228143002
 23
400.497355897776
 33
0.0
  0
SOLID
  5
14A84
  8
DIM
 10
274.11325554043009
 20
393.01830043087602
 30
0.0
 11
274.11325554043009
 21
391.9764113646761
 31
0.0
 12
271.15883228143019
 22
392.497355897776
 32
0.0
 13
271.15883228143019
 23
392.497355897776
 33
0.0
  0
LINE
  5
14A85
  8
DIM
 10
271.15883228143019
 20
407.09735589777591
 30
0.0
 11
271.15883228143019
 21
391.497355897776
 31
0.0
  0
SOLID
  5
14A86
  8
DIM
 10
300.7044090224299
 20
401.01830043087602
 30
0.0
 11
300.7044090224299
 21
399.9764113646761
 31
0.0
 12
303.6588322814298
 22
400.497355897776
 32
0.0
 13
303.6588322814298
 23
400.497355897776
 33
0.0
  0
LINE
  5
14A87
  8
DIM
 10
278.65883228143002
 20
400.497355897776
 30
0.0
 11
303.6588322814298
 21
400.497355897776
 31
0.0
  0
TEXT
  5
14A88
  8
DIM
 10
286.49357234167769
 20
372.8205207417916
 30
0.0
 40
3.0
  1
140
  7
ROMANS
  0
SOLID
  5
14A89
  8
DIM
 10
314.20440902242979
 20
383.9764113646761
 30
0.0
 11
314.20440902242979
 21
385.01830043087602
 31
0.0
 12
317.15883228143002
 22
384.497355897776
 32
0.0
 13
317.15883228143002
 23
384.497355897776
 33
0.0
  0
SOLID
  5
14A8A
  8
DIM
 10
308.20440902243013
 20
391.9764113646761
 30
0.0
 11
308.20440902243013
 21
393.01830043087602
 31
0.0
 12
311.15883228143002
 22
392.497355897776
 32
0.0
 13
311.15883228143002
 23
392.497355897776
 33
0.0
  0
LINE
  5
14A8B
  8
DIM
 10
311.15883228143019
 20
407.0973558977762
 30
0.0
 11
311.15883228143002
 21
391.497355897776
 31
0.0
  0
LINE
  5
14A8C
  8
DIM
 10
317.15883228143002
 20
411.20245737815952
 30
0.0
 11
317.15883228143002
 21
383.497355897776
 31
0.0
  0
POLYLINE
  5
14A8D
  8
0
 66
     1
 10
0.0
 20
0.0
 30
0.0
  0
VERTEX
  5
14C1E
  8
0
 10
313.4537308010465
 20
460.49735589777578
 30
0.0
  0
VERTEX
  5
14C1F
  8
0
 10
268.86393376181348
 20
460.49735589777578
 30
0.0
  0
SEQEND
  5
14C20
  8
0
  0
CIRCLE
  5
14A8E
  8
0
 10
271.15883228143002
 20
454.49735589777578
 30
0.0
 40
3.3999999999999999
  0
LINE
  5
14A8F
  8
CENTER
  6
CENTER
 10
277.55883228143011
 20
454.49735589777578
 30
0.0
 11
264.75883228142987
 21
454.49735589777578
 31
0.0
  0
LINE
  5
14A90
  8
CENTER
  6
CENTER
 10
308.07877340435289
 20
434.497355897776
 30
0.0
 11
218.4494845807867
 21
434.49735589777629
 31
0.0
  0
LINE
  5
14A91
  8
CENTER
  6
CENTER
 10
277.55883228143011
 20
414.49735589777578
 30
0.0
 11
264.75883228142987
 21
414.49735589777578
 31
0.0
  0
LINE
  5
14A92
  8
0
 10
221.15883228143019
 20
443.99735589777617
 30
0.0
 11
221.15883228142999
 21
424.99735589777617
 31
0.0
  0
TEXT
  5
14A93
  8
DIM
 10
211.13782969222299
 20
449.54901905880769
 30
0.0
 40
4.0
  1
CW
  7
ROMANS
  0
POLYLINE
  5
14A94
  8
DIM
 66
     1
 10
0.0
 20
0.0
 30
0.0
 70
     7
  0
VERTEX
  5
14A95
  8
DIM
 10
219.77431060319071
 20
447.57450381857768
 30
0.0
 42
-0.0185322085214218
  0
VERTEX
  5
14A96
  8
DIM
 10
221.8034836730703
 20
451.97560305825891
 30
0.0
  0
VERTEX
  5
14A97
  8
DIM
 10
221.26829126847059
 20
452.24683928382399
 30
0.0
  0
VERTEX
  5
14A98
  8
DIM
 10
223.8907760518041
 20
454.28103692267308
 30
0.0
  0
VERTEX
  5
14A99
  8
DIM
 10
223.67665708916951
 20
451.0262762687808
 30
0.0
  0
VERTEX
  5
14A9A
  8
DIM
 10
223.1414646845696
 20
451.29751249434611
 30
0.0
 42
0.018532208521422
  0
VERTEX
  5
14A9B
  8
DIM
 10
221.15883228142999
 20
446.99735589777629
 30
0.0
  0
SEQEND
  5
14A9C
  8
DIM
  0
POLYLINE
  5
14A9D
  8
DIM
 66
     1
 10
0.0
 20
0.0
 30
0.0
 70
     7
  0
VERTEX
  5
14A9E
  8
DIM
 10
219.77431060319029
 20
421.42020797697569
 30
0.0
 42
0.0185322085214218
  0
VERTEX
  5
14A9F
  8
DIM
 10
221.80348367306979
 20
417.01910873729457
 30
0.0
  0
VERTEX
  5
14AA0
  8
DIM
 10
221.26829126847039
 20
416.74787251172938
 30
0.0
  0
VERTEX
  5
14AA1
  8
DIM
 10
223.89077605180361
 20
414.71367487288012
 30
0.0
  0
VERTEX
  5
14AA2
  8
DIM
 10
223.67665708916911
 20
417.96843552677268
 30
0.0
  0
VERTEX
  5
14AA3
  8
DIM
 10
223.1414646845692
 20
417.69719930120698
 30
0.0
 42
-0.018532208521422
  0
VERTEX
  5
14AA4
  8
DIM
 10
221.15883228142999
 20
421.99735589777629
 30
0.0
  0
SEQEND
  5
14AA5
  8
DIM
  0
TEXT
  5
14AA6
  8
DIM
 10
206.25221452132649
 20
416.48607007441109
 30
0.0
 40
4.0
  1
CCW
  7
ROMANS
  0
POLYLINE
  5
14AA7
  8
0
 66
     1
 10
0.0
 20
0.0
 30
0.0
  0
VERTEX
  5
14C21
  8
0
 10
265.15883228143002
 20
456.79225441739248
 30
0.0
  0
VERTEX
  5
14C22
  8
0
 10
265.15883228143002
 20
443.99735589777617
 30
0.0
  0
SEQEND
  5
14C23
  8
0
  0
ARC
  5
14AA8
  8
0
 10
291.15883228143002
 20
434.497355897776
 30
0.0
 40
34.25
 50
130.61295988215801
 51
139.38704011784191
  0
POLYLINE
  5
14AA9
  8
0
 66
     1
 10
0.0
 20
0.0
 30
0.0
  0
VERTEX
  5
14C24
  8
0
 10
265.15883228143002
 20
424.99735589777617
 30
0.0
  0
VERTEX
  5
14C25
  8
0
 10
265.15883228143002
 20
412.20245737815958
 30
0.0
  0
SEQEND
  5
14C26
  8
0
  0
ARC
  5
14AAA
  8
0
 10
291.15883228143002
 20
434.497355897776
 30
0.0
 40
23.0
 50
24.396165282744771
 51
155.60383471725521
  0
LINE
  5
14AAB
  8
DIM
 10
301.7703797542556
 20
438.997355897776
 30
0.0
 11
314.63428536633251
 21
438.997355897776
 31
0.0
  0
LINE
  5
14AAC
  8
DIM
 10
301.7703797542556
 20
429.99735589777532
 30
0.0
 11
314.63428536633251
 21
429.99735589777532
 31
0.0
  0
LINE
  5
14AAD
  8
CENTER
  6
CENTER
 10
304.75883228142987
 20
454.49735589777629
 30
0.0
 11
317.55883228143011
 21
454.49735589777629
 31
0.0
  0
LINE
  5
14AAE
  8
CENTER
  6
CENTER
 10
304.75883228142987
 20
414.49735589777617
 30
0.0
 11
317.55883228143011
 21
414.49735589777617
 31
0.0
  0
ARC
  5
14AAF
  8
0
 10
291.15883228143002
 20
434.497355897776
 30
0.0
 40
9.0
 50
330.0000000000025
 51
29.999999999997499
  0
ARC
  5
14AB0
  8
0
 10
291.15883228143002
 20
434.497355897776
 30
0.0
 40
8.25
 50
326.94426884914492
 51
33.055731150855038
  0
ARC
  5
14AB1
  8
0
 10
283.15883228143002
 20
434.497355897776
 30
0.0
 40
4.5
 50
90.0
 51
270.0
  0
ARC
  5
14AB2
  8
0
 10
291.15883228143002
 20
434.497355897776
 30
0.0
 40
9.0
 50
150.00000000000159
 51
209.9999999999975
  0
ARC
  5
14AB3
  8
0
 10
291.15883228143002
 20
434.497355897776
 30
0.0
 40
8.25
 50
146.94426884914489
 51
213.0557311508536
  0
LINE
  5
14AB4
  8
0
 10
283.15883228143002
 20
438.997355897776
 30
0.0
 11
299.15883228143002
 21
438.997355897776
 31
0.0
  0
LINE
  5
14AB5
  8
0
 10
283.15883228143002
 20
429.997355897776
 30
0.0
 11
299.15883228143002
 21
429.997355897776
 31
0.0
  0
ARC
  5
14AB6
  8
0
 10
299.15883228143002
 20
434.497355897776
 30
0.0
 40
4.5
 50
270.0
 51
90.0
  0
LINE
  5
14AB7
  8
CENTER
  6
CENTER
 10
271.15883228142968
 20
448.09735589777591
 30
0.0
 11
271.15883228142968
 21
460.89735589777581
 31
0.0
  0
ARC
  5
14AB8
  8
0
 10
291.15883228143002
 20
434.497355897776
 30
0.0
 40
34.25
 50
40.612959882158073
 51
49.38704011784192
  0
CIRCLE
  5
14AB9
  8
0
 10
311.15883228143002
 20
454.49735589777578
 30
0.0
 40
3.3999999999999999
  0
POLYLINE
  5
14ABA
  8
0
 66
     1
 10
0.0
 20
0.0
 30
0.0
  0
VERTEX
  5
14C27
  8
0
 10
317.15883228143002
 20
443.99735589777578
 30
0.0
  0
VERTEX
  5
14C28
  8
0
 10
317.15883228143002
 20
456.79225441739248
 30
0.0
  0
SEQEND
  5
14C29
  8
0
  0
POLYLINE
  5
14ABB
  8
0
 66
     1
 10
0.0
 20
0.0
 30
0.0
  0
VERTEX
  5
14C2A
  8
0
 10
317.15883228143002
 20
412.20245737815958
 30
0.0
  0
VERTEX
  5
14C2B
  8
0
 10
317.15883228143002
 20
424.997355897776
 30
0.0
  0
SEQEND
  5
14C2C
  8
0
  0
TEXT
  5
14ABC
  8
DIM
 10
312.29237830595042
 20
433.25271300325539
 30
0.0
 40
3.0
  1
9
 50
90.0
  7
ROMANS
  0
SOLID
  5
14ABD
  8
DIM
 10
313.81332283905061
 20
436.04293263877588
 30
0.0
 11
312.77143377285068
 21
436.04293263877588
 31
0.0
 12
313.29237830595059
 22
438.997355897776
 32
0.0
 13
313.29237830595059
 23
438.997355897776
 33
0.0
  0
SOLID
  5
14ABE
  8
DIM
 10
313.81332283905061
 20
432.9517791567755
 30
0.0
 11
312.77143377285068
 21
432.9517791567755
 31
0.0
 12
313.29237830595059
 22
429.99735589777532
 32
0.0
 13
313.29237830595059
 23
429.99735589777532
 33
0.0
  0
LINE
  5
14ABF
  8
DIM
 10
313.29237830595042
 20
429.99735589777532
 30
0.0
 11
313.29237830595059
 21
438.997355897776
 31
0.0
  0
LINE
  5
14AC0
  8
CENTER
  6
CENTER
 10
311.1588322814298
 20
448.09735589777591
 30
0.0
 11
311.1588322814298
 21
460.89735589777581
 31
0.0
  0
LINE
  5
14AC1
  8
0
 10
472.83535897625319
 20
315.82052074179148
 30
0.0
 11
472.83535897625302
 21
270.8205207417916
 31
0.0
  0
LINE
  5
14AC2
  8
0
 10
426.83535897625319
 20
315.82052074179148
 30
0.0
 11
426.83535897625319
 21
270.8205207417916
 31
0.0
  0
LINE
  5
14AC3
  8
DIM
 10
377.1588322814307
 20
243.8205207417918
 30
0.0
 11
377.1588322814307
 21
319.82052074179182
 31
0.0
  0
LINE
  5
14AC4
  8
DIM
 10
385.1588322814307
 20
243.8205207417918
 30
0.0
 11
385.1588322814307
 21
363.82052074179148
 31
0.0
  0
LINE
  5
14AC5
  8
DIM
 10
393.15883228143042
 20
243.8205207417918
 30
0.0
 11
393.15883228143042
 21
363.82052074179148
 31
0.0
  0
LINE
  5
14AC6
  8
CENTER
  6
CENTER
 10
449.83535897625319
 20
367.79144965308183
 30
0.0
 11
449.83535897625319
 21
240.21526900412519
 31
0.0
  0
SOLID
  5
14AC7
  8
DIM
 10
392.63788774833068
 20
246.77494400079169
 30
0.0
 11
393.67977681453061
 21
246.77494400079169
 31
0.0
 12
393.15883228143042
 22
243.8205207417918
 32
0.0
 13
393.15883228143042
 23
243.8205207417918
 33
0.0
  0
SOLID
  5
14AC8
  8
DIM
 10
384.63788774833068
 20
246.77494400079169
 30
0.0
 11
385.67977681453061
 21
246.77494400079169
 31
0.0
 12
385.1588322814307
 22
243.8205207417918
 32
0.0
 13
385.1588322814307
 23
243.8205207417918
 33
0.0
  0
SOLID
  5
14AC9
  8
DIM
 10
376.63788774833068
 20
246.77494400079169
 30
0.0
 11
377.67977681453061
 21
246.77494400079169
 31
0.0
 12
377.1588322814307
 22
243.8205207417918
 32
0.0
 13
377.1588322814307
 23
243.8205207417918
 33
0.0
  0
SOLID
  5
14ACA
  8
DIM
 10
368.63788774833068
 20
246.77494400079169
 30
0.0
 11
369.67977681453061
 21
246.77494400079169
 31
0.0
 12
369.1588322814307
 22
243.8205207417918
 32
0.0
 13
369.1588322814307
 23
243.8205207417918
 33
0.0
  0
LINE
  5
14ACB
  8
DIM
 10
369.1588322814307
 20
243.8205207417918
 30
0.0
 11
369.1588322814307
 21
270.82052074179182
 31
0.0
  0
TEXT
  5
14ACC
  8
DIM
 10
376.15883228143059
 20
278.83201181528187
 30
0.0
 40
3.0
  1
76
 50
90.0
  7
ROMANS
  0
TEXT
  5
14ACD
  8
DIM
 10
342.76116148127329
 20
293.91715451915269
 30
0.0
 40
3.0
  1
2-PT 1/8
  7
ROMANS
  0
LINE
  5
14ACE
  8
DIM
 10
342.84466966808549
 20
292.91715451915269
 30
0.0
 11
367.17009244743912
 21
292.91715451915269
 31
0.0
  0
SOLID
  5
14ACF
  8
DIM
 10
369.67977681453061
 20
267.86609748279159
 30
0.0
 11
368.63788774833068
 21
267.86609748279159
 31
0.0
 12
369.1588322814307
 22
270.82052074179182
 32
0.0
 13
369.1588322814307
 23
270.82052074179182
 33
0.0
  0
TEXT
  5
14AD0
  8
DIM
 10
368.15883228143059
 20
254.10156244280429
 30
0.0
 40
3.0
  1
27
 50
90.0
  7
ROMANS
  0
TEXT
  5
14AD1
  8
DIM
 10
384.15883228143059
 20
290.0348072662627
 30
0.0
 40
3.0
  1
101
 50
90.0
  7
ROMANS
  0
LINE
  5
14AD2
  8
0
 10
475.83535897625319
 20
244.62052074179149
 30
0.0
 11
475.83535897625319
 21
270.02052074179159
 31
0.0
  0
LINE
  5
14AD3
  8
0
  6
CONTINUOUS
 10
472.1302574958695
 20
270.02052074179159
 30
0.0
 11
472.1302574958695
 21
244.62052074179149
 31
0.0
  0
LINE
  5
14AD4
  8
0
 10
423.83535897625319
 20
270.02052074179159
 30
0.0
 11
423.83535897625319
 21
244.62052074179149
 31
0.0
  0
LINE
  5
14AD5
  8
0
  6
CONTINUOUS
 10
427.54046045663648
 20
270.02052074179159
 30
0.0
 11
427.54046045663648
 21
244.62052074179149
 31
0.0
  0
LINE
  5
14AD6
  8
CENTER
  6
CENTER
 10
469.83535897625319
 20
276.21748146328332
 30
0.0
 11
469.83535897625319
 21
239.98000272954161
 31
0.0
  0
LINE
  5
14AD7
  8
CENTER
  6
CENTER
 10
429.83535897625319
 20
276.21748146328332
 30
0.0
 11
429.83535897625319
 21
240.0361931690463
 31
0.0
  0
LINE
  5
14AD8
  8
HIDDEN
  6
HIDDEN
 10
466.4353589762531
 20
270.8205207417916
 30
0.0
 11
466.4353589762531
 21
243.8205207417916
 31
0.0
  0
LINE
  5
14AD9
  8
HIDDEN
  6
HIDDEN
 10
473.23535897625328
 20
270.8205207417916
 30
0.0
 11
473.23535897625311
 21
243.8205207417916
 31
0.0
  0
LINE
  5
14ADA
  8
HIDDEN
  6
HIDDEN
 10
433.23535897625328
 20
270.8205207417916
 30
0.0
 11
433.23535897625328
 21
243.8205207417916
 31
0.0
  0
LINE
  5
14ADB
  8
HIDDEN
  6
HIDDEN
 10
426.4353589762531
 20
270.8205207417916
 30
0.0
 11
426.4353589762531
 21
243.8205207417916
 31
0.0
  0
LINE
  5
14ADC
  8
0
 10
424.63535897625292
 20
243.8205207417916
 30
0.0
 11
475.03535897625301
 21
243.8205207417916
 31
0.0
  0
LINE
  5
14ADD
  8
0
 10
423.83535897625319
 20
244.62052074179149
 30
0.0
 11
475.83535897625319
 21
244.62052074179149
 31
0.0
  0
LINE
  5
14ADE
  8
0
 10
427.54046045663648
 20
244.62052074179149
 30
0.0
 11
428.34046045663672
 21
243.8205207417916
 31
0.0
  0
LINE
  5
14ADF
  8
0
 10
423.83535897625319
 20
244.62052074179149
 30
0.0
 11
424.63535897625292
 21
243.8205207417916
 31
0.0
  0
LINE
  5
14AE0
  8
0
 10
475.03535897625301
 20
243.8205207417916
 30
0.0
 11
475.83535897625319
 21
244.62052074179149
 31
0.0
  0
LINE
  5
14AE1
  8
0
 10
471.33025749586977
 20
243.8205207417916
 30
0.0
 11
472.13025749586973
 21
244.62052074179149
 31
0.0
  0
CIRCLE
  5
14AE2
  8
0
 10
441.83535897625319
 20
260.8205207417916
 30
0.0
 40
4.25
  0
ARC
  5
14AE3
  8
0
 62
     2
 10
441.83535897625319
 20
260.8205207417916
 30
0.0
 40
5.0
 50
73.195179503247701
 51
13.068895048801879
  0
LINE
  5
14AE4
  8
0
 10
424.63535897625292
 20
270.8205207417916
 30
0.0
 11
475.03535897625301
 21
270.8205207417916
 31
0.0
  0
LINE
  5
14AE5
  8
0
 10
423.83535897625319
 20
270.02052074179159
 30
0.0
 11
475.83535897625319
 21
270.02052074179159
 31
0.0
  0
LINE
  5
14AE6
  8
CENTER
  6
CENTER
 10
449.83535897625319
 20
260.82052074179131
 30
0.0
 11
433.83535897625319
 21
260.82052074179131
 31
0.0
  0
LINE
  5
14AE7
  8
0
 10
428.34046045663672
 20
270.8205207417916
 30
0.0
 11
427.54046045663648
 21
270.02052074179159
 31
0.0
  0
LINE
  5
14AE8
  8
0
 10
424.63535897625292
 20
270.8205207417916
 30
0.0
 11
423.83535897625319
 21
270.02052074179159
 31
0.0
  0
LINE
  5
14AE9
  8
CENTER
  6
CENTER
 10
441.83535897625319
 20
268.8205207417916
 30
0.0
 11
441.83535897625319
 21
252.82052074179151
 31
0.0
  0
LINE
  5
14AEA
  8
0
 10
475.83535897625319
 20
270.02052074179159
 30
0.0
 11
475.03535897625301
 21
270.8205207417916
 31
0.0
  0
LINE
  5
14AEB
  8
0
 10
472.13025749586973
 20
270.02052074179159
 30
0.0
 11
471.33025749586977
 21
270.8205207417916
 31
0.0
  0
LINE
  5
14AEC
  8
0
 10
361.1588322814307
 20
363.82052074179148
 30
0.0
 11
361.1588322814307
 21
344.82052074179148
 31
0.0
  0
TEXT
  5
14AED
  8
DIM
 10
376.15883228143059
 20
345.93648044397531
 30
0.0
 40
3.0
  1
9.5
 50
90.0
  7
ROMANS
  0
LINE
  5
14AEE
  8
DIM
 10
362.39399168171121
 20
344.82052074179148
 30
0.0
 11
386.1588322814307
 21
344.82052074179148
 31
0.0
  0
LINE
  5
14AEF
  8
DIM
 10
362.39399168171087
 20
322.8205207417916
 30
0.0
 11
378.47095270524818
 21
322.8205207417916
 31
0.0
  0
TEXT
  5
14AF0
  8
DIM
 10
376.15883228143059
 20
329.95620544898651
 30
0.0
 40
3.0
  1
22
 50
90.0
  7
ROMANS
  0
LINE
  5
14AF1
  8
0
  6
PHANTOM
 62
     6
 10
361.1588322814307
 20
341.82052074179131
 30
0.0
 11
361.1588322814307
 21
322.8205207417916
 31
0.0
  0
SOLID
  5
14AF2
  8
DIM
 10
385.67977681453061
 20
341.8660974827917
 30
0.0
 11
384.63788774833068
 21
341.8660974827917
 31
0.0
 12
385.1588322814307
 22
344.82052074179148
 32
0.0
 13
385.1588322814307
 23
344.82052074179148
 33
0.0
  0
SOLID
  5
14AF3
  8
DIM
 10
384.63788774833068
 20
347.77494400079172
 30
0.0
 11
385.67977681453061
 21
347.77494400079172
 31
0.0
 12
385.1588322814307
 22
344.82052074179148
 32
0.0
 13
385.1588322814307
 23
344.82052074179148
 33
0.0
  0
SOLID
  5
14AF4
  8
DIM
 10
377.67977681453061
 20
351.36609748279142
 30
0.0
 11
376.63788774833068
 21
351.36609748279142
 31
0.0
 12
377.1588322814307
 22
354.3205207417916
 32
0.0
 13
377.1588322814307
 23
354.3205207417916
 33
0.0
  0
SOLID
  5
14AF5
  8
DIM
 10
377.67977681453061
 20
341.86609748279142
 30
0.0
 11
376.63788774833068
 21
341.86609748279142
 31
0.0
 12
377.1588322814307
 22
344.82052074179131
 32
0.0
 13
377.1588322814307
 23
344.82052074179131
 33
0.0
  0
SOLID
  5
14AF6
  8
DIM
 10
377.67977681453061
 20
347.77494400079081
 30
0.0
 11
376.63788774833068
 21
347.77494400079081
 31
0.0
 12
377.1588322814307
 22
344.82052074179069
 32
0.0
 13
377.1588322814307
 23
344.82052074179069
 33
0.0
  0
TEXT
  5
14AF7
  8
DIM
 10
384.15883228143059
 20
350.69157816030508
 30
0.0
 40
3.0
  1
19
 50
90.0
  7
ROMANS
  0
SOLID
  5
14AF8
  8
DIM
 10
377.67977681453061
 20
316.8660974827917
 30
0.0
 11
376.63788774833068
 21
316.8660974827917
 31
0.0
 12
377.1588322814307
 22
319.82052074179182
 32
0.0
 13
377.1588322814307
 23
319.82052074179182
 33
0.0
  0
SOLID
  5
14AF9
  8
DIM
 10
377.67977681453061
 20
325.77494400079172
 30
0.0
 11
376.63788774833068
 21
325.77494400079172
 31
0.0
 12
377.1588322814307
 22
322.82052074179182
 32
0.0
 13
377.1588322814307
 23
322.82052074179182
 33
0.0
  0
TEXT
  5
14AFA
  8
DIM
 10
392.1588322814307
 20
301.47351568426183
 30
0.0
 40
3.0
  1
120
 50
90.0
  7
ROMANS
  0
LINE
  5
14AFB
  8
DIM
 10
377.1588322814307
 20
322.8205207417916
 30
0.0
 11
377.1588322814307
 21
354.32052074179182
 31
0.0
  0
LINE
  5
14AFC
  8
DIM
 10
362.39399168171121
 20
363.82052074179148
 30
0.0
 11
394.43261298675378
 21
363.82052074179148
 31
0.0
  0
SOLID
  5
14AFD
  8
DIM
 10
358.20440902243058
 20
372.3414652748915
 30
0.0
 11
358.20440902243058
 21
371.29957620869158
 31
0.0
 12
361.1588322814307
 22
371.82052074179148
 32
0.0
 13
361.1588322814307
 23
371.82052074179148
 33
0.0
  0
LINE
  5
14AFE
  8
DIM
 10
361.1588322814307
 20
364.8205207417916
 30
0.0
 11
361.1588322814307
 21
372.8205207417916
 31
0.0
  0
SOLID
  5
14AFF
  8
DIM
 10
393.67977681453061
 20
360.86609748279142
 30
0.0
 11
392.63788774833068
 21
360.86609748279142
 31
0.0
 12
393.15883228143059
 22
363.82052074179131
 32
0.0
 13
393.15883228143059
 23
363.82052074179131
 33
0.0
  0
SOLID
  5
14B00
  8
DIM
 10
385.67977681453061
 20
360.86609748279142
 30
0.0
 11
384.63788774833068
 21
360.86609748279142
 31
0.0
 12
385.1588322814307
 22
363.82052074179131
 32
0.0
 13
385.1588322814307
 23
363.82052074179131
 33
0.0
  0
LINE
  5
14B01
  8
0
 10
440.33535897625319
 20
363.82052074179148
 30
0.0
 11
440.33535897625302
 21
344.82052074179131
 31
0.0
  0
LINE
  5
14B02
  8
0
 10
459.33535897625347
 20
363.82052074179148
 30
0.0
 11
459.33535897625319
 21
344.82052074179148
 31
0.0
  0
LINE
  5
14B03
  8
0
 10
440.33535897625302
 20
344.82052074179131
 30
0.0
 11
459.33535897625319
 21
344.82052074179148
 31
0.0
  0
LINE
  5
14B04
  8
0
 10
440.83535897625319
 20
343.02052074179159
 30
0.0
 11
458.83535897625302
 21
343.02052074179142
 31
0.0
  0
LINE
  5
14B05
  8
0
 10
441.58535897625319
 20
344.52052074179159
 30
0.0
 11
458.08535897625319
 21
344.52052074179159
 31
0.0
  0
LINE
  5
14B06
  8
0
 10
468.83535897625319
 20
319.82052074179148
 30
0.0
 11
430.83535897625319
 21
319.82052074179131
 31
0.0
  0
LINE
  5
14B07
  8
0
 62
     4
 10
472.83535897625319
 20
315.82052074179148
 30
0.0
 11
426.83535897625319
 21
315.82052074179148
 31
0.0
  0
LINE
  5
14B08
  8
CENTER
  6
CENTER
 10
437.8541718493413
 20
354.3205207417916
 30
0.0
 11
461.8688615179878
 21
354.3205207417916
 31
0.0
  0
LINE
  5
14B09
  8
CENTER
  6
CENTER
 10
457.83535897625319
 20
306.82052074179131
 30
0.0
 11
441.83535897625319
 21
306.82052074179131
 31
0.0
  0
LINE
  5
14B0A
  8
0
 10
441.58535897625319
 20
344.52052074179159
 30
0.0
 11
440.83535897625319
 21
343.02052074179159
 31
0.0
  0
ARC
  5
14B0B
  8
0
 10
430.83535897625319
 20
315.82052074179131
 30
0.0
 40
4.0
 50
90.0
 51
180.0
  0
LINE
  5
14B0C
  8
0
 10
440.83535897625302
 20
343.02052074179142
 30
0.0
 11
440.83535897625319
 21
319.82052074179148
 31
0.0
  0
LINE
  5
14B0D
  8
0
 10
458.83535897625302
 20
343.02052074179142
 30
0.0
 11
458.08535897625319
 21
344.52052074179159
 31
0.0
  0
LINE
  5
14B0E
  8
0
 10
454.33535897625302
 20
344.82052074179131
 30
0.0
 11
454.33535897625302
 21
344.52052074179159
 31
0.0
  0
LINE
  5
14B0F
  8
0
 10
445.33535897625302
 20
344.82052074179131
 30
0.0
 11
445.33535897625302
 21
344.52052074179159
 31
0.0
  0
ARC
  5
14B10
  8
0
 10
468.83535897625319
 20
315.82052074179148
 30
0.0
 40
4.0
 50
0.0
 51
90.0
  0
CIRCLE
  5
14B11
  8
0
 10
449.83535897625319
 20
306.8205207417916
 30
0.0
 40
4.25
  0
ARC
  5
14B12
  8
0
 62
     2
 10
449.83535897625319
 20
306.8205207417916
 30
0.0
 40
5.0
 50
78.403426933771968
 51
12.45107802824187
  0
LINE
  5
14B13
  8
0
 10
458.83535897625302
 20
343.02052074179142
 30
0.0
 11
458.83535897625319
 21
319.82052074179148
 31
0.0
  0
LINE
  5
14B14
  8
0
 10
440.33535897625319
 20
363.82052074179148
 30
0.0
 11
459.33535897625347
 21
363.82052074179148
 31
0.0
  0
LINE
  5
14B15
  8
0
 10
361.15883228143002
 20
443.99735589777617
 30
0.0
 11
361.15883228143019
 21
424.99735589777617
 31
0.0
  0
SOLID
  5
14B16
  8
DIM
 10
369.67977681453061
 20
441.04293263877571
 30
0.0
 11
368.63788774833068
 21
441.04293263877571
 31
0.0
 12
369.1588322814307
 22
443.99735589777578
 32
0.0
 13
369.1588322814307
 23
443.99735589777578
 33
0.0
  0
TEXT
  5
14B17
  8
DIM
 10
368.15883228143059
 20
431.82500760400569
 30
0.0
 40
3.0
  1
19
 50
90.0
  7
ROMANS
  0
LINE
  5
14B18
  8
DIM
 10
362.20436800331407
 20
443.99735589777578
 30
0.0
 11
370.50073934181268
 21
443.99735589777578
 31
0.0
  0
LINE
  5
14B19
  8
DIM
 10
362.3463479034121
 20
424.99735589777578
 30
0.0
 11
370.50073934181268
 21
424.99735589777578
 31
0.0
  0
SOLID
  5
14B1A
  8
DIM
 10
369.67977681453061
 20
427.95177915677601
 30
0.0
 11
368.63788774833068
 21
427.95177915677601
 31
0.0
 12
369.1588322814307
 22
424.99735589777578
 32
0.0
 13
369.1588322814307
 23
424.99735589777578
 33
0.0
  0
LINE
  5
14B1B
  8
DIM
 10
369.1588322814307
 20
424.99735589777578
 30
0.0
 11
369.1588322814307
 21
443.99735589777578
 31
0.0
  0
TEXT
  5
14B64
  8
UMCL3
  6
CONTINUOUS
 62
     2
 10
426.05478391879888
 20
150.3638432988582
 30
0.0
 40
2.5
  1

 41
0.8
  7
ROMANS1
 72
     1
 11
426.05478391879888
 21
151.6138432988582
 31
0.0
 73
     2
  0
TEXT
  5
14B68
  8
UMCL3
 62
     2
 10
388.4510203905802
 20
154.33843610509459
 30
0.0
 40
3.2999999999999998
  1

 41
0.9
  7
ROMANS
  0
TEXT
  5
14B6A
  8
UMCL3
  6
CONTINUOUS
 62
     2
 10
394.72373657104862
 20
150.3638432988582
 30
0.0
 40
2.5
  1

 41
0.8
  7
ROMANS1
 72
     1
 11
394.72373657104862
 21
151.6138432988582
 31
0.0
 73
     2
  0
TEXT
  5
14B77
  8
UMCL3
 62
     2
 10
419.7820677383304
 20
154.33843610509459
 30
0.0
 40
3.2999999999999998
  1

 41
0.9
  7
ROMANS
  0
LINE
  5
14B7C
  8
LOGO
 62
     6
 10
493.2700717033066
 20
228.90145927812111
 30
0.0
 11
493.2700717033066
 21
216.8256976727007
 31
0.0
  0
LINE
  5
14B7D
  8
LOGO
 62
     6
 10
451.72771266002042
 20
228.90145927812111
 30
0.0
 11
451.72771266002042
 21
216.8256976727007
 31
0.0
  0
TEXT
  5
14B7E
  8
LOGO
  6
CONTINUOUS
 62
     6
 10
457.86741383435498
 20
198.26480483473961
 30
0.0
 40
3.3543782237278839
  1
Rotating angle
 41
0.8
  7
CHINESET
 72
     4
 11
472.49889218166328
 21
199.3829309093156
 31
0.0
  0
TEXT
  5
14B7F
  8
LOGO
 62
     6
 10
462.88859857068292
 20
203.57568358541749
 30
0.0
 40
5.3670051579646154
  1
旋轉角度
 41
0.9
  7
CHINESET
 72
     4
 11
472.49889218166328
 21
206.09168735677139
 31
0.0
  0
LINE
  5
14B80
  8
LOGO
 62
     6
 10
493.2700717033066
 20
216.8256976727007
 30
0.0
 11
451.72771266002042
 21
216.8256976727007
 31
0.0
  0
LINE
  5
14B81
  8
LOGO
 62
     6
 10
493.2700717033066
 20
210.78781686999051
 30
0.0
 11
451.72771266002042
 21
210.78781686999051
 31
0.0
  0
LINE
  5
14B82
  8
LOGO
 62
     6
 10
493.2700717033066
 20
196.02855268558781
 30
0.0
 11
451.72771266002042
 21
196.0285526855877
 31
0.0
  0
LINE
  5
14B83
  8
LOGO
 62
     6
 10
451.72771266002042
 20
210.78781686999051
 30
0.0
 11
451.72771266002042
 21
196.02855268558781
 31
0.0
  0
LINE
  5
14B84
  8
LOGO
 62
     6
 10
472.49889218166362
 20
216.8256976727007
 30
0.0
 11
472.49889218166362
 21
210.78781686999051
 31
0.0
  0
LINE
  5
14B85
  8
LOGO
 62
     6
 10
493.2700717033066
 20
210.78781686999051
 30
0.0
 11
493.2700717033066
 21
196.02855268558781
 31
0.0
  0
LINE
  5
14B86
  8
LOGO
 62
     6
 10
493.2700717033066
 20
228.90145927812111
 30
0.0
 11
451.72771266002042
 21
228.90145927812111
 31
0.0
  0
LINE
  5
14B87
  8
LOGO
  6
CONTINUOUS
 62
     7
 10
444.30718049432778
 20
222.82080421938309
 30
0.0
 11
449.63939619431949
 21
222.82080421938309
 31
0.0
  0
ENDSEC
  0
EOF
