  0
SECTION
  2
HEADER
  9
$ACADVER
  1
AC1009
  9
$INSBASE
 10
0.0
 20
0.0
 30
0.0
  9
$EXTMIN
 10
185.86065972067939
 20
176.27746798130389
 30
-0.000000000000013
  9
$EXTMAX
 10
635.96502897884329
 20
587.01049970813392
 30
0.0000000000000023
  9
$LIMMIN
 10
0.0
 20
0.0
  9
$LIMMAX
 10
1188.0
 20
840.0
  9
$ORTHOMODE
 70
     1
  9
$REGENMODE
 70
     1
  9
$FILLMODE
 70
     1
  9
$QTEXTMODE
 70
     0
  9
$MIRRTEXT
 70
     1
  9
$DRAGMODE
 70
     2
  9
$LTSCALE
 40
1.0
  9
$OSMODE
 70
    39
  9
$ATTMODE
 70
     1
  9
$TEXTSIZE
 40
3.0
  9
$TRACEWID
 40
0.05
  9
$TEXTSTYLE
  7
ITALICT
  9
$CLAYER
  8
0
  9
$CELTYPE
  6
CONTINUOUS
  9
$CECOLOR
 62
   256
  9
$DIMSCALE
 40
1.0
  9
$DIMASZ
 40
3.0
  9
$DIMEXO
 40
1.0
  9
$DIMDLI
 40
1.4824161510814720E+016
  9
$DIMRND
 40
0.0
  9
$DIMDLE
 40
0.0
  9
$DIMEXE
 40
1.0
  9
$DIMTP
 40
0.15
  9
$DIMTM
 40
-0.1
  9
$DIMTXT
 40
3.0
  9
$DIMCEN
 40
2.0
  9
$DIMTSZ
 40
0.0
  9
$DIMTOL
 70
     0
  9
$DIMLIM
 70
     0
  9
$DIMTIH
 70
     0
  9
$DIMTOH
 70
     0
  9
$DIMSE1
 70
     0
  9
$DIMSE2
 70
     0
  9
$DIMTAD
 70
     1
  9
$DIMZIN
 70
     0
  9
$DIMBLK
  1

  9
$DIMASO
 70
     0
  9
$DIMSHO
 70
     0
  9
$DIMPOST
  1

  9
$DIMAPOST
  1

  9
$DIMALT
 70
     0
  9
$DIMALTD
 70
     2
  9
$DIMALTF
 40
25.399999999999999
  9
$DIMLFAC
 40
1.0
  9
$DIMTOFL
 70
     1
  9
$DIMTVP
 40
1.0
  9
$DIMTIX
 70
     0
  9
$DIMSOXD
 70
     0
  9
$DIMSAH
 70
     0
  9
$DIMBLK1
  1

  9
$DIMBLK2
  1

  9
$DIMSTYLE
  2
STANDARD
  9
$DIMCLRD
 70
     0
  9
$DIMCLRE
 70
     0
  9
$DIMCLRT
 70
     0
  9
$DIMTFAC
 40
1.0
  9
$DIMGAP
 40
1.0
  9
$LUNITS
 70
     2
  9
$LUPREC
 70
     2
  9
$SKETCHINC
 40
0.1
  9
$FILLETRAD
 40
0.0
  9
$AUNITS
 70
     0
  9
$AUPREC
 70
     2
  9
$MENU
  1
ACAD
  9
$ELEVATION
 40
0.0
  9
$PELEVATION
 40
0.0
  9
$THICKNESS
 40
0.0
  9
$LIMCHECK
 70
     0
  9
$BLIPMODE
 70
     0
  9
$CHAMFERA
 40
0.0
  9
$CHAMFERB
 40
0.0
  9
$SKPOLY
 70
     1
  9
$TDCREATE
 40
2450580.7034460641
  9
$TDUPDATE
 40
2452055.6448777891
  9
$TDINDWG
 40
0.5788066319
  9
$TDUSRTIMER
 40
0.5788066319
  9
$USRTIMER
 70
     1
  9
$ANGBASE
 50
0.0
  9
$ANGDIR
 70
     0
  9
$PDMODE
 70
     0
  9
$PDSIZE
 40
0.0
  9
$PLINEWID
 40
0.0
  9
$COORDS
 70
     2
  9
$SPLFRAME
 70
     0
  9
$SPLINETYPE
 70
     6
  9
$SPLINESEGS
 70
     8
  9
$ATTDIA
 70
     0
  9
$ATTREQ
 70
     1
  9
$HANDLING
 70
 12289
  9
$HANDSEED
  5
15222
  9
$SURFTAB1
 70
     6
  9
$SURFTAB2
 70
     6
  9
$SURFTYPE
 70
     6
  9
$SURFU
 70
     6
  9
$SURFV
 70
     6
  9
$UCSNAME
  2

  9
$UCSORG
 10
0.0
 20
0.0
 30
0.0
  9
$UCSXDIR
 10
1.0
 20
0.0
 30
0.0
  9
$UCSYDIR
 10
0.0
 20
1.0
 30
0.0
  9
$PUCSNAME
  2

  9
$PUCSORG
 10
0.0
 20
0.0
 30
0.0
  9
$PUCSXDIR
 10
1.0
 20
0.0
 30
0.0
  9
$PUCSYDIR
 10
0.0
 20
1.0
 30
0.0
  9
$USERI1
 70
     0
  9
$USERI2
 70
-31485
  9
$USERI3
 70
     0
  9
$USERI4
 70
     0
  9
$USERI5
 70
     0
  9
$USERR1
 40
0.0
  9
$USERR2
 40
0.0
  9
$USERR3
 40
0.0
  9
$USERR4
 40
0.0
  9
$USERR5
 40
0.0
  9
$WORLDVIEW
 70
     1
  9
$SHADEDGE
 70
     3
  9
$SHADEDIF
 70
    70
  9
$TILEMODE
 70
     1
  9
$MAXACTVP
 70
    16
  9
$PLIMCHECK
 70
     0
  9
$PEXTMIN
 10
1.0000000000000000E+020
 20
1.0000000000000000E+020
 30
1.0000000000000000E+020
  9
$PEXTMAX
 10
-1.0000000000000000E+020
 20
-1.0000000000000000E+020
 30
-1.0000000000000000E+020
  9
$PLIMMIN
 10
0.0
 20
0.0
  9
$PLIMMAX
 10
12.0
 20
9.0
  9
$UNITMODE
 70
     0
  9
$VISRETAIN
 70
     0
  9
$PLINEGEN
 70
     0
  9
$PSLTSCALE
 70
     0
  0
ENDSEC
  0
SECTION
  2
TABLES
  0
TABLE
  2
VPORT
 70
     3
  0
VPORT
  2
*ACTIVE
 70
     0
 10
0.0
 20
0.0
 11
1.0
 21
1.0
 12
410.86798247620749
 22
381.57249006886008
 13
0.0
 23
0.0
 14
1.0
 24
1.0
 15
0.0
 25
0.0
 16
0.0
 26
0.0
 36
1.0
 17
0.0
 27
0.0
 37
0.0
 40
415.91426707111401
 41
1.7274401473296499
 42
1.0
 43
0.0
 44
0.0
 50
0.0
 51
0.0
 71
     0
 72
   100
 73
     1
 74
     1
 75
     0
 76
     0
 77
     0
 78
     0
  0
ENDTAB
  0
TABLE
  2
LTYPE
 70
     4
  0
LTYPE
  2
CONTINUOUS
 70
     0
  3
Solid line
 72
    65
 73
     0
 40
0.0
  0
LTYPE
  2
CENTER
 70
     0
  3
____________________ _ ____________________ _ 
 72
    65
 73
     4
 40
34.5
 49
30.0
 49
-1.5
 49
1.5
 49
-1.5
  0
LTYPE
  2
HIDDEN
 70
     0
  3
___ ___ ___ ___ ___ ___ ___ ___ ___ ___ 
 72
    65
 73
     2
 40
6.0
 49
4.5
 49
-1.5
  0
LTYPE
  2
PHANTOM
 70
     0
  3
__________ _ _ __________ _ _ __________ _ _ 
 72
    65
 73
     6
 40
15.0
 49
10.0
 49
-1.0
 49
1.0
 49
-1.0
 49
1.0
 49
-1.0
  0
ENDTAB
  0
TABLE
  2
LAYER
 70
     6
  0
LAYER
  2
0
 70
     0
 62
     7
  6
CONTINUOUS
  0
LAYER
  2
LOGO
 70
     0
 62
     7
  6
CONTINUOUS
  0
LAYER
  2
DIM
 70
     0
 62
     5
  6
CONTINUOUS
  0
LAYER
  2
CENTER
 70
     0
 62
     1
  6
CONTINUOUS
  0
LAYER
  2
HIDDEN
 70
     0
 62
     3
  6
CONTINUOUS
  0
LAYER
  2
UMCL3
 70
     0
 62
     1
  6
CONTINUOUS
  0
ENDTAB
  0
TABLE
  2
STYLE
 70
     7
  0
STYLE
  2
STANDARD
 70
     0
 40
0.0
 41
1.0
 50
0.0
 71
     0
 42
3.0
  3
txt
  4

  0
STYLE
  2
ITALICT
 70
     0
 40
0.0
 41
1.0
 50
0.0
 71
     0
 42
3.0
  3
ITALICT.SHX
  4

  0
STYLE
  2
ROMANSS
 70
     0
 40
0.0
 41
1.0
 50
0.0
 71
     0
 42
3.0
  3
ROMANSS.SHX
  4
LMP
  0
STYLE
  2
CHINESET
 70
     0
 40
0.0
 41
1.0
 50
0.0
 71
     0
 42
5.0
  3
simplex.shx
  4
chineset.shx
  0
STYLE
  2
LOGO
 70
     0
 40
0.0
 41
1.0
 50
0.0
 71
     0
 42
5.0
  3
txt
  4

  0
STYLE
  2
ROMANS
 70
     0
 40
0.0
 41
1.0
 50
0.0
 71
     0
 42
3.0
  3
ROMANS.SHX
  4
LMP
  0
STYLE
  2
ROMANS1
 70
     0
 40
0.0
 41
1.0
 50
0.0
 71
     0
 42
3.0
  3
ROMANS.SHX
  4

  0
ENDTAB
  0
TABLE
  2
VIEW
 70
     0
  0
ENDTAB
  0
TABLE
  2
UCS
 70
     0
  0
ENDTAB
  0
TABLE
  2
APPID
 70
     1
  0
APPID
  2
ACAD
 70
     0
  0
ENDTAB
  0
TABLE
  2
DIMSTYLE
 70
     1
  0
DIMSTYLE
  2
STANDARD
 70
     0
  3

  4

  5

  6

  7

 40
1.0
 41
0.18
 42
0.0625
 43
0.38
 44
0.18
 45
0.0
 46
0.0
 47
0.0
 48
0.0
140
0.18
141
0.09
142
0.0
143
25.399999999999999
144
1.0
145
0.0
146
1.0
147
0.09
 71
     0
 72
     0
 73
     1
 74
     1
 75
     0
 76
     0
 77
     0
 78
     0
170
     0
171
     2
172
     0
173
     0
174
     0
175
     0
176
     0
177
     0
178
     0
  0
ENDTAB
  0
ENDSEC
  0
SECTION
  2
BLOCKS
  0
BLOCK
  8
0
  2
$MODEL_SPACE
 70
     0
 10
0.0
 20
0.0
 30
0.0
  3
$MODEL_SPACE
  1

  0
ENDBLK
  5
3E
  8
0
  0
BLOCK
 67
     1
  8
0
  2
$PAPER_SPACE
 70
     0
 10
0.0
 20
0.0
 30
0.0
  3
$PAPER_SPACE
  1

  0
ENDBLK
  5
3C
 67
     1
  8
0
  0
ENDSEC
  0
SECTION
  2
ENTITIES
  0
LINE
  5
B2B
  8
0
 62
     4
 10
185.86272374947831
 20
232.92671314659441
 30
0.0
 11
185.86272374947831
 21
586.95774538779415
 31
0.0
  0
LINE
  5
B2D
  8
0
 62
     4
 10
635.92834892189944
 20
232.92671314659441
 30
0.0
 11
185.86272374947831
 21
232.92671314659441
 31
0.0
  0
LINE
  5
B2E
  8
0
 62
     4
 10
185.86272374947831
 20
586.95774538779415
 30
0.0
 11
635.92834892189956
 21
586.95774538779358
 31
0.0
  0
LINE
  5
B2F
  8
0
 62
     4
 10
635.92834892189956
 20
586.95774538779381
 30
0.0
 11
635.92834892189944
 21
232.92671314659441
 31
0.0
  0
LINE
  5
D2E
  8
LOGO
 62
     1
 10
635.92834892189944
 20
176.3249335016769
 30
0.0
 11
185.86272374947831
 21
176.3249335016769
 31
0.0
  0
LINE
  5
D2F
  8
LOGO
 62
     1
 10
635.92834892189944
 20
232.92671314659441
 30
0.0
 11
185.86272374947831
 21
232.92671314659441
 31
0.0
  0
TEXT
  5
D35
  8
LOGO
 62
     7
 10
315.01977131281541
 20
218.75491480467591
 30
0.0
 40
11.320355928983499
  1
訂購代號:
  7
CHINESET
  0
TEXT
  5
D36
  8
LOGO
 62
     7
 10
313.66579433335261
 20
208.130436645739
 30
0.0
 40
7.546903952655672
  1
Order example:
 41
0.8
  7
CHINESET
  0
TEXT
  5
D37
  8
LOGO
  6
CONTINUOUS
 62
     5
 10
190.14649593377129
 20
178.95233731999099
 30
0.0
 40
5.660177964491754
  1
MINDMAN INDUSTRIAL CO.,LTD
 41
0.85
  7
CHINESET
  0
TEXT
  5
D38
  8
LOGO
  6
CONTINUOUS
 62
     5
 10
187.7153955643023
 20
187.44426769338759
 30
0.0
 40
8.4902669467376342
  1
金器工業股份有限公司
 41
0.8
  7
LOGO
  0
SOLID
  5
D39
  8
LOGO
 62
     2
 10
206.8410742179997
 20
208.37488556272061
 30
0.0
 11
207.85375522301149
 21
208.37488556272061
 31
0.0
 12
219.49958678063609
 22
231.5821585942218
 32
0.0
 13
220.51226778564791
 23
231.5821585942202
 33
0.0
  0
SOLID
  5
D3A
  8
LOGO
 62
     5
 10
207.85375522301149
 20
208.37488556272061
 30
0.0
 11
210.30106765178729
 21
208.37488556272061
 31
0.0
 12
219.49958678063609
 22
229.72557675170091
 32
0.0
 13
217.05227435185981
 23
220.75209784618681
 33
0.0
  0
SOLID
  5
D3B
  8
LOGO
 62
     5
 10
207.85375522301149
 20
210.2314674052399
 30
0.0
 11
210.30106765178729
 21
219.204946310754
 31
0.0
 12
219.49958678063609
 22
231.5821585942218
 32
0.0
 13
217.05227435185981
 23
231.5821585942218
 33
0.0
  0
LINE
  5
D3C
  8
LOGO
 62
     1
 10
310.38663896829701
 20
198.9656453596439
 30
0.0
 11
185.86272374947819
 21
198.9656453596439
 31
0.0
  0
SOLID
  5
D3D
  8
LOGO
 62
     2
 10
206.8410742179997
 20
231.5821585942202
 30
0.0
 11
207.85375522301149
 21
231.5821585942202
 31
0.0
 12
206.8410742179997
 22
208.37488556272061
 32
0.0
 13
207.85375522301149
 23
208.37488556272061
 33
0.0
  0
SOLID
  5
D3E
  8
LOGO
 62
     2
 10
194.18256165536249
 20
208.37488556271981
 30
0.0
 11
195.1952426603749
 21
208.37488556272061
 31
0.0
 12
206.8410742179997
 22
231.5821585942202
 32
0.0
 13
207.85375522301149
 23
231.5821585942202
 33
0.0
  0
SOLID
  5
D3F
  8
LOGO
 62
     5
 10
207.85375522301149
 20
231.5821585942202
 30
0.0
 11
210.30106765178729
 21
231.5821585942218
 31
0.0
 12
207.85375522301149
 22
210.2314674052399
 32
0.0
 13
210.30106765178729
 23
219.204946310754
 33
0.0
  0
SOLID
  5
D40
  8
LOGO
 62
     5
 10
204.39376178922359
 20
208.37488556272061
 30
0.0
 11
206.8410742179997
 21
208.37488556272061
 31
0.0
 12
204.39376178922359
 22
220.75209784618681
 32
0.0
 13
206.8410742179997
 23
229.72557675170091
 33
0.0
  0
SOLID
  5
D41
  8
LOGO
 62
     5
 10
195.1952426603749
 20
208.37488556272061
 30
0.0
 11
197.64255508915099
 21
208.37488556272061
 31
0.0
 12
206.8410742179997
 22
229.72557675170091
 32
0.0
 13
204.39376178922359
 23
220.75209784618681
 33
0.0
  0
SOLID
  5
D42
  8
LOGO
 62
     5
 10
191.73524922658609
 20
208.37488556272061
 30
0.0
 11
194.18256165536249
 21
208.37488556271981
 31
0.0
 12
204.39376178922359
 22
231.5821585942218
 32
0.0
 13
206.8410742179997
 23
231.5821585942202
 33
0.0
  0
LINE
  5
D43
  8
LOGO
 62
     1
 10
185.86272374947831
 20
176.3249335016769
 30
0.0
 11
185.86272374947831
 21
232.92671314659441
 31
0.0
  0
SOLID
  5
D44
  8
LOGO
 62
     5
 10
196.09526290357729
 20
204.1553813751749
 30
0.0
 11
196.93916374108801
 21
204.1553813751749
 31
0.0
 12
196.09526290357729
 22
199.93587718762831
 32
0.0
 13
196.93916374108801
 23
199.93587718762981
 33
0.0
  0
SOLID
  5
D45
  8
LOGO
 62
     5
 10
196.09526290357729
 20
204.74611196143081
 30
0.0
 11
196.93916374108801
 21
204.74611196143081
 31
0.0
 12
196.09526290357729
 22
205.42123263143901
 32
0.0
 13
196.93916374108801
 23
205.42123263143901
 33
0.0
  0
SOLID
  5
D46
  8
LOGO
 62
     5
 10
194.25238980859049
 20
204.1553813751749
 30
0.0
 11
195.09629064609871
 21
204.1553813751749
 31
0.0
 12
194.25238980859049
 22
199.93587718762981
 32
0.0
 13
195.09629064609871
 23
199.93587718762981
 33
0.0
  0
SOLID
  5
D47
  8
LOGO
 62
     5
 10
191.0319985286624
 20
199.93587718762981
 30
0.0
 11
191.8758993661709
 21
199.93587718762981
 31
0.0
 12
194.25238980859049
 22
204.1553813751749
 32
0.0
 13
195.09629064609871
 23
204.1553813751749
 33
0.0
  0
SOLID
  5
D48
  8
LOGO
 62
     5
 10
191.0319985286624
 20
204.1553813751749
 30
0.0
 11
191.8758993661709
 21
204.1553813751749
 31
0.0
 12
191.0319985286624
 22
199.93587718762981
 32
0.0
 13
191.8758993661709
 23
199.93587718762981
 33
0.0
  0
SOLID
  5
D49
  8
LOGO
 62
     5
 10
187.8116072487355
 20
199.93587718762981
 30
0.0
 11
188.65550808624531
 21
199.93587718762981
 31
0.0
 12
191.0319985286624
 22
204.1553813751749
 32
0.0
 13
191.8758993661709
 23
204.1553813751749
 33
0.0
  0
SOLID
  5
D4A
  8
LOGO
 62
     5
 10
212.5514136250892
 20
202.46757970015651
 30
0.0
 11
213.39531446259741
 21
202.46757970015651
 31
0.0
 12
212.5514136250892
 22
199.93587718762831
 32
0.0
 13
213.39531446259741
 23
199.93587718762831
 33
0.0
  0
SOLID
  5
D4B
  8
LOGO
 62
     5
 10
210.01971111256231
 20
202.46757970015651
 30
0.0
 11
210.8636119500708
 21
202.46757970015651
 31
0.0
 12
210.01971111256231
 22
199.93587718762981
 32
0.0
 13
210.8636119500708
 23
199.93587718762981
 33
0.0
  0
SOLID
  5
D4C
  8
LOGO
 62
     5
 10
207.4880086000357
 20
204.1553813751749
 30
0.0
 11
208.33190943754411
 21
204.1553813751749
 31
0.0
 12
207.4880086000357
 22
199.93587718762981
 32
0.0
 13
208.33190943754411
 23
199.93587718762981
 33
0.0
  0
SOLID
  5
D4D
  8
LOGO
 62
     5
 10
205.65952865540399
 20
205.42123263143901
 30
0.0
 11
206.50342949291229
 21
205.42123263143901
 31
0.0
 12
205.65952865540399
 22
199.93587718762981
 32
0.0
 13
206.50342949291229
 23
199.93587718762981
 33
0.0
  0
POLYLINE
  5
D4E
  8
LOGO
 62
     5
 66
     1
 10
0.0
 20
0.0
 30
0.0
 70
     1
 40
0.8452532426974354
 41
0.8452532426974354
  0
VERTEX
  5
151F1
  8
LOGO
 62
     5
 10
202.70325530382809
 20
202.045629281402
 30
0.0
 42
1.0
  0
VERTEX
  5
151F2
  8
LOGO
 62
     5
 10
206.0842682746179
 20
202.045629281402
 30
0.0
 42
1.0
  0
SEQEND
  5
151F3
  8
LOGO
 62
     5
  0
SOLID
  5
D4F
  8
LOGO
 62
     5
 10
200.45544536073569
 20
202.46757970015651
 30
0.0
 11
201.2993461982457
 21
202.46757970015651
 31
0.0
 12
200.45544536073569
 22
199.93587718762981
 32
0.0
 13
201.2993461982457
 23
199.93587718762981
 33
0.0
  0
SOLID
  5
D50
  8
LOGO
 62
     5
 10
197.923742848209
 20
204.1553813751749
 30
0.0
 11
198.7676436857175
 21
204.1553813751749
 31
0.0
 12
197.923742848209
 22
199.93587718762981
 32
0.0
 13
198.7676436857175
 23
199.93587718762981
 33
0.0
  0
POLYLINE
  5
D51
  8
LOGO
 62
     5
 66
     1
 10
0.0
 20
0.0
 30
0.0
 40
0.8452532426974354
 41
0.8452532426974354
  0
VERTEX
  5
151F4
  8
LOGO
 62
     5
 10
200.87942438727299
 20
202.46757970015639
 30
0.0
 42
1.0
  0
VERTEX
  5
151F5
  8
LOGO
 62
     5
 10
198.3436646591806
 20
202.46757970015639
 30
0.0
 42
1.0
  0
SEQEND
  5
151F6
  8
LOGO
 62
     5
  0
POLYLINE
  5
D52
  8
LOGO
 62
     5
 66
     1
 10
0.0
 20
0.0
 30
0.0
 40
0.8452532426974354
 41
0.8452532426974354
  0
VERTEX
  5
151F7
  8
LOGO
 62
     5
 10
212.97539265162609
 20
202.46757970015639
 30
0.0
 42
1.0
  0
VERTEX
  5
151F8
  8
LOGO
 62
     5
 10
210.43963292353371
 20
202.46757970015639
 30
0.0
 42
1.0
  0
SEQEND
  5
151F9
  8
LOGO
 62
     5
  0
POLYLINE
  5
D53
  8
LOGO
 62
     5
 66
     1
 10
0.0
 20
0.0
 30
0.0
 40
0.8452532426974354
 41
0.8452532426974354
  0
VERTEX
  5
151FA
  8
LOGO
 62
     5
 10
210.44369013909929
 20
202.46757970015639
 30
0.0
 42
1.0
  0
VERTEX
  5
151FB
  8
LOGO
 62
     5
 10
207.9079304110069
 20
202.46757970015639
 30
0.0
 42
1.0
  0
SEQEND
  5
151FC
  8
LOGO
 62
     5
  0
CIRCLE
  5
D54
  8
LOGO
  6
CONTINUOUS
 62
     6
 10
283.13264667014357
 20
215.95828641520529
 30
0.0
 40
1.9255585439152201
  0
CIRCLE
  5
D55
  8
LOGO
  6
CONTINUOUS
 62
     6
 10
283.13264667014357
 20
215.95828641520529
 30
0.0
 40
3.2864325517551518
  0
LINE
  5
D56
  8
LOGO
 62
     1
 10
310.38663896829701
 20
210.2860012886274
 30
0.0
 11
227.37069548908451
 21
210.2860012886274
 31
0.0
  0
LINE
  5
D57
  8
LOGO
 62
     1
 10
310.38663896829701
 20
221.60635721761091
 30
0.0
 11
227.37069548908451
 21
221.60635721761091
 31
0.0
  0
TEXT
  5
D58
  8
LOGO
 62
     6
 10
281.14331944002163
 20
224.4364461998567
 30
0.0
 40
5.660177964491754
  1
1 : 1
  7
CHINESET
 72
     1
 11
291.116013948888
 21
227.26653518210259
 31
0.0
 73
     2
  0
TEXT
  5
D59
  8
LOGO
 62
     6
 10
281.14331944002163
 20
201.7957343418897
 30
0.0
 40
5.660177964491754
  1
m/m
  7
CHINESET
 72
     1
 11
291.116013948888
 21
204.62582332413561
 31
0.0
 73
     2
  0
SOLID
  5
D5A
  8
LOGO
 62
     2
 10
219.49958678063609
 20
231.5821585942218
 30
0.0
 11
220.51226778564791
 21
231.5821585942202
 31
0.0
 12
219.49958678063609
 22
208.37488556271981
 32
0.0
 13
220.51226778564791
 23
208.37488556271981
 33
0.0
  0
SOLID
  5
D5B
  8
LOGO
 62
     5
 10
220.51226778564791
 20
208.37488556271981
 30
0.0
 11
222.95958021442411
 21
208.37488556271981
 31
0.0
 12
220.51226778564791
 22
231.5821585942202
 32
0.0
 13
222.95958021442411
 23
231.5821585942218
 33
0.0
  0
SOLID
  5
D5C
  8
LOGO
 62
     5
 10
219.49958678063609
 20
229.72557675170091
 30
0.0
 11
217.05227435185981
 21
220.75209784618681
 31
0.0
 12
219.49958678063609
 22
208.37488556271981
 32
0.0
 13
217.05227435185981
 23
208.37488556271981
 33
0.0
  0
LINE
  5
D5D
  8
LOGO
 62
     1
 10
227.37069548908451
 20
198.96564535964379
 30
0.0
 11
227.37069548908451
 21
232.92671314659441
 31
0.0
  0
LINE
  5
D5E
  8
LOGO
 62
     1
 10
272.65211920501838
 20
198.96564535964379
 30
0.0
 11
272.65211920501838
 21
232.92671314659441
 31
0.0
  0
TEXT
  5
D5F
  8
LOGO
 62
     6
 10
234.5697343376726
 20
201.7957343418897
 30
0.0
 40
5.660177964491754
  1
單位 Unit:
 41
0.9
  7
CHINESET
 72
     4
 11
250.01140734705169
 21
204.62582332413561
 31
0.0
  0
SOLID
  5
D60
  8
LOGO
 62
     5
 10
222.11567937691569
 20
202.46757970015651
 30
0.0
 11
222.95958021442411
 21
202.46757970015639
 31
0.0
 12
222.11567937691569
 22
199.93587718762981
 32
0.0
 13
222.95958021442411
 23
199.93587718762981
 33
0.0
  0
SOLID
  5
D61
  8
LOGO
 62
     5
 10
219.58397686438749
 20
199.93587718762981
 30
0.0
 11
220.42787770189719
 21
199.93587718762981
 31
0.0
 12
219.58397686438749
 22
204.1553813751749
 32
0.0
 13
220.42787770189719
 23
204.1553813751749
 33
0.0
  0
SOLID
  5
D62
  8
LOGO
 62
     5
 10
217.75549691975809
 20
204.1553813751749
 30
0.0
 11
218.5993977572665
 21
204.1553813751749
 31
0.0
 12
217.75549691975809
 22
199.93587718762981
 32
0.0
 13
218.5993977572665
 23
199.93587718762981
 33
0.0
  0
LINE
  5
D63
  8
LOGO
 62
     5
 10
222.95958021442411
 20
199.93587718762981
 30
0.0
 11
222.95958021442411
 21
202.46757970015651
 31
0.0
  0
POLYLINE
  5
D64
  8
LOGO
 62
     5
 66
     1
 10
0.0
 20
0.0
 30
0.0
 70
     1
 40
0.8452532426974354
 41
0.8452532426974354
  0
VERTEX
  5
151FD
  8
LOGO
 62
     5
 10
214.7992235681813
 20
202.045629281402
 30
0.0
 42
1.0
  0
VERTEX
  5
151FE
  8
LOGO
 62
     5
 10
218.180236538971
 20
202.045629281402
 30
0.0
 42
1.0
  0
SEQEND
  5
151FF
  8
LOGO
 62
     5
  0
CIRCLE
  5
D65
  8
LOGO
 62
     5
 10
216.48973005357661
 20
202.04562928140231
 30
0.0
 40
1.265851256263679
  0
POLYLINE
  5
D66
  8
LOGO
 62
     5
 66
     1
 10
0.0
 20
0.0
 30
0.0
 70
     1
  0
VERTEX
  5
15200
  8
LOGO
 62
     5
 10
215.22387879731281
 20
202.04562928140231
 30
0.0
 42
1.0000000573306349
  0
VERTEX
  5
15201
  8
LOGO
 62
     5
 10
217.75558130984049
 20
202.04562928140231
 30
0.0
 42
1.0000000573306349
  0
SEQEND
  5
15202
  8
LOGO
 62
     5
  0
POLYLINE
  5
D67
  8
LOGO
 62
     5
 66
     1
 10
0.0
 20
0.0
 30
0.0
 40
0.8452532426974354
 41
0.8452532426974354
  0
VERTEX
  5
15203
  8
LOGO
 62
     5
 10
222.53965840345259
 20
202.46757970015639
 30
0.0
 42
1.0
  0
VERTEX
  5
15204
  8
LOGO
 62
     5
 10
220.00389867536029
 20
202.46757970015639
 30
0.0
 42
1.0
  0
SEQEND
  5
15205
  8
LOGO
 62
     5
  0
TEXT
  5
D68
  8
LOGO
 62
     6
 10
234.01635086703709
 20
213.19570973617101
 30
0.0
 40
5.660177964491754
  1
投影 View:
 41
0.9
  7
CHINESET
 72
     4
 11
250.01140734705169
 21
215.94617925311911
 31
0.0
  0
TEXT
  5
D69
  8
LOGO
 62
     6
 10
232.03781544462771
 20
224.43923172050859
 30
0.0
 40
5.660177964491754
  1
比例 Scale:
 41
0.9
  7
CHINESET
 72
     4
 11
250.01140734705169
 21
227.26653518210259
 31
0.0
  0
LINE
  5
D6A
  8
LOGO
 62
     1
 10
310.38663896829701
 20
176.3249335016769
 30
0.0
 11
310.38663896829701
 21
232.92671314659441
 31
0.0
  0
LINE
  5
D6B
  8
LOGO
  6
CONTINUOUS
 62
     6
 10
293.48219276735779
 20
214.03272787129009
 30
0.0
 11
303.78497016688061
 21
212.67185386345031
 31
0.0
  0
LINE
  5
D6C
  8
LOGO
  6
CONTINUOUS
 62
     6
 10
293.48219276735779
 20
217.88384495912061
 30
0.0
 11
303.78497016688061
 21
219.24471896696051
 31
0.0
  0
LINE
  5
D6D
  8
LOGO
 62
     6
 10
293.48219276735779
 20
214.03272787129009
 30
0.0
 11
293.48219276735779
 21
217.88384495912061
 31
0.0
  0
LINE
  5
D6E
  8
LOGO
 62
     6
 10
303.78497016688061
 20
212.67185386345031
 30
0.0
 11
303.78497016688061
 21
219.24471896696051
 31
0.0
  0
LINE
  5
D6F
  8
LOGO
 62
     6
 10
427.15214864533198
 20
181.04174847208671
 30
0.0
 11
389.41762888205352
 21
181.0417484720866
 31
0.0
  0
LINE
  5
D70
  8
LOGO
 62
     6
 10
427.15214864533198
 20
201.79573434188981
 30
0.0
 11
389.41762888205352
 21
201.79573434188981
 31
0.0
  0
LINE
  5
D71
  8
LOGO
 62
     6
 10
430.92560062165978
 20
210.2860012886274
 30
0.0
 11
385.64417690572571
 21
210.2860012886274
 31
0.0
  0
LINE
  5
D72
  8
LOGO
 62
     6
 10
430.92560062165978
 20
227.26653518210259
 30
0.0
 11
385.64417690572571
 21
227.26653518210259
 31
0.0
  0
TEXT
  5
D73
  8
LOGO
  6
CONTINUOUS
 62
     7
 10
390.76529030217051
 20
214.05945326495529
 30
0.0
 40
9.4336299408195892
  1
MTHD
  7
CHINESET
 72
     1
 11
408.28488876369261
 21
218.776268235365
 31
0.0
 73
     2
  0
LINE
  5
D74
  8
LOGO
 62
     6
 10
385.64417690572571
 20
227.26653518210259
 30
0.0
 11
385.64417690572571
 21
210.2860012886274
 31
0.0
  0
LINE
  5
D75
  8
LOGO
 62
     6
 10
389.41762888205352
 20
201.79573434188981
 30
0.0
 11
389.41762888205352
 21
181.0417484720866
 31
0.0
  0
TEXT
  5
D76
  8
LOGO
  6
CONTINUOUS
 62
     6
 10
399.30047929624538
 20
183.40015595729159
 30
0.0
 40
4.7168149704097937
  1
Model
  7
CHINESET
 72
     4
 11
408.28488876369261
 21
185.7585634424965
 31
0.0
  0
TEXT
  5
D77
  8
LOGO
 62
     6
 10
400.73798481103688
 20
191.61187083884749
 30
0.0
 40
7.546903952655672
  1
型式
  7
CHINESET
 72
     4
 11
408.28488876369261
 21
195.19219338331601
 31
0.0
  0
LINE
  5
D78
  8
LOGO
 62
     6
 10
408.28488876369261
 20
210.2860012886274
 30
0.0
 11
408.28488876369261
 21
201.79573434188981
 31
0.0
  0
LINE
  5
D79
  8
LOGO
 62
     6
 10
430.9256006216599
 20
227.26653518210259
 30
0.0
 11
430.9256006216599
 21
210.2860012886274
 31
0.0
  0
LINE
  5
D7A
  8
LOGO
 62
     6
 10
427.15214864533198
 20
201.79573434188981
 30
0.0
 11
427.15214864533198
 21
181.04174847208671
 31
0.0
  0
LINE
  5
D7B
  8
LOGO
  6
CONTINUOUS
 62
     7
 10
433.85109141964767
 20
218.71612050075569
 30
0.0
 11
441.34907559485617
 21
218.71612050075569
 31
0.0
  0
LINE
  5
D82
  8
LOGO
 62
     6
 10
474.57774468566993
 20
227.26653518210281
 30
0.0
 11
474.57774468566993
 21
210.2860012886274
 31
0.0
  0
LINE
  5
D83
  8
LOGO
 62
     6
 10
444.28559667607891
 20
227.26653518210259
 30
0.0
 11
444.28559667607891
 21
210.2860012886274
 31
0.0
  0
LINE
  5
D85
  8
LOGO
 62
     6
 10
474.57774468566993
 20
181.04174847208671
 30
0.0
 11
444.28559667607891
 21
181.0417484720866
 31
0.0
  0
LINE
  5
D86
  8
LOGO
 62
     6
 10
474.57774468566993
 20
210.2860012886274
 30
0.0
 11
444.28559667607891
 21
210.2860012886274
 31
0.0
  0
LINE
  5
D87
  8
LOGO
 62
     6
 10
474.57774468566993
 20
201.79573434188981
 30
0.0
 11
444.28559667607891
 21
201.79573434188981
 31
0.0
  0
LINE
  5
D88
  8
LOGO
 62
     6
 10
444.28559667607891
 20
201.79573434188981
 30
0.0
 11
444.28559667607891
 21
181.04174847208671
 31
0.0
  0
TEXT
  5
D89
  8
LOGO
  6
CONTINUOUS
 62
     6
 10
453.59180452703379
 20
183.40015595729159
 30
0.0
 40
4.7168149704097937
  1
Bore
 41
0.8
  7
CHINESET
 72
     4
 11
459.43167068087439
 21
185.7585634424965
 31
0.0
  0
TEXT
  5
D8A
  8
LOGO
 62
     6
 10
452.21494377614738
 20
191.41874140698809
 30
0.0
 40
7.546903952655672
  1
內徑
 41
0.9
  7
CHINESET
 72
     4
 11
459.43167068087439
 21
195.19219338331601
 31
0.0
  0
LINE
  5
D8B
  8
LOGO
 62
     6
 10
459.43167024582482
 20
210.2860012886274
 30
0.0
 11
459.43167024582482
 21
201.79573434188981
 31
0.0
  0
LINE
  5
D8C
  8
LOGO
 62
     6
 10
474.57774468566993
 20
201.79573434188981
 30
0.0
 11
474.57774468566993
 21
181.04174847208671
 31
0.0
  0
LINE
  5
D8E
  8
LOGO
 62
     6
 10
474.57774468566993
 20
227.26653518210281
 30
0.0
 11
444.28559667607891
 21
227.26653518210259
 31
0.0
  0
TEXT
  5
D8F
  8
LOGO
  6
CONTINUOUS
 62
     7
 10
452.67539500434691
 20
213.95247530698711
 30
0.0
 40
9.4336299408195892
  1
40
  7
CHINESET
 72
     1
 11
460.31214305167703
 21
218.6692902773969
 31
0.0
 73
     2
  0
LINE
  5
D9E
  8
LOGO
 62
     1
 10
635.92834892189944
 20
176.3249335016769
 30
0.0
 11
635.92834892189944
 21
232.92671314659441
 31
0.0
  0
LINE
  5
DAD
  8
LOGO
 62
     6
 10
487.93774074008888
 20
227.26653518210281
 30
0.0
 11
487.93774074008888
 21
210.28600128862749
 31
0.0
  0
LINE
  5
DAE
  8
LOGO
 62
     6
 10
546.35322282718175
 20
227.2665351821029
 30
0.0
 11
546.35322282718175
 21
210.28600128862749
 31
0.0
  0
TEXT
  5
DAF
  8
LOGO
 62
     6
 10
503.84406356707939
 20
191.64684459814259
 30
0.0
 40
7.546903952655672
  1
旋轉方向
 41
0.9
  7
CHINESET
 72
     4
 11
517.14548178363509
 21
195.19219338331609
 31
0.0
  0
TEXT
  5
DB0
  8
LOGO
  6
CONTINUOUS
 62
     6
 10
491.98913527478283
 20
184.18629178569319
 30
0.0
 40
4.7168149704097937
  1
Rotating direction
 41
0.8
  7
CHINESET
 72
     4
 11
517.14548178363509
 21
185.7585634424965
 31
0.0
  0
LINE
  5
DB1
  8
LOGO
 62
     6
 10
546.35322282718175
 20
201.7957343418899
 30
0.0
 11
487.93774074008888
 21
201.7957343418899
 31
0.0
  0
LINE
  5
DB2
  8
LOGO
 62
     6
 10
546.35322282718175
 20
210.28600128862749
 30
0.0
 11
487.93774074008888
 21
210.28600128862749
 31
0.0
  0
LINE
  5
DB3
  8
LOGO
 62
     6
 10
546.35322282718175
 20
181.04174847208679
 30
0.0
 11
487.93774074008888
 21
181.04174847208671
 31
0.0
  0
LINE
  5
DB4
  8
LOGO
 62
     6
 10
487.93774074008888
 20
201.7957343418899
 30
0.0
 11
487.93774074008888
 21
181.04174847208679
 31
0.0
  0
LINE
  5
DB5
  8
LOGO
 62
     6
 10
517.14548178363543
 20
210.28600128862749
 30
0.0
 11
517.14548178363543
 21
201.7957343418899
 31
0.0
  0
LINE
  5
DB6
  8
LOGO
 62
     6
 10
546.35322282718175
 20
201.7957343418899
 30
0.0
 11
546.35322282718175
 21
181.04174847208679
 31
0.0
  0
LINE
  5
DB7
  8
LOGO
 62
     6
 10
546.35322282718175
 20
227.2665351821029
 30
0.0
 11
487.93774074008888
 21
227.26653518210281
 31
0.0
  0
LINE
  5
DB8
  8
LOGO
  6
CONTINUOUS
 62
     7
 10
477.50323548365799
 20
218.71612050075581
 30
0.0
 11
485.00121965886621
 21
218.71612050075581
 31
0.0
  0
TEXT
  5
DCEA
  8
UMCL3
  6
CONTINUOUS
 62
     2
 10
766.23679790982271
 20
285.02499111941353
 30
0.0
 40
2.5
  1

 41
0.8
  7
ROMANS1
 72
     1
 11
766.23679790982271
 21
286.27499111941353
 31
0.0
 73
     2
  0
TEXT
  5
DCED
  8
UMCL3
  6
CONTINUOUS
 62
     2
 10
741.15575056207274
 20
285.02499111941353
 30
0.0
 40
2.5
  1

 41
0.8
  7
ROMANS1
 72
     1
 11
741.15575056207274
 21
286.27499111941353
 31
0.0
 73
     2
  0
TEXT
  5
DCF2
  8
UMCL3
  6
CONTINUOUS
 62
     2
 10
719.57470321432265
 20
285.02499111941353
 30
0.0
 40
2.5
  1

 41
0.8
  7
ROMANS1
 72
     1
 11
719.57470321432265
 21
286.27499111941353
 31
0.0
 73
     2
  0
TEXT
  5
DD0D
  8
UMCL3
 62
     2
 10
716.36931152386535
 20
289.1485161689501
 30
0.0
 40
3.2999999999999998
  1

 41
0.9
  7
ROMANS
  0
TEXT
  5
DD17
  8
UMCL3
 62
     2
 10
734.45035887161544
 20
289.1485161689501
 30
0.0
 40
3.2999999999999998
  1

 41
0.9
  7
ROMANS
  0
TEXT
  5
DD1A
  8
UMCL3
 62
     2
 10
759.53140621936552
 20
289.1485161689501
 30
0.0
 40
3.2999999999999998
  1

 41
0.9
  7
ROMANS
  0
TEXT
  5
14B64
  8
UMCL3
  6
CONTINUOUS
 62
     2
 10
426.05478391879888
 20
150.3638432988582
 30
0.0
 40
2.5
  1

 41
0.8
  7
ROMANS1
 72
     1
 11
426.05478391879888
 21
151.6138432988582
 31
0.0
 73
     2
  0
TEXT
  5
14B68
  8
UMCL3
 62
     2
 10
388.4510203905802
 20
154.33843610509459
 30
0.0
 40
3.2999999999999998
  1

 41
0.9
  7
ROMANS
  0
TEXT
  5
14B6A
  8
UMCL3
  6
CONTINUOUS
 62
     2
 10
394.72373657104862
 20
150.3638432988582
 30
0.0
 40
2.5
  1

 41
0.8
  7
ROMANS1
 72
     1
 11
394.72373657104862
 21
151.6138432988582
 31
0.0
 73
     2
  0
TEXT
  5
14B77
  8
UMCL3
 62
     2
 10
419.7820677383304
 20
154.33843610509459
 30
0.0
 40
3.2999999999999998
  1

 41
0.9
  7
ROMANS
  0
LINE
  5
14B7C
  8
LOGO
 62
     6
 10
618.12870096869358
 20
227.2665351821029
 30
0.0
 11
618.12870096869358
 21
210.2860012886276
 31
0.0
  0
LINE
  5
14B7D
  8
LOGO
 62
     6
 10
559.71321888160082
 20
227.2665351821029
 30
0.0
 11
559.71321888160082
 21
210.2860012886276
 31
0.0
  0
TEXT
  5
14B7E
  8
LOGO
  6
CONTINUOUS
 62
     6
 10
568.34666224469265
 20
184.18629178569319
 30
0.0
 40
4.7168149704097937
  1
Rotating angle
 41
0.8
  7
CHINESET
 72
     4
 11
588.92095992514692
 21
185.7585634424965
 31
0.0
  0
TEXT
  5
14B7F
  8
LOGO
 62
     6
 10
575.40728503492289
 20
191.65427265321409
 30
0.0
 40
7.546903952655672
  1
旋轉角度
 41
0.9
  7
CHINESET
 72
     4
 11
588.92095992514692
 21
195.19219338331621
 31
0.0
  0
LINE
  5
14B80
  8
LOGO
 62
     6
 10
618.12870096869358
 20
210.2860012886276
 30
0.0
 11
559.71321888160082
 21
210.2860012886276
 31
0.0
  0
LINE
  5
14B81
  8
LOGO
 62
     6
 10
618.12870096869358
 20
201.7957343418899
 30
0.0
 11
559.71321888160082
 21
201.7957343418899
 31
0.0
  0
LINE
  5
14B82
  8
LOGO
 62
     6
 10
618.12870096869358
 20
181.04174847208691
 30
0.0
 11
559.71321888160082
 21
181.04174847208679
 31
0.0
  0
LINE
  5
14B83
  8
LOGO
 62
     6
 10
559.71321888160082
 20
201.7957343418899
 30
0.0
 11
559.71321888160082
 21
181.04174847208691
 31
0.0
  0
LINE
  5
14B84
  8
LOGO
 62
     6
 10
588.92095992514726
 20
210.2860012886276
 30
0.0
 11
588.92095992514726
 21
201.7957343418899
 31
0.0
  0
LINE
  5
14B85
  8
LOGO
 62
     6
 10
618.12870096869358
 20
201.7957343418899
 30
0.0
 11
618.12870096869358
 21
181.04174847208691
 31
0.0
  0
LINE
  5
14B86
  8
LOGO
 62
     6
 10
618.12870096869358
 20
227.2665351821029
 30
0.0
 11
559.71321888160082
 21
227.2665351821029
 31
0.0
  0
LINE
  5
14B87
  8
LOGO
  6
CONTINUOUS
 62
     7
 10
549.27871362516976
 20
218.71612050075581
 30
0.0
 11
556.77669780037797
 21
218.71612050075581
 31
0.0
  0
LINE
  5
1508A
  8
0
 10
516.41377574708656
 20
396.82179785886501
 30
0.0
 11
538.61377574708649
 21
396.82179785886518
 31
0.0
  0
LINE
  5
1508B
  8
0
 62
     7
 10
516.41377574708656
 20
419.02179785886528
 30
0.0
 11
538.61377574708649
 21
419.02179785886528
 31
0.0
  0
LINE
  5
1508C
  8
0
 10
516.31377574708677
 20
394.52179785886523
 30
0.0
 11
538.71377574708686
 21
394.52179785886523
 31
0.0
  0
LINE
  5
1508D
  8
0
 10
517.01377574708658
 20
396.52179785886523
 30
0.0
 11
538.01377574708647
 21
396.52179785886523
 31
0.0
  0
CIRCLE
  5
1508E
  8
0
 10
527.51377574708647
 20
352.82179785886501
 30
0.0
 40
4.25
  0
ARC
  5
1508F
  8
0
 62
     2
 10
527.51377574708647
 20
352.82179785886501
 30
0.0
 40
5.0
 50
76.381240030119443
 51
12.829634465480821
  0
LINE
  5
15090
  8
0
 10
550.51377574708647
 20
366.82179785886501
 30
0.0
 11
504.51377574708658
 21
366.82179785886501
 31
0.0
  0
LINE
  5
15091
  8
0
 10
554.51377574708658
 20
362.82179785886501
 30
0.0
 11
500.51377574708653
 21
362.82179785886501
 31
0.0
  0
LINE
  5
15092
  8
0
 10
496.81377574708671
 20
276.82179785886518
 30
0.0
 11
558.21377574708686
 21
276.82179785886501
 31
0.0
  0
LINE
  5
15093
  8
0
 10
496.81377574708671
 20
306.82179785886518
 30
0.0
 11
558.21377574708686
 21
306.82179785886518
 31
0.0
  0
LINE
  5
15094
  8
0
 10
496.01377574708658
 20
306.02179785886523
 30
0.0
 11
559.01377574708647
 21
306.02179785886523
 31
0.0
  0
LINE
  5
15095
  8
0
 10
496.01377574708658
 20
277.62179785886508
 30
0.0
 11
559.01377574708647
 21
277.62179785886508
 31
0.0
  0
LINE
  5
15096
  8
CENTER
  6
CENTER
 10
542.29828240293489
 20
407.92179785886532
 30
0.0
 11
512.6977402770998
 21
407.92179785886532
 31
0.0
  0
LINE
  5
15097
  8
CENTER
  6
CENTER
 10
517.51377574708647
 20
352.82179785886501
 30
0.0
 11
537.51377574708658
 21
352.82179785886501
 31
0.0
  0
POLYLINE
  5
15098
  8
DIM
 66
     1
 10
0.0
 20
0.0
 30
0.0
 70
     7
  0
VERTEX
  5
15099
  8
DIM
 10
244.6127286254636
 20
526.44200536080552
 30
0.0
 42
-0.0185322085214218
  0
VERTEX
  5
1509A
  8
DIM
 10
246.64190169534319
 20
530.84310460048664
 30
0.0
  0
VERTEX
  5
1509B
  8
DIM
 10
246.10670929074371
 20
531.11434082605183
 30
0.0
  0
VERTEX
  5
1509C
  8
DIM
 10
248.72919407407699
 20
533.14853846490109
 30
0.0
  0
VERTEX
  5
1509D
  8
DIM
 10
248.5150751114424
 20
529.8937778110087
 30
0.0
  0
VERTEX
  5
1509E
  8
DIM
 10
247.97988270684249
 20
530.16501403657412
 30
0.0
 42
0.018532208521422
  0
VERTEX
  5
1509F
  8
DIM
 10
245.9972503037028
 20
525.86485744000402
 30
0.0
  0
SEQEND
  5
150A0
  8
DIM
  0
POLYLINE
  5
150A1
  8
DIM
 66
     1
 10
0.0
 20
0.0
 30
0.0
 70
     7
  0
VERTEX
  5
150A2
  8
DIM
 10
244.61272862546321
 20
498.28770951920342
 30
0.0
 42
0.0185322085214218
  0
VERTEX
  5
150A3
  8
DIM
 10
246.64190169534271
 20
493.88661027952219
 30
0.0
  0
VERTEX
  5
150A4
  8
DIM
 10
246.10670929074331
 20
493.61537405395711
 30
0.0
  0
VERTEX
  5
150A5
  8
DIM
 10
248.7291940740765
 20
491.5811764151079
 30
0.0
  0
VERTEX
  5
150A6
  8
DIM
 10
248.51507511144189
 20
494.83593706900041
 30
0.0
  0
VERTEX
  5
150A7
  8
DIM
 10
247.97988270684209
 20
494.56470084343482
 30
0.0
 42
-0.018532208521422
  0
VERTEX
  5
150A8
  8
DIM
 10
245.9972503037028
 20
498.8648574400039
 30
0.0
  0
SEQEND
  5
150A9
  8
DIM
  0
LINE
  5
150AA
  8
CENTER
  6
CENTER
 10
245.13636636984339
 20
512.49838951270465
 30
0.0
 11
356.29069093164929
 21
512.49838951270465
 31
0.0
  0
TEXT
  5
150AB
  8
DIM
 10
230.60680984692041
 20
493.35357161663882
 30
0.0
 40
4.0
  1
CCW
  7
ROMANS
  0
TEXT
  5
150AC
  8
DIM
 10
232.6817581626878
 20
528.41652060103559
 30
0.0
 40
4.0
  1
CW
  7
ROMANS
  0
LINE
  5
150AD
  8
0
 10
516.41377574708656
 20
396.82179785886501
 30
0.0
 11
516.41377574708656
 21
419.02179785886528
 31
0.0
  0
LINE
  5
150AE
  8
0
 10
409.66282749802019
 20
419.02179785886528
 30
0.0
 11
409.66282749802019
 21
396.82179785886518
 31
0.0
  0
CIRCLE
  5
150AF
  8
0
  6
CONTINUOUS
 10
329.66282749802031
 20
407.92179785886509
 30
0.0
 40
5.0
  0
LINE
  5
150B0
  8
0
 10
249.66282749802019
 20
419.02179785886528
 30
0.0
 11
249.66282749802019
 21
396.82179785886518
 31
0.0
  0
TEXT
  5
150B1
  8
DIM
 10
416.6628274980207
 20
397.233393568667
 30
0.0
 40
3.0
  1
11.1
 50
90.0
  7
ROMANS
  0
LINE
  5
150B2
  8
DIM
 10
417.6628274980207
 20
276.82179785886501
 30
0.0
 11
417.6628274980207
 21
407.92179785886492
 31
0.0
  0
LINE
  5
150B3
  8
DIM
 10
425.6628274980207
 20
276.82179785886501
 30
0.0
 11
425.6628274980207
 21
419.021797858865
 31
0.0
  0
LINE
  5
150B4
  8
DIM
 10
433.6628274980207
 20
276.82179785886501
 30
0.0
 11
433.66282749802031
 21
419.021797858865
 31
0.0
  0
LINE
  5
150B5
  8
CENTER
  6
CENTER
 10
329.66282749802031
 20
274.16759424733073
 30
0.0
 11
329.66282749802031
 21
423.8438009002939
 31
0.0
  0
LINE
  5
150B6
  8
0
 10
249.66282749802019
 20
396.82179785886518
 30
0.0
 11
409.66282749802019
 21
396.82179785886518
 31
0.0
  0
LINE
  5
150B7
  8
0
  6
PHANTOM
 62
     6
 10
249.66282749802019
 20
370.82179785886518
 30
0.0
 11
409.66282749802019
 21
370.82179785886518
 31
0.0
  0
LINE
  5
150B8
  8
0
  6
PHANTOM
 62
     6
 10
409.66282749802019
 20
393.02179785886523
 30
0.0
 11
249.66282749802019
 21
393.02179785886523
 31
0.0
  0
LINE
  5
150B9
  8
DIM
 10
401.00041858230628
 20
341.34037092852412
 30
0.0
 11
375.07125314206399
 21
341.34037092852412
 31
0.0
  0
TEXT
  5
150BA
  8
DIM
 10
376.88482591096408
 20
342.34037092852418
 30
0.0
 40
3.0
  1
2-PT 1/8
  7
ROMANS
  0
LINE
  5
150BB
  8
DIM
 10
362.76994958526927
 20
306.82179785886501
 30
0.0
 11
402.66282749802019
 21
306.82179785886501
 31
0.0
  0
LINE
  5
150BC
  8
DIM
 10
355.73050166874373
 20
366.82179785886501
 30
0.0
 11
410.66282749802082
 21
366.82179785886501
 31
0.0
  0
LINE
  5
150BD
  8
DIM
 10
362.76994958526927
 20
276.82179785886501
 30
0.0
 11
434.6628274980207
 21
276.82179785886501
 31
0.0
  0
LINE
  5
150BE
  8
0
 10
361.16282749802031
 20
277.62179785886508
 30
0.0
 11
361.16282749802031
 21
306.02179785886523
 31
0.0
  0
LINE
  5
150BF
  8
0
 10
298.16282749802031
 20
306.02179785886523
 30
0.0
 11
298.16282749802031
 21
277.62179785886508
 31
0.0
  0
LINE
  5
150C0
  8
CENTER
  6
CENTER
 10
353.66282749802019
 20
311.02410574246983
 30
0.0
 11
353.66282749802019
 21
273.46007920268261
 31
0.0
  0
LINE
  5
150C1
  8
CENTER
  6
CENTER
 10
305.66282749802019
 20
273.72070041872001
 30
0.0
 11
305.6628274980207
 21
311.02410574246949
 31
0.0
  0
LINE
  5
150C2
  8
HIDDEN
  6
HIDDEN
 10
358.16282749802031
 20
276.82179785886501
 30
0.0
 11
358.16282749802031
 21
306.82179785886501
 31
0.0
  0
LINE
  5
150C3
  8
HIDDEN
  6
HIDDEN
 10
349.16282749802031
 20
276.82179785886501
 30
0.0
 11
349.16282749802031
 21
306.82179785886501
 31
0.0
  0
LINE
  5
150C4
  8
HIDDEN
  6
HIDDEN
 10
361.1628274980207
 20
291.57179785886501
 30
0.0
 11
352.1628274980207
 21
292.04346787241252
 31
0.0
  0
LINE
  5
150C5
  8
HIDDEN
  6
HIDDEN
 10
310.1628274980207
 20
276.82179785886518
 30
0.0
 11
310.16282749802031
 21
306.82179785886518
 31
0.0
  0
LINE
  5
150C6
  8
HIDDEN
  6
HIDDEN
 10
301.16282749802031
 20
276.82179785886518
 30
0.0
 11
301.16282749802031
 21
306.82179785886518
 31
0.0
  0
LINE
  5
150C7
  8
0
 10
298.96282749802049
 20
276.82179785886518
 30
0.0
 11
360.36282749802052
 21
276.82179785886501
 31
0.0
  0
LINE
  5
150C8
  8
0
 10
298.16282749802031
 20
277.62179785886508
 30
0.0
 11
361.16282749802031
 21
277.62179785886508
 31
0.0
  0
LINE
  5
150C9
  8
0
 10
298.16282749802031
 20
277.62179785886508
 30
0.0
 11
298.96282749802049
 21
276.82179785886518
 31
0.0
  0
LINE
  5
150CA
  8
0
 10
360.36282749802052
 20
276.82179785886501
 30
0.0
 11
361.16282749802031
 21
277.62179785886508
 31
0.0
  0
LINE
  5
150CB
  8
HIDDEN
  6
HIDDEN
 10
361.1628274980207
 20
290.82179785886501
 30
0.0
 11
352.1628274980207
 21
291.29346787241252
 31
0.0
  0
LINE
  5
150CC
  8
0
 10
298.96282749802049
 20
306.82179785886518
 30
0.0
 11
360.36282749802052
 21
306.82179785886518
 31
0.0
  0
LINE
  5
150CD
  8
0
 10
352.66282749802031
 20
366.82179785886501
 30
0.0
 11
306.66282749802031
 21
366.82179785886501
 31
0.0
  0
LINE
  5
150CE
  8
0
 62
     4
 10
356.66282749802031
 20
362.82179785886501
 30
0.0
 11
302.66282749802031
 21
362.82179785886501
 31
0.0
  0
LINE
  5
150CF
  8
0
 10
298.16282749802031
 20
306.02179785886523
 30
0.0
 11
361.16282749802031
 21
306.02179785886523
 31
0.0
  0
LINE
  5
150D0
  8
DIM
 10
302.66282749802031
 20
329.68106115064342
 30
0.0
 11
356.66282749802031
 21
329.68106115064342
 31
0.0
  0
LINE
  5
150D1
  8
0
 10
302.66282749802031
 20
306.82179785886518
 30
0.0
 11
302.66282749802031
 21
362.82179785886501
 31
0.0
  0
LINE
  5
150D2
  8
0
 10
298.96282749802049
 20
306.82179785886518
 30
0.0
 11
298.16282749802031
 21
306.02179785886523
 31
0.0
  0
SOLID
  5
150D3
  8
DIM
 10
305.61725075701992
 20
330.20200568374361
 30
0.0
 11
305.61725075701992
 21
329.16011661754351
 31
0.0
 12
302.66282749801979
 22
329.68106115064342
 32
0.0
 13
302.66282749801979
 23
329.68106115064342
 33
0.0
  0
LINE
  5
150D4
  8
0
  6
PHANTOM
 62
     6
 10
249.66282749802019
 20
393.02179785886523
 30
0.0
 11
249.66282749802019
 21
370.82179785886518
 31
0.0
  0
ARC
  5
150D5
  8
0
 10
306.66282749802031
 20
362.82179785886501
 30
0.0
 40
4.0
 50
90.0
 51
180.0
  0
LINE
  5
150D6
  8
0
 10
356.66282749802031
 20
306.82179785886501
 30
0.0
 11
356.66282749802031
 21
362.82179785886501
 31
0.0
  0
LINE
  5
150D7
  8
DIM
 10
375.07125314206399
 20
341.34037092852412
 30
0.0
 11
356.6628274980207
 21
352.82179785886478
 31
0.0
  0
LINE
  5
150D8
  8
CENTER
  6
CENTER
 10
363.93753598239982
 20
295.8217978588649
 30
0.0
 11
347.04359049104232
 21
295.8217978588649
 31
0.0
  0
TEXT
  5
150D9
  8
DIM
 10
331.99856190067112
 20
330.68106115064342
 30
0.0
 40
3.0
  1
%%c54
  7
ROMANS
  0
LINE
  5
150DA
  8
0
 10
360.36282749802052
 20
306.82179785886518
 30
0.0
 11
361.16282749802031
 21
306.02179785886523
 31
0.0
  0
SOLID
  5
150DB
  8
DIM
 10
353.70840423902058
 20
329.16011661754351
 30
0.0
 11
353.70840423902058
 21
330.20200568374361
 31
0.0
 12
356.66282749802031
 22
329.68106115064342
 32
0.0
 13
356.66282749802031
 23
329.68106115064342
 33
0.0
  0
LINE
  5
150DC
  8
HIDDEN
  6
HIDDEN
 10
361.1628274980207
 20
300.0717978588649
 30
0.0
 11
352.1628274980207
 21
299.60012784531767
 31
0.0
  0
LINE
  5
150DD
  8
HIDDEN
  6
HIDDEN
 10
361.1628274980207
 20
300.82179785886501
 30
0.0
 11
352.1628274980207
 21
300.35012784531767
 31
0.0
  0
LINE
  5
150DE
  8
CENTER
  6
CENTER
 10
359.43753598239982
 20
352.82179785886501
 30
0.0
 11
342.54359049104232
 21
352.82179785886501
 31
0.0
  0
LINE
  5
150DF
  8
HIDDEN
  6
HIDDEN
 10
356.6628274980207
 20
357.82179785886501
 30
0.0
 11
347.6628274980207
 21
357.35012784531767
 31
0.0
  0
LINE
  5
150E0
  8
HIDDEN
  6
HIDDEN
 10
356.6628274980207
 20
347.82179785886501
 30
0.0
 11
347.6628274980207
 21
348.29346787241252
 31
0.0
  0
LINE
  5
150E1
  8
HIDDEN
  6
HIDDEN
 10
356.6628274980207
 20
348.57179785886501
 30
0.0
 11
347.6628274980207
 21
349.04346787241252
 31
0.0
  0
LINE
  5
150E2
  8
HIDDEN
  6
HIDDEN
 10
356.6628274980207
 20
357.07179785886501
 30
0.0
 11
347.6628274980207
 21
356.60012784531767
 31
0.0
  0
LINE
  5
150E3
  8
0
 10
340.16282749802031
 20
396.82179785886518
 30
0.0
 11
340.16282749802031
 21
396.52179785886523
 31
0.0
  0
LINE
  5
150E4
  8
0
 10
340.16282749802031
 20
396.52179785886523
 30
0.0
 11
340.86282749802052
 21
394.52179785886523
 31
0.0
  0
LINE
  5
150E5
  8
0
 10
319.16282749802031
 20
396.82179785886518
 30
0.0
 11
319.16282749802031
 21
396.52179785886523
 31
0.0
  0
LINE
  5
150E6
  8
0
 10
319.16282749802031
 20
396.52179785886523
 30
0.0
 11
318.46282749802037
 21
394.52179785886523
 31
0.0
  0
LINE
  5
150E7
  8
0
 10
318.46282749802037
 20
394.52179785886523
 30
0.0
 11
340.86282749802052
 21
394.52179785886523
 31
0.0
  0
LINE
  5
150E8
  8
0
 10
319.16282749802031
 20
396.52179785886523
 30
0.0
 11
340.16282749802031
 21
396.52179785886523
 31
0.0
  0
LINE
  5
150E9
  8
0
 10
318.46282749802037
 20
366.82179785886501
 30
0.0
 11
318.46282749802037
 21
394.52179785886523
 31
0.0
  0
LINE
  5
150EA
  8
0
 10
340.86282749802052
 20
366.82179785886501
 30
0.0
 11
340.86282749802052
 21
394.52179785886523
 31
0.0
  0
ARC
  5
150EB
  8
0
 10
352.66282749802031
 20
362.82179785886501
 30
0.0
 40
4.0
 50
0.0
 51
90.0
  0
SOLID
  5
150EC
  8
DIM
 10
359.44531965592972
 20
351.70030894181667
 30
0.0
 11
358.89394304591627
 21
350.8162746324162
 31
0.0
 12
356.6628274980207
 22
352.82179785886501
 32
0.0
 13
356.6628274980207
 23
352.82179785886501
 33
0.0
  0
CIRCLE
  5
150ED
  8
0
 10
515.51377574708658
 20
295.8217978588649
 30
0.0
 40
4.25
  0
ARC
  5
150EE
  8
0
 62
     2
 10
515.51377574708658
 20
295.8217978588649
 30
0.0
 40
5.0
 50
76.381240030119443
 51
12.829634465480821
  0
LINE
  5
150EF
  8
0
 10
496.01377574708658
 20
306.02179785886523
 30
0.0
 11
496.01377574708658
 21
277.62179785886508
 31
0.0
  0
LINE
  5
150F0
  8
DIM
 10
409.6628274980207
 20
276.82179785886501
 30
0.0
 11
409.6628274980207
 21
366.82179785886501
 31
0.0
  0
TEXT
  5
150F1
  8
DIM
 10
400.66282749802031
 20
288.72411034235591
 30
0.0
 40
3.0
  1
30
 50
90.0
  7
ROMANS
  0
LINE
  5
150F2
  8
DIM
 10
401.66282749802019
 20
276.82179785886501
 30
0.0
 11
401.66282749802019
 21
306.82179785886501
 31
0.0
  0
LINE
  5
150F3
  8
CENTER
  6
CENTER
 10
515.51377574708658
 20
285.82179785886501
 30
0.0
 11
515.51377574708658
 21
305.82179785886501
 31
0.0
  0
LINE
  5
150F4
  8
CENTER
  6
CENTER
 10
503.51377574708658
 20
273.72070041872001
 30
0.0
 11
503.51377574708658
 21
311.02410574246949
 31
0.0
  0
LINE
  5
150F5
  8
HIDDEN
  6
HIDDEN
 10
508.01377574708658
 20
276.82179785886518
 30
0.0
 11
508.01377574708658
 21
306.82179785886518
 31
0.0
  0
LINE
  5
150F6
  8
HIDDEN
  6
HIDDEN
 10
499.01377574708658
 20
276.82179785886518
 30
0.0
 11
499.01377574708658
 21
306.82179785886518
 31
0.0
  0
SOLID
  5
150F7
  8
DIM
 10
417.14188296492051
 20
279.77622111786508
 30
0.0
 11
418.1837720311205
 21
279.77622111786508
 31
0.0
 12
417.6628274980207
 22
276.82179785886501
 32
0.0
 13
417.6628274980207
 23
276.82179785886501
 33
0.0
  0
SOLID
  5
150F8
  8
DIM
 10
409.14188296492051
 20
279.77622111786508
 30
0.0
 11
410.1837720311205
 21
279.77622111786508
 31
0.0
 12
409.6628274980207
 22
276.82179785886501
 32
0.0
 13
409.6628274980207
 23
276.82179785886501
 33
0.0
  0
SOLID
  5
150F9
  8
DIM
 10
401.14188296492063
 20
279.77622111786508
 30
0.0
 11
402.1837720311205
 21
279.77622111786508
 31
0.0
 12
401.66282749802019
 22
276.82179785886501
 32
0.0
 13
401.66282749802019
 23
276.82179785886501
 33
0.0
  0
SOLID
  5
150FA
  8
DIM
 10
433.14188296492051
 20
279.77622111786508
 30
0.0
 11
434.1837720311205
 21
279.77622111786508
 31
0.0
 12
433.6628274980207
 22
276.82179785886501
 32
0.0
 13
433.6628274980207
 23
276.82179785886501
 33
0.0
  0
SOLID
  5
150FB
  8
DIM
 10
425.14188296492051
 20
279.77622111786508
 30
0.0
 11
426.1837720311205
 21
279.77622111786508
 31
0.0
 12
425.6628274980207
 22
276.82179785886501
 32
0.0
 13
425.6628274980207
 23
276.82179785886501
 33
0.0
  0
LINE
  5
150FC
  8
0
 10
496.01377574708658
 20
277.62179785886508
 30
0.0
 11
496.81377574708671
 21
276.82179785886518
 31
0.0
  0
TEXT
  5
150FD
  8
DIM
 10
432.6628274980207
 20
341.05581884959929
 30
0.0
 40
3.0
  1
142.2
 50
90.0
  7
ROMANS
  0
TEXT
  5
150FE
  8
DIM
 10
408.6628274980207
 20
317.83226131259443
 30
0.0
 40
3.0
  1
90
 50
90.0
  7
ROMANS
  0
TEXT
  5
150FF
  8
DIM
 10
416.6628274980207
 20
320.59218391980028
 30
0.0
 40
3.0
  1
94
 50
90.0
  7
ROMANS
  0
SOLID
  5
15100
  8
DIM
 10
402.1837720311205
 20
303.86737459986477
 30
0.0
 11
401.14188296492063
 21
303.86737459986477
 31
0.0
 12
401.66282749802019
 22
306.82179785886501
 32
0.0
 13
401.66282749802019
 23
306.82179785886501
 33
0.0
  0
TEXT
  5
15101
  8
DIM
 10
424.6628274980207
 20
332.32461701594411
 30
0.0
 40
3.0
  1
120
 50
90.0
  7
ROMANS
  0
LINE
  5
15102
  8
DIM
 10
411.30135381133681
 20
396.82179785886518
 30
0.0
 11
426.6628274980207
 21
396.82179785886501
 31
0.0
  0
LINE
  5
15103
  8
0
  6
PHANTOM
 62
     6
 10
409.66282749802019
 20
393.02179785886523
 30
0.0
 11
409.66282749802019
 21
370.82179785886518
 31
0.0
  0
SOLID
  5
15104
  8
DIM
 10
418.1837720311205
 20
393.86737459986512
 30
0.0
 11
417.14188296492051
 21
393.86737459986512
 31
0.0
 12
417.6628274980207
 22
396.82179785886518
 32
0.0
 13
417.6628274980207
 23
396.82179785886518
 33
0.0
  0
SOLID
  5
15105
  8
DIM
 10
418.1837720311205
 20
399.77622111786508
 30
0.0
 11
417.14188296492051
 21
399.77622111786508
 31
0.0
 12
417.6628274980207
 22
396.82179785886501
 32
0.0
 13
417.6628274980207
 23
396.82179785886501
 33
0.0
  0
TEXT
  5
15106
  8
DIM
 10
416.6628274980207
 20
380.84282409614059
 30
0.0
 40
3.0
  1
26
 50
90.0
  7
ROMANS
  0
SOLID
  5
15107
  8
DIM
 10
418.1837720311205
 20
367.86737459986512
 30
0.0
 11
417.14188296492051
 21
367.86737459986512
 31
0.0
 12
417.6628274980207
 22
370.8217978588649
 32
0.0
 13
417.6628274980207
 23
370.8217978588649
 33
0.0
  0
SOLID
  5
15108
  8
DIM
 10
410.1837720311205
 20
363.86737459986512
 30
0.0
 11
409.14188296492051
 21
363.86737459986512
 31
0.0
 12
409.6628274980207
 22
366.82179785886501
 32
0.0
 13
409.6628274980207
 23
366.82179785886501
 33
0.0
  0
LINE
  5
15109
  8
DIM
 10
411.30135381133681
 20
370.82179785886518
 30
0.0
 11
418.6628274980207
 21
370.8217978588649
 31
0.0
  0
SOLID
  5
1510A
  8
DIM
 10
418.1837720311205
 20
373.77622111786508
 30
0.0
 11
417.14188296492051
 21
373.77622111786508
 31
0.0
 12
417.6628274980207
 22
370.8217978588649
 32
0.0
 13
417.6628274980207
 23
370.8217978588649
 33
0.0
  0
SOLID
  5
1510B
  8
DIM
 10
426.1837720311205
 20
393.86737459986512
 30
0.0
 11
425.14188296492051
 21
393.86737459986512
 31
0.0
 12
425.6628274980207
 22
396.82179785886501
 32
0.0
 13
425.6628274980207
 23
396.82179785886501
 33
0.0
  0
SOLID
  5
1510C
  8
DIM
 10
426.1837720311205
 20
399.77622111786508
 30
0.0
 11
425.14188296492051
 21
399.77622111786508
 31
0.0
 12
425.6628274980207
 22
396.82179785886501
 32
0.0
 13
425.6628274980207
 23
396.82179785886501
 33
0.0
  0
LINE
  5
1510D
  8
0
 10
500.51377574708653
 20
306.82179785886518
 30
0.0
 11
500.51377574708653
 21
362.82179785886501
 31
0.0
  0
LINE
  5
1510E
  8
0
 10
496.81377574708671
 20
306.82179785886518
 30
0.0
 11
496.01377574708658
 21
306.02179785886523
 31
0.0
  0
LINE
  5
1510F
  8
CENTER
  6
CENTER
 10
505.51377574708653
 20
295.8217978588649
 30
0.0
 11
525.51377574708647
 21
295.8217978588649
 31
0.0
  0
LINE
  5
15110
  8
0
 10
522.51377574708647
 20
396.52179785886523
 30
0.0
 11
522.51377574708647
 21
396.82179785886501
 31
0.0
  0
LINE
  5
15111
  8
0
 10
517.01377574708658
 20
396.52179785886523
 30
0.0
 11
516.31377574708677
 21
394.52179785886523
 31
0.0
  0
ARC
  5
15112
  8
0
 10
504.51377574708658
 20
362.82179785886501
 30
0.0
 40
4.0
 50
90.0
 51
180.0
  0
LINE
  5
15113
  8
0
 10
516.31377574708677
 20
366.82179785886501
 30
0.0
 11
516.31377574708677
 21
394.52179785886477
 31
0.0
  0
LINE
  5
15114
  8
0
 10
409.66282749802019
 20
419.02179785886528
 30
0.0
 11
249.66282749802019
 21
419.02179785886528
 31
0.0
  0
LINE
  5
15115
  8
0
 10
249.66282749802019
 20
501.39838951270463
 30
0.0
 11
409.66282749802019
 21
501.39838951270463
 31
0.0
  0
LINE
  5
15116
  8
0
 10
409.66282749802019
 20
523.59838951270467
 30
0.0
 11
249.66282749802019
 21
523.59838951270467
 31
0.0
  0
LINE
  5
15117
  8
DIM
 10
249.66282749802019
 20
427.02179785886528
 30
0.0
 11
409.66282749802019
 21
427.02179785886528
 31
0.0
  0
LINE
  5
15118
  8
DIM
 10
343.15977462731462
 20
407.92179785886532
 30
0.0
 11
418.85689139487022
 21
407.92179785886492
 31
0.0
  0
LINE
  5
15119
  8
CENTER
  6
CENTER
 10
363.8106996815813
 20
512.49838951270465
 30
0.0
 11
412.49501977428088
 21
512.49838951270465
 31
0.0
  0
ARC
  5
1511A
  8
0
 10
340.16282749802031
 20
512.49838951270465
 30
0.0
 40
5.0
 50
270.0
 51
90.0
  0
ARC
  5
1511B
  8
0
 10
329.66282749802031
 20
512.49838951270465
 30
0.0
 40
11.199999999999999
 50
333.48522536573108
 51
26.514774634268822
  0
ARC
  5
1511C
  8
0
 10
329.66282749802031
 20
512.49838951270465
 30
0.0
 40
10.5
 50
331.56310985115192
 51
28.436890148848029
  0
ARC
  5
1511D
  8
0
 10
319.16282749802031
 20
512.49838951270465
 30
0.0
 40
5.0
 50
90.0
 51
270.0
  0
ARC
  5
1511E
  8
0
 10
329.66282749802031
 20
512.49838951270465
 30
0.0
 40
11.199999999999999
 50
153.48522536573111
 51
206.5147746342688
  0
ARC
  5
1511F
  8
0
 10
329.66282749802031
 20
512.49838951270465
 30
0.0
 40
10.5
 50
151.56310985115189
 51
208.43689014884799
  0
LINE
  5
15120
  8
0
 10
249.66282749802019
 20
523.59838951270467
 30
0.0
 11
249.66282749802019
 21
501.39838951270463
 31
0.0
  0
SOLID
  5
15121
  8
DIM
 10
362.47709697910199
 20
514.54396625370475
 30
0.0
 11
361.43520791290211
 21
514.54396625370475
 31
0.0
 12
361.95615244600219
 22
517.49838951270476
 32
0.0
 13
361.95615244600219
 23
517.49838951270476
 33
0.0
  0
TEXT
  5
15122
  8
DIM
 10
360.95615244600231
 20
509.54511262569571
 30
0.0
 40
3.0
  1
10
 50
90.0
  7
ROMANS
  0
LINE
  5
15123
  8
DIM
 10
361.95615244600219
 20
507.4983895127047
 30
0.0
 11
361.95615244600219
 21
517.49838951270476
 31
0.0
  0
LINE
  5
15124
  8
CENTER
  6
CENTER
 10
329.66282749802031
 20
478.53181613960191
 30
0.0
 11
329.66282749802031
 21
546.62507860477115
 31
0.0
  0
POLYLINE
  5
15125
  8
0
 66
     1
 10
0.0
 20
0.0
 30
0.0
  0
VERTEX
  5
15206
  8
0
 10
302.64431532580778
 20
480.9983895127047
 30
0.0
  0
VERTEX
  5
15207
  8
0
 10
356.68133967023272
 20
480.9983895127047
 30
0.0
  0
SEQEND
  5
15208
  8
0
  0
ARC
  5
15126
  8
0
 10
329.66282749802031
 20
512.49838951270465
 30
0.0
 40
27.0
 50
204.27465219458051
 51
335.7253478054194
  0
SOLID
  5
15127
  8
DIM
 10
317.11725075702037
 20
473.51933404580473
 30
0.0
 11
317.11725075702037
 21
472.47744497960451
 31
0.0
 12
314.16282749802019
 22
472.9983895127047
 32
0.0
 13
314.16282749802019
 23
472.9983895127047
 33
0.0
  0
LINE
  5
15128
  8
DIM
 10
314.16282749802019
 20
472.9983895127047
 30
0.0
 11
345.16282749802019
 21
472.9983895127047
 31
0.0
  0
LINE
  5
15129
  8
DIM
 10
305.66282749802019
 20
464.9983895127047
 30
0.0
 11
353.6628274980207
 21
464.9983895127047
 31
0.0
  0
LINE
  5
1512A
  8
DIM
 10
298.1628274980207
 20
456.9983895127047
 30
0.0
 11
361.16282749802031
 21
456.9983895127047
 31
0.0
  0
LINE
  5
1512B
  8
DIM
 10
298.1628274980207
 20
483.43088048146592
 30
0.0
 11
298.1628274980207
 21
455.9983895127047
 31
0.0
  0
SOLID
  5
1512C
  8
DIM
 10
252.6172507570204
 20
427.54274239196519
 30
0.0
 11
252.6172507570204
 21
426.50085332576532
 31
0.0
 12
249.66282749802019
 22
427.02179785886528
 32
0.0
 13
249.66282749802019
 23
427.02179785886528
 33
0.0
  0
LINE
  5
1512D
  8
DIM
 10
249.66282749802019
 20
420.47905599855739
 30
0.0
 11
249.66282749802019
 21
428.02179785886528
 31
0.0
  0
SOLID
  5
1512E
  8
DIM
 10
301.11725075702037
 20
456.47744497960451
 30
0.0
 11
301.11725075702037
 21
457.51933404580473
 31
0.0
 12
298.1628274980207
 22
456.9983895127047
 32
0.0
 13
298.1628274980207
 23
456.9983895127047
 33
0.0
  0
ARC
  5
1512F
  8
0
 10
329.66282749802031
 20
512.49838951270465
 30
0.0
 40
41.5
 50
220.62069995133601
 51
229.37930004866371
  0
POLYLINE
  5
15130
  8
0
 66
     1
 10
0.0
 20
0.0
 30
0.0
  0
VERTEX
  5
15209
  8
0
 10
298.16282749802031
 20
501.39838951270463
 30
0.0
  0
VERTEX
  5
1520A
  8
0
 10
298.16282749802031
 20
485.47987734049218
 30
0.0
  0
SEQEND
  5
1520B
  8
0
  0
CIRCLE
  5
15131
  8
0
 10
305.66282749802019
 20
488.49838951270482
 30
0.0
 40
4.5
  0
LINE
  5
15132
  8
DIM
 10
314.16282749802019
 20
510.24055544996531
 30
0.0
 11
314.16282749802019
 21
471.99838951270482
 31
0.0
  0
SOLID
  5
15133
  8
DIM
 10
308.61725075702037
 20
464.47744497960451
 30
0.0
 11
308.61725075702037
 21
465.51933404580473
 31
0.0
 12
305.66282749802019
 22
464.9983895127047
 32
0.0
 13
305.66282749802019
 23
464.9983895127047
 33
0.0
  0
LINE
  5
15134
  8
DIM
 10
305.66282749802019
 20
475.99838951270482
 30
0.0
 11
305.66282749802019
 21
463.99838951270482
 31
0.0
  0
LINE
  5
15135
  8
CENTER
  6
CENTER
 10
305.6628274980207
 20
478.4983895127047
 30
0.0
 11
305.6628274980207
 21
498.4983895127047
 31
0.0
  0
LINE
  5
15136
  8
CENTER
  6
CENTER
 10
315.6628274980207
 20
488.49838951270482
 30
0.0
 11
295.6628274980207
 21
488.49838951270482
 31
0.0
  0
LINE
  5
15137
  8
DIM
 10
361.16282749802031
 20
483.43088048146592
 30
0.0
 11
361.16282749802031
 21
455.9983895127047
 31
0.0
  0
TEXT
  5
15138
  8
DIM
 10
328.27800575333049
 20
457.9983895127047
 30
0.0
 40
3.0
  1
63
  7
ROMANS
  0
POLYLINE
  5
15139
  8
DIM
 66
     1
 10
0.0
 20
0.0
 30
0.0
 70
     1
  0
VERTEX
  5
1520C
  8
DIM
 10
327.90245828656629
 20
460.70533812150961
 30
0.0
  0
VERTEX
  5
1520D
  8
DIM
 10
327.90245828656629
 20
458.15687544238529
 30
0.0
  0
VERTEX
  5
1520E
  8
DIM
 10
325.35761968612218
 20
458.15687544238529
 30
0.0
  0
VERTEX
  5
1520F
  8
DIM
 10
325.35761968612218
 20
460.70533812150961
 30
0.0
  0
SEQEND
  5
15210
  8
DIM
  0
LINE
  5
1513A
  8
DIM
 10
355.67575010465993
 20
433.8996300498772
 30
0.0
 11
333.2007468561178
 21
411.45494470206279
 31
0.0
  0
TEXT
  5
1513B
  8
DIM
 10
324.49398997974407
 20
428.02179785886528
 30
0.0
 40
3.0
  1
160
  7
ROMANS
  0
SOLID
  5
1513C
  8
DIM
 10
335.65936381064461
 20
413.17401499463398
 30
0.0
 11
334.92313439760341
 21
413.91123889389382
 31
0.0
 12
333.2007468561178
 22
411.45494470206279
 32
0.0
 13
333.2007468561178
 23
411.45494470206279
 33
0.0
  0
LINE
  5
1513D
  8
CENTER
  6
CENTER
 10
341.53884063681153
 20
407.92179785886532
 30
0.0
 11
317.83187615853831
 21
407.92179785886532
 31
0.0
  0
SOLID
  5
1513E
  8
DIM
 10
358.20840423902058
 20
456.47744497960451
 30
0.0
 11
358.20840423902058
 21
457.51933404580473
 31
0.0
 12
361.16282749802031
 22
456.9983895127047
 32
0.0
 13
361.16282749802031
 23
456.9983895127047
 33
0.0
  0
TEXT
  5
1513F
  8
DIM
 10
357.36195794959212
 20
434.89963004987732
 30
0.0
 40
3.0
  1
%%c10
  7
ROMANS
  0
LINE
  5
15140
  8
DIM
 10
366.36890489566662
 20
433.8996300498772
 30
0.0
 11
355.67575010465993
 21
433.8996300498772
 31
0.0
  0
CIRCLE
  5
15141
  8
0
 10
353.66282749802019
 20
488.49838951270482
 30
0.0
 40
4.5
  0
SOLID
  5
15142
  8
DIM
 10
350.70840423902058
 20
464.47744497960451
 30
0.0
 11
350.70840423902058
 21
465.51933404580473
 31
0.0
 12
353.66282749802019
 22
464.9983895127047
 32
0.0
 13
353.66282749802019
 23
464.9983895127047
 33
0.0
  0
LINE
  5
15143
  8
DIM
 10
343.23846950840601
 20
507.4983895127047
 30
0.0
 11
362.95615244600231
 21
507.4983895127047
 31
0.0
  0
LINE
  5
15144
  8
CENTER
  6
CENTER
 10
363.66282749802031
 20
488.49838951270488
 30
0.0
 11
343.66282749802031
 21
488.49838951270488
 31
0.0
  0
LINE
  5
15145
  8
0
 10
319.16282749802031
 20
507.4983895127047
 30
0.0
 11
340.16282749802031
 21
507.4983895127047
 31
0.0
  0
SOLID
  5
15146
  8
DIM
 10
342.20840423902013
 20
472.47744497960451
 30
0.0
 11
342.20840423902013
 21
473.51933404580473
 31
0.0
 12
345.16282749802019
 22
472.9983895127047
 32
0.0
 13
345.16282749802019
 23
472.9983895127047
 33
0.0
  0
TEXT
  5
15147
  8
DIM
 10
326.70955061101131
 20
473.9983895127047
 30
0.0
 40
3.0
  1
31
  7
ROMANS
  0
TEXT
  5
15148
  8
DIM
 10
328.24325089207508
 20
465.9983895127047
 30
0.0
 40
3.0
  1
48
  7
ROMANS
  0
POLYLINE
  5
15149
  8
DIM
 66
     1
 10
0.0
 20
0.0
 30
0.0
 70
     1
  0
VERTEX
  5
15211
  8
DIM
 10
327.90245828656629
 20
468.70533812150933
 30
0.0
  0
VERTEX
  5
15212
  8
DIM
 10
327.90245828656629
 20
466.15687544238523
 30
0.0
  0
VERTEX
  5
15213
  8
DIM
 10
325.35761968612218
 20
466.15687544238523
 30
0.0
  0
VERTEX
  5
15214
  8
DIM
 10
325.35761968612218
 20
468.70533812150933
 30
0.0
  0
SEQEND
  5
15215
  8
DIM
  0
LINE
  5
1514A
  8
DIM
 10
345.16282749802019
 20
510.24936819934692
 30
0.0
 11
345.16282749802019
 21
471.99838951270482
 31
0.0
  0
POLYLINE
  5
1514B
  8
0
 66
     1
 10
0.0
 20
0.0
 30
0.0
  0
VERTEX
  5
15216
  8
0
 10
361.16282749802031
 20
485.47987734049212
 30
0.0
  0
VERTEX
  5
15217
  8
0
 10
361.16282749802031
 20
501.39838951270463
 30
0.0
  0
SEQEND
  5
15218
  8
0
  0
ARC
  5
1514C
  8
0
 10
329.66282749802031
 20
512.49838951270465
 30
0.0
 40
41.5
 50
310.62069995132907
 51
319.37930004866388
  0
SOLID
  5
1514D
  8
DIM
 10
361.43520791290211
 20
510.45281277170483
 30
0.0
 11
362.47709697910199
 21
510.45281277170483
 31
0.0
 12
361.95615244600219
 22
507.4983895127047
 32
0.0
 13
361.95615244600219
 23
507.4983895127047
 33
0.0
  0
LINE
  5
1514E
  8
DIM
 10
385.61584966179862
 20
471.02092777935729
 30
0.0
 11
371.16389749058811
 21
471.02092777935729
 31
0.0
  0
TEXT
  5
1514F
  8
DIM
 10
373.43928941772577
 20
472.02092777935741
 30
0.0
 40
3.0
  1
4-%%c9
  7
ROMANS
  0
LINE
  5
15150
  8
DIM
 10
353.66282749802019
 20
475.99838951270482
 30
0.0
 11
353.66282749802019
 21
463.99838951270482
 31
0.0
  0
SOLID
  5
15151
  8
DIM
 10
359.30557187483601
 20
483.5994870612551
 30
0.0
 11
358.56934246179469
 21
482.8622631619952
 31
0.0
 12
356.84695492030909
 22
485.31855735382618
 32
0.0
 13
356.84695492030909
 23
485.31855735382618
 33
0.0
  0
LINE
  5
15152
  8
DIM
 10
371.16389749058811
 20
471.02092777935729
 30
0.0
 11
356.84695492030909
 21
485.31855735382618
 31
0.0
  0
LINE
  5
15153
  8
CENTER
  6
CENTER
 10
353.66282749802019
 20
498.49838951270499
 30
0.0
 11
353.66282749802019
 21
478.49838951270499
 31
0.0
  0
POLYLINE
  5
15154
  8
0
 66
     1
 10
0.0
 20
0.0
 30
0.0
  0
VERTEX
  5
15219
  8
0
 10
356.68133967023272
 20
543.99838951270465
 30
0.0
  0
VERTEX
  5
1521A
  8
0
 10
302.64431532580778
 20
543.99838951270465
 30
0.0
  0
SEQEND
  5
1521B
  8
0
  0
ARC
  5
15155
  8
0
 10
329.66282749802031
 20
512.49838951270465
 30
0.0
 40
27.0
 50
24.27465219458055
 51
155.7253478054194
  0
ARC
  5
15156
  8
0
 10
329.66282749802031
 20
512.49838951270465
 30
0.0
 40
41.5
 50
130.62069995133621
 51
139.37930004866391
  0
CIRCLE
  5
15157
  8
0
 10
305.66282749802019
 20
536.49838951270465
 30
0.0
 40
4.5
  0
POLYLINE
  5
15158
  8
0
 66
     1
 10
0.0
 20
0.0
 30
0.0
  0
VERTEX
  5
1521C
  8
0
 10
298.16282749802031
 20
539.51690168491723
 30
0.0
  0
VERTEX
  5
1521D
  8
0
 10
298.16282749802031
 20
523.59838951270467
 30
0.0
  0
SEQEND
  5
1521E
  8
0
  0
LINE
  5
15159
  8
CENTER
  6
CENTER
 10
305.66282749802019
 20
526.49838951270476
 30
0.0
 11
305.66282749802019
 21
546.49838951270465
 31
0.0
  0
LINE
  5
1515A
  8
CENTER
  6
CENTER
 10
295.66282749802031
 20
536.49838951270465
 30
0.0
 11
315.66282749802031
 21
536.49838951270465
 31
0.0
  0
CIRCLE
  5
1515B
  8
0
 10
353.66282749802019
 20
536.49838951270465
 30
0.0
 40
4.5
  0
LINE
  5
1515C
  8
DIM
 10
343.23846950840601
 20
517.49838951270476
 30
0.0
 11
362.95615244600231
 21
517.49838951270476
 31
0.0
  0
LINE
  5
1515D
  8
CENTER
  6
CENTER
 10
343.66282749802031
 20
536.49838951270465
 30
0.0
 11
363.66282749802031
 21
536.49838951270465
 31
0.0
  0
LINE
  5
1515E
  8
0
 10
319.16282749802031
 20
517.49838951270476
 30
0.0
 11
340.16282749802031
 21
517.49838951270476
 31
0.0
  0
POLYLINE
  5
1515F
  8
0
 66
     1
 10
0.0
 20
0.0
 30
0.0
  0
VERTEX
  5
1521F
  8
0
 10
361.16282749802031
 20
523.59838951270467
 30
0.0
  0
VERTEX
  5
15220
  8
0
 10
361.16282749802031
 20
539.51690168491723
 30
0.0
  0
SEQEND
  5
15221
  8
0
  0
ARC
  5
15160
  8
0
 10
329.66282749802031
 20
512.49838951270465
 30
0.0
 40
41.5
 50
40.620699951336043
 51
49.379300048663787
  0
LINE
  5
15161
  8
CENTER
  6
CENTER
 10
353.66282749802019
 20
546.49838951270465
 30
0.0
 11
353.66282749802019
 21
526.49838951270476
 31
0.0
  0
LINE
  5
15162
  8
0
 10
409.66282749802019
 20
523.59838951270467
 30
0.0
 11
409.66282749802019
 21
501.39838951270463
 31
0.0
  0
TEXT
  5
15163
  8
DIM
 10
416.66282749802031
 20
507.34229634745861
 30
0.0
 40
3.0
  1
22.2
 50
90.0
  7
ROMANS
  0
LINE
  5
15164
  8
DIM
 10
417.66282749802031
 20
501.39838951270463
 30
0.0
 11
417.66282749802031
 21
523.59838951270467
 31
0.0
  0
LINE
  5
15165
  8
DIM
 10
411.28376148852379
 20
419.02179785886528
 30
0.0
 11
434.6628274980207
 21
419.021797858865
 31
0.0
  0
SOLID
  5
15166
  8
DIM
 10
406.70840423902013
 20
427.54274239196519
 30
0.0
 11
406.70840423902013
 21
426.50085332576532
 31
0.0
 12
409.66282749802019
 22
427.02179785886528
 32
0.0
 13
409.66282749802019
 23
427.02179785886528
 33
0.0
  0
SOLID
  5
15167
  8
DIM
 10
418.1837720311205
 20
404.96737459986451
 30
0.0
 11
417.14188296492051
 21
404.96737459986451
 31
0.0
 12
417.6628274980207
 22
407.92179785886469
 32
0.0
 13
417.6628274980207
 23
407.92179785886469
 33
0.0
  0
LINE
  5
15168
  8
DIM
 10
409.66282749802019
 20
420.47905599855739
 30
0.0
 11
409.66282749802019
 21
428.02179785886528
 31
0.0
  0
SOLID
  5
15169
  8
DIM
 10
434.1837720311205
 20
416.0673745998651
 30
0.0
 11
433.14188296492051
 21
416.0673745998651
 31
0.0
 12
433.6628274980207
 22
419.021797858865
 32
0.0
 13
433.6628274980207
 23
419.021797858865
 33
0.0
  0
SOLID
  5
1516A
  8
DIM
 10
426.1837720311205
 20
416.06737459986459
 30
0.0
 11
425.14188296492051
 21
416.06737459986459
 31
0.0
 12
425.6628274980207
 22
419.0217978588646
 32
0.0
 13
425.6628274980207
 23
419.0217978588646
 33
0.0
  0
TEXT
  5
1516B
  8
DIM
 10
424.6628274980207
 20
402.9463950149779
 30
0.0
 40
3.0
  1
22.2
 50
90.0
  7
ROMANS
  0
SOLID
  5
1516C
  8
DIM
 10
418.1837720311205
 20
504.35281277170452
 30
0.0
 11
417.14188296492
 21
504.35281277170452
 31
0.0
 12
417.66282749802031
 22
501.39838951270463
 32
0.0
 13
417.66282749802031
 23
501.39838951270463
 33
0.0
  0
LINE
  5
1516D
  8
DIM
 10
410.66282749802019
 20
501.39838951270463
 30
0.0
 11
418.66282749802019
 21
501.39838951270463
 31
0.0
  0
LINE
  5
1516E
  8
DIM
 10
410.66282749802019
 20
523.59838951270467
 30
0.0
 11
418.66282749802019
 21
523.59838951270467
 31
0.0
  0
SOLID
  5
1516F
  8
DIM
 10
418.1837720311205
 20
520.64396625370455
 30
0.0
 11
417.14188296492
 21
520.64396625370455
 31
0.0
 12
417.66282749802031
 22
523.59838951270467
 32
0.0
 13
417.66282749802031
 23
523.59838951270467
 33
0.0
  0
LINE
  5
15170
  8
0
 10
538.61377574708649
 20
396.82179785886518
 30
0.0
 11
538.61377574708649
 21
419.02179785886528
 31
0.0
  0
LINE
  5
15171
  8
CENTER
  6
CENTER
 10
527.51377574708647
 20
274.16759424733073
 30
0.0
 11
527.51377574708647
 21
423.86462492307589
 31
0.0
  0
LINE
  5
15172
  8
0
 10
559.01377574708647
 20
277.62179785886508
 30
0.0
 11
559.01377574708647
 21
306.02179785886523
 31
0.0
  0
LINE
  5
15173
  8
CENTER
  6
CENTER
 10
551.51377574708647
 20
311.02410574246983
 30
0.0
 11
551.51377574708647
 21
273.46007920268261
 31
0.0
  0
LINE
  5
15174
  8
HIDDEN
  6
HIDDEN
 10
556.01377574708647
 20
276.82179785886501
 30
0.0
 11
556.01377574708647
 21
306.82179785886501
 31
0.0
  0
LINE
  5
15175
  8
HIDDEN
  6
HIDDEN
 10
547.01377574708647
 20
276.82179785886501
 30
0.0
 11
547.01377574708647
 21
306.82179785886501
 31
0.0
  0
LINE
  5
15176
  8
0
 10
558.21377574708686
 20
276.82179785886501
 30
0.0
 11
559.01377574708647
 21
277.62179785886508
 31
0.0
  0
LINE
  5
15177
  8
0
 10
554.51377574708658
 20
306.82179785886501
 30
0.0
 11
554.51377574708658
 21
362.82179785886501
 31
0.0
  0
LINE
  5
15178
  8
0
 10
558.21377574708686
 20
306.82179785886518
 30
0.0
 11
559.01377574708647
 21
306.02179785886523
 31
0.0
  0
LINE
  5
15179
  8
0
 10
538.01377574708647
 20
396.52179785886523
 30
0.0
 11
538.71377574708686
 21
394.52179785886523
 31
0.0
  0
LINE
  5
1517A
  8
0
 10
532.51377574708658
 20
396.52179785886523
 30
0.0
 11
532.51377574708658
 21
396.82179785886518
 31
0.0
  0
ARC
  5
1517B
  8
0
 10
550.51377574708647
 20
362.82179785886501
 30
0.0
 40
4.0
 50
0.0
 51
90.0
  0
LINE
  5
1517C
  8
0
 10
538.71377574708629
 20
366.82179785886501
 30
0.0
 11
538.71377574708686
 21
394.52179785886551
 31
0.0
  0
ENDSEC
  0
EOF
