  0
SECTION
  2
HEADER
  9
$ACADVER
  1
AC1009
  9
$INSBASE
 10
0.0
 20
0.0
 30
0.0
  9
$EXTMIN
 10
185.86065972067939
 20
176.27746798130389
 30
-0.000000000000013
  9
$EXTMAX
 10
635.96502897884329
 20
587.01049970813392
 30
0.0000000000000023
  9
$LIMMIN
 10
0.0
 20
0.0
  9
$LIMMAX
 10
1188.0
 20
840.0
  9
$ORTHOMODE
 70
     1
  9
$REGENMODE
 70
     1
  9
$FILLMODE
 70
     1
  9
$QTEXTMODE
 70
     0
  9
$MIRRTEXT
 70
     1
  9
$DRAGMODE
 70
     2
  9
$LTSCALE
 40
1.0
  9
$OSMODE
 70
    39
  9
$ATTMODE
 70
     1
  9
$TEXTSIZE
 40
3.0
  9
$TRACEWID
 40
0.05
  9
$TEXTSTYLE
  7
ITALICT
  9
$CLAYER
  8
0
  9
$CELTYPE
  6
CONTINUOUS
  9
$CECOLOR
 62
   256
  9
$DIMSCALE
 40
1.0
  9
$DIMASZ
 40
3.0
  9
$DIMEXO
 40
1.0
  9
$DIMDLI
 40
1.4824161510814720E+016
  9
$DIMRND
 40
0.0
  9
$DIMDLE
 40
0.0
  9
$DIMEXE
 40
1.0
  9
$DIMTP
 40
0.15
  9
$DIMTM
 40
-0.1
  9
$DIMTXT
 40
3.0
  9
$DIMCEN
 40
2.0
  9
$DIMTSZ
 40
0.0
  9
$DIMTOL
 70
     0
  9
$DIMLIM
 70
     0
  9
$DIMTIH
 70
     0
  9
$DIMTOH
 70
     0
  9
$DIMSE1
 70
     0
  9
$DIMSE2
 70
     0
  9
$DIMTAD
 70
     1
  9
$DIMZIN
 70
     0
  9
$DIMBLK
  1

  9
$DIMASO
 70
     0
  9
$DIMSHO
 70
     0
  9
$DIMPOST
  1

  9
$DIMAPOST
  1

  9
$DIMALT
 70
     0
  9
$DIMALTD
 70
     2
  9
$DIMALTF
 40
25.399999999999999
  9
$DIMLFAC
 40
1.0
  9
$DIMTOFL
 70
     1
  9
$DIMTVP
 40
1.0
  9
$DIMTIX
 70
     0
  9
$DIMSOXD
 70
     0
  9
$DIMSAH
 70
     0
  9
$DIMBLK1
  1

  9
$DIMBLK2
  1

  9
$DIMSTYLE
  2
STANDARD
  9
$DIMCLRD
 70
     0
  9
$DIMCLRE
 70
     0
  9
$DIMCLRT
 70
     0
  9
$DIMTFAC
 40
1.0
  9
$DIMGAP
 40
1.0
  9
$LUNITS
 70
     2
  9
$LUPREC
 70
     2
  9
$SKETCHINC
 40
0.1
  9
$FILLETRAD
 40
0.0
  9
$AUNITS
 70
     0
  9
$AUPREC
 70
     2
  9
$MENU
  1
ACAD
  9
$ELEVATION
 40
0.0
  9
$PELEVATION
 40
0.0
  9
$THICKNESS
 40
0.0
  9
$LIMCHECK
 70
     0
  9
$BLIPMODE
 70
     0
  9
$CHAMFERA
 40
0.0
  9
$CHAMFERB
 40
0.0
  9
$SKPOLY
 70
     1
  9
$TDCREATE
 40
2450580.7034460641
  9
$TDUPDATE
 40
2452055.6440758221
  9
$TDINDWG
 40
0.5776314236
  9
$TDUSRTIMER
 40
0.5776314236
  9
$USRTIMER
 70
     1
  9
$ANGBASE
 50
0.0
  9
$ANGDIR
 70
     0
  9
$PDMODE
 70
     0
  9
$PDSIZE
 40
0.0
  9
$PLINEWID
 40
0.0
  9
$COORDS
 70
     2
  9
$SPLFRAME
 70
     0
  9
$SPLINETYPE
 70
     6
  9
$SPLINESEGS
 70
     8
  9
$ATTDIA
 70
     0
  9
$ATTREQ
 70
     1
  9
$HANDLING
 70
 12289
  9
$HANDSEED
  5
15037
  9
$SURFTAB1
 70
     6
  9
$SURFTAB2
 70
     6
  9
$SURFTYPE
 70
     6
  9
$SURFU
 70
     6
  9
$SURFV
 70
     6
  9
$UCSNAME
  2

  9
$UCSORG
 10
0.0
 20
0.0
 30
0.0
  9
$UCSXDIR
 10
1.0
 20
0.0
 30
0.0
  9
$UCSYDIR
 10
0.0
 20
1.0
 30
0.0
  9
$PUCSNAME
  2

  9
$PUCSORG
 10
0.0
 20
0.0
 30
0.0
  9
$PUCSXDIR
 10
1.0
 20
0.0
 30
0.0
  9
$PUCSYDIR
 10
0.0
 20
1.0
 30
0.0
  9
$USERI1
 70
     0
  9
$USERI2
 70
-31485
  9
$USERI3
 70
     0
  9
$USERI4
 70
     0
  9
$USERI5
 70
     0
  9
$USERR1
 40
0.0
  9
$USERR2
 40
0.0
  9
$USERR3
 40
0.0
  9
$USERR4
 40
0.0
  9
$USERR5
 40
0.0
  9
$WORLDVIEW
 70
     1
  9
$SHADEDGE
 70
     3
  9
$SHADEDIF
 70
    70
  9
$TILEMODE
 70
     1
  9
$MAXACTVP
 70
    16
  9
$PLIMCHECK
 70
     0
  9
$PEXTMIN
 10
1.0000000000000000E+020
 20
1.0000000000000000E+020
 30
1.0000000000000000E+020
  9
$PEXTMAX
 10
-1.0000000000000000E+020
 20
-1.0000000000000000E+020
 30
-1.0000000000000000E+020
  9
$PLIMMIN
 10
0.0
 20
0.0
  9
$PLIMMAX
 10
12.0
 20
9.0
  9
$UNITMODE
 70
     0
  9
$VISRETAIN
 70
     0
  9
$PLINEGEN
 70
     0
  9
$PSLTSCALE
 70
     0
  0
ENDSEC
  0
SECTION
  2
TABLES
  0
TABLE
  2
VPORT
 70
     3
  0
VPORT
  2
*ACTIVE
 70
     0
 10
0.0
 20
0.0
 11
1.0
 21
1.0
 12
410.86798247620749
 22
381.57249006886008
 13
0.0
 23
0.0
 14
1.0
 24
1.0
 15
0.0
 25
0.0
 16
0.0
 26
0.0
 36
1.0
 17
0.0
 27
0.0
 37
0.0
 40
415.98385628721672
 41
1.7274401473296499
 42
1.0
 43
0.0
 44
0.0
 50
0.0
 51
0.0
 71
     0
 72
   100
 73
     1
 74
     1
 75
     0
 76
     0
 77
     0
 78
     0
  0
ENDTAB
  0
TABLE
  2
LTYPE
 70
     4
  0
LTYPE
  2
CONTINUOUS
 70
     0
  3
Solid line
 72
    65
 73
     0
 40
0.0
  0
LTYPE
  2
CENTER
 70
     0
  3
____________________ _ ____________________ _ 
 72
    65
 73
     4
 40
34.5
 49
30.0
 49
-1.5
 49
1.5
 49
-1.5
  0
LTYPE
  2
HIDDEN
 70
     0
  3
___ ___ ___ ___ ___ ___ ___ ___ ___ ___ 
 72
    65
 73
     2
 40
6.0
 49
4.5
 49
-1.5
  0
LTYPE
  2
PHANTOM
 70
     0
  3
__________ _ _ __________ _ _ __________ _ _ 
 72
    65
 73
     6
 40
15.0
 49
10.0
 49
-1.0
 49
1.0
 49
-1.0
 49
1.0
 49
-1.0
  0
ENDTAB
  0
TABLE
  2
LAYER
 70
     6
  0
LAYER
  2
0
 70
     0
 62
     7
  6
CONTINUOUS
  0
LAYER
  2
LOGO
 70
     0
 62
     7
  6
CONTINUOUS
  0
LAYER
  2
DIM
 70
     0
 62
     5
  6
CONTINUOUS
  0
LAYER
  2
CENTER
 70
     0
 62
     1
  6
CONTINUOUS
  0
LAYER
  2
HIDDEN
 70
     0
 62
     3
  6
CONTINUOUS
  0
LAYER
  2
UMCL3
 70
     0
 62
     1
  6
CONTINUOUS
  0
ENDTAB
  0
TABLE
  2
STYLE
 70
     7
  0
STYLE
  2
STANDARD
 70
     0
 40
0.0
 41
1.0
 50
0.0
 71
     0
 42
3.0
  3
txt
  4

  0
STYLE
  2
ITALICT
 70
     0
 40
0.0
 41
1.0
 50
0.0
 71
     0
 42
3.0
  3
ITALICT.SHX
  4

  0
STYLE
  2
ROMANSS
 70
     0
 40
0.0
 41
1.0
 50
0.0
 71
     0
 42
3.0
  3
ROMANSS.SHX
  4
LMP
  0
STYLE
  2
CHINESET
 70
     0
 40
0.0
 41
1.0
 50
0.0
 71
     0
 42
5.0
  3
simplex.shx
  4
chineset.shx
  0
STYLE
  2
LOGO
 70
     0
 40
0.0
 41
1.0
 50
0.0
 71
     0
 42
5.0
  3
txt
  4

  0
STYLE
  2
ROMANS
 70
     0
 40
0.0
 41
1.0
 50
0.0
 71
     0
 42
3.0
  3
ROMANS.SHX
  4
LMP
  0
STYLE
  2
ROMANS1
 70
     0
 40
0.0
 41
1.0
 50
0.0
 71
     0
 42
3.0
  3
ROMANS.SHX
  4

  0
ENDTAB
  0
TABLE
  2
VIEW
 70
     0
  0
ENDTAB
  0
TABLE
  2
UCS
 70
     0
  0
ENDTAB
  0
TABLE
  2
APPID
 70
     1
  0
APPID
  2
ACAD
 70
     0
  0
ENDTAB
  0
TABLE
  2
DIMSTYLE
 70
     1
  0
DIMSTYLE
  2
STANDARD
 70
     0
  3

  4

  5

  6

  7

 40
1.0
 41
0.18
 42
0.0625
 43
0.38
 44
0.18
 45
0.0
 46
0.0
 47
0.0
 48
0.0
140
0.18
141
0.09
142
0.0
143
25.399999999999999
144
1.0
145
0.0
146
1.0
147
0.09
 71
     0
 72
     0
 73
     1
 74
     1
 75
     0
 76
     0
 77
     0
 78
     0
170
     0
171
     2
172
     0
173
     0
174
     0
175
     0
176
     0
177
     0
178
     0
  0
ENDTAB
  0
ENDSEC
  0
SECTION
  2
BLOCKS
  0
BLOCK
  8
0
  2
$MODEL_SPACE
 70
     0
 10
0.0
 20
0.0
 30
0.0
  3
$MODEL_SPACE
  1

  0
ENDBLK
  5
3E
  8
0
  0
BLOCK
 67
     1
  8
0
  2
$PAPER_SPACE
 70
     0
 10
0.0
 20
0.0
 30
0.0
  3
$PAPER_SPACE
  1

  0
ENDBLK
  5
3C
 67
     1
  8
0
  0
ENDSEC
  0
SECTION
  2
ENTITIES
  0
LINE
  5
B2B
  8
0
 62
     4
 10
185.86272374947831
 20
232.92671314659441
 30
0.0
 11
185.86272374947831
 21
586.95774538779415
 31
0.0
  0
LINE
  5
B2D
  8
0
 62
     4
 10
635.92834892189944
 20
232.92671314659441
 30
0.0
 11
185.86272374947831
 21
232.92671314659441
 31
0.0
  0
LINE
  5
B2E
  8
0
 62
     4
 10
185.86272374947831
 20
586.95774538779415
 30
0.0
 11
635.92834892189956
 21
586.95774538779358
 31
0.0
  0
LINE
  5
B2F
  8
0
 62
     4
 10
635.92834892189956
 20
586.95774538779381
 30
0.0
 11
635.92834892189944
 21
232.92671314659441
 31
0.0
  0
LINE
  5
D2E
  8
LOGO
 62
     1
 10
635.92834892189944
 20
176.3249335016769
 30
0.0
 11
185.86272374947831
 21
176.3249335016769
 31
0.0
  0
LINE
  5
D2F
  8
LOGO
 62
     1
 10
635.92834892189944
 20
232.92671314659441
 30
0.0
 11
185.86272374947831
 21
232.92671314659441
 31
0.0
  0
TEXT
  5
D35
  8
LOGO
 62
     7
 10
315.01977131281541
 20
218.75491480467591
 30
0.0
 40
11.320355928983499
  1
訂購代號:
  7
CHINESET
  0
TEXT
  5
D36
  8
LOGO
 62
     7
 10
313.66579433335261
 20
208.130436645739
 30
0.0
 40
7.546903952655672
  1
Order example:
 41
0.8
  7
CHINESET
  0
TEXT
  5
D37
  8
LOGO
  6
CONTINUOUS
 62
     5
 10
190.14649593377129
 20
178.95233731999099
 30
0.0
 40
5.660177964491754
  1
MINDMAN INDUSTRIAL CO.,LTD
 41
0.85
  7
CHINESET
  0
TEXT
  5
D38
  8
LOGO
  6
CONTINUOUS
 62
     5
 10
187.7153955643023
 20
187.44426769338759
 30
0.0
 40
8.4902669467376342
  1
金器工業股份有限公司
 41
0.8
  7
LOGO
  0
SOLID
  5
D39
  8
LOGO
 62
     2
 10
206.8410742179997
 20
208.37488556272061
 30
0.0
 11
207.85375522301149
 21
208.37488556272061
 31
0.0
 12
219.49958678063609
 22
231.5821585942218
 32
0.0
 13
220.51226778564791
 23
231.5821585942202
 33
0.0
  0
SOLID
  5
D3A
  8
LOGO
 62
     5
 10
207.85375522301149
 20
208.37488556272061
 30
0.0
 11
210.30106765178729
 21
208.37488556272061
 31
0.0
 12
219.49958678063609
 22
229.72557675170091
 32
0.0
 13
217.05227435185981
 23
220.75209784618681
 33
0.0
  0
SOLID
  5
D3B
  8
LOGO
 62
     5
 10
207.85375522301149
 20
210.2314674052399
 30
0.0
 11
210.30106765178729
 21
219.204946310754
 31
0.0
 12
219.49958678063609
 22
231.5821585942218
 32
0.0
 13
217.05227435185981
 23
231.5821585942218
 33
0.0
  0
LINE
  5
D3C
  8
LOGO
 62
     1
 10
310.38663896829701
 20
198.9656453596439
 30
0.0
 11
185.86272374947819
 21
198.9656453596439
 31
0.0
  0
SOLID
  5
D3D
  8
LOGO
 62
     2
 10
206.8410742179997
 20
231.5821585942202
 30
0.0
 11
207.85375522301149
 21
231.5821585942202
 31
0.0
 12
206.8410742179997
 22
208.37488556272061
 32
0.0
 13
207.85375522301149
 23
208.37488556272061
 33
0.0
  0
SOLID
  5
D3E
  8
LOGO
 62
     2
 10
194.18256165536249
 20
208.37488556271981
 30
0.0
 11
195.1952426603749
 21
208.37488556272061
 31
0.0
 12
206.8410742179997
 22
231.5821585942202
 32
0.0
 13
207.85375522301149
 23
231.5821585942202
 33
0.0
  0
SOLID
  5
D3F
  8
LOGO
 62
     5
 10
207.85375522301149
 20
231.5821585942202
 30
0.0
 11
210.30106765178729
 21
231.5821585942218
 31
0.0
 12
207.85375522301149
 22
210.2314674052399
 32
0.0
 13
210.30106765178729
 23
219.204946310754
 33
0.0
  0
SOLID
  5
D40
  8
LOGO
 62
     5
 10
204.39376178922359
 20
208.37488556272061
 30
0.0
 11
206.8410742179997
 21
208.37488556272061
 31
0.0
 12
204.39376178922359
 22
220.75209784618681
 32
0.0
 13
206.8410742179997
 23
229.72557675170091
 33
0.0
  0
SOLID
  5
D41
  8
LOGO
 62
     5
 10
195.1952426603749
 20
208.37488556272061
 30
0.0
 11
197.64255508915099
 21
208.37488556272061
 31
0.0
 12
206.8410742179997
 22
229.72557675170091
 32
0.0
 13
204.39376178922359
 23
220.75209784618681
 33
0.0
  0
SOLID
  5
D42
  8
LOGO
 62
     5
 10
191.73524922658609
 20
208.37488556272061
 30
0.0
 11
194.18256165536249
 21
208.37488556271981
 31
0.0
 12
204.39376178922359
 22
231.5821585942218
 32
0.0
 13
206.8410742179997
 23
231.5821585942202
 33
0.0
  0
LINE
  5
D43
  8
LOGO
 62
     1
 10
185.86272374947831
 20
176.3249335016769
 30
0.0
 11
185.86272374947831
 21
232.92671314659441
 31
0.0
  0
SOLID
  5
D44
  8
LOGO
 62
     5
 10
196.09526290357729
 20
204.1553813751749
 30
0.0
 11
196.93916374108801
 21
204.1553813751749
 31
0.0
 12
196.09526290357729
 22
199.93587718762831
 32
0.0
 13
196.93916374108801
 23
199.93587718762981
 33
0.0
  0
SOLID
  5
D45
  8
LOGO
 62
     5
 10
196.09526290357729
 20
204.74611196143081
 30
0.0
 11
196.93916374108801
 21
204.74611196143081
 31
0.0
 12
196.09526290357729
 22
205.42123263143901
 32
0.0
 13
196.93916374108801
 23
205.42123263143901
 33
0.0
  0
SOLID
  5
D46
  8
LOGO
 62
     5
 10
194.25238980859049
 20
204.1553813751749
 30
0.0
 11
195.09629064609871
 21
204.1553813751749
 31
0.0
 12
194.25238980859049
 22
199.93587718762981
 32
0.0
 13
195.09629064609871
 23
199.93587718762981
 33
0.0
  0
SOLID
  5
D47
  8
LOGO
 62
     5
 10
191.0319985286624
 20
199.93587718762981
 30
0.0
 11
191.8758993661709
 21
199.93587718762981
 31
0.0
 12
194.25238980859049
 22
204.1553813751749
 32
0.0
 13
195.09629064609871
 23
204.1553813751749
 33
0.0
  0
SOLID
  5
D48
  8
LOGO
 62
     5
 10
191.0319985286624
 20
204.1553813751749
 30
0.0
 11
191.8758993661709
 21
204.1553813751749
 31
0.0
 12
191.0319985286624
 22
199.93587718762981
 32
0.0
 13
191.8758993661709
 23
199.93587718762981
 33
0.0
  0
SOLID
  5
D49
  8
LOGO
 62
     5
 10
187.8116072487355
 20
199.93587718762981
 30
0.0
 11
188.65550808624531
 21
199.93587718762981
 31
0.0
 12
191.0319985286624
 22
204.1553813751749
 32
0.0
 13
191.8758993661709
 23
204.1553813751749
 33
0.0
  0
SOLID
  5
D4A
  8
LOGO
 62
     5
 10
212.5514136250892
 20
202.46757970015651
 30
0.0
 11
213.39531446259741
 21
202.46757970015651
 31
0.0
 12
212.5514136250892
 22
199.93587718762831
 32
0.0
 13
213.39531446259741
 23
199.93587718762831
 33
0.0
  0
SOLID
  5
D4B
  8
LOGO
 62
     5
 10
210.01971111256231
 20
202.46757970015651
 30
0.0
 11
210.8636119500708
 21
202.46757970015651
 31
0.0
 12
210.01971111256231
 22
199.93587718762981
 32
0.0
 13
210.8636119500708
 23
199.93587718762981
 33
0.0
  0
SOLID
  5
D4C
  8
LOGO
 62
     5
 10
207.4880086000357
 20
204.1553813751749
 30
0.0
 11
208.33190943754411
 21
204.1553813751749
 31
0.0
 12
207.4880086000357
 22
199.93587718762981
 32
0.0
 13
208.33190943754411
 23
199.93587718762981
 33
0.0
  0
SOLID
  5
D4D
  8
LOGO
 62
     5
 10
205.65952865540399
 20
205.42123263143901
 30
0.0
 11
206.50342949291229
 21
205.42123263143901
 31
0.0
 12
205.65952865540399
 22
199.93587718762981
 32
0.0
 13
206.50342949291229
 23
199.93587718762981
 33
0.0
  0
POLYLINE
  5
D4E
  8
LOGO
 62
     5
 66
     1
 10
0.0
 20
0.0
 30
0.0
 70
     1
 40
0.8452532426974354
 41
0.8452532426974354
  0
VERTEX
  5
15006
  8
LOGO
 62
     5
 10
202.70325530382809
 20
202.045629281402
 30
0.0
 42
1.0
  0
VERTEX
  5
15007
  8
LOGO
 62
     5
 10
206.0842682746179
 20
202.045629281402
 30
0.0
 42
1.0
  0
SEQEND
  5
15008
  8
LOGO
 62
     5
  0
SOLID
  5
D4F
  8
LOGO
 62
     5
 10
200.45544536073569
 20
202.46757970015651
 30
0.0
 11
201.2993461982457
 21
202.46757970015651
 31
0.0
 12
200.45544536073569
 22
199.93587718762981
 32
0.0
 13
201.2993461982457
 23
199.93587718762981
 33
0.0
  0
SOLID
  5
D50
  8
LOGO
 62
     5
 10
197.923742848209
 20
204.1553813751749
 30
0.0
 11
198.7676436857175
 21
204.1553813751749
 31
0.0
 12
197.923742848209
 22
199.93587718762981
 32
0.0
 13
198.7676436857175
 23
199.93587718762981
 33
0.0
  0
POLYLINE
  5
D51
  8
LOGO
 62
     5
 66
     1
 10
0.0
 20
0.0
 30
0.0
 40
0.8452532426974354
 41
0.8452532426974354
  0
VERTEX
  5
15009
  8
LOGO
 62
     5
 10
200.87942438727299
 20
202.46757970015639
 30
0.0
 42
1.0
  0
VERTEX
  5
1500A
  8
LOGO
 62
     5
 10
198.3436646591806
 20
202.46757970015639
 30
0.0
 42
1.0
  0
SEQEND
  5
1500B
  8
LOGO
 62
     5
  0
POLYLINE
  5
D52
  8
LOGO
 62
     5
 66
     1
 10
0.0
 20
0.0
 30
0.0
 40
0.8452532426974354
 41
0.8452532426974354
  0
VERTEX
  5
1500C
  8
LOGO
 62
     5
 10
212.97539265162609
 20
202.46757970015639
 30
0.0
 42
1.0
  0
VERTEX
  5
1500D
  8
LOGO
 62
     5
 10
210.43963292353371
 20
202.46757970015639
 30
0.0
 42
1.0
  0
SEQEND
  5
1500E
  8
LOGO
 62
     5
  0
POLYLINE
  5
D53
  8
LOGO
 62
     5
 66
     1
 10
0.0
 20
0.0
 30
0.0
 40
0.8452532426974354
 41
0.8452532426974354
  0
VERTEX
  5
1500F
  8
LOGO
 62
     5
 10
210.44369013909929
 20
202.46757970015639
 30
0.0
 42
1.0
  0
VERTEX
  5
15010
  8
LOGO
 62
     5
 10
207.9079304110069
 20
202.46757970015639
 30
0.0
 42
1.0
  0
SEQEND
  5
15011
  8
LOGO
 62
     5
  0
CIRCLE
  5
D54
  8
LOGO
  6
CONTINUOUS
 62
     6
 10
283.13264667014357
 20
215.95828641520529
 30
0.0
 40
1.9255585439152201
  0
CIRCLE
  5
D55
  8
LOGO
  6
CONTINUOUS
 62
     6
 10
283.13264667014357
 20
215.95828641520529
 30
0.0
 40
3.2864325517551518
  0
LINE
  5
D56
  8
LOGO
 62
     1
 10
310.38663896829701
 20
210.2860012886274
 30
0.0
 11
227.37069548908451
 21
210.2860012886274
 31
0.0
  0
LINE
  5
D57
  8
LOGO
 62
     1
 10
310.38663896829701
 20
221.60635721761091
 30
0.0
 11
227.37069548908451
 21
221.60635721761091
 31
0.0
  0
TEXT
  5
D58
  8
LOGO
 62
     6
 10
281.14331944002163
 20
224.4364461998567
 30
0.0
 40
5.660177964491754
  1
1 : 1
  7
CHINESET
 72
     1
 11
291.116013948888
 21
227.26653518210259
 31
0.0
 73
     2
  0
TEXT
  5
D59
  8
LOGO
 62
     6
 10
281.14331944002163
 20
201.7957343418897
 30
0.0
 40
5.660177964491754
  1
m/m
  7
CHINESET
 72
     1
 11
291.116013948888
 21
204.62582332413561
 31
0.0
 73
     2
  0
SOLID
  5
D5A
  8
LOGO
 62
     2
 10
219.49958678063609
 20
231.5821585942218
 30
0.0
 11
220.51226778564791
 21
231.5821585942202
 31
0.0
 12
219.49958678063609
 22
208.37488556271981
 32
0.0
 13
220.51226778564791
 23
208.37488556271981
 33
0.0
  0
SOLID
  5
D5B
  8
LOGO
 62
     5
 10
220.51226778564791
 20
208.37488556271981
 30
0.0
 11
222.95958021442411
 21
208.37488556271981
 31
0.0
 12
220.51226778564791
 22
231.5821585942202
 32
0.0
 13
222.95958021442411
 23
231.5821585942218
 33
0.0
  0
SOLID
  5
D5C
  8
LOGO
 62
     5
 10
219.49958678063609
 20
229.72557675170091
 30
0.0
 11
217.05227435185981
 21
220.75209784618681
 31
0.0
 12
219.49958678063609
 22
208.37488556271981
 32
0.0
 13
217.05227435185981
 23
208.37488556271981
 33
0.0
  0
LINE
  5
D5D
  8
LOGO
 62
     1
 10
227.37069548908451
 20
198.96564535964379
 30
0.0
 11
227.37069548908451
 21
232.92671314659441
 31
0.0
  0
LINE
  5
D5E
  8
LOGO
 62
     1
 10
272.65211920501838
 20
198.96564535964379
 30
0.0
 11
272.65211920501838
 21
232.92671314659441
 31
0.0
  0
TEXT
  5
D5F
  8
LOGO
 62
     6
 10
234.5697343376726
 20
201.7957343418897
 30
0.0
 40
5.660177964491754
  1
單位 Unit:
 41
0.9
  7
CHINESET
 72
     4
 11
250.01140734705169
 21
204.62582332413561
 31
0.0
  0
SOLID
  5
D60
  8
LOGO
 62
     5
 10
222.11567937691569
 20
202.46757970015651
 30
0.0
 11
222.95958021442411
 21
202.46757970015639
 31
0.0
 12
222.11567937691569
 22
199.93587718762981
 32
0.0
 13
222.95958021442411
 23
199.93587718762981
 33
0.0
  0
SOLID
  5
D61
  8
LOGO
 62
     5
 10
219.58397686438749
 20
199.93587718762981
 30
0.0
 11
220.42787770189719
 21
199.93587718762981
 31
0.0
 12
219.58397686438749
 22
204.1553813751749
 32
0.0
 13
220.42787770189719
 23
204.1553813751749
 33
0.0
  0
SOLID
  5
D62
  8
LOGO
 62
     5
 10
217.75549691975809
 20
204.1553813751749
 30
0.0
 11
218.5993977572665
 21
204.1553813751749
 31
0.0
 12
217.75549691975809
 22
199.93587718762981
 32
0.0
 13
218.5993977572665
 23
199.93587718762981
 33
0.0
  0
LINE
  5
D63
  8
LOGO
 62
     5
 10
222.95958021442411
 20
199.93587718762981
 30
0.0
 11
222.95958021442411
 21
202.46757970015651
 31
0.0
  0
POLYLINE
  5
D64
  8
LOGO
 62
     5
 66
     1
 10
0.0
 20
0.0
 30
0.0
 70
     1
 40
0.8452532426974354
 41
0.8452532426974354
  0
VERTEX
  5
15012
  8
LOGO
 62
     5
 10
214.7992235681813
 20
202.045629281402
 30
0.0
 42
1.0
  0
VERTEX
  5
15013
  8
LOGO
 62
     5
 10
218.180236538971
 20
202.045629281402
 30
0.0
 42
1.0
  0
SEQEND
  5
15014
  8
LOGO
 62
     5
  0
CIRCLE
  5
D65
  8
LOGO
 62
     5
 10
216.48973005357661
 20
202.04562928140231
 30
0.0
 40
1.265851256263679
  0
POLYLINE
  5
D66
  8
LOGO
 62
     5
 66
     1
 10
0.0
 20
0.0
 30
0.0
 70
     1
  0
VERTEX
  5
15015
  8
LOGO
 62
     5
 10
215.22387879731281
 20
202.04562928140231
 30
0.0
 42
1.0000000573306349
  0
VERTEX
  5
15016
  8
LOGO
 62
     5
 10
217.75558130984049
 20
202.04562928140231
 30
0.0
 42
1.0000000573306349
  0
SEQEND
  5
15017
  8
LOGO
 62
     5
  0
POLYLINE
  5
D67
  8
LOGO
 62
     5
 66
     1
 10
0.0
 20
0.0
 30
0.0
 40
0.8452532426974354
 41
0.8452532426974354
  0
VERTEX
  5
15018
  8
LOGO
 62
     5
 10
222.53965840345259
 20
202.46757970015639
 30
0.0
 42
1.0
  0
VERTEX
  5
15019
  8
LOGO
 62
     5
 10
220.00389867536029
 20
202.46757970015639
 30
0.0
 42
1.0
  0
SEQEND
  5
1501A
  8
LOGO
 62
     5
  0
TEXT
  5
D68
  8
LOGO
 62
     6
 10
234.01635086703709
 20
213.19570973617101
 30
0.0
 40
5.660177964491754
  1
投影 View:
 41
0.9
  7
CHINESET
 72
     4
 11
250.01140734705169
 21
215.94617925311911
 31
0.0
  0
TEXT
  5
D69
  8
LOGO
 62
     6
 10
232.03781544462771
 20
224.43923172050859
 30
0.0
 40
5.660177964491754
  1
比例 Scale:
 41
0.9
  7
CHINESET
 72
     4
 11
250.01140734705169
 21
227.26653518210259
 31
0.0
  0
LINE
  5
D6A
  8
LOGO
 62
     1
 10
310.38663896829701
 20
176.3249335016769
 30
0.0
 11
310.38663896829701
 21
232.92671314659441
 31
0.0
  0
LINE
  5
D6B
  8
LOGO
  6
CONTINUOUS
 62
     6
 10
293.48219276735779
 20
214.03272787129009
 30
0.0
 11
303.78497016688061
 21
212.67185386345031
 31
0.0
  0
LINE
  5
D6C
  8
LOGO
  6
CONTINUOUS
 62
     6
 10
293.48219276735779
 20
217.88384495912061
 30
0.0
 11
303.78497016688061
 21
219.24471896696051
 31
0.0
  0
LINE
  5
D6D
  8
LOGO
 62
     6
 10
293.48219276735779
 20
214.03272787129009
 30
0.0
 11
293.48219276735779
 21
217.88384495912061
 31
0.0
  0
LINE
  5
D6E
  8
LOGO
 62
     6
 10
303.78497016688061
 20
212.67185386345031
 30
0.0
 11
303.78497016688061
 21
219.24471896696051
 31
0.0
  0
LINE
  5
D6F
  8
LOGO
 62
     6
 10
427.15214864533198
 20
181.04174847208671
 30
0.0
 11
389.41762888205352
 21
181.0417484720866
 31
0.0
  0
LINE
  5
D70
  8
LOGO
 62
     6
 10
427.15214864533198
 20
201.79573434188981
 30
0.0
 11
389.41762888205352
 21
201.79573434188981
 31
0.0
  0
LINE
  5
D71
  8
LOGO
 62
     6
 10
430.92560062165978
 20
210.2860012886274
 30
0.0
 11
385.64417690572571
 21
210.2860012886274
 31
0.0
  0
LINE
  5
D72
  8
LOGO
 62
     6
 10
430.92560062165978
 20
227.26653518210259
 30
0.0
 11
385.64417690572571
 21
227.26653518210259
 31
0.0
  0
TEXT
  5
D73
  8
LOGO
  6
CONTINUOUS
 62
     7
 10
390.76529030217051
 20
214.05945326495529
 30
0.0
 40
9.4336299408195892
  1
MTHD
  7
CHINESET
 72
     1
 11
408.28488876369261
 21
218.776268235365
 31
0.0
 73
     2
  0
LINE
  5
D74
  8
LOGO
 62
     6
 10
385.64417690572571
 20
227.26653518210259
 30
0.0
 11
385.64417690572571
 21
210.2860012886274
 31
0.0
  0
LINE
  5
D75
  8
LOGO
 62
     6
 10
389.41762888205352
 20
201.79573434188981
 30
0.0
 11
389.41762888205352
 21
181.0417484720866
 31
0.0
  0
TEXT
  5
D76
  8
LOGO
  6
CONTINUOUS
 62
     6
 10
399.30047929624538
 20
183.40015595729159
 30
0.0
 40
4.7168149704097937
  1
Model
  7
CHINESET
 72
     4
 11
408.28488876369261
 21
185.7585634424965
 31
0.0
  0
TEXT
  5
D77
  8
LOGO
 62
     6
 10
400.73798481103688
 20
191.61187083884749
 30
0.0
 40
7.546903952655672
  1
型式
  7
CHINESET
 72
     4
 11
408.28488876369261
 21
195.19219338331601
 31
0.0
  0
LINE
  5
D78
  8
LOGO
 62
     6
 10
408.28488876369261
 20
210.2860012886274
 30
0.0
 11
408.28488876369261
 21
201.79573434188981
 31
0.0
  0
LINE
  5
D79
  8
LOGO
 62
     6
 10
430.9256006216599
 20
227.26653518210259
 30
0.0
 11
430.9256006216599
 21
210.2860012886274
 31
0.0
  0
LINE
  5
D7A
  8
LOGO
 62
     6
 10
427.15214864533198
 20
201.79573434188981
 30
0.0
 11
427.15214864533198
 21
181.04174847208671
 31
0.0
  0
LINE
  5
D7B
  8
LOGO
  6
CONTINUOUS
 62
     7
 10
433.85109141964767
 20
218.71612050075569
 30
0.0
 11
441.34907559485617
 21
218.71612050075569
 31
0.0
  0
LINE
  5
D82
  8
LOGO
 62
     6
 10
474.57774468566993
 20
227.26653518210281
 30
0.0
 11
474.57774468566993
 21
210.2860012886274
 31
0.0
  0
LINE
  5
D83
  8
LOGO
 62
     6
 10
444.28559667607891
 20
227.26653518210259
 30
0.0
 11
444.28559667607891
 21
210.2860012886274
 31
0.0
  0
LINE
  5
D85
  8
LOGO
 62
     6
 10
474.57774468566993
 20
181.04174847208671
 30
0.0
 11
444.28559667607891
 21
181.0417484720866
 31
0.0
  0
LINE
  5
D86
  8
LOGO
 62
     6
 10
474.57774468566993
 20
210.2860012886274
 30
0.0
 11
444.28559667607891
 21
210.2860012886274
 31
0.0
  0
LINE
  5
D87
  8
LOGO
 62
     6
 10
474.57774468566993
 20
201.79573434188981
 30
0.0
 11
444.28559667607891
 21
201.79573434188981
 31
0.0
  0
LINE
  5
D88
  8
LOGO
 62
     6
 10
444.28559667607891
 20
201.79573434188981
 30
0.0
 11
444.28559667607891
 21
181.04174847208671
 31
0.0
  0
TEXT
  5
D89
  8
LOGO
  6
CONTINUOUS
 62
     6
 10
453.59180452703379
 20
183.40015595729159
 30
0.0
 40
4.7168149704097937
  1
Bore
 41
0.8
  7
CHINESET
 72
     4
 11
459.43167068087439
 21
185.7585634424965
 31
0.0
  0
TEXT
  5
D8A
  8
LOGO
 62
     6
 10
452.21494377614738
 20
191.41874140698809
 30
0.0
 40
7.546903952655672
  1
內徑
 41
0.9
  7
CHINESET
 72
     4
 11
459.43167068087439
 21
195.19219338331601
 31
0.0
  0
LINE
  5
D8B
  8
LOGO
 62
     6
 10
459.43167024582482
 20
210.2860012886274
 30
0.0
 11
459.43167024582482
 21
201.79573434188981
 31
0.0
  0
LINE
  5
D8C
  8
LOGO
 62
     6
 10
474.57774468566993
 20
201.79573434188981
 30
0.0
 11
474.57774468566993
 21
181.04174847208671
 31
0.0
  0
LINE
  5
D8E
  8
LOGO
 62
     6
 10
474.57774468566993
 20
227.26653518210281
 30
0.0
 11
444.28559667607891
 21
227.26653518210259
 31
0.0
  0
TEXT
  5
D8F
  8
LOGO
  6
CONTINUOUS
 62
     7
 10
452.67539500434691
 20
213.95247530698711
 30
0.0
 40
9.4336299408195892
  1
50
  7
CHINESET
 72
     1
 11
460.31214305167703
 21
218.6692902773969
 31
0.0
 73
     2
  0
LINE
  5
D9E
  8
LOGO
 62
     1
 10
635.92834892189944
 20
176.3249335016769
 30
0.0
 11
635.92834892189944
 21
232.92671314659441
 31
0.0
  0
LINE
  5
DAD
  8
LOGO
 62
     6
 10
487.93774074008888
 20
227.26653518210281
 30
0.0
 11
487.93774074008888
 21
210.28600128862749
 31
0.0
  0
LINE
  5
DAE
  8
LOGO
 62
     6
 10
546.35322282718175
 20
227.2665351821029
 30
0.0
 11
546.35322282718175
 21
210.28600128862749
 31
0.0
  0
TEXT
  5
DAF
  8
LOGO
 62
     6
 10
503.84406356707939
 20
191.64684459814259
 30
0.0
 40
7.546903952655672
  1
旋轉方向
 41
0.9
  7
CHINESET
 72
     4
 11
517.14548178363509
 21
195.19219338331609
 31
0.0
  0
TEXT
  5
DB0
  8
LOGO
  6
CONTINUOUS
 62
     6
 10
491.98913527478283
 20
184.18629178569319
 30
0.0
 40
4.7168149704097937
  1
Rotating direction
 41
0.8
  7
CHINESET
 72
     4
 11
517.14548178363509
 21
185.7585634424965
 31
0.0
  0
LINE
  5
DB1
  8
LOGO
 62
     6
 10
546.35322282718175
 20
201.7957343418899
 30
0.0
 11
487.93774074008888
 21
201.7957343418899
 31
0.0
  0
LINE
  5
DB2
  8
LOGO
 62
     6
 10
546.35322282718175
 20
210.28600128862749
 30
0.0
 11
487.93774074008888
 21
210.28600128862749
 31
0.0
  0
LINE
  5
DB3
  8
LOGO
 62
     6
 10
546.35322282718175
 20
181.04174847208679
 30
0.0
 11
487.93774074008888
 21
181.04174847208671
 31
0.0
  0
LINE
  5
DB4
  8
LOGO
 62
     6
 10
487.93774074008888
 20
201.7957343418899
 30
0.0
 11
487.93774074008888
 21
181.04174847208679
 31
0.0
  0
LINE
  5
DB5
  8
LOGO
 62
     6
 10
517.14548178363543
 20
210.28600128862749
 30
0.0
 11
517.14548178363543
 21
201.7957343418899
 31
0.0
  0
LINE
  5
DB6
  8
LOGO
 62
     6
 10
546.35322282718175
 20
201.7957343418899
 30
0.0
 11
546.35322282718175
 21
181.04174847208679
 31
0.0
  0
LINE
  5
DB7
  8
LOGO
 62
     6
 10
546.35322282718175
 20
227.2665351821029
 30
0.0
 11
487.93774074008888
 21
227.26653518210281
 31
0.0
  0
LINE
  5
DB8
  8
LOGO
  6
CONTINUOUS
 62
     7
 10
477.50323548365799
 20
218.71612050075581
 30
0.0
 11
485.00121965886621
 21
218.71612050075581
 31
0.0
  0
TEXT
  5
DCEA
  8
UMCL3
  6
CONTINUOUS
 62
     2
 10
766.23679790982271
 20
285.02499111941353
 30
0.0
 40
2.5
  1

 41
0.8
  7
ROMANS1
 72
     1
 11
766.23679790982271
 21
286.27499111941353
 31
0.0
 73
     2
  0
TEXT
  5
DCED
  8
UMCL3
  6
CONTINUOUS
 62
     2
 10
741.15575056207274
 20
285.02499111941353
 30
0.0
 40
2.5
  1

 41
0.8
  7
ROMANS1
 72
     1
 11
741.15575056207274
 21
286.27499111941353
 31
0.0
 73
     2
  0
TEXT
  5
DCF2
  8
UMCL3
  6
CONTINUOUS
 62
     2
 10
719.57470321432265
 20
285.02499111941353
 30
0.0
 40
2.5
  1

 41
0.8
  7
ROMANS1
 72
     1
 11
719.57470321432265
 21
286.27499111941353
 31
0.0
 73
     2
  0
TEXT
  5
DD0D
  8
UMCL3
 62
     2
 10
716.36931152386535
 20
289.1485161689501
 30
0.0
 40
3.2999999999999998
  1

 41
0.9
  7
ROMANS
  0
TEXT
  5
DD17
  8
UMCL3
 62
     2
 10
734.45035887161544
 20
289.1485161689501
 30
0.0
 40
3.2999999999999998
  1

 41
0.9
  7
ROMANS
  0
TEXT
  5
DD1A
  8
UMCL3
 62
     2
 10
759.53140621936552
 20
289.1485161689501
 30
0.0
 40
3.2999999999999998
  1

 41
0.9
  7
ROMANS
  0
TEXT
  5
14B64
  8
UMCL3
  6
CONTINUOUS
 62
     2
 10
426.05478391879888
 20
150.3638432988582
 30
0.0
 40
2.5
  1

 41
0.8
  7
ROMANS1
 72
     1
 11
426.05478391879888
 21
151.6138432988582
 31
0.0
 73
     2
  0
TEXT
  5
14B68
  8
UMCL3
 62
     2
 10
388.4510203905802
 20
154.33843610509459
 30
0.0
 40
3.2999999999999998
  1

 41
0.9
  7
ROMANS
  0
TEXT
  5
14B6A
  8
UMCL3
  6
CONTINUOUS
 62
     2
 10
394.72373657104862
 20
150.3638432988582
 30
0.0
 40
2.5
  1

 41
0.8
  7
ROMANS1
 72
     1
 11
394.72373657104862
 21
151.6138432988582
 31
0.0
 73
     2
  0
TEXT
  5
14B77
  8
UMCL3
 62
     2
 10
419.7820677383304
 20
154.33843610509459
 30
0.0
 40
3.2999999999999998
  1

 41
0.9
  7
ROMANS
  0
LINE
  5
14B7C
  8
LOGO
 62
     6
 10
618.12870096869358
 20
227.2665351821029
 30
0.0
 11
618.12870096869358
 21
210.2860012886276
 31
0.0
  0
LINE
  5
14B7D
  8
LOGO
 62
     6
 10
559.71321888160082
 20
227.2665351821029
 30
0.0
 11
559.71321888160082
 21
210.2860012886276
 31
0.0
  0
TEXT
  5
14B7E
  8
LOGO
  6
CONTINUOUS
 62
     6
 10
568.34666224469265
 20
184.18629178569319
 30
0.0
 40
4.7168149704097937
  1
Rotating angle
 41
0.8
  7
CHINESET
 72
     4
 11
588.92095992514692
 21
185.7585634424965
 31
0.0
  0
TEXT
  5
14B7F
  8
LOGO
 62
     6
 10
575.40728503492289
 20
191.65427265321409
 30
0.0
 40
7.546903952655672
  1
旋轉角度
 41
0.9
  7
CHINESET
 72
     4
 11
588.92095992514692
 21
195.19219338331621
 31
0.0
  0
LINE
  5
14B80
  8
LOGO
 62
     6
 10
618.12870096869358
 20
210.2860012886276
 30
0.0
 11
559.71321888160082
 21
210.2860012886276
 31
0.0
  0
LINE
  5
14B81
  8
LOGO
 62
     6
 10
618.12870096869358
 20
201.7957343418899
 30
0.0
 11
559.71321888160082
 21
201.7957343418899
 31
0.0
  0
LINE
  5
14B82
  8
LOGO
 62
     6
 10
618.12870096869358
 20
181.04174847208691
 30
0.0
 11
559.71321888160082
 21
181.04174847208679
 31
0.0
  0
LINE
  5
14B83
  8
LOGO
 62
     6
 10
559.71321888160082
 20
201.7957343418899
 30
0.0
 11
559.71321888160082
 21
181.04174847208691
 31
0.0
  0
LINE
  5
14B84
  8
LOGO
 62
     6
 10
588.92095992514726
 20
210.2860012886276
 30
0.0
 11
588.92095992514726
 21
201.7957343418899
 31
0.0
  0
LINE
  5
14B85
  8
LOGO
 62
     6
 10
618.12870096869358
 20
201.7957343418899
 30
0.0
 11
618.12870096869358
 21
181.04174847208691
 31
0.0
  0
LINE
  5
14B86
  8
LOGO
 62
     6
 10
618.12870096869358
 20
227.2665351821029
 30
0.0
 11
559.71321888160082
 21
227.2665351821029
 31
0.0
  0
LINE
  5
14B87
  8
LOGO
  6
CONTINUOUS
 62
     7
 10
549.27871362516976
 20
218.71612050075581
 30
0.0
 11
556.77669780037797
 21
218.71612050075581
 31
0.0
  0
LINE
  5
14E91
  8
0
 10
530.16059129645407
 20
400.06500381760111
 30
0.0
 11
555.56059129645416
 21
400.06500381760111
 31
0.0
  0
LINE
  5
14E92
  8
0
 10
555.56059129645416
 20
425.4650038176012
 30
0.0
 11
530.16059129645407
 21
425.4650038176012
 31
0.0
  0
LINE
  5
14E93
  8
0
 10
528.86059129645434
 20
397.7650038176011
 30
0.0
 11
556.86059129645434
 21
397.7650038176011
 31
0.0
  0
LINE
  5
14E94
  8
0
 10
529.86059129645446
 20
399.7650038176011
 30
0.0
 11
555.86059129645434
 21
399.7650038176011
 31
0.0
  0
CIRCLE
  5
14E95
  8
0
 10
542.86059129645434
 20
351.06500381760088
 30
0.0
 40
5.75
  0
ARC
  5
14E96
  8
0
 62
     2
 10
542.86059129645434
 20
351.06500381760088
 30
0.0
 40
6.5
 50
78.38672731903111
 51
10.99745171714029
  0
LINE
  5
14E97
  8
0
 10
570.86059129645434
 20
366.06500381760083
 30
0.0
 11
514.86059129645434
 21
366.06500381760083
 31
0.0
  0
LINE
  5
14E98
  8
0
 62
     4
 10
575.86059129645446
 20
361.06500381760083
 30
0.0
 11
509.860591296454
 21
361.06500381760083
 31
0.0
  0
LINE
  5
14E99
  8
0
 10
507.860591296454
 20
300.06500381760083
 30
0.0
 11
577.860591296454
 21
300.06500381760083
 31
0.0
  0
LINE
  5
14E9A
  8
0
 10
507.8605912964544
 20
266.06500381760083
 30
0.0
 11
577.86059129645434
 21
266.06500381760083
 31
0.0
  0
LINE
  5
14E9B
  8
0
 10
506.8605912964544
 20
299.06500381760083
 30
0.0
 11
578.86059129645434
 21
299.06500381760083
 31
0.0
  0
LINE
  5
14E9C
  8
0
 10
506.8605912964544
 20
267.06500381760083
 30
0.0
 11
578.86059129645434
 21
267.06500381760083
 31
0.0
  0
LINE
  5
14E9D
  8
CENTER
  6
CENTER
 10
558.59170765943554
 20
412.7650038176011
 30
0.0
 11
526.0636880078996
 21
412.7650038176011
 31
0.0
  0
LINE
  5
14E9E
  8
CENTER
  6
CENTER
 10
532.86059129645434
 20
351.06500381760088
 30
0.0
 11
552.86059129645434
 21
351.06500381760088
 31
0.0
  0
LINE
  5
14E9F
  8
0
 10
238.193205167141
 20
400.06500381760111
 30
0.0
 11
418.193205167141
 21
400.06500381760111
 31
0.0
  0
LINE
  5
14EA0
  8
0
 10
418.193205167141
 20
425.4650038176012
 30
0.0
 11
238.193205167141
 21
425.46500381760092
 31
0.0
  0
LINE
  5
14EA1
  8
0
  6
PHANTOM
 62
     6
 10
238.193205167141
 20
370.06500381760111
 30
0.0
 11
418.193205167141
 21
370.06500381760111
 31
0.0
  0
LINE
  5
14EA2
  8
0
  6
PHANTOM
 62
     6
 10
418.193205167141
 20
395.4650038176012
 30
0.0
 11
238.193205167141
 21
395.4650038176012
 31
0.0
  0
LINE
  5
14EA3
  8
0
 10
238.193205167141
 20
507.86388659514358
 30
0.0
 11
418.193205167141
 21
507.86388659514358
 31
0.0
  0
LINE
  5
14EA4
  8
0
 10
418.193205167141
 20
533.2638865951435
 30
0.0
 11
238.193205167141
 21
533.2638865951435
 31
0.0
  0
LINE
  5
14EA5
  8
DIM
 10
238.193205167141
 20
433.46500381760092
 30
0.0
 11
418.193205167141
 21
433.46500381760092
 31
0.0
  0
LINE
  5
14EA6
  8
CENTER
  6
CENTER
 10
233.88373382899951
 20
520.56388659514369
 30
0.0
 11
366.03429870869599
 21
520.56388659514369
 31
0.0
  0
LINE
  5
14EA7
  8
0
  6
PHANTOM
 62
     6
 10
238.193205167141
 20
395.4650038176012
 30
0.0
 11
238.193205167141
 21
370.06500381760111
 31
0.0
  0
LINE
  5
14EA8
  8
0
 10
238.193205167141
 20
425.46500381760092
 30
0.0
 11
238.193205167141
 21
400.06500381760111
 31
0.0
  0
SOLID
  5
14EA9
  8
DIM
 10
241.1476284261411
 20
433.98594835070111
 30
0.0
 11
241.1476284261411
 21
432.94405928450101
 31
0.0
 12
238.193205167141
 22
433.46500381760092
 32
0.0
 13
238.193205167141
 23
433.46500381760092
 33
0.0
  0
LINE
  5
14EAA
  8
DIM
 10
238.193205167141
 20
427.3537633802261
 30
0.0
 11
238.193205167141
 21
434.46500381760092
 31
0.0
  0
TEXT
  5
14EAB
  8
DIM
 10
219.13718751604111
 20
501.4190686990778
 30
0.0
 40
4.0
  1
CCW
  7
ROMANS
  0
POLYLINE
  5
14EAC
  8
DIM
 66
     1
 10
0.0
 20
0.0
 30
0.0
 70
     7
  0
VERTEX
  5
14EAD
  8
DIM
 10
233.1431062945839
 20
506.35320660164228
 30
0.0
 42
0.0185322085214218
  0
VERTEX
  5
14EAE
  8
DIM
 10
235.17227936446349
 20
501.95210736196123
 30
0.0
  0
VERTEX
  5
14EAF
  8
DIM
 10
234.63708695986401
 20
501.68087113639598
 30
0.0
  0
VERTEX
  5
14EB0
  8
DIM
 10
237.2595717431972
 20
499.64667349754671
 30
0.0
  0
VERTEX
  5
14EB1
  8
DIM
 10
237.0454527805627
 20
502.90143415143928
 30
0.0
  0
VERTEX
  5
14EB2
  8
DIM
 10
236.51026037596279
 20
502.63019792587397
 30
0.0
 42
-0.018532208521422
  0
VERTEX
  5
14EB3
  8
DIM
 10
234.52762797282361
 20
506.93035452244311
 30
0.0
  0
SEQEND
  5
14EB4
  8
DIM
  0
TEXT
  5
14EB5
  8
DIM
 10
221.21213583180861
 20
536.48201768347462
 30
0.0
 40
4.0
  1
CW
  7
ROMANS
  0
LINE
  5
14EB6
  8
0
 10
238.193205167141
 20
533.2638865951435
 30
0.0
 11
238.193205167141
 21
507.86388659514358
 31
0.0
  0
POLYLINE
  5
14EB7
  8
DIM
 66
     1
 10
0.0
 20
0.0
 30
0.0
 70
     7
  0
VERTEX
  5
14EB8
  8
DIM
 10
233.14310629458441
 20
534.50750244324456
 30
0.0
 42
-0.0185322085214218
  0
VERTEX
  5
14EB9
  8
DIM
 10
235.17227936446389
 20
538.90860168292568
 30
0.0
  0
VERTEX
  5
14EBA
  8
DIM
 10
234.63708695986449
 20
539.17983790849087
 30
0.0
  0
VERTEX
  5
14EBB
  8
DIM
 10
237.25957174319771
 20
541.2140355473399
 30
0.0
  0
VERTEX
  5
14EBC
  8
DIM
 10
237.04545278056321
 20
537.95927489344763
 30
0.0
  0
VERTEX
  5
14EBD
  8
DIM
 10
236.5102603759633
 20
538.23051111901304
 30
0.0
 42
0.018532208521422
  0
VERTEX
  5
14EBE
  8
DIM
 10
234.52762797282361
 20
533.93035452244305
 30
0.0
  0
SEQEND
  5
14EBF
  8
DIM
  0
LINE
  5
14EC0
  8
0
 10
528.86059129645434
 20
397.7650038176011
 30
0.0
 11
528.86059129645434
 21
366.06500381760083
 31
0.0
  0
LINE
  5
14EC1
  8
0
 10
342.193205167141
 20
397.7650038176011
 30
0.0
 11
342.193205167141
 21
366.06500381760083
 31
0.0
  0
LINE
  5
14EC2
  8
0
 10
314.193205167141
 20
397.7650038176011
 30
0.0
 11
314.19320516714151
 21
366.06500381760083
 31
0.0
  0
LINE
  5
14EC3
  8
DIM
 10
426.193205167141
 20
266.06500381760083
 30
0.0
 11
426.193205167141
 21
412.7650038176011
 31
0.0
  0
LINE
  5
14EC4
  8
DIM
 10
434.19320516714112
 20
266.06500381760083
 30
0.0
 11
434.19320516714112
 21
425.46500381760092
 31
0.0
  0
LINE
  5
14EC5
  8
DIM
 10
442.19320516714112
 20
266.06500381760083
 30
0.0
 11
442.19320516714112
 21
425.46500381760092
 31
0.0
  0
LINE
  5
14EC6
  8
CENTER
  6
CENTER
 10
328.193205167141
 20
263.03660750356619
 30
0.0
 11
328.193205167141
 21
429.86506540460408
 31
0.0
  0
LINE
  5
14EC7
  8
DIM
 10
364.193205167141
 20
300.06500381760111
 30
0.0
 11
411.193205167141
 21
300.06500381760111
 31
0.0
  0
LINE
  5
14EC8
  8
DIM
 10
357.99320516714118
 20
366.06500381760083
 30
0.0
 11
419.193205167141
 21
366.06500381760083
 31
0.0
  0
LINE
  5
14EC9
  8
DIM
 10
364.193205167141
 20
266.06500381760083
 30
0.0
 11
443.193205167141
 21
266.06500381760083
 31
0.0
  0
LINE
  5
14ECA
  8
DIM
 10
405.51133935047108
 20
341.4722764795294
 30
0.0
 11
376.57343699702
 21
341.4722764795294
 31
0.0
  0
TEXT
  5
14ECB
  8
DIM
 10
379.549673029031
 20
342.4722764795294
 30
0.0
 40
3.0
  1
2-PT 1/4
  7
ROMANS
  0
LINE
  5
14ECC
  8
0
 10
364.193205167141
 20
267.06500381760083
 30
0.0
 11
364.193205167141
 21
299.06500381760083
 31
0.0
  0
LINE
  5
14ECD
  8
0
  6
CONTINUOUS
 10
358.7965138117961
 20
299.06500381760111
 30
0.0
 11
358.7965138117961
 21
267.065003817601
 31
0.0
  0
LINE
  5
14ECE
  8
0
 10
292.193205167141
 20
299.06500381760083
 30
0.0
 11
292.19320516714151
 21
267.06500381760083
 31
0.0
  0
LINE
  5
14ECF
  8
0
  6
CONTINUOUS
 10
297.58989652248641
 20
299.06500381760111
 30
0.0
 11
297.58989652248641
 21
267.065003817601
 31
0.0
  0
LINE
  5
14ED0
  8
CENTER
  6
CENTER
 10
356.693205167141
 20
302.3467903662708
 30
0.0
 11
356.693205167141
 21
262.76346944660531
 31
0.0
  0
LINE
  5
14ED1
  8
CENTER
  6
CENTER
 10
299.69320516714151
 20
263.0455519404486
 30
0.0
 11
299.69320516714151
 21
302.3467903662708
 31
0.0
  0
LINE
  5
14ED2
  8
HIDDEN
  6
HIDDEN
 10
361.193205167141
 20
266.06500381760083
 30
0.0
 11
361.193205167141
 21
300.06500381760111
 31
0.0
  0
LINE
  5
14ED3
  8
HIDDEN
  6
HIDDEN
 10
352.193205167141
 20
266.06500381760083
 30
0.0
 11
352.193205167141
 21
300.06500381760111
 31
0.0
  0
LINE
  5
14ED4
  8
HIDDEN
  6
HIDDEN
 10
304.19320516714151
 20
266.06500381760083
 30
0.0
 11
304.19320516714151
 21
300.06500381760111
 31
0.0
  0
LINE
  5
14ED5
  8
HIDDEN
  6
HIDDEN
 10
295.19320516714151
 20
266.06500381760083
 30
0.0
 11
295.19320516714151
 21
300.06500381760111
 31
0.0
  0
LINE
  5
14ED6
  8
0
 10
293.19320516714151
 20
266.06500381760083
 30
0.0
 11
363.193205167141
 21
266.06500381760083
 31
0.0
  0
LINE
  5
14ED7
  8
0
 10
292.193205167141
 20
267.06500381760083
 30
0.0
 11
364.193205167141
 21
267.06500381760083
 31
0.0
  0
LINE
  5
14ED8
  8
0
 10
292.19320516714151
 20
267.06500381760083
 30
0.0
 11
293.19320516714151
 21
266.06500381760083
 31
0.0
  0
LINE
  5
14ED9
  8
0
 10
297.58989652248641
 20
267.065003817601
 30
0.0
 11
298.58989652248641
 21
266.06500381760111
 31
0.0
  0
LINE
  5
14EDA
  8
0
 10
358.7965138117961
 20
267.065003817601
 30
0.0
 11
357.79651381179599
 21
266.06500381760111
 31
0.0
  0
LINE
  5
14EDB
  8
0
 10
363.193205167141
 20
266.06500381760083
 30
0.0
 11
364.193205167141
 21
267.06500381760083
 31
0.0
  0
LINE
  5
14EDC
  8
HIDDEN
  6
HIDDEN
 10
364.19320516714151
 20
281.81500381760043
 30
0.0
 11
354.193205167141
 21
282.33908161043081
 31
0.0
  0
LINE
  5
14EDD
  8
HIDDEN
  6
HIDDEN
 10
364.19320516714151
 20
281.01500381760042
 30
0.0
 11
354.193205167141
 21
281.53908161043091
 31
0.0
  0
LINE
  5
14EDE
  8
0
 10
293.193205167141
 20
300.06500381760083
 30
0.0
 11
363.193205167141
 21
300.06500381760083
 31
0.0
  0
LINE
  5
14EDF
  8
0
 10
356.193205167141
 20
366.06500381760083
 30
0.0
 11
300.193205167141
 21
366.06500381760083
 31
0.0
  0
LINE
  5
14EE0
  8
0
 62
     4
 10
361.193205167141
 20
361.06500381760083
 30
0.0
 11
295.193205167141
 21
361.06500381760083
 31
0.0
  0
LINE
  5
14EE1
  8
0
 10
292.193205167141
 20
299.06500381760083
 30
0.0
 11
364.193205167141
 21
299.06500381760083
 31
0.0
  0
LINE
  5
14EE2
  8
DIM
 10
295.193205167141
 20
321.5201391513724
 30
0.0
 11
361.193205167141
 21
321.5201391513724
 31
0.0
  0
LINE
  5
14EE3
  8
0
 10
295.193205167141
 20
361.06500381760083
 30
0.0
 11
295.193205167141
 21
300.06500381760083
 31
0.0
  0
LINE
  5
14EE4
  8
0
 10
293.193205167141
 20
300.06500381760083
 30
0.0
 11
292.193205167141
 21
299.06500381760083
 31
0.0
  0
LINE
  5
14EE5
  8
DIM
 10
290.55129913025888
 20
327.58755919315757
 30
0.0
 11
264.6221336900166
 21
327.58755919315757
 31
0.0
  0
TEXT
  5
14EE6
  8
DIM
 10
264.58963280881881
 20
328.58755919315757
 30
0.0
 40
3.0
  1
2-PT 1/4
  7
ROMANS
  0
LINE
  5
14EE7
  8
0
 10
298.58989652248601
 20
300.06500381760111
 30
0.0
 11
297.58989652248601
 21
299.06500381760111
 31
0.0
  0
SOLID
  5
14EE8
  8
DIM
 10
298.14762842614158
 20
322.04108368447231
 30
0.0
 11
298.14762842614158
 21
320.99919461827238
 31
0.0
 12
295.19320516714151
 22
321.5201391513724
 32
0.0
 13
295.19320516714151
 23
321.5201391513724
 33
0.0
  0
ARC
  5
14EE9
  8
0
 10
300.193205167141
 20
361.06500381760083
 30
0.0
 40
5.0
 50
90.0
 51
180.0
  0
LINE
  5
14EEA
  8
0
 10
361.193205167141
 20
361.06500381760083
 30
0.0
 11
361.193205167141
 21
300.06500381760083
 31
0.0
  0
LINE
  5
14EEB
  8
CENTER
  6
CENTER
 10
367.25107177795911
 20
287.56500381760043
 30
0.0
 11
347.25107177795911
 21
287.56500381760043
 31
0.0
  0
LINE
  5
14EEC
  8
0
 10
357.79651381179599
 20
300.06500381760111
 30
0.0
 11
358.7965138117961
 21
299.06500381760111
 31
0.0
  0
LINE
  5
14EED
  8
0
 10
364.193205167141
 20
299.06500381760083
 30
0.0
 11
363.193205167141
 21
300.06500381760083
 31
0.0
  0
TEXT
  5
14EEE
  8
DIM
 10
330.52893956979187
 20
322.5201391513724
 30
0.0
 40
3.0
  1
%%c66
  7
ROMANS
  0
SOLID
  5
14EEF
  8
DIM
 10
358.23878190814139
 20
320.99919461827238
 30
0.0
 11
358.23878190814139
 21
322.04108368447231
 31
0.0
 12
361.19320516714151
 22
321.5201391513724
 32
0.0
 13
361.19320516714151
 23
321.5201391513724
 33
0.0
  0
LINE
  5
14EF0
  8
HIDDEN
  6
HIDDEN
 10
364.19320516714151
 20
293.31500381760043
 30
0.0
 11
354.193205167141
 21
292.79092602476999
 31
0.0
  0
LINE
  5
14EF1
  8
HIDDEN
  6
HIDDEN
 10
364.19320516714151
 20
294.11500381760061
 30
0.0
 11
354.193205167141
 21
293.59092602477011
 31
0.0
  0
LINE
  5
14EF2
  8
DIM
 10
376.57343699702
 20
341.4722764795294
 30
0.0
 11
361.193205167141
 21
351.06500381760009
 31
0.0
  0
ARC
  5
14EF3
  8
0
 10
356.193205167141
 20
361.06500381760083
 30
0.0
 40
5.0
 50
0.0
 51
90.0
  0
SOLID
  5
14EF4
  8
DIM
 10
363.97569732505002
 20
349.94351490055192
 30
0.0
 11
363.42432071503657
 21
349.05948059115138
 31
0.0
 12
361.193205167141
 22
351.06500381760009
 32
0.0
 13
361.193205167141
 23
351.06500381760009
 33
0.0
  0
LINE
  5
14EF5
  8
CENTER
  6
CENTER
 10
364.25107177795962
 20
351.06500381760043
 30
0.0
 11
344.25107177795962
 21
351.06500381760043
 31
0.0
  0
LINE
  5
14EF6
  8
HIDDEN
  6
HIDDEN
 10
361.19320516714151
 20
356.81500381760043
 30
0.0
 11
351.19320516714151
 21
356.29092602476999
 31
0.0
  0
LINE
  5
14EF7
  8
HIDDEN
  6
HIDDEN
 10
361.19320516714151
 20
357.61500381760032
 30
0.0
 11
351.19320516714151
 21
357.09092602476989
 31
0.0
  0
LINE
  5
14EF8
  8
HIDDEN
  6
HIDDEN
 10
361.19320516714151
 20
345.31500381760043
 30
0.0
 11
351.19320516714151
 21
345.83908161043058
 31
0.0
  0
LINE
  5
14EF9
  8
HIDDEN
  6
HIDDEN
 10
361.19320516714151
 20
344.51500381760019
 30
0.0
 11
351.19320516714151
 21
345.03908161043063
 31
0.0
  0
CIRCLE
  5
14EFA
  8
0
 10
527.86059129645434
 20
287.56500381760111
 30
0.0
 40
5.75
  0
ARC
  5
14EFB
  8
0
 62
     2
 10
527.86059129645434
 20
287.56500381760111
 30
0.0
 40
6.5
 50
78.38672731903111
 51
10.99745171714029
  0
LINE
  5
14EFC
  8
0
 10
506.860591296454
 20
299.06500381760083
 30
0.0
 11
506.8605912964544
 21
267.06500381760083
 31
0.0
  0
LINE
  5
14EFD
  8
0
  6
CONTINUOUS
 10
512.25728265179941
 20
299.06500381760111
 30
0.0
 11
512.25728265179941
 21
267.065003817601
 31
0.0
  0
TEXT
  5
14EFE
  8
DIM
 10
409.19320516714112
 20
280.12516915322152
 30
0.0
 40
3.0
  1
34
 50
90.0
  7
ROMANS
  0
LINE
  5
14EFF
  8
DIM
 10
410.193205167141
 20
266.06500381760083
 30
0.0
 11
410.193205167141
 21
300.06500381760111
 31
0.0
  0
LINE
  5
14F00
  8
DIM
 10
418.193205167141
 20
266.06500381760083
 30
0.0
 11
418.193205167141
 21
366.06500381760083
 31
0.0
  0
LINE
  5
14F01
  8
CENTER
  6
CENTER
 10
527.860591296454
 20
277.565003817601
 30
0.0
 11
527.860591296454
 21
297.56500381760111
 31
0.0
  0
LINE
  5
14F02
  8
CENTER
  6
CENTER
 10
514.36059129645434
 20
263.0455519404486
 30
0.0
 11
514.36059129645434
 21
302.3467903662708
 31
0.0
  0
LINE
  5
14F03
  8
HIDDEN
  6
HIDDEN
 10
518.86059129645434
 20
266.06500381760083
 30
0.0
 11
518.86059129645434
 21
300.06500381760111
 31
0.0
  0
LINE
  5
14F04
  8
HIDDEN
  6
HIDDEN
 10
509.8605912964544
 20
266.06500381760083
 30
0.0
 11
509.8605912964544
 21
300.06500381760111
 31
0.0
  0
SOLID
  5
14F05
  8
DIM
 10
433.67226063404132
 20
269.019427076601
 30
0.0
 11
434.71414970024119
 21
269.019427076601
 31
0.0
 12
434.19320516714112
 22
266.06500381760083
 32
0.0
 13
434.19320516714112
 23
266.06500381760083
 33
0.0
  0
SOLID
  5
14F06
  8
DIM
 10
425.67226063404132
 20
269.019427076601
 30
0.0
 11
426.71414970024119
 21
269.019427076601
 31
0.0
 12
426.193205167141
 22
266.06500381760083
 32
0.0
 13
426.193205167141
 23
266.06500381760083
 33
0.0
  0
SOLID
  5
14F07
  8
DIM
 10
417.67226063404132
 20
269.019427076601
 30
0.0
 11
418.71414970024131
 21
269.019427076601
 31
0.0
 12
418.193205167141
 22
266.06500381760083
 32
0.0
 13
418.193205167141
 23
266.06500381760083
 33
0.0
  0
SOLID
  5
14F08
  8
DIM
 10
409.67226063404132
 20
269.019427076601
 30
0.0
 11
410.71414970024119
 21
269.019427076601
 31
0.0
 12
410.193205167141
 22
266.06500381760083
 32
0.0
 13
410.193205167141
 23
266.06500381760083
 33
0.0
  0
SOLID
  5
14F09
  8
DIM
 10
441.67226063404132
 20
269.019427076601
 30
0.0
 11
442.71414970024119
 21
269.019427076601
 31
0.0
 12
442.19320516714112
 22
266.06500381760083
 32
0.0
 13
442.19320516714112
 23
266.06500381760083
 33
0.0
  0
LINE
  5
14F0A
  8
0
 10
512.25728265179941
 20
267.065003817601
 30
0.0
 11
513.25728265179941
 21
266.06500381760111
 31
0.0
  0
LINE
  5
14F0B
  8
0
 10
506.8605912964544
 20
267.06500381760083
 30
0.0
 11
507.8605912964544
 21
266.06500381760083
 31
0.0
  0
TEXT
  5
14F0C
  8
DIM
 10
441.193205167141
 20
338.74076496735961
 30
0.0
 40
3.0
  1
159.4
 50
90.0
  7
ROMANS
  0
TEXT
  5
14F0D
  8
DIM
 10
433.193205167141
 20
328.84953434834279
 30
0.0
 40
3.0
  1
134
 50
90.0
  7
ROMANS
  0
TEXT
  5
14F0E
  8
DIM
 10
417.193205167141
 20
311.92505903006821
 30
0.0
 40
3.0
  1
100
 50
90.0
  7
ROMANS
  0
SOLID
  5
14F0F
  8
DIM
 10
410.71414970024119
 20
297.11058055860099
 30
0.0
 11
409.67226063404132
 21
297.11058055860099
 31
0.0
 12
410.193205167141
 22
300.06500381760111
 32
0.0
 13
410.193205167141
 23
300.06500381760111
 33
0.0
  0
TEXT
  5
14F10
  8
DIM
 10
425.193205167141
 20
313.79136776115843
 30
0.0
 40
3.0
  1
104
 50
90.0
  7
ROMANS
  0
LINE
  5
14F11
  8
0
  6
PHANTOM
 62
     6
 10
418.193205167141
 20
395.4650038176012
 30
0.0
 11
418.193205167141
 21
370.06500381760111
 31
0.0
  0
SOLID
  5
14F12
  8
DIM
 10
426.71414970024119
 20
367.11058055860121
 30
0.0
 11
425.67226063404132
 21
367.11058055860121
 31
0.0
 12
426.193205167141
 22
370.06500381760111
 32
0.0
 13
426.193205167141
 23
370.06500381760111
 33
0.0
  0
SOLID
  5
14F13
  8
DIM
 10
426.71414970024119
 20
373.019427076601
 30
0.0
 11
425.67226063404132
 21
373.019427076601
 31
0.0
 12
426.193205167141
 22
370.06500381760111
 32
0.0
 13
426.193205167141
 23
370.06500381760111
 33
0.0
  0
SOLID
  5
14F14
  8
DIM
 10
418.71414970024131
 20
363.11058055860099
 30
0.0
 11
417.67226063404132
 21
363.11058055860099
 31
0.0
 12
418.193205167141
 22
366.06500381760083
 32
0.0
 13
418.193205167141
 23
366.06500381760083
 33
0.0
  0
LINE
  5
14F15
  8
DIM
 10
419.16277664694678
 20
370.06500381760111
 30
0.0
 11
427.193205167141
 21
370.06500381760111
 31
0.0
  0
TEXT
  5
14F16
  8
DIM
 10
425.193205167141
 20
382.0860300548768
 30
0.0
 40
3.0
  1
30
 50
90.0
  7
ROMANS
  0
LINE
  5
14F17
  8
0
 10
509.8605912964544
 20
361.06500381760083
 30
0.0
 11
509.8605912964544
 21
300.06500381760083
 31
0.0
  0
LINE
  5
14F18
  8
0
 10
513.25728265179885
 20
300.06500381760111
 30
0.0
 11
512.25728265179885
 21
299.06500381760111
 31
0.0
  0
LINE
  5
14F19
  8
0
 10
507.860591296454
 20
300.06500381760083
 30
0.0
 11
506.860591296454
 21
299.06500381760083
 31
0.0
  0
LINE
  5
14F1A
  8
CENTER
  6
CENTER
 10
517.86059129645434
 20
287.56500381760111
 30
0.0
 11
537.86059129645434
 21
287.56500381760111
 31
0.0
  0
ARC
  5
14F1B
  8
0
 10
514.86059129645434
 20
361.06500381760083
 30
0.0
 40
5.0
 50
90.0
 51
180.0
  0
LINE
  5
14F1C
  8
DIM
 10
345.6407738667649
 20
412.7650038176011
 30
0.0
 11
427.12134061944511
 21
412.7650038176011
 31
0.0
  0
LINE
  5
14F1D
  8
CENTER
  6
CENTER
 10
374.0309829860725
 20
520.56388659514369
 30
0.0
 11
422.31268345230052
 21
520.56388659514369
 31
0.0
  0
POLYLINE
  5
14F1E
  8
0
 66
     1
 10
0.0
 20
0.0
 30
0.0
  0
VERTEX
  5
1501B
  8
0
 10
364.193205167141
 20
489.96057795048881
 30
0.0
  0
VERTEX
  5
1501C
  8
0
 10
364.193205167141
 20
507.86388659514358
 30
0.0
  0
SEQEND
  5
1501D
  8
0
  0
POLYLINE
  5
14F1F
  8
0
 66
     1
 10
0.0
 20
0.0
 30
0.0
  0
VERTEX
  5
1501E
  8
0
 10
292.193205167141
 20
507.86388659514358
 30
0.0
  0
VERTEX
  5
1501F
  8
0
 10
292.193205167141
 20
489.96057795048881
 30
0.0
  0
SEQEND
  5
15020
  8
0
  0
ARC
  5
14F20
  8
0
 10
328.193205167141
 20
520.56388659514369
 30
0.0
 40
33.0
 50
202.63433434065391
 51
337.36566565934601
  0
LINE
  5
14F21
  8
DIM
 10
347.193205167141
 20
517.29408787503212
 30
0.0
 11
347.193205167141
 21
475.64750351392149
 31
0.0
  0
LINE
  5
14F22
  8
DIM
 10
309.193205167141
 20
517.29408787503212
 30
0.0
 11
309.193205167141
 21
475.64750351392149
 31
0.0
  0
LINE
  5
14F23
  8
CENTER
  6
CENTER
 10
328.193205167141
 20
482.05057258762321
 30
0.0
 11
328.193205167141
 21
558.88131859238388
 31
0.0
  0
CIRCLE
  5
14F24
  8
0
  6
CONTINUOUS
 10
328.193205167141
 20
412.7650038176011
 30
0.0
 40
6.0
  0
LINE
  5
14F25
  8
0
 10
314.193205167141
 20
397.7650038176011
 30
0.0
 11
342.193205167141
 21
397.7650038176011
 31
0.0
  0
LINE
  5
14F26
  8
0
 10
315.193205167141
 20
399.7650038176011
 30
0.0
 11
341.193205167141
 21
399.7650038176011
 31
0.0
  0
POLYLINE
  5
14F27
  8
0
 66
     1
 10
0.0
 20
0.0
 30
0.0
  0
VERTEX
  5
15021
  8
0
 10
297.58989652248641
 20
484.56388659514357
 30
0.0
  0
VERTEX
  5
15022
  8
0
 10
358.7965138117961
 20
484.56388659514357
 30
0.0
  0
SEQEND
  5
15023
  8
0
  0
TEXT
  5
14F28
  8
DIM
 10
325.23992828013201
 20
477.56388659514357
 30
0.0
 40
3.0
  1
38
  7
ROMANS
  0
LINE
  5
14F29
  8
DIM
 10
309.193205167141
 20
476.56388659514357
 30
0.0
 11
347.193205167141
 21
476.56388659514357
 31
0.0
  0
TEXT
  5
14F2A
  8
DIM
 10
326.77362856119589
 20
469.56388659514357
 30
0.0
 40
3.0
  1
57
  7
ROMANS
  0
TEXT
  5
14F2B
  8
DIM
 10
326.80838342245119
 20
461.56388659514369
 30
0.0
 40
3.0
  1
72
  7
ROMANS
  0
TEXT
  5
14F2C
  8
DIM
 10
324.06162176751508
 20
434.46500381760092
 30
0.0
 40
3.0
  1
180
  7
ROMANS
  0
LINE
  5
14F2D
  8
DIM
 10
299.693205167141
 20
468.56388659514357
 30
0.0
 11
356.693205167141
 21
468.56388659514357
 31
0.0
  0
LINE
  5
14F2E
  8
DIM
 10
292.19320516714151
 20
460.56388659514357
 30
0.0
 11
364.193205167141
 21
460.56388659514357
 31
0.0
  0
LINE
  5
14F2F
  8
CENTER
  6
CENTER
 10
344.21092451523691
 20
412.7650038176011
 30
0.0
 11
311.68290486370091
 21
412.7650038176011
 31
0.0
  0
LINE
  5
14F30
  8
0
 10
315.193205167141
 20
400.06500381760111
 30
0.0
 11
315.193205167141
 21
399.7650038176011
 31
0.0
  0
LINE
  5
14F31
  8
0
 10
315.193205167141
 20
399.7650038176011
 30
0.0
 11
314.193205167141
 21
397.7650038176011
 31
0.0
  0
ARC
  5
14F32
  8
0
 10
328.193205167141
 20
520.56388659514369
 30
0.0
 40
47.25
 50
220.36759354419181
 51
229.6324064558186
  0
SOLID
  5
14F33
  8
DIM
 10
295.14762842614158
 20
460.04294206204349
 30
0.0
 11
295.14762842614158
 21
461.08483112824359
 31
0.0
 12
292.19320516714151
 22
460.56388659514357
 32
0.0
 13
292.19320516714151
 23
460.56388659514357
 33
0.0
  0
LINE
  5
14F34
  8
CENTER
  6
CENTER
 10
309.69320516714151
 20
492.06388659514369
 30
0.0
 11
289.69320516714151
 21
492.06388659514369
 31
0.0
  0
LINE
  5
14F35
  8
DIM
 10
292.19320516714151
 20
486.99637756390479
 30
0.0
 11
292.19320516714151
 21
459.56388659514357
 31
0.0
  0
CIRCLE
  5
14F36
  8
0
 10
299.693205167141
 20
492.06388659514369
 30
0.0
 40
4.5
  0
POLYLINE
  5
14F37
  8
DIM
 66
     1
 10
0.0
 20
0.0
 30
0.0
 70
     1
  0
VERTEX
  5
15024
  8
DIM
 10
326.43283595568698
 20
472.27083520394848
 30
0.0
  0
VERTEX
  5
15025
  8
DIM
 10
326.43283595568698
 20
469.72237252482421
 30
0.0
  0
VERTEX
  5
15026
  8
DIM
 10
323.88799735524299
 20
469.72237252482421
 30
0.0
  0
VERTEX
  5
15027
  8
DIM
 10
323.88799735524299
 20
472.27083520394848
 30
0.0
  0
SEQEND
  5
15028
  8
DIM
  0
SOLID
  5
14F38
  8
DIM
 10
312.14762842614022
 20
476.04294206204338
 30
0.0
 11
312.14762842614022
 21
477.08483112824359
 31
0.0
 12
309.19320516714009
 22
476.56388659514357
 32
0.0
 13
309.19320516714009
 23
476.56388659514357
 33
0.0
  0
POLYLINE
  5
14F39
  8
DIM
 66
     1
 10
0.0
 20
0.0
 30
0.0
 70
     1
  0
VERTEX
  5
15029
  8
DIM
 10
326.43283595568698
 20
464.27083520394848
 30
0.0
  0
VERTEX
  5
1502A
  8
DIM
 10
326.43283595568698
 20
461.72237252482432
 30
0.0
  0
VERTEX
  5
1502B
  8
DIM
 10
323.88799735524299
 20
461.72237252482432
 30
0.0
  0
VERTEX
  5
1502C
  8
DIM
 10
323.88799735524299
 20
464.27083520394848
 30
0.0
  0
SEQEND
  5
1502D
  8
DIM
  0
SOLID
  5
14F3A
  8
DIM
 10
302.64762842614113
 20
468.04294206204338
 30
0.0
 11
302.64762842614113
 21
469.08483112824359
 31
0.0
 12
299.693205167141
 22
468.56388659514357
 32
0.0
 13
299.693205167141
 23
468.56388659514357
 33
0.0
  0
LINE
  5
14F3B
  8
DIM
 10
299.693205167141
 20
479.56388659514369
 30
0.0
 11
299.693205167141
 21
467.56388659514357
 31
0.0
  0
LINE
  5
14F3C
  8
CENTER
  6
CENTER
 10
299.69320516714151
 20
482.06388659514357
 30
0.0
 11
299.69320516714151
 21
502.06388659514357
 31
0.0
  0
LINE
  5
14F3D
  8
DIM
 10
372.80859253000511
 20
443.48817398508908
 30
0.0
 11
358.95787567240399
 21
443.48817398508908
 31
0.0
  0
TEXT
  5
14F3E
  8
DIM
 10
362.35692320484389
 20
444.48817398508908
 30
0.0
 40
3.0
  1
%%c12
  7
ROMANS
  0
LINE
  5
14F3F
  8
0
 10
341.193205167141
 20
400.06500381760111
 30
0.0
 11
341.193205167141
 21
399.7650038176011
 31
0.0
  0
LINE
  5
14F40
  8
0
 10
341.193205167141
 20
399.7650038176011
 30
0.0
 11
342.193205167141
 21
397.7650038176011
 31
0.0
  0
SOLID
  5
14F41
  8
DIM
 10
334.8973253513854
 20
418.72385032200958
 30
0.0
 11
334.1610959383442
 21
419.4610742212696
 31
0.0
 12
332.4387083968586
 22
417.00478002943839
 32
0.0
 13
332.4387083968586
 23
417.00478002943839
 33
0.0
  0
LINE
  5
14F42
  8
DIM
 10
358.95787567240399
 20
443.48817398508908
 30
0.0
 11
332.4387083968586
 21
417.00478002943868
 31
0.0
  0
LINE
  5
14F43
  8
DIM
 10
374.19427515970892
 20
474.58642486179627
 30
0.0
 11
359.8773325894299
 21
488.8840544362651
 31
0.0
  0
LINE
  5
14F44
  8
CENTER
  6
CENTER
 10
366.693205167141
 20
492.0638865951438
 30
0.0
 11
346.693205167141
 21
492.0638865951438
 31
0.0
  0
ARC
  5
14F45
  8
0
 10
328.193205167141
 20
520.56388659514369
 30
0.0
 40
47.25
 50
310.36759354418137
 51
319.63240645580811
  0
CIRCLE
  5
14F46
  8
0
 10
356.693205167141
 20
492.06388659514369
 30
0.0
 40
4.5
  0
SOLID
  5
14F47
  8
DIM
 10
362.3359495439567
 20
487.16498414369403
 30
0.0
 11
361.5997201309155
 21
486.42776024443418
 31
0.0
 12
359.8773325894299
 22
488.8840544362651
 32
0.0
 13
359.8773325894299
 23
488.8840544362651
 33
0.0
  0
SOLID
  5
14F48
  8
DIM
 10
353.73878190814139
 20
468.04294206204338
 30
0.0
 11
353.73878190814139
 21
469.08483112824359
 31
0.0
 12
356.693205167141
 22
468.56388659514357
 32
0.0
 13
356.693205167141
 23
468.56388659514357
 33
0.0
  0
SOLID
  5
14F49
  8
DIM
 10
361.23878190814088
 20
460.04294206204349
 30
0.0
 11
361.23878190814088
 21
461.08483112824359
 31
0.0
 12
364.193205167141
 22
460.56388659514357
 32
0.0
 13
364.193205167141
 23
460.56388659514357
 33
0.0
  0
LINE
  5
14F4A
  8
DIM
 10
356.693205167141
 20
479.56388659514369
 30
0.0
 11
356.693205167141
 21
467.56388659514357
 31
0.0
  0
LINE
  5
14F4B
  8
DIM
 10
364.193205167141
 20
486.99637756390479
 30
0.0
 11
364.193205167141
 21
459.56388659514357
 31
0.0
  0
SOLID
  5
14F4C
  8
DIM
 10
344.23878190814179
 20
476.04294206204338
 30
0.0
 11
344.23878190814179
 21
477.08483112824359
 31
0.0
 12
347.19320516714191
 22
476.56388659514357
 32
0.0
 13
347.19320516714191
 23
476.56388659514357
 33
0.0
  0
LINE
  5
14F4D
  8
CENTER
  6
CENTER
 10
356.693205167141
 20
502.06388659514391
 30
0.0
 11
356.693205167141
 21
482.06388659514391
 31
0.0
  0
TEXT
  5
14F4E
  8
DIM
 10
376.46966708684653
 20
475.58642486179627
 30
0.0
 40
3.0
  1
4-%%c9
  7
ROMANS
  0
LINE
  5
14F4F
  8
DIM
 10
388.64622733091932
 20
474.58642486179627
 30
0.0
 11
374.19427515970892
 21
474.58642486179627
 31
0.0
  0
LINE
  5
14F50
  8
0
 10
315.193205167141
 20
526.56388659514357
 30
0.0
 11
341.193205167141
 21
526.56388659514357
 31
0.0
  0
POLYLINE
  5
14F51
  8
0
 66
     1
 10
0.0
 20
0.0
 30
0.0
  0
VERTEX
  5
1502E
  8
0
 10
358.7965138117961
 20
556.56388659514357
 30
0.0
  0
VERTEX
  5
1502F
  8
0
 10
297.58989652248641
 20
556.56388659514357
 30
0.0
  0
SEQEND
  5
15030
  8
0
  0
ARC
  5
14F52
  8
0
 10
328.193205167141
 20
520.56388659514369
 30
0.0
 40
33.0
 50
22.634334340653929
 51
157.36566565934601
  0
LINE
  5
14F53
  8
0
 10
315.193205167141
 20
514.56388659514357
 30
0.0
 11
341.193205167141
 21
514.56388659514357
 31
0.0
  0
ARC
  5
14F54
  8
0
 10
328.193205167141
 20
520.56388659514369
 30
0.0
 40
47.25
 50
130.3675935441814
 51
139.63240645580811
  0
LINE
  5
14F55
  8
CENTER
  6
CENTER
 10
289.693205167141
 20
549.06388659514369
 30
0.0
 11
309.693205167141
 21
549.06388659514369
 31
0.0
  0
POLYLINE
  5
14F56
  8
0
 66
     1
 10
0.0
 20
0.0
 30
0.0
  0
VERTEX
  5
15031
  8
0
 10
292.193205167141
 20
551.16719523979816
 30
0.0
  0
VERTEX
  5
15032
  8
0
 10
292.193205167141
 20
533.2638865951435
 30
0.0
  0
SEQEND
  5
15033
  8
0
  0
CIRCLE
  5
14F57
  8
0
 10
299.693205167141
 20
549.06388659514369
 30
0.0
 40
4.5
  0
ARC
  5
14F58
  8
0
 10
315.193205167141
 20
520.56388659514369
 30
0.0
 40
6.0
 50
90.0
 51
270.0
  0
ARC
  5
14F59
  8
0
 10
328.193205167141
 20
520.56388659514369
 30
0.0
 40
14.0
 50
154.6230664748573
 51
205.37693352514259
  0
ARC
  5
14F5A
  8
0
 10
328.193205167141
 20
520.56388659514369
 30
0.0
 40
13.0
 50
152.5135737496077
 51
207.48642625039221
  0
LINE
  5
14F5B
  8
CENTER
  6
CENTER
 10
299.693205167141
 20
539.06388659514357
 30
0.0
 11
299.693205167141
 21
559.06388659514357
 31
0.0
  0
LINE
  5
14F5C
  8
DIM
 10
345.1778700111704
 20
526.56388659514357
 30
0.0
 11
373.193205167141
 21
526.56388659514357
 31
0.0
  0
LINE
  5
14F5D
  8
DIM
 10
345.1778700111704
 20
514.56388659514357
 30
0.0
 11
373.193205167141
 21
514.56388659514357
 31
0.0
  0
LINE
  5
14F5E
  8
CENTER
  6
CENTER
 10
346.693205167141
 20
549.06388659514369
 30
0.0
 11
366.693205167141
 21
549.06388659514369
 31
0.0
  0
POLYLINE
  5
14F5F
  8
0
 66
     1
 10
0.0
 20
0.0
 30
0.0
  0
VERTEX
  5
15034
  8
0
 10
364.193205167141
 20
533.2638865951435
 30
0.0
  0
VERTEX
  5
15035
  8
0
 10
364.193205167141
 20
551.16719523979816
 30
0.0
  0
SEQEND
  5
15036
  8
0
  0
ARC
  5
14F60
  8
0
 10
328.193205167141
 20
520.56388659514369
 30
0.0
 40
47.25
 50
40.367593544191841
 51
49.632406455818568
  0
CIRCLE
  5
14F61
  8
0
 10
356.693205167141
 20
549.06388659514369
 30
0.0
 40
4.5
  0
ARC
  5
14F62
  8
0
 10
341.193205167141
 20
520.56388659514369
 30
0.0
 40
6.0
 50
270.0
 51
90.0
  0
ARC
  5
14F63
  8
0
 10
328.193205167141
 20
520.56388659514369
 30
0.0
 40
14.0
 50
334.6230664748573
 51
25.376933525142672
  0
ARC
  5
14F64
  8
0
 10
328.193205167141
 20
520.56388659514369
 30
0.0
 40
13.0
 50
332.5135737496077
 51
27.486426250392221
  0
LINE
  5
14F65
  8
CENTER
  6
CENTER
 10
356.693205167141
 20
559.06388659514357
 30
0.0
 11
356.693205167141
 21
539.06388659514357
 31
0.0
  0
SOLID
  5
14F66
  8
DIM
 10
372.71414970024119
 20
523.60946333614345
 30
0.0
 11
371.67226063404132
 21
523.60946333614345
 31
0.0
 12
372.193205167141
 22
526.56388659514357
 32
0.0
 13
372.193205167141
 23
526.56388659514357
 33
0.0
  0
SOLID
  5
14F67
  8
DIM
 10
372.71414970024119
 20
517.51830985414347
 30
0.0
 11
371.67226063404132
 21
517.51830985414347
 31
0.0
 12
372.193205167141
 22
514.56388659514357
 32
0.0
 13
372.193205167141
 23
514.56388659514357
 33
0.0
  0
TEXT
  5
14F68
  8
DIM
 10
371.193205167141
 20
517.61060970813469
 30
0.0
 40
3.0
  1
12
 50
90.0
  7
ROMANS
  0
LINE
  5
14F69
  8
DIM
 10
372.193205167141
 20
514.56388659514357
 30
0.0
 11
372.193205167141
 21
526.56388659514346
 31
0.0
  0
SOLID
  5
14F6A
  8
DIM
 10
434.71414970024119
 20
422.51058055860102
 30
0.0
 11
433.67226063404132
 21
422.51058055860102
 31
0.0
 12
434.19320516714112
 22
425.46500381760092
 32
0.0
 13
434.19320516714112
 23
425.46500381760092
 33
0.0
  0
LINE
  5
14F6B
  8
DIM
 10
419.193205167141
 20
425.46500381760092
 30
0.0
 11
443.14168721317208
 21
425.46500381760092
 31
0.0
  0
SOLID
  5
14F6C
  8
DIM
 10
434.71414970024119
 20
397.11058055860121
 30
0.0
 11
433.67226063404132
 21
397.11058055860121
 31
0.0
 12
434.19320516714112
 22
400.06500381760111
 32
0.0
 13
434.19320516714112
 23
400.06500381760111
 33
0.0
  0
SOLID
  5
14F6D
  8
DIM
 10
434.71414970024119
 20
403.019427076601
 30
0.0
 11
433.67226063404132
 21
403.019427076601
 31
0.0
 12
434.19320516714112
 22
400.06500381760111
 32
0.0
 13
434.19320516714112
 23
400.06500381760111
 33
0.0
  0
LINE
  5
14F6E
  8
DIM
 10
419.193205167141
 20
400.06500381760111
 30
0.0
 11
435.193205167141
 21
400.06500381760111
 31
0.0
  0
LINE
  5
14F6F
  8
0
 10
418.193205167141
 20
425.46500381760092
 30
0.0
 11
418.193205167141
 21
400.06500381760111
 31
0.0
  0
SOLID
  5
14F70
  8
DIM
 10
415.23878190814139
 20
433.98594835070111
 30
0.0
 11
415.23878190814139
 21
432.94405928450101
 31
0.0
 12
418.193205167141
 22
433.46500381760092
 32
0.0
 13
418.193205167141
 23
433.46500381760092
 33
0.0
  0
LINE
  5
14F71
  8
DIM
 10
418.193205167141
 20
427.3537633802261
 30
0.0
 11
418.193205167141
 21
434.46500381760092
 31
0.0
  0
TEXT
  5
14F72
  8
DIM
 10
433.1932051671414
 20
408.18911444970189
 30
0.0
 40
3.0
  1
25.4
 50
90.0
  7
ROMANS
  0
SOLID
  5
14F73
  8
DIM
 10
426.71414970024119
 20
409.81058055860058
 30
0.0
 11
425.67226063404132
 21
409.81058055860058
 31
0.0
 12
426.193205167141
 22
412.7650038176007
 32
0.0
 13
426.193205167141
 23
412.7650038176007
 33
0.0
  0
SOLID
  5
14F74
  8
DIM
 10
426.71414970024119
 20
397.11058055860121
 30
0.0
 11
425.67226063404132
 21
397.11058055860121
 31
0.0
 12
426.193205167141
 22
400.06500381760111
 32
0.0
 13
426.193205167141
 23
400.06500381760111
 33
0.0
  0
SOLID
  5
14F75
  8
DIM
 10
426.71414970024119
 20
403.019427076601
 30
0.0
 11
425.67226063404132
 21
403.019427076601
 31
0.0
 12
426.193205167141
 22
400.06500381760111
 32
0.0
 13
426.193205167141
 23
400.06500381760111
 33
0.0
  0
TEXT
  5
14F76
  8
DIM
 10
425.193205167141
 20
401.22727345883271
 30
0.0
 40
3.0
  1
12.7
 50
90.0
  7
ROMANS
  0
SOLID
  5
14F77
  8
DIM
 10
442.71414970024119
 20
422.51058055860261
 30
0.0
 11
441.67226063404132
 21
422.51058055860261
 31
0.0
 12
442.19320516714151
 22
425.46500381760251
 32
0.0
 13
442.19320516714151
 23
425.46500381760251
 33
0.0
  0
LINE
  5
14F78
  8
0
 10
536.86059129645434
 20
400.06500381760111
 30
0.0
 11
536.86059129645434
 21
399.7650038176011
 31
0.0
  0
LINE
  5
14F79
  8
0
 10
529.86059129645446
 20
399.7650038176011
 30
0.0
 11
528.86059129645434
 21
397.7650038176011
 31
0.0
  0
LINE
  5
14F7A
  8
0
 10
530.16059129645407
 20
400.06500381760111
 30
0.0
 11
530.16059129645407
 21
425.4650038176012
 31
0.0
  0
LINE
  5
14F7B
  8
0
 10
418.193205167141
 20
533.2638865951435
 30
0.0
 11
418.193205167141
 21
507.86388659514358
 31
0.0
  0
SOLID
  5
14F7C
  8
DIM
 10
428.26218145306427
 20
530.30946333614349
 30
0.0
 11
427.2202923868644
 21
530.30946333614349
 31
0.0
 12
427.74123691996419
 22
533.2638865951435
 32
0.0
 13
427.74123691996419
 23
533.2638865951435
 33
0.0
  0
LINE
  5
14F7D
  8
DIM
 10
419.47847146905133
 20
533.2638865951435
 30
0.0
 11
428.74123691996419
 21
533.2638865951435
 31
0.0
  0
SOLID
  5
14F7E
  8
DIM
 10
428.26218145306427
 20
510.81830985414371
 30
0.0
 11
427.2202923868644
 21
510.81830985414371
 31
0.0
 12
427.74123691996419
 22
507.86388659514358
 32
0.0
 13
427.74123691996419
 23
507.86388659514358
 33
0.0
  0
LINE
  5
14F7F
  8
DIM
 10
419.47847146905133
 20
507.86388659514358
 30
0.0
 11
428.74123691996419
 21
507.86388659514358
 31
0.0
  0
TEXT
  5
14F80
  8
DIM
 10
426.74123691996408
 20
515.81604172062839
 30
0.0
 40
3.0
  1
25.4
 50
90.0
  7
ROMANS
  0
LINE
  5
14F81
  8
DIM
 10
427.74123691996419
 20
507.86388659514358
 30
0.0
 11
427.74123691996419
 21
533.2638865951435
 31
0.0
  0
LINE
  5
14F82
  8
0
 10
556.86059129645434
 20
397.7650038176011
 30
0.0
 11
556.86059129645434
 21
366.06500381760083
 31
0.0
  0
LINE
  5
14F83
  8
CENTER
  6
CENTER
 10
542.860591296454
 20
263.03660750356619
 30
0.0
 11
542.86059129645434
 21
430.12428508305209
 31
0.0
  0
LINE
  5
14F84
  8
0
 10
578.86059129645434
 20
267.06500381760083
 30
0.0
 11
578.86059129645389
 21
299.06500381760083
 31
0.0
  0
LINE
  5
14F85
  8
0
  6
CONTINUOUS
 10
573.46389994110905
 20
299.06500381760111
 30
0.0
 11
573.46389994110905
 21
267.065003817601
 31
0.0
  0
LINE
  5
14F86
  8
CENTER
  6
CENTER
 10
571.36059129645446
 20
302.3467903662708
 30
0.0
 11
571.36059129645446
 21
262.76346944660531
 31
0.0
  0
LINE
  5
14F87
  8
HIDDEN
  6
HIDDEN
 10
566.86059129645389
 20
266.06500381760083
 30
0.0
 11
566.86059129645389
 21
300.06500381760111
 31
0.0
  0
LINE
  5
14F88
  8
HIDDEN
  6
HIDDEN
 10
575.86059129645389
 20
266.06500381760083
 30
0.0
 11
575.86059129645389
 21
300.06500381760111
 31
0.0
  0
LINE
  5
14F89
  8
0
 10
573.46389994110905
 20
267.065003817601
 30
0.0
 11
572.46389994110905
 21
266.06500381760111
 31
0.0
  0
LINE
  5
14F8A
  8
0
 10
577.86059129645434
 20
266.06500381760083
 30
0.0
 11
578.86059129645434
 21
267.06500381760083
 31
0.0
  0
LINE
  5
14F8B
  8
0
 10
575.86059129645389
 20
361.06500381760083
 30
0.0
 11
575.86059129645389
 21
300.06500381760083
 31
0.0
  0
LINE
  5
14F8C
  8
0
 10
572.46389994110905
 20
300.06500381760111
 30
0.0
 11
573.46389994110905
 21
299.06500381760111
 31
0.0
  0
LINE
  5
14F8D
  8
0
 10
578.86059129645389
 20
299.06500381760083
 30
0.0
 11
577.860591296454
 21
300.06500381760083
 31
0.0
  0
ARC
  5
14F8E
  8
0
 10
570.86059129645389
 20
361.06500381760083
 30
0.0
 40
5.0
 50
0.0
 51
90.0
  0
LINE
  5
14F8F
  8
0
 10
555.86059129645434
 20
399.7650038176011
 30
0.0
 11
556.86059129645434
 21
397.7650038176011
 31
0.0
  0
LINE
  5
14F90
  8
0
 10
548.86059129645434
 20
400.06500381760111
 30
0.0
 11
548.86059129645434
 21
399.7650038176011
 31
0.0
  0
LINE
  5
14F91
  8
0
 10
555.56059129645416
 20
400.06500381760111
 30
0.0
 11
555.56059129645416
 21
425.4650038176012
 31
0.0
  0
ENDSEC
  0
EOF
