  0
SECTION
  2
HEADER
  9
$ACADVER
  1
AC1009
  9
$INSBASE
 10
0.0
 20
0.0
 30
0.0
  9
$EXTMIN
 10
185.86065972067939
 20
176.27746798130389
 30
-0.000000000000013
  9
$EXTMAX
 10
635.96502897884329
 20
587.01049970813392
 30
0.0000000000000023
  9
$LIMMIN
 10
0.0
 20
0.0
  9
$LIMMAX
 10
1188.0
 20
840.0
  9
$ORTHOMODE
 70
     1
  9
$REGENMODE
 70
     1
  9
$FILLMODE
 70
     1
  9
$QTEXTMODE
 70
     0
  9
$MIRRTEXT
 70
     1
  9
$DRAGMODE
 70
     2
  9
$LTSCALE
 40
1.0
  9
$OSMODE
 70
    39
  9
$ATTMODE
 70
     1
  9
$TEXTSIZE
 40
3.0
  9
$TRACEWID
 40
0.05
  9
$TEXTSTYLE
  7
ITALICT
  9
$CLAYER
  8
0
  9
$CELTYPE
  6
CONTINUOUS
  9
$CECOLOR
 62
   256
  9
$DIMSCALE
 40
1.0
  9
$DIMASZ
 40
3.0
  9
$DIMEXO
 40
1.0
  9
$DIMDLI
 40
1.4824161510814720E+016
  9
$DIMRND
 40
0.0
  9
$DIMDLE
 40
0.0
  9
$DIMEXE
 40
1.0
  9
$DIMTP
 40
0.15
  9
$DIMTM
 40
-0.1
  9
$DIMTXT
 40
3.0
  9
$DIMCEN
 40
2.0
  9
$DIMTSZ
 40
0.0
  9
$DIMTOL
 70
     0
  9
$DIMLIM
 70
     0
  9
$DIMTIH
 70
     0
  9
$DIMTOH
 70
     0
  9
$DIMSE1
 70
     0
  9
$DIMSE2
 70
     0
  9
$DIMTAD
 70
     1
  9
$DIMZIN
 70
     0
  9
$DIMBLK
  1

  9
$DIMASO
 70
     0
  9
$DIMSHO
 70
     0
  9
$DIMPOST
  1

  9
$DIMAPOST
  1

  9
$DIMALT
 70
     0
  9
$DIMALTD
 70
     2
  9
$DIMALTF
 40
25.399999999999999
  9
$DIMLFAC
 40
1.0
  9
$DIMTOFL
 70
     1
  9
$DIMTVP
 40
1.0
  9
$DIMTIX
 70
     0
  9
$DIMSOXD
 70
     0
  9
$DIMSAH
 70
     0
  9
$DIMBLK1
  1

  9
$DIMBLK2
  1

  9
$DIMSTYLE
  2
STANDARD
  9
$DIMCLRD
 70
     0
  9
$DIMCLRE
 70
     0
  9
$DIMCLRT
 70
     0
  9
$DIMTFAC
 40
1.0
  9
$DIMGAP
 40
1.0
  9
$LUNITS
 70
     2
  9
$LUPREC
 70
     2
  9
$SKETCHINC
 40
0.1
  9
$FILLETRAD
 40
0.0
  9
$AUNITS
 70
     0
  9
$AUPREC
 70
     2
  9
$MENU
  1
ACAD
  9
$ELEVATION
 40
0.0
  9
$PELEVATION
 40
0.0
  9
$THICKNESS
 40
0.0
  9
$LIMCHECK
 70
     0
  9
$BLIPMODE
 70
     0
  9
$CHAMFERA
 40
0.0
  9
$CHAMFERB
 40
0.0
  9
$SKPOLY
 70
     1
  9
$TDCREATE
 40
2450580.7034460641
  9
$TDUPDATE
 40
2452055.6416913769
  9
$TDINDWG
 40
0.5776012963
  9
$TDUSRTIMER
 40
0.5776012963
  9
$USRTIMER
 70
     1
  9
$ANGBASE
 50
0.0
  9
$ANGDIR
 70
     0
  9
$PDMODE
 70
     0
  9
$PDSIZE
 40
0.0
  9
$PLINEWID
 40
0.0
  9
$COORDS
 70
     2
  9
$SPLFRAME
 70
     0
  9
$SPLINETYPE
 70
     6
  9
$SPLINESEGS
 70
     8
  9
$ATTDIA
 70
     0
  9
$ATTREQ
 70
     1
  9
$HANDLING
 70
 12289
  9
$HANDSEED
  5
15AC5
  9
$SURFTAB1
 70
     6
  9
$SURFTAB2
 70
     6
  9
$SURFTYPE
 70
     6
  9
$SURFU
 70
     6
  9
$SURFV
 70
     6
  9
$UCSNAME
  2

  9
$UCSORG
 10
0.0
 20
0.0
 30
0.0
  9
$UCSXDIR
 10
1.0
 20
0.0
 30
0.0
  9
$UCSYDIR
 10
0.0
 20
1.0
 30
0.0
  9
$PUCSNAME
  2

  9
$PUCSORG
 10
0.0
 20
0.0
 30
0.0
  9
$PUCSXDIR
 10
1.0
 20
0.0
 30
0.0
  9
$PUCSYDIR
 10
0.0
 20
1.0
 30
0.0
  9
$USERI1
 70
     0
  9
$USERI2
 70
-31485
  9
$USERI3
 70
     0
  9
$USERI4
 70
     0
  9
$USERI5
 70
     0
  9
$USERR1
 40
0.0
  9
$USERR2
 40
0.0
  9
$USERR3
 40
0.0
  9
$USERR4
 40
0.0
  9
$USERR5
 40
0.0
  9
$WORLDVIEW
 70
     1
  9
$SHADEDGE
 70
     3
  9
$SHADEDIF
 70
    70
  9
$TILEMODE
 70
     1
  9
$MAXACTVP
 70
    16
  9
$PLIMCHECK
 70
     0
  9
$PEXTMIN
 10
1.0000000000000000E+020
 20
1.0000000000000000E+020
 30
1.0000000000000000E+020
  9
$PEXTMAX
 10
-1.0000000000000000E+020
 20
-1.0000000000000000E+020
 30
-1.0000000000000000E+020
  9
$PLIMMIN
 10
0.0
 20
0.0
  9
$PLIMMAX
 10
12.0
 20
9.0
  9
$UNITMODE
 70
     0
  9
$VISRETAIN
 70
     0
  9
$PLINEGEN
 70
     0
  9
$PSLTSCALE
 70
     0
  0
ENDSEC
  0
SECTION
  2
TABLES
  0
TABLE
  2
VPORT
 70
     4
  0
VPORT
  2
*ACTIVE
 70
     0
 10
0.0
 20
0.0
 11
1.0
 21
1.0
 12
410.86798247620749
 22
381.57249006886008
 13
0.0
 23
0.0
 14
1.0
 24
1.0
 15
0.0
 25
0.0
 16
0.0
 26
0.0
 36
1.0
 17
0.0
 27
0.0
 37
0.0
 40
415.85544113483871
 41
1.7274401473296499
 42
1.0
 43
0.0
 44
0.0
 50
0.0
 51
0.0
 71
     0
 72
   100
 73
     1
 74
     1
 75
     0
 76
     0
 77
     0
 78
     0
  0
ENDTAB
  0
TABLE
  2
LTYPE
 70
     4
  0
LTYPE
  2
CONTINUOUS
 70
     0
  3
Solid line
 72
    65
 73
     0
 40
0.0
  0
LTYPE
  2
CENTER
 70
     0
  3
____________________ _ ____________________ _ 
 72
    65
 73
     4
 40
34.5
 49
30.0
 49
-1.5
 49
1.5
 49
-1.5
  0
LTYPE
  2
HIDDEN
 70
     0
  3
___ ___ ___ ___ ___ ___ ___ ___ ___ ___ 
 72
    65
 73
     2
 40
6.0
 49
4.5
 49
-1.5
  0
LTYPE
  2
PHANTOM
 70
     0
  3
__________ _ _ __________ _ _ __________ _ _ 
 72
    65
 73
     6
 40
15.0
 49
10.0
 49
-1.0
 49
1.0
 49
-1.0
 49
1.0
 49
-1.0
  0
ENDTAB
  0
TABLE
  2
LAYER
 70
     6
  0
LAYER
  2
0
 70
     0
 62
     7
  6
CONTINUOUS
  0
LAYER
  2
LOGO
 70
     0
 62
     7
  6
CONTINUOUS
  0
LAYER
  2
DIM
 70
     0
 62
     5
  6
CONTINUOUS
  0
LAYER
  2
CENTER
 70
     0
 62
     1
  6
CONTINUOUS
  0
LAYER
  2
HIDDEN
 70
     0
 62
     3
  6
CONTINUOUS
  0
LAYER
  2
UMCL3
 70
     0
 62
     1
  6
CONTINUOUS
  0
ENDTAB
  0
TABLE
  2
STYLE
 70
     7
  0
STYLE
  2
STANDARD
 70
     0
 40
0.0
 41
1.0
 50
0.0
 71
     0
 42
3.0
  3
txt
  4

  0
STYLE
  2
ITALICT
 70
     0
 40
0.0
 41
1.0
 50
0.0
 71
     0
 42
3.0
  3
ITALICT.SHX
  4

  0
STYLE
  2
ROMANSS
 70
     0
 40
0.0
 41
1.0
 50
0.0
 71
     0
 42
3.0
  3
ROMANSS.SHX
  4
LMP
  0
STYLE
  2
CHINESET
 70
     0
 40
0.0
 41
1.0
 50
0.0
 71
     0
 42
5.0
  3
simplex.shx
  4
chineset.shx
  0
STYLE
  2
LOGO
 70
     0
 40
0.0
 41
1.0
 50
0.0
 71
     0
 42
5.0
  3
txt
  4

  0
STYLE
  2
ROMANS
 70
     0
 40
0.0
 41
1.0
 50
0.0
 71
     0
 42
3.0
  3
ROMANS.SHX
  4
LMP
  0
STYLE
  2
ROMANS1
 70
     0
 40
0.0
 41
1.0
 50
0.0
 71
     0
 42
3.0
  3
ROMANS.SHX
  4

  0
ENDTAB
  0
TABLE
  2
VIEW
 70
     0
  0
ENDTAB
  0
TABLE
  2
UCS
 70
     0
  0
ENDTAB
  0
TABLE
  2
APPID
 70
     1
  0
APPID
  2
ACAD
 70
     0
  0
ENDTAB
  0
TABLE
  2
DIMSTYLE
 70
     1
  0
DIMSTYLE
  2
STANDARD
 70
     0
  3

  4

  5

  6

  7

 40
1.0
 41
0.18
 42
0.0625
 43
0.38
 44
0.18
 45
0.0
 46
0.0
 47
0.0
 48
0.0
140
0.18
141
0.09
142
0.0
143
25.399999999999999
144
1.0
145
0.0
146
1.0
147
0.09
 71
     0
 72
     0
 73
     1
 74
     1
 75
     0
 76
     0
 77
     0
 78
     0
170
     0
171
     2
172
     0
173
     0
174
     0
175
     0
176
     0
177
     0
178
     0
  0
ENDTAB
  0
ENDSEC
  0
SECTION
  2
BLOCKS
  0
BLOCK
  8
0
  2
$MODEL_SPACE
 70
     0
 10
0.0
 20
0.0
 30
0.0
  3
$MODEL_SPACE
  1

  0
ENDBLK
  5
3E
  8
0
  0
BLOCK
 67
     1
  8
0
  2
$PAPER_SPACE
 70
     0
 10
0.0
 20
0.0
 30
0.0
  3
$PAPER_SPACE
  1

  0
ENDBLK
  5
3C
 67
     1
  8
0
  0
ENDSEC
  0
SECTION
  2
ENTITIES
  0
LINE
  5
B2B
  8
0
 62
     4
 10
185.86272374947831
 20
232.92671314659441
 30
0.0
 11
185.86272374947831
 21
586.95774538779415
 31
0.0
  0
LINE
  5
B2D
  8
0
 62
     4
 10
635.92834892189944
 20
232.92671314659441
 30
0.0
 11
185.86272374947831
 21
232.92671314659441
 31
0.0
  0
LINE
  5
B2E
  8
0
 62
     4
 10
185.86272374947831
 20
586.95774538779415
 30
0.0
 11
635.92834892189956
 21
586.95774538779358
 31
0.0
  0
LINE
  5
B2F
  8
0
 62
     4
 10
635.92834892189956
 20
586.95774538779381
 30
0.0
 11
635.92834892189944
 21
232.92671314659441
 31
0.0
  0
LINE
  5
D2E
  8
LOGO
 62
     1
 10
635.92834892189944
 20
176.3249335016769
 30
0.0
 11
185.86272374947831
 21
176.3249335016769
 31
0.0
  0
LINE
  5
D2F
  8
LOGO
 62
     1
 10
635.92834892189944
 20
232.92671314659441
 30
0.0
 11
185.86272374947831
 21
232.92671314659441
 31
0.0
  0
TEXT
  5
D35
  8
LOGO
 62
     7
 10
315.01977131281541
 20
218.75491480467591
 30
0.0
 40
11.320355928983499
  1
訂購代號:
  7
CHINESET
  0
TEXT
  5
D36
  8
LOGO
 62
     7
 10
313.66579433335261
 20
208.130436645739
 30
0.0
 40
7.546903952655672
  1
Order example:
 41
0.8
  7
CHINESET
  0
TEXT
  5
D37
  8
LOGO
  6
CONTINUOUS
 62
     5
 10
190.14649593377129
 20
178.95233731999099
 30
0.0
 40
5.660177964491754
  1
MINDMAN INDUSTRIAL CO.,LTD
 41
0.85
  7
CHINESET
  0
TEXT
  5
D38
  8
LOGO
  6
CONTINUOUS
 62
     5
 10
187.7153955643023
 20
187.44426769338759
 30
0.0
 40
8.4902669467376342
  1
金器工業股份有限公司
 41
0.8
  7
LOGO
  0
SOLID
  5
D39
  8
LOGO
 62
     2
 10
206.8410742179997
 20
208.37488556272061
 30
0.0
 11
207.85375522301149
 21
208.37488556272061
 31
0.0
 12
219.49958678063609
 22
231.5821585942218
 32
0.0
 13
220.51226778564791
 23
231.5821585942202
 33
0.0
  0
SOLID
  5
D3A
  8
LOGO
 62
     5
 10
207.85375522301149
 20
208.37488556272061
 30
0.0
 11
210.30106765178729
 21
208.37488556272061
 31
0.0
 12
219.49958678063609
 22
229.72557675170091
 32
0.0
 13
217.05227435185981
 23
220.75209784618681
 33
0.0
  0
SOLID
  5
D3B
  8
LOGO
 62
     5
 10
207.85375522301149
 20
210.2314674052399
 30
0.0
 11
210.30106765178729
 21
219.204946310754
 31
0.0
 12
219.49958678063609
 22
231.5821585942218
 32
0.0
 13
217.05227435185981
 23
231.5821585942218
 33
0.0
  0
LINE
  5
D3C
  8
LOGO
 62
     1
 10
310.38663896829701
 20
198.9656453596439
 30
0.0
 11
185.86272374947819
 21
198.9656453596439
 31
0.0
  0
SOLID
  5
D3D
  8
LOGO
 62
     2
 10
206.8410742179997
 20
231.5821585942202
 30
0.0
 11
207.85375522301149
 21
231.5821585942202
 31
0.0
 12
206.8410742179997
 22
208.37488556272061
 32
0.0
 13
207.85375522301149
 23
208.37488556272061
 33
0.0
  0
SOLID
  5
D3E
  8
LOGO
 62
     2
 10
194.18256165536249
 20
208.37488556271981
 30
0.0
 11
195.1952426603749
 21
208.37488556272061
 31
0.0
 12
206.8410742179997
 22
231.5821585942202
 32
0.0
 13
207.85375522301149
 23
231.5821585942202
 33
0.0
  0
SOLID
  5
D3F
  8
LOGO
 62
     5
 10
207.85375522301149
 20
231.5821585942202
 30
0.0
 11
210.30106765178729
 21
231.5821585942218
 31
0.0
 12
207.85375522301149
 22
210.2314674052399
 32
0.0
 13
210.30106765178729
 23
219.204946310754
 33
0.0
  0
SOLID
  5
D40
  8
LOGO
 62
     5
 10
204.39376178922359
 20
208.37488556272061
 30
0.0
 11
206.8410742179997
 21
208.37488556272061
 31
0.0
 12
204.39376178922359
 22
220.75209784618681
 32
0.0
 13
206.8410742179997
 23
229.72557675170091
 33
0.0
  0
SOLID
  5
D41
  8
LOGO
 62
     5
 10
195.1952426603749
 20
208.37488556272061
 30
0.0
 11
197.64255508915099
 21
208.37488556272061
 31
0.0
 12
206.8410742179997
 22
229.72557675170091
 32
0.0
 13
204.39376178922359
 23
220.75209784618681
 33
0.0
  0
SOLID
  5
D42
  8
LOGO
 62
     5
 10
191.73524922658609
 20
208.37488556272061
 30
0.0
 11
194.18256165536249
 21
208.37488556271981
 31
0.0
 12
204.39376178922359
 22
231.5821585942218
 32
0.0
 13
206.8410742179997
 23
231.5821585942202
 33
0.0
  0
LINE
  5
D43
  8
LOGO
 62
     1
 10
185.86272374947831
 20
176.3249335016769
 30
0.0
 11
185.86272374947831
 21
232.92671314659441
 31
0.0
  0
SOLID
  5
D44
  8
LOGO
 62
     5
 10
196.09526290357729
 20
204.1553813751749
 30
0.0
 11
196.93916374108801
 21
204.1553813751749
 31
0.0
 12
196.09526290357729
 22
199.93587718762831
 32
0.0
 13
196.93916374108801
 23
199.93587718762981
 33
0.0
  0
SOLID
  5
D45
  8
LOGO
 62
     5
 10
196.09526290357729
 20
204.74611196143081
 30
0.0
 11
196.93916374108801
 21
204.74611196143081
 31
0.0
 12
196.09526290357729
 22
205.42123263143901
 32
0.0
 13
196.93916374108801
 23
205.42123263143901
 33
0.0
  0
SOLID
  5
D46
  8
LOGO
 62
     5
 10
194.25238980859049
 20
204.1553813751749
 30
0.0
 11
195.09629064609871
 21
204.1553813751749
 31
0.0
 12
194.25238980859049
 22
199.93587718762981
 32
0.0
 13
195.09629064609871
 23
199.93587718762981
 33
0.0
  0
SOLID
  5
D47
  8
LOGO
 62
     5
 10
191.0319985286624
 20
199.93587718762981
 30
0.0
 11
191.8758993661709
 21
199.93587718762981
 31
0.0
 12
194.25238980859049
 22
204.1553813751749
 32
0.0
 13
195.09629064609871
 23
204.1553813751749
 33
0.0
  0
SOLID
  5
D48
  8
LOGO
 62
     5
 10
191.0319985286624
 20
204.1553813751749
 30
0.0
 11
191.8758993661709
 21
204.1553813751749
 31
0.0
 12
191.0319985286624
 22
199.93587718762981
 32
0.0
 13
191.8758993661709
 23
199.93587718762981
 33
0.0
  0
SOLID
  5
D49
  8
LOGO
 62
     5
 10
187.8116072487355
 20
199.93587718762981
 30
0.0
 11
188.65550808624531
 21
199.93587718762981
 31
0.0
 12
191.0319985286624
 22
204.1553813751749
 32
0.0
 13
191.8758993661709
 23
204.1553813751749
 33
0.0
  0
SOLID
  5
D4A
  8
LOGO
 62
     5
 10
212.5514136250892
 20
202.46757970015651
 30
0.0
 11
213.39531446259741
 21
202.46757970015651
 31
0.0
 12
212.5514136250892
 22
199.93587718762831
 32
0.0
 13
213.39531446259741
 23
199.93587718762831
 33
0.0
  0
SOLID
  5
D4B
  8
LOGO
 62
     5
 10
210.01971111256231
 20
202.46757970015651
 30
0.0
 11
210.8636119500708
 21
202.46757970015651
 31
0.0
 12
210.01971111256231
 22
199.93587718762981
 32
0.0
 13
210.8636119500708
 23
199.93587718762981
 33
0.0
  0
SOLID
  5
D4C
  8
LOGO
 62
     5
 10
207.4880086000357
 20
204.1553813751749
 30
0.0
 11
208.33190943754411
 21
204.1553813751749
 31
0.0
 12
207.4880086000357
 22
199.93587718762981
 32
0.0
 13
208.33190943754411
 23
199.93587718762981
 33
0.0
  0
SOLID
  5
D4D
  8
LOGO
 62
     5
 10
205.65952865540399
 20
205.42123263143901
 30
0.0
 11
206.50342949291229
 21
205.42123263143901
 31
0.0
 12
205.65952865540399
 22
199.93587718762981
 32
0.0
 13
206.50342949291229
 23
199.93587718762981
 33
0.0
  0
POLYLINE
  5
D4E
  8
LOGO
 62
     5
 66
     1
 10
0.0
 20
0.0
 30
0.0
 70
     1
 40
0.8452532426974354
 41
0.8452532426974354
  0
VERTEX
  5
15A90
  8
LOGO
 62
     5
 10
202.70325530382809
 20
202.045629281402
 30
0.0
 42
1.0
  0
VERTEX
  5
15A91
  8
LOGO
 62
     5
 10
206.0842682746179
 20
202.045629281402
 30
0.0
 42
1.0
  0
SEQEND
  5
15A92
  8
LOGO
 62
     5
  0
SOLID
  5
D4F
  8
LOGO
 62
     5
 10
200.45544536073569
 20
202.46757970015651
 30
0.0
 11
201.2993461982457
 21
202.46757970015651
 31
0.0
 12
200.45544536073569
 22
199.93587718762981
 32
0.0
 13
201.2993461982457
 23
199.93587718762981
 33
0.0
  0
SOLID
  5
D50
  8
LOGO
 62
     5
 10
197.923742848209
 20
204.1553813751749
 30
0.0
 11
198.7676436857175
 21
204.1553813751749
 31
0.0
 12
197.923742848209
 22
199.93587718762981
 32
0.0
 13
198.7676436857175
 23
199.93587718762981
 33
0.0
  0
POLYLINE
  5
D51
  8
LOGO
 62
     5
 66
     1
 10
0.0
 20
0.0
 30
0.0
 40
0.8452532426974354
 41
0.8452532426974354
  0
VERTEX
  5
15A93
  8
LOGO
 62
     5
 10
200.87942438727299
 20
202.46757970015639
 30
0.0
 42
1.0
  0
VERTEX
  5
15A94
  8
LOGO
 62
     5
 10
198.3436646591806
 20
202.46757970015639
 30
0.0
 42
1.0
  0
SEQEND
  5
15A95
  8
LOGO
 62
     5
  0
POLYLINE
  5
D52
  8
LOGO
 62
     5
 66
     1
 10
0.0
 20
0.0
 30
0.0
 40
0.8452532426974354
 41
0.8452532426974354
  0
VERTEX
  5
15A96
  8
LOGO
 62
     5
 10
212.97539265162609
 20
202.46757970015639
 30
0.0
 42
1.0
  0
VERTEX
  5
15A97
  8
LOGO
 62
     5
 10
210.43963292353371
 20
202.46757970015639
 30
0.0
 42
1.0
  0
SEQEND
  5
15A98
  8
LOGO
 62
     5
  0
POLYLINE
  5
D53
  8
LOGO
 62
     5
 66
     1
 10
0.0
 20
0.0
 30
0.0
 40
0.8452532426974354
 41
0.8452532426974354
  0
VERTEX
  5
15A99
  8
LOGO
 62
     5
 10
210.44369013909929
 20
202.46757970015639
 30
0.0
 42
1.0
  0
VERTEX
  5
15A9A
  8
LOGO
 62
     5
 10
207.9079304110069
 20
202.46757970015639
 30
0.0
 42
1.0
  0
SEQEND
  5
15A9B
  8
LOGO
 62
     5
  0
CIRCLE
  5
D54
  8
LOGO
  6
CONTINUOUS
 62
     6
 10
283.13264667014357
 20
215.95828641520529
 30
0.0
 40
1.9255585439152201
  0
CIRCLE
  5
D55
  8
LOGO
  6
CONTINUOUS
 62
     6
 10
283.13264667014357
 20
215.95828641520529
 30
0.0
 40
3.2864325517551518
  0
LINE
  5
D56
  8
LOGO
 62
     1
 10
310.38663896829701
 20
210.2860012886274
 30
0.0
 11
227.37069548908451
 21
210.2860012886274
 31
0.0
  0
LINE
  5
D57
  8
LOGO
 62
     1
 10
310.38663896829701
 20
221.60635721761091
 30
0.0
 11
227.37069548908451
 21
221.60635721761091
 31
0.0
  0
TEXT
  5
D58
  8
LOGO
 62
     6
 10
281.14331944002163
 20
224.4364461998567
 30
0.0
 40
5.660177964491754
  1
1 : 1
  7
CHINESET
 72
     1
 11
291.116013948888
 21
227.26653518210259
 31
0.0
 73
     2
  0
TEXT
  5
D59
  8
LOGO
 62
     6
 10
281.14331944002163
 20
201.7957343418897
 30
0.0
 40
5.660177964491754
  1
m/m
  7
CHINESET
 72
     1
 11
291.116013948888
 21
204.62582332413561
 31
0.0
 73
     2
  0
SOLID
  5
D5A
  8
LOGO
 62
     2
 10
219.49958678063609
 20
231.5821585942218
 30
0.0
 11
220.51226778564791
 21
231.5821585942202
 31
0.0
 12
219.49958678063609
 22
208.37488556271981
 32
0.0
 13
220.51226778564791
 23
208.37488556271981
 33
0.0
  0
SOLID
  5
D5B
  8
LOGO
 62
     5
 10
220.51226778564791
 20
208.37488556271981
 30
0.0
 11
222.95958021442411
 21
208.37488556271981
 31
0.0
 12
220.51226778564791
 22
231.5821585942202
 32
0.0
 13
222.95958021442411
 23
231.5821585942218
 33
0.0
  0
SOLID
  5
D5C
  8
LOGO
 62
     5
 10
219.49958678063609
 20
229.72557675170091
 30
0.0
 11
217.05227435185981
 21
220.75209784618681
 31
0.0
 12
219.49958678063609
 22
208.37488556271981
 32
0.0
 13
217.05227435185981
 23
208.37488556271981
 33
0.0
  0
LINE
  5
D5D
  8
LOGO
 62
     1
 10
227.37069548908451
 20
198.96564535964379
 30
0.0
 11
227.37069548908451
 21
232.92671314659441
 31
0.0
  0
LINE
  5
D5E
  8
LOGO
 62
     1
 10
272.65211920501838
 20
198.96564535964379
 30
0.0
 11
272.65211920501838
 21
232.92671314659441
 31
0.0
  0
TEXT
  5
D5F
  8
LOGO
 62
     6
 10
234.5697343376726
 20
201.7957343418897
 30
0.0
 40
5.660177964491754
  1
單位 Unit:
 41
0.9
  7
CHINESET
 72
     4
 11
250.01140734705169
 21
204.62582332413561
 31
0.0
  0
SOLID
  5
D60
  8
LOGO
 62
     5
 10
222.11567937691569
 20
202.46757970015651
 30
0.0
 11
222.95958021442411
 21
202.46757970015639
 31
0.0
 12
222.11567937691569
 22
199.93587718762981
 32
0.0
 13
222.95958021442411
 23
199.93587718762981
 33
0.0
  0
SOLID
  5
D61
  8
LOGO
 62
     5
 10
219.58397686438749
 20
199.93587718762981
 30
0.0
 11
220.42787770189719
 21
199.93587718762981
 31
0.0
 12
219.58397686438749
 22
204.1553813751749
 32
0.0
 13
220.42787770189719
 23
204.1553813751749
 33
0.0
  0
SOLID
  5
D62
  8
LOGO
 62
     5
 10
217.75549691975809
 20
204.1553813751749
 30
0.0
 11
218.5993977572665
 21
204.1553813751749
 31
0.0
 12
217.75549691975809
 22
199.93587718762981
 32
0.0
 13
218.5993977572665
 23
199.93587718762981
 33
0.0
  0
LINE
  5
D63
  8
LOGO
 62
     5
 10
222.95958021442411
 20
199.93587718762981
 30
0.0
 11
222.95958021442411
 21
202.46757970015651
 31
0.0
  0
POLYLINE
  5
D64
  8
LOGO
 62
     5
 66
     1
 10
0.0
 20
0.0
 30
0.0
 70
     1
 40
0.8452532426974354
 41
0.8452532426974354
  0
VERTEX
  5
15A9C
  8
LOGO
 62
     5
 10
214.7992235681813
 20
202.045629281402
 30
0.0
 42
1.0
  0
VERTEX
  5
15A9D
  8
LOGO
 62
     5
 10
218.180236538971
 20
202.045629281402
 30
0.0
 42
1.0
  0
SEQEND
  5
15A9E
  8
LOGO
 62
     5
  0
CIRCLE
  5
D65
  8
LOGO
 62
     5
 10
216.48973005357661
 20
202.04562928140231
 30
0.0
 40
1.265851256263679
  0
POLYLINE
  5
D66
  8
LOGO
 62
     5
 66
     1
 10
0.0
 20
0.0
 30
0.0
 70
     1
  0
VERTEX
  5
15A9F
  8
LOGO
 62
     5
 10
215.22387879731281
 20
202.04562928140231
 30
0.0
 42
1.0000000573306349
  0
VERTEX
  5
15AA0
  8
LOGO
 62
     5
 10
217.75558130984049
 20
202.04562928140231
 30
0.0
 42
1.0000000573306349
  0
SEQEND
  5
15AA1
  8
LOGO
 62
     5
  0
POLYLINE
  5
D67
  8
LOGO
 62
     5
 66
     1
 10
0.0
 20
0.0
 30
0.0
 40
0.8452532426974354
 41
0.8452532426974354
  0
VERTEX
  5
15AA2
  8
LOGO
 62
     5
 10
222.53965840345259
 20
202.46757970015639
 30
0.0
 42
1.0
  0
VERTEX
  5
15AA3
  8
LOGO
 62
     5
 10
220.00389867536029
 20
202.46757970015639
 30
0.0
 42
1.0
  0
SEQEND
  5
15AA4
  8
LOGO
 62
     5
  0
TEXT
  5
D68
  8
LOGO
 62
     6
 10
234.01635086703709
 20
213.19570973617101
 30
0.0
 40
5.660177964491754
  1
投影 View:
 41
0.9
  7
CHINESET
 72
     4
 11
250.01140734705169
 21
215.94617925311911
 31
0.0
  0
TEXT
  5
D69
  8
LOGO
 62
     6
 10
232.03781544462771
 20
224.43923172050859
 30
0.0
 40
5.660177964491754
  1
比例 Scale:
 41
0.9
  7
CHINESET
 72
     4
 11
250.01140734705169
 21
227.26653518210259
 31
0.0
  0
LINE
  5
D6A
  8
LOGO
 62
     1
 10
310.38663896829701
 20
176.3249335016769
 30
0.0
 11
310.38663896829701
 21
232.92671314659441
 31
0.0
  0
LINE
  5
D6B
  8
LOGO
  6
CONTINUOUS
 62
     6
 10
293.48219276735779
 20
214.03272787129009
 30
0.0
 11
303.78497016688061
 21
212.67185386345031
 31
0.0
  0
LINE
  5
D6C
  8
LOGO
  6
CONTINUOUS
 62
     6
 10
293.48219276735779
 20
217.88384495912061
 30
0.0
 11
303.78497016688061
 21
219.24471896696051
 31
0.0
  0
LINE
  5
D6D
  8
LOGO
 62
     6
 10
293.48219276735779
 20
214.03272787129009
 30
0.0
 11
293.48219276735779
 21
217.88384495912061
 31
0.0
  0
LINE
  5
D6E
  8
LOGO
 62
     6
 10
303.78497016688061
 20
212.67185386345031
 30
0.0
 11
303.78497016688061
 21
219.24471896696051
 31
0.0
  0
LINE
  5
D6F
  8
LOGO
 62
     6
 10
427.15214864533198
 20
181.04174847208671
 30
0.0
 11
389.41762888205352
 21
181.0417484720866
 31
0.0
  0
LINE
  5
D70
  8
LOGO
 62
     6
 10
427.15214864533198
 20
201.79573434188981
 30
0.0
 11
389.41762888205352
 21
201.79573434188981
 31
0.0
  0
LINE
  5
D71
  8
LOGO
 62
     6
 10
430.92560062165978
 20
210.2860012886274
 30
0.0
 11
385.64417690572571
 21
210.2860012886274
 31
0.0
  0
LINE
  5
D72
  8
LOGO
 62
     6
 10
430.92560062165978
 20
227.26653518210259
 30
0.0
 11
385.64417690572571
 21
227.26653518210259
 31
0.0
  0
TEXT
  5
D73
  8
LOGO
  6
CONTINUOUS
 62
     7
 10
390.76529030217051
 20
214.05945326495529
 30
0.0
 40
9.4336299408195892
  1
MTHS
  7
CHINESET
 72
     1
 11
408.28488876369261
 21
218.776268235365
 31
0.0
 73
     2
  0
LINE
  5
D74
  8
LOGO
 62
     6
 10
385.64417690572571
 20
227.26653518210259
 30
0.0
 11
385.64417690572571
 21
210.2860012886274
 31
0.0
  0
LINE
  5
D75
  8
LOGO
 62
     6
 10
389.41762888205352
 20
201.79573434188981
 30
0.0
 11
389.41762888205352
 21
181.0417484720866
 31
0.0
  0
TEXT
  5
D76
  8
LOGO
  6
CONTINUOUS
 62
     6
 10
399.30047929624538
 20
183.40015595729159
 30
0.0
 40
4.7168149704097937
  1
Model
  7
CHINESET
 72
     4
 11
408.28488876369261
 21
185.7585634424965
 31
0.0
  0
TEXT
  5
D77
  8
LOGO
 62
     6
 10
400.73798481103688
 20
191.61187083884749
 30
0.0
 40
7.546903952655672
  1
型式
  7
CHINESET
 72
     4
 11
408.28488876369261
 21
195.19219338331601
 31
0.0
  0
LINE
  5
D78
  8
LOGO
 62
     6
 10
408.28488876369261
 20
210.2860012886274
 30
0.0
 11
408.28488876369261
 21
201.79573434188981
 31
0.0
  0
LINE
  5
D79
  8
LOGO
 62
     6
 10
430.9256006216599
 20
227.26653518210259
 30
0.0
 11
430.9256006216599
 21
210.2860012886274
 31
0.0
  0
LINE
  5
D7A
  8
LOGO
 62
     6
 10
427.15214864533198
 20
201.79573434188981
 30
0.0
 11
427.15214864533198
 21
181.04174847208671
 31
0.0
  0
LINE
  5
D7B
  8
LOGO
  6
CONTINUOUS
 62
     7
 10
433.85109141964767
 20
218.71612050075569
 30
0.0
 11
441.34907559485617
 21
218.71612050075569
 31
0.0
  0
LINE
  5
D82
  8
LOGO
 62
     6
 10
474.57774468566993
 20
227.26653518210281
 30
0.0
 11
474.57774468566993
 21
210.2860012886274
 31
0.0
  0
LINE
  5
D83
  8
LOGO
 62
     6
 10
444.28559667607891
 20
227.26653518210259
 30
0.0
 11
444.28559667607891
 21
210.2860012886274
 31
0.0
  0
LINE
  5
D85
  8
LOGO
 62
     6
 10
474.57774468566993
 20
181.04174847208671
 30
0.0
 11
444.28559667607891
 21
181.0417484720866
 31
0.0
  0
LINE
  5
D86
  8
LOGO
 62
     6
 10
474.57774468566993
 20
210.2860012886274
 30
0.0
 11
444.28559667607891
 21
210.2860012886274
 31
0.0
  0
LINE
  5
D87
  8
LOGO
 62
     6
 10
474.57774468566993
 20
201.79573434188981
 30
0.0
 11
444.28559667607891
 21
201.79573434188981
 31
0.0
  0
LINE
  5
D88
  8
LOGO
 62
     6
 10
444.28559667607891
 20
201.79573434188981
 30
0.0
 11
444.28559667607891
 21
181.04174847208671
 31
0.0
  0
TEXT
  5
D89
  8
LOGO
  6
CONTINUOUS
 62
     6
 10
453.59180452703379
 20
183.40015595729159
 30
0.0
 40
4.7168149704097937
  1
Bore
 41
0.8
  7
CHINESET
 72
     4
 11
459.43167068087439
 21
185.7585634424965
 31
0.0
  0
TEXT
  5
D8A
  8
LOGO
 62
     6
 10
452.21494377614738
 20
191.41874140698809
 30
0.0
 40
7.546903952655672
  1
內徑
 41
0.9
  7
CHINESET
 72
     4
 11
459.43167068087439
 21
195.19219338331601
 31
0.0
  0
LINE
  5
D8B
  8
LOGO
 62
     6
 10
459.43167024582482
 20
210.2860012886274
 30
0.0
 11
459.43167024582482
 21
201.79573434188981
 31
0.0
  0
LINE
  5
D8C
  8
LOGO
 62
     6
 10
474.57774468566993
 20
201.79573434188981
 30
0.0
 11
474.57774468566993
 21
181.04174847208671
 31
0.0
  0
LINE
  5
D8E
  8
LOGO
 62
     6
 10
474.57774468566993
 20
227.26653518210281
 30
0.0
 11
444.28559667607891
 21
227.26653518210259
 31
0.0
  0
TEXT
  5
D8F
  8
LOGO
  6
CONTINUOUS
 62
     7
 10
452.67539500434691
 20
213.95247530698711
 30
0.0
 40
9.4336299408195892
  1
50
  7
CHINESET
 72
     1
 11
460.31214305167703
 21
218.6692902773969
 31
0.0
 73
     2
  0
LINE
  5
D9E
  8
LOGO
 62
     1
 10
635.92834892189944
 20
176.3249335016769
 30
0.0
 11
635.92834892189944
 21
232.92671314659441
 31
0.0
  0
LINE
  5
DAD
  8
LOGO
 62
     6
 10
487.93774074008888
 20
227.26653518210281
 30
0.0
 11
487.93774074008888
 21
210.28600128862749
 31
0.0
  0
LINE
  5
DAE
  8
LOGO
 62
     6
 10
546.35322282718175
 20
227.2665351821029
 30
0.0
 11
546.35322282718175
 21
210.28600128862749
 31
0.0
  0
TEXT
  5
DAF
  8
LOGO
 62
     6
 10
503.84406356707939
 20
191.64684459814259
 30
0.0
 40
7.546903952655672
  1
旋轉方向
 41
0.9
  7
CHINESET
 72
     4
 11
517.14548178363509
 21
195.19219338331609
 31
0.0
  0
TEXT
  5
DB0
  8
LOGO
  6
CONTINUOUS
 62
     6
 10
491.98913527478283
 20
184.18629178569319
 30
0.0
 40
4.7168149704097937
  1
Rotating direction
 41
0.8
  7
CHINESET
 72
     4
 11
517.14548178363509
 21
185.7585634424965
 31
0.0
  0
LINE
  5
DB1
  8
LOGO
 62
     6
 10
546.35322282718175
 20
201.7957343418899
 30
0.0
 11
487.93774074008888
 21
201.7957343418899
 31
0.0
  0
LINE
  5
DB2
  8
LOGO
 62
     6
 10
546.35322282718175
 20
210.28600128862749
 30
0.0
 11
487.93774074008888
 21
210.28600128862749
 31
0.0
  0
LINE
  5
DB3
  8
LOGO
 62
     6
 10
546.35322282718175
 20
181.04174847208679
 30
0.0
 11
487.93774074008888
 21
181.04174847208671
 31
0.0
  0
LINE
  5
DB4
  8
LOGO
 62
     6
 10
487.93774074008888
 20
201.7957343418899
 30
0.0
 11
487.93774074008888
 21
181.04174847208679
 31
0.0
  0
LINE
  5
DB5
  8
LOGO
 62
     6
 10
517.14548178363543
 20
210.28600128862749
 30
0.0
 11
517.14548178363543
 21
201.7957343418899
 31
0.0
  0
LINE
  5
DB6
  8
LOGO
 62
     6
 10
546.35322282718175
 20
201.7957343418899
 30
0.0
 11
546.35322282718175
 21
181.04174847208679
 31
0.0
  0
LINE
  5
DB7
  8
LOGO
 62
     6
 10
546.35322282718175
 20
227.2665351821029
 30
0.0
 11
487.93774074008888
 21
227.26653518210281
 31
0.0
  0
LINE
  5
DB8
  8
LOGO
  6
CONTINUOUS
 62
     7
 10
477.50323548365799
 20
218.71612050075581
 30
0.0
 11
485.00121965886621
 21
218.71612050075581
 31
0.0
  0
TEXT
  5
DCEA
  8
UMCL3
  6
CONTINUOUS
 62
     2
 10
766.23679790982271
 20
285.02499111941353
 30
0.0
 40
2.5
  1

 41
0.8
  7
ROMANS1
 72
     1
 11
766.23679790982271
 21
286.27499111941353
 31
0.0
 73
     2
  0
TEXT
  5
DCED
  8
UMCL3
  6
CONTINUOUS
 62
     2
 10
741.15575056207274
 20
285.02499111941353
 30
0.0
 40
2.5
  1

 41
0.8
  7
ROMANS1
 72
     1
 11
741.15575056207274
 21
286.27499111941353
 31
0.0
 73
     2
  0
TEXT
  5
DCF2
  8
UMCL3
  6
CONTINUOUS
 62
     2
 10
719.57470321432265
 20
285.02499111941353
 30
0.0
 40
2.5
  1

 41
0.8
  7
ROMANS1
 72
     1
 11
719.57470321432265
 21
286.27499111941353
 31
0.0
 73
     2
  0
TEXT
  5
DD0D
  8
UMCL3
 62
     2
 10
716.36931152386535
 20
289.1485161689501
 30
0.0
 40
3.2999999999999998
  1

 41
0.9
  7
ROMANS
  0
TEXT
  5
DD17
  8
UMCL3
 62
     2
 10
734.45035887161544
 20
289.1485161689501
 30
0.0
 40
3.2999999999999998
  1

 41
0.9
  7
ROMANS
  0
TEXT
  5
DD1A
  8
UMCL3
 62
     2
 10
759.53140621936552
 20
289.1485161689501
 30
0.0
 40
3.2999999999999998
  1

 41
0.9
  7
ROMANS
  0
TEXT
  5
14B64
  8
UMCL3
  6
CONTINUOUS
 62
     2
 10
426.05478391879888
 20
150.3638432988582
 30
0.0
 40
2.5
  1

 41
0.8
  7
ROMANS1
 72
     1
 11
426.05478391879888
 21
151.6138432988582
 31
0.0
 73
     2
  0
TEXT
  5
14B68
  8
UMCL3
 62
     2
 10
388.4510203905802
 20
154.33843610509459
 30
0.0
 40
3.2999999999999998
  1

 41
0.9
  7
ROMANS
  0
TEXT
  5
14B6A
  8
UMCL3
  6
CONTINUOUS
 62
     2
 10
394.72373657104862
 20
150.3638432988582
 30
0.0
 40
2.5
  1

 41
0.8
  7
ROMANS1
 72
     1
 11
394.72373657104862
 21
151.6138432988582
 31
0.0
 73
     2
  0
TEXT
  5
14B77
  8
UMCL3
 62
     2
 10
419.7820677383304
 20
154.33843610509459
 30
0.0
 40
3.2999999999999998
  1

 41
0.9
  7
ROMANS
  0
LINE
  5
14B7C
  8
LOGO
 62
     6
 10
618.12870096869358
 20
227.2665351821029
 30
0.0
 11
618.12870096869358
 21
210.2860012886276
 31
0.0
  0
LINE
  5
14B7D
  8
LOGO
 62
     6
 10
559.71321888160082
 20
227.2665351821029
 30
0.0
 11
559.71321888160082
 21
210.2860012886276
 31
0.0
  0
TEXT
  5
14B7E
  8
LOGO
  6
CONTINUOUS
 62
     6
 10
568.34666224469265
 20
184.18629178569319
 30
0.0
 40
4.7168149704097937
  1
Rotating angle
 41
0.8
  7
CHINESET
 72
     4
 11
588.92095992514692
 21
185.7585634424965
 31
0.0
  0
TEXT
  5
14B7F
  8
LOGO
 62
     6
 10
575.40728503492289
 20
191.65427265321409
 30
0.0
 40
7.546903952655672
  1
旋轉角度
 41
0.9
  7
CHINESET
 72
     4
 11
588.92095992514692
 21
195.19219338331621
 31
0.0
  0
LINE
  5
14B80
  8
LOGO
 62
     6
 10
618.12870096869358
 20
210.2860012886276
 30
0.0
 11
559.71321888160082
 21
210.2860012886276
 31
0.0
  0
LINE
  5
14B81
  8
LOGO
 62
     6
 10
618.12870096869358
 20
201.7957343418899
 30
0.0
 11
559.71321888160082
 21
201.7957343418899
 31
0.0
  0
LINE
  5
14B82
  8
LOGO
 62
     6
 10
618.12870096869358
 20
181.04174847208691
 30
0.0
 11
559.71321888160082
 21
181.04174847208679
 31
0.0
  0
LINE
  5
14B83
  8
LOGO
 62
     6
 10
559.71321888160082
 20
201.7957343418899
 30
0.0
 11
559.71321888160082
 21
181.04174847208691
 31
0.0
  0
LINE
  5
14B84
  8
LOGO
 62
     6
 10
588.92095992514726
 20
210.2860012886276
 30
0.0
 11
588.92095992514726
 21
201.7957343418899
 31
0.0
  0
LINE
  5
14B85
  8
LOGO
 62
     6
 10
618.12870096869358
 20
201.7957343418899
 30
0.0
 11
618.12870096869358
 21
181.04174847208691
 31
0.0
  0
LINE
  5
14B86
  8
LOGO
 62
     6
 10
618.12870096869358
 20
227.2665351821029
 30
0.0
 11
559.71321888160082
 21
227.2665351821029
 31
0.0
  0
LINE
  5
14B87
  8
LOGO
  6
CONTINUOUS
 62
     7
 10
549.27871362516976
 20
218.71612050075581
 30
0.0
 11
556.77669780037797
 21
218.71612050075581
 31
0.0
  0
LINE
  5
15901
  8
0
 10
571.66998505417814
 20
281.5818652605717
 30
0.0
 11
571.66998505417814
 21
313.5818652605717
 31
0.0
  0
LINE
  5
15902
  8
0
  6
CONTINUOUS
 10
566.27329369883319
 20
313.5818652605717
 30
0.0
 11
566.27329369883319
 21
281.5818652605717
 31
0.0
  0
LINE
  5
15903
  8
0
 10
499.66998505417808
 20
313.5818652605717
 30
0.0
 11
499.66998505417808
 21
281.5818652605717
 31
0.0
  0
LINE
  5
15904
  8
0
  6
CONTINUOUS
 10
505.0666764095235
 20
313.5818652605717
 30
0.0
 11
505.0666764095235
 21
281.5818652605717
 31
0.0
  0
LINE
  5
15905
  8
0
 10
387.20697580160589
 20
281.5818652605717
 30
0.0
 11
387.20697580160589
 21
313.5818652605717
 31
0.0
  0
LINE
  5
15906
  8
0
  6
CONTINUOUS
 10
381.81028444626048
 20
313.5818652605717
 30
0.0
 11
381.81028444626048
 21
281.5818652605717
 31
0.0
  0
LINE
  5
15907
  8
0
 10
315.20697580160589
 20
313.5818652605717
 30
0.0
 11
315.20697580160589
 21
281.5818652605717
 31
0.0
  0
LINE
  5
15908
  8
0
  6
CONTINUOUS
 10
320.60366715695091
 20
313.5818652605717
 30
0.0
 11
320.60366715695091
 21
281.5818652605717
 31
0.0
  0
LINE
  5
15909
  8
DIM
 10
411.00697580160607
 20
280.5818652605717
 30
0.0
 11
411.00697580160607
 21
414.5818652605717
 31
0.0
  0
LINE
  5
1590A
  8
DIM
 10
419.00697580160607
 20
280.5818652605717
 30
0.0
 11
419.00697580160607
 21
434.5818652605717
 31
0.0
  0
LINE
  5
1590B
  8
DIM
 10
427.00697580160607
 20
280.5818652605717
 30
0.0
 11
427.00697580160562
 21
446.5818652605717
 31
0.0
  0
LINE
  5
1590C
  8
DIM
 10
395.00697580160562
 20
280.5818652605717
 30
0.0
 11
395.00697580160562
 21
314.5818652605717
 31
0.0
  0
LINE
  5
1590D
  8
DIM
 10
403.00697580160607
 20
280.5818652605717
 30
0.0
 11
403.00697580160568
 21
380.5818652605717
 31
0.0
  0
LINE
  5
1590E
  8
CENTER
  6
CENTER
 10
564.16998505417814
 20
316.86365180924162
 30
0.0
 11
564.16998505417814
 21
277.28033088957591
 31
0.0
  0
LINE
  5
1590F
  8
CENTER
  6
CENTER
 10
507.16998505417808
 20
277.56241338341943
 30
0.0
 11
507.16998505417808
 21
316.86365180924122
 31
0.0
  0
LINE
  5
15910
  8
CENTER
  6
CENTER
 10
535.66998505417814
 20
277.55346894653661
 30
0.0
 11
535.66998505417814
 21
450.60756198075518
 31
0.0
  0
LINE
  5
15911
  8
CENTER
  6
CENTER
 10
379.70697580160589
 20
316.86365180924162
 30
0.0
 11
379.70697580160589
 21
277.28033088957591
 31
0.0
  0
LINE
  5
15912
  8
CENTER
  6
CENTER
 10
322.70697580160589
 20
277.56241338341943
 30
0.0
 11
322.70697580160589
 21
316.86365180924122
 31
0.0
  0
LINE
  5
15913
  8
CENTER
  6
CENTER
 10
351.20697580160589
 20
277.55346894653661
 30
0.0
 11
351.20697580160589
 21
450.60756198075518
 31
0.0
  0
LINE
  5
15914
  8
HIDDEN
  6
HIDDEN
 10
559.66998505417814
 20
280.5818652605717
 30
0.0
 11
559.66998505417814
 21
314.5818652605717
 31
0.0
  0
LINE
  5
15915
  8
HIDDEN
  6
HIDDEN
 10
568.66998505417814
 20
280.5818652605717
 30
0.0
 11
568.66998505417814
 21
314.5818652605717
 31
0.0
  0
LINE
  5
15916
  8
HIDDEN
  6
HIDDEN
 10
511.66998505417808
 20
280.5818652605717
 30
0.0
 11
511.66998505417808
 21
314.5818652605717
 31
0.0
  0
LINE
  5
15917
  8
HIDDEN
  6
HIDDEN
 10
502.66998505417808
 20
280.5818652605717
 30
0.0
 11
502.66998505417808
 21
314.5818652605717
 31
0.0
  0
LINE
  5
15918
  8
HIDDEN
  6
HIDDEN
 10
375.20697580160538
 20
280.5818652605717
 30
0.0
 11
375.20697580160538
 21
314.5818652605717
 31
0.0
  0
LINE
  5
15919
  8
HIDDEN
  6
HIDDEN
 10
384.20697580160549
 20
280.5818652605717
 30
0.0
 11
384.20697580160549
 21
314.5818652605717
 31
0.0
  0
LINE
  5
1591A
  8
HIDDEN
  6
HIDDEN
 10
327.20697580160589
 20
280.5818652605717
 30
0.0
 11
327.20697580160589
 21
314.5818652605717
 31
0.0
  0
LINE
  5
1591B
  8
HIDDEN
  6
HIDDEN
 10
318.20697580160589
 20
280.5818652605717
 30
0.0
 11
318.20697580160589
 21
314.5818652605717
 31
0.0
  0
LINE
  5
1591C
  8
0
 10
316.20697580160589
 20
280.5818652605717
 30
0.0
 11
386.20697580160589
 21
280.5818652605717
 31
0.0
  0
LINE
  5
1591D
  8
0
 10
315.20697580160589
 20
281.5818652605717
 30
0.0
 11
387.20697580160589
 21
281.5818652605717
 31
0.0
  0
LINE
  5
1591E
  8
0
 10
320.60366715695091
 20
281.5818652605717
 30
0.0
 11
321.60366715695091
 21
280.5818652605717
 31
0.0
  0
LINE
  5
1591F
  8
0
 10
315.20697580160589
 20
281.5818652605717
 30
0.0
 11
316.20697580160589
 21
280.5818652605717
 31
0.0
  0
LINE
  5
15920
  8
DIM
 10
387.20697580160589
 20
280.5818652605717
 30
0.0
 11
428.00697580160607
 21
280.5818652605717
 31
0.0
  0
LINE
  5
15921
  8
0
 10
386.20697580160589
 20
280.5818652605717
 30
0.0
 11
387.20697580160589
 21
281.5818652605717
 31
0.0
  0
LINE
  5
15922
  8
0
 10
381.81028444626048
 20
281.5818652605717
 30
0.0
 11
380.81028444626048
 21
280.5818652605717
 31
0.0
  0
SOLID
  5
15923
  8
DIM
 10
402.48603126850588
 20
283.53628851957131
 30
0.0
 11
403.52792033470581
 21
283.53628851957131
 31
0.0
 12
403.00697580160607
 22
280.5818652605717
 32
0.0
 13
403.00697580160607
 23
280.5818652605717
 33
0.0
  0
SOLID
  5
15924
  8
DIM
 10
394.48603126850588
 20
283.53628851957131
 30
0.0
 11
395.52792033470581
 21
283.53628851957131
 31
0.0
 12
395.00697580160562
 22
280.5818652605717
 32
0.0
 13
395.00697580160562
 23
280.5818652605717
 33
0.0
  0
SOLID
  5
15925
  8
DIM
 10
426.48603126850588
 20
283.53628851957131
 30
0.0
 11
427.52792033470581
 21
283.53628851957131
 31
0.0
 12
427.00697580160607
 22
280.5818652605717
 32
0.0
 13
427.00697580160607
 23
280.5818652605717
 33
0.0
  0
SOLID
  5
15926
  8
DIM
 10
418.48603126850588
 20
283.53628851957131
 30
0.0
 11
419.52792033470581
 21
283.53628851957131
 31
0.0
 12
419.00697580160607
 22
280.5818652605717
 32
0.0
 13
419.00697580160607
 23
280.5818652605717
 33
0.0
  0
SOLID
  5
15927
  8
DIM
 10
410.48603126850588
 20
283.53628851957131
 30
0.0
 11
411.52792033470581
 21
283.53628851957131
 31
0.0
 12
411.00697580160607
 22
280.5818652605717
 32
0.0
 13
411.00697580160607
 23
280.5818652605717
 33
0.0
  0
LINE
  5
15928
  8
0
 10
500.66998505417808
 20
280.5818652605717
 30
0.0
 11
570.66998505417814
 21
280.5818652605717
 31
0.0
  0
LINE
  5
15929
  8
0
 10
499.66998505417808
 20
281.5818652605717
 30
0.0
 11
571.66998505417814
 21
281.5818652605717
 31
0.0
  0
LINE
  5
1592A
  8
0
 10
499.66998505417808
 20
281.5818652605717
 30
0.0
 11
500.66998505417808
 21
280.5818652605717
 31
0.0
  0
LINE
  5
1592B
  8
0
 10
505.0666764095231
 20
281.5818652605717
 30
0.0
 11
506.06667640952298
 21
280.5818652605717
 31
0.0
  0
LINE
  5
1592C
  8
0
 10
570.66998505417814
 20
280.5818652605717
 30
0.0
 11
571.66998505417814
 21
281.5818652605717
 31
0.0
  0
LINE
  5
1592D
  8
0
 10
566.27329369883319
 20
281.5818652605717
 30
0.0
 11
565.27329369883307
 21
280.5818652605717
 31
0.0
  0
LINE
  5
1592E
  8
0
 10
274.20697580160589
 20
535.00322938533282
 30
0.0
 11
307.79543306972568
 21
544.0032293853327
 31
0.0
  0
LINE
  5
1592F
  8
0
 10
274.20697580160589
 20
516.00322938533282
 30
0.0
 11
307.79543306972619
 21
507.00322938533282
 31
0.0
  0
LINE
  5
15930
  8
0
 10
274.20697580160589
 20
414.5818652605717
 30
0.0
 11
370.20697580160589
 21
414.5818652605717
 31
0.0
  0
LINE
  5
15931
  8
0
 10
370.20697580160589
 20
434.5818652605717
 30
0.0
 11
274.20697580160589
 21
434.5818652605717
 31
0.0
  0
LINE
  5
15932
  8
0
  6
PHANTOM
 62
     6
 10
370.20697580160589
 20
404.58186526057159
 30
0.0
 11
274.20697580160589
 21
404.58186526057159
 31
0.0
  0
LINE
  5
15933
  8
0
  6
PHANTOM
 62
     6
 10
274.20697580160589
 20
384.58186526057159
 30
0.0
 11
370.20697580160589
 21
384.58186526057159
 31
0.0
  0
LINE
  5
15934
  8
DIM
 10
351.20697580160589
 20
456.57159480751528
 30
0.0
 11
274.20697580160589
 21
456.57159480751528
 31
0.0
  0
LINE
  5
15935
  8
DIM
 10
274.20697580160589
 20
464.57159480751528
 30
0.0
 11
370.20697580160589
 21
464.57159480751528
 31
0.0
  0
LINE
  5
15936
  8
DIM
 10
313.56506976472332
 20
342.104420636128
 30
0.0
 11
287.63590432448098
 21
342.104420636128
 31
0.0
  0
TEXT
  5
15937
  8
DIM
 10
287.60340344328318
 20
343.104420636128
 30
0.0
 40
3.0
  1
2-PT 1/4
  7
ROMANS
  0
LINE
  5
15938
  8
CENTER
  6
CENTER
 10
271.78774419387707
 20
525.50322938533282
 30
0.0
 11
390.28187327658719
 21
525.50322938533282
 31
0.0
  0
LINE
  5
15939
  8
0
  6
PHANTOM
 62
     6
 10
274.20697580160589
 20
404.58186526057159
 30
0.0
 11
274.20697580160589
 21
384.58186526057159
 31
0.0
  0
SOLID
  5
1593A
  8
DIM
 10
289.16139906060602
 20
457.09253934061547
 30
0.0
 11
289.16139906060602
 21
456.05065027441549
 31
0.0
 12
286.20697580160589
 22
456.57159480751528
 32
0.0
 13
286.20697580160589
 23
456.57159480751528
 33
0.0
  0
SOLID
  5
1593B
  8
DIM
 10
283.25255254260583
 20
456.05065027441549
 30
0.0
 11
283.25255254260583
 21
457.09253934061547
 31
0.0
 12
286.20697580160589
 22
456.57159480751528
 32
0.0
 13
286.20697580160589
 23
456.57159480751528
 33
0.0
  0
SOLID
  5
1593C
  8
DIM
 10
277.16139906060602
 20
457.09253934061547
 30
0.0
 11
277.16139906060602
 21
456.05065027441509
 31
0.0
 12
274.20697580160589
 22
456.57159480751528
 32
0.0
 13
274.20697580160589
 23
456.57159480751528
 33
0.0
  0
LINE
  5
1593D
  8
DIM
 10
286.20697580160589
 20
439.67439995064291
 30
0.0
 11
286.20697580160589
 21
457.57159480751528
 31
0.0
  0
LINE
  5
1593E
  8
DIM
 10
274.20697580160589
 20
436.47062482319689
 30
0.0
 11
274.20697580160589
 21
465.57159480751528
 31
0.0
  0
LINE
  5
1593F
  8
DIM
 10
270.71939821990549
 20
450.04855070559688
 30
0.0
 11
244.176987933014
 21
450.04855070559688
 31
0.0
  0
TEXT
  5
15940
  8
DIM
 10
244.14448705181621
 20
451.04855070559682
 30
0.0
 40
3.0
  1
M12x1.75P
  7
ROMANS
  0
LINE
  5
15941
  8
0
 10
274.20697580160589
 20
434.5818652605717
 30
0.0
 11
274.20697580160589
 21
414.5818652605717
 31
0.0
  0
SOLID
  5
15942
  8
DIM
 10
283.74835884707772
 20
436.30093555314392
 30
0.0
 11
284.48458826011893
 21
437.03815945240382
 31
0.0
 12
286.20697580160447
 22
434.58186526057261
 32
0.0
 13
286.20697580160447
 23
434.58186526057261
 33
0.0
  0
LINE
  5
15943
  8
DIM
 10
270.71939821990549
 20
450.04855070559688
 30
0.0
 11
286.20697580160447
 21
434.58186526057261
 31
0.0
  0
LINE
  5
15944
  8
CENTER
  6
CENTER
 10
286.20697580160589
 20
411.37263678000039
 30
0.0
 11
286.20697580160589
 21
438.50061705688131
 31
0.0
  0
LINE
  5
15945
  8
HIDDEN
  6
HIDDEN
 10
291.35697580160598
 20
434.5818652605717
 30
0.0
 11
291.35697580160598
 21
414.5818652605717
 31
0.0
  0
LINE
  5
15946
  8
HIDDEN
  6
HIDDEN
 10
292.20697580160589
 20
434.5818652605717
 30
0.0
 11
292.20697580160589
 21
414.5818652605717
 31
0.0
  0
LINE
  5
15947
  8
HIDDEN
  6
HIDDEN
 10
281.0569758016058
 20
434.5818652605717
 30
0.0
 11
281.0569758016058
 21
414.5818652605717
 31
0.0
  0
LINE
  5
15948
  8
HIDDEN
  6
HIDDEN
 10
280.20697580160589
 20
434.5818652605717
 30
0.0
 11
280.20697580160589
 21
414.5818652605717
 31
0.0
  0
TEXT
  5
15949
  8
DIM
 10
255.150958150506
 20
506.35841148926693
 30
0.0
 40
4.0
  1
CCW
  7
ROMANS
  0
POLYLINE
  5
1594A
  8
DIM
 66
     1
 10
0.0
 20
0.0
 30
0.0
 70
     7
  0
VERTEX
  5
1594B
  8
DIM
 10
269.15687692904879
 20
511.29254939183141
 30
0.0
 42
0.0185322085214218
  0
VERTEX
  5
1594C
  8
DIM
 10
271.18604999892841
 20
506.8914501521503
 30
0.0
  0
VERTEX
  5
1594D
  8
DIM
 10
270.65085759432839
 20
506.62021392658511
 30
0.0
  0
VERTEX
  5
1594E
  8
DIM
 10
273.27334237766172
 20
504.58601628773607
 30
0.0
  0
VERTEX
  5
1594F
  8
DIM
 10
273.05922341502759
 20
507.84077694162852
 30
0.0
  0
VERTEX
  5
15950
  8
DIM
 10
272.52403101042722
 20
507.56954071606287
 30
0.0
 42
-0.018532208521422
  0
VERTEX
  5
15951
  8
DIM
 10
270.5413986072881
 20
511.86969731263201
 30
0.0
  0
SEQEND
  5
15952
  8
DIM
  0
SOLID
  5
15953
  8
DIM
 10
277.16139906060602
 20
465.09253934061547
 30
0.0
 11
277.16139906060602
 21
464.05065027441509
 31
0.0
 12
274.20697580160589
 22
464.57159480751528
 32
0.0
 13
274.20697580160589
 23
464.57159480751528
 33
0.0
  0
TEXT
  5
15954
  8
DIM
 10
277.14091303134722
 20
457.57159480751528
 30
0.0
 40
3.0
  1
12
  7
ROMANS
  0
TEXT
  5
15955
  8
DIM
 10
257.22590646627299
 20
541.42136047366375
 30
0.0
 40
4.0
  1
CW
  7
ROMANS
  0
CIRCLE
  5
15956
  8
0
 62
     7
 10
286.20697580160589
 20
525.50322938533373
 30
0.0
 40
5.1500000000000004
  0
ARC
  5
15957
  8
0
 62
     2
 10
286.20697580160589
 20
525.50322938533373
 30
0.0
 40
6.0
 50
77.238457311728922
 51
14.40819442990969
  0
LINE
  5
15958
  8
0
 10
274.20697580160589
 20
535.00322938533282
 30
0.0
 11
274.20697580160589
 21
516.00322938533282
 31
0.0
  0
POLYLINE
  5
15959
  8
DIM
 66
     1
 10
0.0
 20
0.0
 30
0.0
 70
     7
  0
VERTEX
  5
1595A
  8
DIM
 10
269.1568769290493
 20
539.44684523343358
 30
0.0
 42
-0.0185322085214218
  0
VERTEX
  5
1595B
  8
DIM
 10
271.18604999892881
 20
543.84794447311469
 30
0.0
  0
VERTEX
  5
1595C
  8
DIM
 10
270.6508575943289
 20
544.11918069867988
 30
0.0
  0
VERTEX
  5
1595D
  8
DIM
 10
273.27334237766212
 20
546.15337833752926
 30
0.0
  0
VERTEX
  5
1595E
  8
DIM
 10
273.05922341502759
 20
542.89861768363687
 30
0.0
  0
VERTEX
  5
1595F
  8
DIM
 10
272.52403101042768
 20
543.16985390920206
 30
0.0
 42
0.018532208521422
  0
VERTEX
  5
15960
  8
DIM
 10
270.5413986072885
 20
538.86969731263207
 30
0.0
  0
SEQEND
  5
15961
  8
DIM
  0
LINE
  5
15962
  8
CENTER
  6
CENTER
 10
286.20697580160589
 20
515.50322938533373
 30
0.0
 11
286.20697580160589
 21
535.50322938533373
 31
0.0
  0
LINE
  5
15963
  8
0
 10
370.20697580160589
 20
512.00322938533282
 30
0.0
 11
370.20697580160589
 21
539.00322938533225
 31
0.0
  0
POLYLINE
  5
15964
  8
0
 62
     7
 66
     1
 10
0.0
 20
0.0
 30
0.0
 70
     1
  0
VERTEX
  5
15AA5
  8
0
 62
     7
 10
342.7199337727215
 20
510.80324138533251
 30
0.0
  0
VERTEX
  5
15AA6
  8
0
 62
     7
 10
359.69401783049028
 20
510.80324138533251
 30
0.0
  0
VERTEX
  5
15AA7
  8
0
 62
     7
 10
368.18105985937422
 20
525.50322938533282
 30
0.0
  0
VERTEX
  5
15AA8
  8
0
 62
     7
 10
359.69401783049028
 20
540.20321738533255
 30
0.0
  0
VERTEX
  5
15AA9
  8
0
 62
     7
 10
342.7199337727215
 20
540.20321738533255
 30
0.0
  0
VERTEX
  5
15AAA
  8
0
 62
     7
 10
334.23289174383711
 20
525.50322938533225
 30
0.0
  0
SEQEND
  5
15AAB
  8
0
 62
     7
  0
CIRCLE
  5
15965
  8
0
 62
     7
 10
351.20697580160589
 20
525.50322938533282
 30
0.0
 40
14.699987999999991
  0
ARC
  5
15966
  8
0
 10
351.20697580160589
 20
525.50322938533282
 30
0.0
 40
33.0
 50
214.09772123930131
 51
145.90227876069861
  0
POLYLINE
  5
15967
  8
0
 66
     1
 10
0.0
 20
0.0
 30
0.0
  0
VERTEX
  5
15AAC
  8
0
 10
387.20697580160589
 20
494.89992074067771
 30
0.0
  0
VERTEX
  5
15AAD
  8
0
 10
387.20697580160589
 20
556.10653802998741
 30
0.0
  0
SEQEND
  5
15AAE
  8
0
  0
LINE
  5
15968
  8
DIM
 10
411.20697580160589
 20
489.5032293853327
 30
0.0
 11
411.20697580160589
 21
561.50322938533282
 31
0.0
  0
LINE
  5
15969
  8
DIM
 10
395.20697580160589
 20
507.00322938533333
 30
0.0
 11
395.20697580160589
 21
544.00322938533225
 31
0.0
  0
LINE
  5
1596A
  8
DIM
 10
403.20697580160589
 20
497.00322938533282
 30
0.0
 11
403.20697580160589
 21
554.00322938533282
 31
0.0
  0
LINE
  5
1596B
  8
CENTER
  6
CENTER
 10
351.20697580160589
 20
486.98991537781228
 30
0.0
 11
351.20697580160589
 21
563.82066138257278
 31
0.0
  0
LINE
  5
1596C
  8
0
 10
337.20697580160589
 20
414.5818652605717
 30
0.0
 11
337.20697580160589
 21
380.5818652605717
 31
0.0
  0
LINE
  5
1596D
  8
0
 10
365.20697580160589
 20
414.5818652605717
 30
0.0
 11
365.20697580160589
 21
380.5818652605717
 31
0.0
  0
LINE
  5
1596E
  8
0
  6
PHANTOM
 62
     6
 10
370.20697580160589
 20
384.58186526057159
 30
0.0
 11
370.20697580160589
 21
404.58186526057159
 31
0.0
  0
TEXT
  5
1596F
  8
DIM
 10
410.00697580160602
 20
396.60289149784728
 30
0.0
 40
3.0
  1
30
 50
90.0
  7
ROMANS
  0
LINE
  5
15970
  8
0
 10
379.20697580160589
 20
380.5818652605717
 30
0.0
 11
323.20697580160589
 21
380.5818652605717
 31
0.0
  0
LINE
  5
15971
  8
0
 62
     4
 10
384.20697580160589
 20
375.5818652605717
 30
0.0
 11
318.20697580160589
 21
375.5818652605717
 31
0.0
  0
LINE
  5
15972
  8
0
 10
316.20697580160589
 20
314.5818652605717
 30
0.0
 11
386.20697580160589
 21
314.5818652605717
 31
0.0
  0
LINE
  5
15973
  8
0
 10
315.20697580160589
 20
313.5818652605717
 30
0.0
 11
387.20697580160589
 21
313.5818652605717
 31
0.0
  0
LINE
  5
15974
  8
DIM
 10
318.20697580160589
 20
336.03700059434323
 30
0.0
 11
384.20697580160589
 21
336.03700059434323
 31
0.0
  0
LINE
  5
15975
  8
0
 10
318.20697580160589
 20
375.5818652605717
 30
0.0
 11
318.20697580160589
 21
314.5818652605717
 31
0.0
  0
LINE
  5
15976
  8
DIM
 10
313.56506976472332
 20
342.104420636128
 30
0.0
 11
345.69177922500597
 21
362.14200963548268
 31
0.0
  0
CIRCLE
  5
15977
  8
0
 10
336.20697580160589
 20
302.0818652605717
 30
0.0
 40
5.75
  0
ARC
  5
15978
  8
0
 62
     2
 10
336.20697580160589
 20
302.0818652605717
 30
0.0
 40
6.5
 50
78.38672731903111
 51
10.99745171714029
  0
LINE
  5
15979
  8
CENTER
  6
CENTER
 10
326.20697580160589
 20
302.0818652605717
 30
0.0
 11
346.20697580160589
 21
302.0818652605717
 31
0.0
  0
LINE
  5
1597A
  8
0
 10
321.60366715695091
 20
314.5818652605717
 30
0.0
 11
320.60366715695091
 21
313.5818652605717
 31
0.0
  0
LINE
  5
1597B
  8
0
 10
316.20697580160589
 20
314.5818652605717
 30
0.0
 11
315.20697580160589
 21
313.5818652605717
 31
0.0
  0
SOLID
  5
1597C
  8
DIM
 10
321.16139906060653
 20
336.55794512744291
 30
0.0
 11
321.16139906060653
 21
335.51605606124298
 31
0.0
 12
318.20697580160629
 22
336.03700059434323
 32
0.0
 13
318.20697580160629
 23
336.03700059434323
 33
0.0
  0
TEXT
  5
1597D
  8
DIM
 10
353.54271020425631
 20
337.03700059434323
 30
0.0
 40
3.0
  1
%%c66
  7
ROMANS
  0
LINE
  5
1597E
  8
CENTER
  6
CENTER
 10
336.20697580160589
 20
292.0818652605717
 30
0.0
 11
336.20697580160589
 21
312.08186526057159
 31
0.0
  0
ARC
  5
1597F
  8
0
 10
323.20697580160589
 20
375.5818652605717
 30
0.0
 40
5.0
 50
90.0
 51
180.0
  0
CIRCLE
  5
15980
  8
0
 10
351.20697580160589
 20
365.5818652605717
 30
0.0
 40
5.75
  0
ARC
  5
15981
  8
0
 62
     2
 10
351.20697580160589
 20
365.5818652605717
 30
0.0
 40
6.5
 50
78.38672731903111
 51
10.99745171714029
  0
SOLID
  5
15982
  8
DIM
 10
342.90928706709701
 20
361.0205207184344
 30
0.0
 11
343.4606636771104
 21
360.13648640903369
 31
0.0
 12
345.69177922500597
 22
362.14200963548268
 32
0.0
 13
345.69177922500597
 23
362.14200963548268
 33
0.0
  0
LINE
  5
15983
  8
CENTER
  6
CENTER
 10
341.20697580160589
 20
365.5818652605717
 30
0.0
 11
361.20697580160589
 21
365.5818652605717
 31
0.0
  0
LINE
  5
15984
  8
0
 10
384.20697580160589
 20
375.5818652605717
 30
0.0
 11
384.20697580160589
 21
314.5818652605717
 31
0.0
  0
TEXT
  5
15985
  8
DIM
 10
418.00697580160607
 20
343.36639579131361
 30
0.0
 40
3.0
  1
134
 50
90.0
  7
ROMANS
  0
LINE
  5
15986
  8
0
 10
387.20697580160589
 20
313.5818652605717
 30
0.0
 11
386.20697580160589
 21
314.5818652605717
 31
0.0
  0
LINE
  5
15987
  8
0
 10
380.81028444626088
 20
314.5818652605717
 30
0.0
 11
381.81028444626099
 21
313.5818652605717
 31
0.0
  0
TEXT
  5
15988
  8
DIM
 10
402.00697580160607
 20
326.44192047303881
 30
0.0
 40
3.0
  1
100
 50
90.0
  7
ROMANS
  0
SOLID
  5
15989
  8
DIM
 10
395.52792033470581
 20
311.62744200157152
 30
0.0
 11
394.48603126850588
 21
311.62744200157152
 31
0.0
 12
395.00697580160562
 22
314.5818652605717
 32
0.0
 13
395.00697580160562
 23
314.5818652605717
 33
0.0
  0
LINE
  5
1598A
  8
DIM
 10
387.20697580160589
 20
314.5818652605717
 30
0.0
 11
396.00697580160562
 21
314.5818652605717
 31
0.0
  0
TEXT
  5
1598B
  8
DIM
 10
394.00697580160562
 20
294.64203059619189
 30
0.0
 40
3.0
  1
34
 50
90.0
  7
ROMANS
  0
SOLID
  5
1598C
  8
DIM
 10
381.25255254260622
 20
335.51605606124298
 30
0.0
 11
381.25255254260622
 21
336.55794512744291
 31
0.0
 12
384.20697580160589
 22
336.03700059434323
 32
0.0
 13
384.20697580160589
 23
336.03700059434323
 33
0.0
  0
TEXT
  5
1598D
  8
DIM
 10
410.00697580160602
 20
328.30822920412902
 30
0.0
 40
3.0
  1
104
 50
90.0
  7
ROMANS
  0
LINE
  5
1598E
  8
DIM
 10
373.14550211492218
 20
384.58186526057159
 30
0.0
 11
412.00697580160607
 21
384.58186526057159
 31
0.0
  0
ARC
  5
1598F
  8
0
 10
379.20697580160589
 20
375.5818652605717
 30
0.0
 40
5.0
 50
0.0
 51
90.0
  0
SOLID
  5
15990
  8
DIM
 10
403.52792033470581
 20
377.62744200157152
 30
0.0
 11
402.48603126850588
 21
377.62744200157152
 31
0.0
 12
403.00697580160607
 22
380.5818652605717
 32
0.0
 13
403.00697580160607
 23
380.5818652605717
 33
0.0
  0
LINE
  5
15991
  8
DIM
 10
381.00697580160607
 20
380.5818652605717
 30
0.0
 11
404.00697580160607
 21
380.5818652605717
 31
0.0
  0
SOLID
  5
15992
  8
DIM
 10
411.52792033470581
 20
381.62744200157158
 30
0.0
 11
410.48603126850588
 21
381.62744200157158
 31
0.0
 12
411.00697580160607
 22
384.58186526057159
 32
0.0
 13
411.00697580160607
 23
384.58186526057159
 33
0.0
  0
SOLID
  5
15993
  8
DIM
 10
411.52792033470581
 20
387.53628851957183
 30
0.0
 11
410.48603126850588
 21
387.53628851957183
 31
0.0
 12
411.00697580160607
 22
384.58186526057159
 32
0.0
 13
411.00697580160607
 23
384.58186526057159
 33
0.0
  0
TEXT
  5
15994
  8
DIM
 10
426.00697580160607
 20
358.21086745916358
 30
0.0
 40
3.0
  1
166
 50
90.0
  7
ROMANS
  0
LINE
  5
15995
  8
0
 10
365.20697580160589
 20
507.0032293853323
 30
0.0
 11
370.20697580160589
 21
512.00322938533236
 31
0.0
  0
POLYLINE
  5
15996
  8
0
 66
     1
 10
0.0
 20
0.0
 30
0.0
  0
VERTEX
  5
15AAF
  8
0
 10
320.60366715695091
 20
489.5032293853327
 30
0.0
  0
VERTEX
  5
15AB0
  8
0
 10
381.81028444626048
 20
489.5032293853327
 30
0.0
  0
SEQEND
  5
15AB1
  8
0
  0
LINE
  5
15997
  8
DIM
 10
368.19164064563478
 20
507.00322938533333
 30
0.0
 11
396.20697580160589
 21
507.00322938533333
 31
0.0
  0
SOLID
  5
15998
  8
DIM
 10
367.25255254260583
 20
464.05065027441509
 30
0.0
 11
367.25255254260583
 21
465.09253934061547
 31
0.0
 12
370.20697580160589
 22
464.57159480751528
 32
0.0
 13
370.20697580160589
 23
464.57159480751528
 33
0.0
  0
LINE
  5
15999
  8
DIM
 10
351.20697580160589
 20
451.57159480751528
 30
0.0
 11
351.20697580160589
 21
457.57159480751528
 31
0.0
  0
SOLID
  5
1599A
  8
DIM
 10
348.25255254260583
 20
456.05065027441509
 30
0.0
 11
348.25255254260583
 21
457.09253934061547
 31
0.0
 12
351.20697580160589
 22
456.57159480751528
 32
0.0
 13
351.20697580160589
 23
456.57159480751528
 33
0.0
  0
LINE
  5
1599B
  8
0
 62
     7
 10
336.5069878016061
 20
446.5818652605717
 30
0.0
 11
334.23289174383763
 21
445.26891528945629
 31
0.0
  0
ARC
  5
1599C
  8
0
 62
     7
 10
338.47641275827982
 20
439.06775251418179
 30
0.0
 40
7.5141127463898041
 50
55.61575253194686
 51
124.3842474680517
  0
LINE
  5
1599D
  8
0
 62
     7
 10
336.50698780160559
 20
434.5818652605717
 30
0.0
 11
334.23289174383711
 21
435.89481523168701
 31
0.0
  0
ARC
  5
1599E
  8
0
 62
     7
 10
338.47641275827931
 20
442.0959780069615
 30
0.0
 40
7.5141127463898387
 50
235.6157525319482
 51
304.3842474680531
  0
LINE
  5
1599F
  8
0
 62
     7
 10
334.23289174383763
 20
445.26891528945578
 30
0.0
 11
334.23289174383711
 21
435.89481523168701
 31
0.0
  0
LINE
  5
159A0
  8
0
 10
307.79543306972619
 20
434.5818652605717
 30
0.0
 11
307.79543306972619
 21
414.5818652605717
 31
0.0
  0
LINE
  5
159A1
  8
0
 62
     7
 10
365.90696380160568
 20
446.58186526057119
 30
0.0
 11
368.18105985937422
 21
445.26891528945538
 31
0.0
  0
LINE
  5
159A2
  8
0
 62
     7
 10
368.18105985937422
 20
445.26891528945538
 30
0.0
 11
368.18105985937382
 21
435.89481523168701
 31
0.0
  0
LINE
  5
159A3
  8
0
 10
365.20697580160589
 20
414.5818652605717
 30
0.0
 11
365.20697580160589
 21
434.5818652605717
 31
0.0
  0
LINE
  5
159A4
  8
0
 62
     7
 10
365.90696380160529
 20
434.5818652605717
 30
0.0
 11
368.18105985937382
 21
435.89481523168701
 31
0.0
  0
LINE
  5
159A5
  8
0
 62
     7
 10
359.69401783049028
 20
445.26891528945578
 30
0.0
 11
359.69401783048983
 21
435.89481523168701
 31
0.0
  0
LINE
  5
159A6
  8
0
 62
     7
 10
342.7199337727215
 20
445.26891528945578
 30
0.0
 11
342.7199337727215
 21
435.89481523168701
 31
0.0
  0
ARC
  5
159A7
  8
0
 62
     7
 10
351.20697580160589
 20
418.4948392316864
 30
0.0
 40
28.087026028884861
 50
72.412046226011086
 51
107.5879537739889
  0
ARC
  5
159A8
  8
0
 62
     7
 10
351.20697580160589
 20
462.66889128945883
 30
0.0
 40
28.087026028886971
 50
252.412046226011
 51
287.58795377398889
  0
LINE
  5
159A9
  8
0
 62
     7
 10
336.5069878016061
 20
446.5818652605717
 30
0.0
 11
365.90696380160568
 21
446.58186526057119
 31
0.0
  0
LINE
  5
159AA
  8
0
 62
     7
 10
336.50698780160559
 20
434.5818652605717
 30
0.0
 11
365.90696380160529
 21
434.5818652605717
 31
0.0
  0
ARC
  5
159AB
  8
0
 62
     7
 10
363.93753884493202
 20
439.0677525141827
 30
0.0
 40
7.5141127463886157
 50
55.61575253194686
 51
124.3842474680517
  0
ARC
  5
159AC
  8
0
 62
     7
 10
363.93753884493202
 20
442.0959780069615
 30
0.0
 40
7.5141127463897712
 50
235.6157525319482
 51
304.3842474680531
  0
LINE
  5
159AD
  8
HIDDEN
  6
HIDDEN
 10
361.70697580160589
 20
430.5818652605717
 30
0.0
 11
361.70697580160589
 21
434.5818652605717
 31
0.0
  0
LINE
  5
159AE
  8
HIDDEN
  6
HIDDEN
 10
361.20697580160589
 20
429.58186526057159
 30
0.0
 11
361.20697580160589
 21
434.5818652605717
 31
0.0
  0
LINE
  5
159AF
  8
HIDDEN
  6
HIDDEN
 10
360.45697580160589
 20
429.58186526057159
 30
0.0
 11
360.45697580160589
 21
434.5818652605717
 31
0.0
  0
LINE
  5
159B0
  8
HIDDEN
  6
HIDDEN
 10
363.60697580160598
 20
430.5818652605717
 30
0.0
 11
365.20697580160589
 21
414.5818652605717
 31
0.0
  0
LINE
  5
159B1
  8
HIDDEN
  6
HIDDEN
 10
340.70697580160589
 20
430.5818652605717
 30
0.0
 11
340.70697580160589
 21
434.5818652605717
 31
0.0
  0
LINE
  5
159B2
  8
HIDDEN
  6
HIDDEN
 10
341.20697580160589
 20
429.58186526057159
 30
0.0
 11
341.20697580160589
 21
434.5818652605717
 31
0.0
  0
LINE
  5
159B3
  8
HIDDEN
  6
HIDDEN
 10
341.95697580160589
 20
429.58186526057159
 30
0.0
 11
341.95697580160589
 21
434.5818652605717
 31
0.0
  0
LINE
  5
159B4
  8
HIDDEN
  6
HIDDEN
 10
338.8069758016058
 20
430.5818652605717
 30
0.0
 11
337.20697580160589
 21
414.5818652605717
 31
0.0
  0
LINE
  5
159B5
  8
HIDDEN
  6
HIDDEN
 10
338.70697580160589
 20
429.58186526057159
 30
0.0
 11
363.70697580160589
 21
429.58186526057159
 31
0.0
  0
LINE
  5
159B6
  8
HIDDEN
  6
HIDDEN
 10
338.8069758016058
 20
430.5818652605717
 30
0.0
 11
363.60697580160598
 21
430.5818652605717
 31
0.0
  0
LINE
  5
159B7
  8
0
 10
307.79543306972619
 20
507.00322938533282
 30
0.0
 11
365.20697580160538
 21
507.0032293853323
 31
0.0
  0
ARC
  5
159B8
  8
0
 10
351.20697580160589
 20
525.50322938533282
 30
0.0
 40
47.25
 50
220.36759354419181
 51
229.63240645580939
  0
POLYLINE
  5
159B9
  8
0
 66
     1
 10
0.0
 20
0.0
 30
0.0
  0
VERTEX
  5
15AB2
  8
0
 10
315.20697580160589
 20
507.00322938533282
 30
0.0
  0
VERTEX
  5
15AB3
  8
0
 10
315.20697580160589
 20
494.89992074067771
 30
0.0
  0
SEQEND
  5
15AB4
  8
0
  0
CIRCLE
  5
159BA
  8
0
 10
322.70697580160589
 20
497.00322938533282
 30
0.0
 40
4.5
  0
TEXT
  5
159BB
  8
DIM
 10
316.12704084812862
 20
457.57159480751528
 30
0.0
 40
3.0
  1
65
  7
ROMANS
  0
TEXT
  5
159BC
  8
DIM
 10
321.21809060699792
 20
465.57159480751528
 30
0.0
 40
3.0
  1
96
  7
ROMANS
  0
LINE
  5
159BD
  8
CENTER
  6
CENTER
 10
322.70697580160589
 20
487.00322938533282
 30
0.0
 11
322.70697580160589
 21
507.00322938533282
 31
0.0
  0
LINE
  5
159BE
  8
CENTER
  6
CENTER
 10
332.70697580160589
 20
497.00322938533282
 30
0.0
 11
312.70697580160589
 21
497.00322938533282
 31
0.0
  0
LINE
  5
159BF
  8
DIM
 10
370.20697580160589
 20
435.96307581452493
 30
0.0
 11
370.20697580160589
 21
465.57159480751528
 31
0.0
  0
LINE
  5
159C0
  8
DIM
 10
373.14550211492218
 20
414.5818652605717
 30
0.0
 11
420.00697580160607
 21
414.5818652605717
 31
0.0
  0
LINE
  5
159C1
  8
DIM
 10
371.90695580160622
 20
446.5818652605717
 30
0.0
 11
428.00697580160607
 21
446.5818652605717
 31
0.0
  0
LINE
  5
159C2
  8
DIM
 10
373.14550211492218
 20
434.5818652605717
 30
0.0
 11
420.00697580160607
 21
434.5818652605717
 31
0.0
  0
LINE
  5
159C3
  8
0
 10
370.20697580160589
 20
414.5818652605717
 30
0.0
 11
370.20697580160589
 21
434.5818652605717
 31
0.0
  0
SOLID
  5
159C4
  8
DIM
 10
427.52792033470581
 20
443.62744200157152
 30
0.0
 11
426.48603126850588
 21
443.62744200157152
 31
0.0
 12
427.00697580160607
 22
446.5818652605717
 32
0.0
 13
427.00697580160607
 23
446.5818652605717
 33
0.0
  0
SOLID
  5
159C5
  8
DIM
 10
419.52792033470581
 20
431.62744200157152
 30
0.0
 11
418.48603126850588
 21
431.62744200157152
 31
0.0
 12
419.00697580160607
 22
434.5818652605717
 32
0.0
 13
419.00697580160607
 23
434.5818652605717
 33
0.0
  0
TEXT
  5
159C6
  8
DIM
 10
418.00697580160607
 20
421.61517812047941
 30
0.0
 40
3.0
  1
20
 50
90.0
  7
ROMANS
  0
SOLID
  5
159C7
  8
DIM
 10
419.52792033470581
 20
411.62744200157158
 30
0.0
 11
418.48603126850588
 21
411.62744200157158
 31
0.0
 12
419.00697580160607
 22
414.5818652605717
 32
0.0
 13
419.00697580160607
 23
414.5818652605717
 33
0.0
  0
SOLID
  5
159C8
  8
DIM
 10
419.52792033470581
 20
417.53628851957183
 30
0.0
 11
418.48603126850588
 21
417.53628851957183
 31
0.0
 12
419.00697580160607
 22
414.5818652605717
 32
0.0
 13
419.00697580160607
 23
414.5818652605717
 33
0.0
  0
SOLID
  5
159C9
  8
DIM
 10
411.52792033470581
 20
411.62744200157158
 30
0.0
 11
410.48603126850588
 21
411.62744200157158
 31
0.0
 12
411.00697580160607
 22
414.5818652605717
 32
0.0
 13
411.00697580160607
 23
414.5818652605717
 33
0.0
  0
LINE
  5
159CA
  8
DIM
 10
384.77448483284468
 20
489.5032293853327
 30
0.0
 11
412.20697580160589
 21
489.5032293853327
 31
0.0
  0
LINE
  5
159CB
  8
DIM
 10
411.6599979653837
 20
479.5257676519854
 30
0.0
 11
397.20804579417381
 21
479.5257676519854
 31
0.0
  0
TEXT
  5
159CC
  8
DIM
 10
399.48343772131142
 20
480.5257676519854
 30
0.0
 40
3.0
  1
4-%%c9
  7
ROMANS
  0
ARC
  5
159CD
  8
0
 10
351.20697580160589
 20
525.50322938533282
 30
0.0
 40
47.25
 50
310.36759354419058
 51
319.63240645580811
  0
CIRCLE
  5
159CE
  8
0
 10
379.70697580160589
 20
497.00322938533282
 30
0.0
 40
4.5
  0
SOLID
  5
159CF
  8
DIM
 10
395.72792033470608
 20
509.95765264433339
 30
0.0
 11
394.6860312685057
 21
509.95765264433339
 31
0.0
 12
395.20697580160589
 22
507.00322938533333
 32
0.0
 13
395.20697580160589
 23
507.00322938533333
 33
0.0
  0
SOLID
  5
159D0
  8
DIM
 10
403.72792033470608
 20
499.95765264433288
 30
0.0
 11
402.6860312685057
 21
499.95765264433288
 31
0.0
 12
403.20697580160589
 22
497.00322938533282
 32
0.0
 13
403.20697580160589
 23
497.00322938533282
 33
0.0
  0
LINE
  5
159D1
  8
DIM
 10
392.20697580160589
 20
497.00322938533282
 30
0.0
 11
404.20697580160589
 21
497.00322938533282
 31
0.0
  0
SOLID
  5
159D2
  8
DIM
 10
385.34972017842108
 20
492.10432693388333
 30
0.0
 11
384.61349076537988
 21
491.36710303462309
 31
0.0
 12
382.89110322389479
 22
493.82339722645418
 32
0.0
 13
382.89110322389479
 23
493.82339722645418
 33
0.0
  0
LINE
  5
159D3
  8
DIM
 10
397.20804579417381
 20
479.5257676519854
 30
0.0
 11
382.89110322389479
 21
493.82339722645418
 31
0.0
  0
LINE
  5
159D4
  8
CENTER
  6
CENTER
 10
389.70697580160589
 20
497.00322938533282
 30
0.0
 11
369.70697580160589
 21
497.00322938533282
 31
0.0
  0
LINE
  5
159D5
  8
CENTER
  6
CENTER
 10
379.70697580160589
 20
507.00322938533282
 30
0.0
 11
379.70697580160589
 21
487.00322938533282
 31
0.0
  0
SOLID
  5
159D6
  8
DIM
 10
411.72792033470608
 20
492.45765264433288
 30
0.0
 11
410.6860312685057
 21
492.45765264433288
 31
0.0
 12
411.20697580160589
 22
489.5032293853327
 32
0.0
 13
411.20697580160589
 23
489.5032293853327
 33
0.0
  0
LINE
  5
159D7
  8
0
 10
521.66998505417814
 20
414.5818652605717
 30
0.0
 11
521.66998505417814
 21
380.5818652605717
 31
0.0
  0
LINE
  5
159D8
  8
0
 10
549.66998505417814
 20
414.5818652605717
 30
0.0
 11
549.66998505417814
 21
380.5818652605717
 31
0.0
  0
LINE
  5
159D9
  8
0
 10
563.66998505417814
 20
380.5818652605717
 30
0.0
 11
507.66998505417808
 21
380.5818652605717
 31
0.0
  0
LINE
  5
159DA
  8
0
 62
     4
 10
568.66998505417814
 20
375.5818652605717
 30
0.0
 11
502.66998505417808
 21
375.5818652605717
 31
0.0
  0
LINE
  5
159DB
  8
0
 10
500.66998505417808
 20
314.5818652605717
 30
0.0
 11
570.66998505417814
 21
314.5818652605717
 31
0.0
  0
LINE
  5
159DC
  8
0
 10
499.66998505417808
 20
313.5818652605717
 30
0.0
 11
571.66998505417814
 21
313.5818652605717
 31
0.0
  0
LINE
  5
159DD
  8
CENTER
  6
CENTER
 10
499.61211844335998
 20
365.5818652605717
 30
0.0
 11
519.61211844336003
 21
365.5818652605717
 31
0.0
  0
LINE
  5
159DE
  8
CENTER
  6
CENTER
 10
496.61211844336037
 20
302.0818652605717
 30
0.0
 11
516.61211844336037
 21
302.0818652605717
 31
0.0
  0
LINE
  5
159DF
  8
HIDDEN
  6
HIDDEN
 10
502.66998505417808
 20
371.3318652605717
 30
0.0
 11
512.66998505417814
 21
370.80778746774098
 31
0.0
  0
LINE
  5
159E0
  8
HIDDEN
  6
HIDDEN
 10
502.66998505417808
 20
372.13186526057137
 30
0.0
 11
512.66998505417814
 21
371.60778746774122
 31
0.0
  0
LINE
  5
159E1
  8
HIDDEN
  6
HIDDEN
 10
502.66998505417808
 20
359.83186526057159
 30
0.0
 11
512.66998505417814
 21
360.35594305340192
 31
0.0
  0
LINE
  5
159E2
  8
HIDDEN
  6
HIDDEN
 10
502.66998505417808
 20
359.03186526057152
 30
0.0
 11
512.66998505417814
 21
359.55594305340168
 31
0.0
  0
LINE
  5
159E3
  8
HIDDEN
  6
HIDDEN
 10
499.66998505417808
 20
307.83186526057159
 30
0.0
 11
509.66998505417808
 21
307.30778746774098
 31
0.0
  0
LINE
  5
159E4
  8
HIDDEN
  6
HIDDEN
 10
499.66998505417808
 20
308.63186526057189
 30
0.0
 11
509.66998505417808
 21
308.10778746774122
 31
0.0
  0
LINE
  5
159E5
  8
HIDDEN
  6
HIDDEN
 10
499.66998505417808
 20
296.3318652605717
 30
0.0
 11
509.66998505417808
 21
296.85594305340192
 31
0.0
  0
LINE
  5
159E6
  8
HIDDEN
  6
HIDDEN
 10
499.66998505417808
 20
295.53186526057152
 30
0.0
 11
509.66998505417808
 21
296.05594305340219
 31
0.0
  0
LINE
  5
159E7
  8
0
 10
502.66998505417808
 20
375.5818652605717
 30
0.0
 11
502.66998505417808
 21
314.5818652605717
 31
0.0
  0
LINE
  5
159E8
  8
0
 10
500.66998505417808
 20
314.5818652605717
 30
0.0
 11
499.66998505417808
 21
313.5818652605717
 31
0.0
  0
LINE
  5
159E9
  8
0
 10
506.06667640952298
 20
314.5818652605717
 30
0.0
 11
505.0666764095231
 21
313.5818652605717
 31
0.0
  0
ARC
  5
159EA
  8
0
 10
507.66998505417808
 20
375.5818652605717
 30
0.0
 40
5.0
 50
90.0
 51
180.0
  0
LINE
  5
159EB
  8
0
 10
568.66998505417814
 20
375.5818652605717
 30
0.0
 11
568.66998505417814
 21
314.5818652605717
 31
0.0
  0
LINE
  5
159EC
  8
0
 10
571.66998505417814
 20
313.5818652605717
 30
0.0
 11
570.66998505417814
 21
314.5818652605717
 31
0.0
  0
LINE
  5
159ED
  8
0
 10
565.27329369883307
 20
314.5818652605717
 30
0.0
 11
566.27329369883319
 21
313.5818652605717
 31
0.0
  0
ARC
  5
159EE
  8
0
 10
563.66998505417814
 20
375.5818652605717
 30
0.0
 40
5.0
 50
0.0
 51
90.0
  0
LINE
  5
159EF
  8
0
 10
517.16998505417814
 20
414.5818652605717
 30
0.0
 11
554.16998505417814
 21
414.5818652605717
 31
0.0
  0
LINE
  5
159F0
  8
0
 10
554.16998505417814
 20
434.5818652605717
 30
0.0
 11
517.16998505417814
 21
434.5818652605717
 31
0.0
  0
LINE
  5
159F1
  8
0
 62
     7
 10
520.66998505417814
 20
446.5818652605717
 30
0.0
 11
550.66998505417814
 21
446.58186526057119
 31
0.0
  0
LINE
  5
159F2
  8
0
 62
     7
 10
520.96999705417784
 20
434.5818652605717
 30
0.0
 11
550.36997305417754
 21
434.5818652605717
 31
0.0
  0
ARC
  5
159F3
  8
0
 62
     7
 10
543.16998505417757
 20
424.50416279587671
 30
0.0
 40
22.077702464694589
 50
70.14083829446443
 51
109.8591617055355
  0
ARC
  5
159F4
  8
0
 62
     7
 10
543.16998505417757
 20
456.65956772527068
 30
0.0
 40
22.077702464699051
 50
250.1408382944644
 51
289.85916170553548
  0
LINE
  5
159F5
  8
0
 62
     7
 10
535.66998505417814
 20
445.26891528945578
 30
0.0
 11
535.66998505417769
 21
435.89481523168701
 31
0.0
  0
ARC
  5
159F6
  8
0
 62
     7
 10
528.16998505417905
 20
424.50416279587671
 30
0.0
 40
22.077702464694589
 50
70.14083829446443
 51
109.8591617055355
  0
LINE
  5
159F7
  8
0
 10
517.16998505417814
 20
414.5818652605717
 30
0.0
 11
517.16998505417814
 21
434.5818652605717
 31
0.0
  0
LINE
  5
159F8
  8
0
 10
522.16998505417814
 20
414.5818652605717
 30
0.0
 11
522.16998505417814
 21
434.5818652605717
 31
0.0
  0
ARC
  5
159F9
  8
0
 62
     7
 10
528.1699850541786
 20
456.65956772527068
 30
0.0
 40
22.077702464699051
 50
250.1408382944644
 51
289.85916170553548
  0
LINE
  5
159FA
  8
0
 62
     7
 10
520.66998505417814
 20
446.58186526057119
 30
0.0
 11
520.66998505417905
 21
434.5818652605717
 31
0.0
  0
LINE
  5
159FB
  8
0
 10
554.16998505417814
 20
414.5818652605717
 30
0.0
 11
554.16998505417814
 21
434.5818652605717
 31
0.0
  0
LINE
  5
159FC
  8
0
 10
549.16998505417814
 20
414.5818652605717
 30
0.0
 11
549.16998505417814
 21
434.5818652605717
 31
0.0
  0
LINE
  5
159FD
  8
0
 62
     7
 10
550.66998505417814
 20
446.58186526057119
 30
0.0
 11
550.66998505417757
 21
434.5818652605717
 31
0.0
  0
LINE
  5
159FE
  8
0
 10
365.20697580160589
 20
544.00322938533225
 30
0.0
 11
370.20697580160589
 21
539.00322938533225
 31
0.0
  0
POLYLINE
  5
159FF
  8
0
 66
     1
 10
0.0
 20
0.0
 30
0.0
  0
VERTEX
  5
15AB5
  8
0
 10
381.81028444626048
 20
561.50322938533282
 30
0.0
  0
VERTEX
  5
15AB6
  8
0
 10
320.6036671569513
 20
561.50322938533282
 30
0.0
  0
SEQEND
  5
15AB7
  8
0
  0
LINE
  5
15A00
  8
DIM
 10
368.19164064563478
 20
544.00322938533225
 30
0.0
 11
396.20697580160589
 21
544.00322938533225
 31
0.0
  0
LINE
  5
15A01
  8
0
 10
365.20697580160589
 20
544.00322938533225
 30
0.0
 11
307.79543306972568
 21
544.0032293853327
 31
0.0
  0
ARC
  5
15A02
  8
0
 10
351.20697580160589
 20
525.50322938533282
 30
0.0
 40
47.25
 50
130.3675935441905
 51
139.63240645580811
  0
CIRCLE
  5
15A03
  8
0
 10
322.70697580160589
 20
554.00322938533282
 30
0.0
 40
4.5
  0
POLYLINE
  5
15A04
  8
0
 66
     1
 10
0.0
 20
0.0
 30
0.0
  0
VERTEX
  5
15AB8
  8
0
 10
315.20697580160589
 20
556.10653802998741
 30
0.0
  0
VERTEX
  5
15AB9
  8
0
 10
315.20697580160589
 20
544.0032293853327
 30
0.0
  0
SEQEND
  5
15ABA
  8
0
  0
LINE
  5
15A05
  8
CENTER
  6
CENTER
 10
322.70697580160589
 20
544.0032293853327
 30
0.0
 11
322.70697580160589
 21
564.00322938533282
 31
0.0
  0
LINE
  5
15A06
  8
CENTER
  6
CENTER
 10
312.70697580160589
 20
554.00322938533282
 30
0.0
 11
332.70697580160589
 21
554.00322938533282
 31
0.0
  0
CIRCLE
  5
15A07
  8
0
 62
     7
 10
351.20697580160589
 20
525.50322938533282
 30
0.0
 40
10.0
  0
CIRCLE
  5
15A08
  8
0
 62
     7
 10
351.20697580160589
 20
525.50322938533282
 30
0.0
 40
9.25
  0
LINE
  5
15A09
  8
DIM
 10
384.77448483284468
 20
561.50322938533282
 30
0.0
 11
412.20697580160589
 21
561.50322938533282
 31
0.0
  0
CIRCLE
  5
15A0A
  8
0
 10
379.70697580160589
 20
554.00322938533282
 30
0.0
 40
4.5
  0
ARC
  5
15A0B
  8
0
 10
351.20697580160589
 20
525.50322938533282
 30
0.0
 40
47.25
 50
40.367593544191841
 51
49.632406455809388
  0
SOLID
  5
15A0C
  8
DIM
 10
403.72792033470608
 20
551.04880612633269
 30
0.0
 11
402.6860312685057
 21
551.04880612633269
 31
0.0
 12
403.20697580160589
 22
554.00322938533282
 32
0.0
 13
403.20697580160589
 23
554.00322938533282
 33
0.0
  0
LINE
  5
15A0D
  8
DIM
 10
392.20697580160589
 20
554.00322938533282
 30
0.0
 11
404.20697580160589
 21
554.00322938533282
 31
0.0
  0
SOLID
  5
15A0E
  8
DIM
 10
395.72792033470608
 20
541.04880612633224
 30
0.0
 11
394.6860312685057
 21
541.04880612633224
 31
0.0
 12
395.20697580160589
 22
544.00322938533225
 32
0.0
 13
395.20697580160589
 23
544.00322938533225
 33
0.0
  0
POLYLINE
  5
15A0F
  8
DIM
 66
     1
 10
0.0
 20
0.0
 30
0.0
 70
     1
  0
VERTEX
  5
15ABB
  8
DIM
 10
399.50002719280099
 20
523.74286017387828
 30
0.0
  0
VERTEX
  5
15ABC
  8
DIM
 10
402.04848987192503
 20
523.74286017387828
 30
0.0
  0
VERTEX
  5
15ABD
  8
DIM
 10
402.04848987192503
 20
521.19802157343474
 30
0.0
  0
VERTEX
  5
15ABE
  8
DIM
 10
399.50002719280099
 20
521.19802157343474
 30
0.0
  0
SEQEND
  5
15ABF
  8
DIM
  0
TEXT
  5
15A10
  8
DIM
 10
402.20697580160589
 20
524.08365277938719
 30
0.0
 40
3.0
  1
57
 50
90.0
  7
ROMANS
  0
TEXT
  5
15A11
  8
DIM
 10
394.20697580160589
 20
522.54995249832382
 30
0.0
 40
3.0
  1
37
 50
90.0
  7
ROMANS
  0
LINE
  5
15A12
  8
CENTER
  6
CENTER
 10
379.70697580160589
 20
564.00322938533282
 30
0.0
 11
379.70697580160589
 21
544.0032293853327
 31
0.0
  0
LINE
  5
15A13
  8
CENTER
  6
CENTER
 10
369.70697580160589
 20
554.00322938533282
 30
0.0
 11
389.70697580160589
 21
554.00322938533282
 31
0.0
  0
SOLID
  5
15A14
  8
DIM
 10
411.72792033470608
 20
558.54880612633258
 30
0.0
 11
410.6860312685057
 21
558.54880612633258
 31
0.0
 12
411.20697580160589
 22
561.50322938533282
 32
0.0
 13
411.20697580160589
 23
561.50322938533282
 33
0.0
  0
POLYLINE
  5
15A15
  8
DIM
 66
     1
 10
0.0
 20
0.0
 30
0.0
 70
     1
  0
VERTEX
  5
15AC0
  8
DIM
 10
407.50002719280099
 20
523.74286017387828
 30
0.0
  0
VERTEX
  5
15AC1
  8
DIM
 10
410.04848987192503
 20
523.74286017387828
 30
0.0
  0
VERTEX
  5
15AC2
  8
DIM
 10
410.04848987192503
 20
521.19802157343474
 30
0.0
  0
VERTEX
  5
15AC3
  8
DIM
 10
407.50002719280099
 20
521.19802157343474
 30
0.0
  0
SEQEND
  5
15AC4
  8
DIM
  0
TEXT
  5
15A16
  8
DIM
 10
410.20697580160589
 20
524.118407640643
 30
0.0
 40
3.0
  1
72
 50
90.0
  7
ROMANS
  0
ENDSEC
  0
EOF
