  0
SECTION
  2
HEADER
  9
$ACADVER
  1
AC1009
  9
$INSBASE
 10
0.0
 20
0.0
 30
0.0
  9
$EXTMIN
 10
489.67083563231699
 20
-20.53506413203592
 30
-0.0000000000000021
  9
$EXTMAX
 10
635.82602908506237
 20
133.11198624822541
 30
0.0000000000000132
  9
$LIMMIN
 10
0.0
 20
0.0
  9
$LIMMAX
 10
396.0
 20
273.0
  9
$ORTHOMODE
 70
     1
  9
$REGENMODE
 70
     1
  9
$FILLMODE
 70
     1
  9
$QTEXTMODE
 70
     0
  9
$MIRRTEXT
 70
     1
  9
$DRAGMODE
 70
     2
  9
$LTSCALE
 40
6.0
  9
$OSMODE
 70
    39
  9
$ATTMODE
 70
     1
  9
$TEXTSIZE
 40
6.0
  9
$TRACEWID
 40
0.05
  9
$TEXTSTYLE
  7
CHINESET
  9
$CLAYER
  8
0
  9
$CELTYPE
  6
BYLAYER
  9
$CECOLOR
 62
   256
  9
$DIMSCALE
 40
1.0
  9
$DIMASZ
 40
3.0
  9
$DIMEXO
 40
2.0
  9
$DIMDLI
 40
8.0
  9
$DIMRND
 40
0.0
  9
$DIMDLE
 40
0.0
  9
$DIMEXE
 40
2.0
  9
$DIMTP
 40
0.0
  9
$DIMTM
 40
0.0
  9
$DIMTXT
 40
3.0
  9
$DIMCEN
 40
-3.0
  9
$DIMTSZ
 40
0.0
  9
$DIMTOL
 70
     0
  9
$DIMLIM
 70
     0
  9
$DIMTIH
 70
     0
  9
$DIMTOH
 70
     0
  9
$DIMSE1
 70
     0
  9
$DIMSE2
 70
     0
  9
$DIMTAD
 70
     1
  9
$DIMZIN
 70
     8
  9
$DIMBLK
  1

  9
$DIMASO
 70
     1
  9
$DIMSHO
 70
     1
  9
$DIMPOST
  1

  9
$DIMAPOST
  1

  9
$DIMALT
 70
     0
  9
$DIMALTD
 70
     2
  9
$DIMALTF
 40
25.399999999999999
  9
$DIMLFAC
 40
1.0
  9
$DIMTOFL
 70
     0
  9
$DIMTVP
 40
0.0
  9
$DIMTIX
 70
     0
  9
$DIMSOXD
 70
     0
  9
$DIMSAH
 70
     0
  9
$DIMBLK1
  1

  9
$DIMBLK2
  1

  9
$DIMSTYLE
  2
STANDARD
  9
$DIMCLRD
 70
   256
  9
$DIMCLRE
 70
   256
  9
$DIMCLRT
 70
   256
  9
$DIMTFAC
 40
0.5
  9
$DIMGAP
 40
1.0
  9
$LUNITS
 70
     2
  9
$LUPREC
 70
     2
  9
$SKETCHINC
 40
0.1
  9
$FILLETRAD
 40
8.0
  9
$AUNITS
 70
     0
  9
$AUPREC
 70
     0
  9
$MENU
  1
ACAD
  9
$ELEVATION
 40
0.0
  9
$PELEVATION
 40
0.0
  9
$THICKNESS
 40
0.0
  9
$LIMCHECK
 70
     0
  9
$BLIPMODE
 70
     0
  9
$CHAMFERA
 40
2.0
  9
$CHAMFERB
 40
2.0
  9
$SKPOLY
 70
     0
  9
$TDCREATE
 40
2450436.7992719901
  9
$TDUPDATE
 40
2451946.6805415158
  9
$TDINDWG
 40
9.2895147338000008
  9
$TDUSRTIMER
 40
9.2895147338000008
  9
$USRTIMER
 70
     1
  9
$ANGBASE
 50
0.0
  9
$ANGDIR
 70
     0
  9
$PDMODE
 70
    65
  9
$PDSIZE
 40
8.3000000000000007
  9
$PLINEWID
 40
0.0
  9
$COORDS
 70
     2
  9
$SPLFRAME
 70
     0
  9
$SPLINETYPE
 70
     6
  9
$SPLINESEGS
 70
     8
  9
$ATTDIA
 70
     0
  9
$ATTREQ
 70
     1
  9
$HANDLING
 70
 12289
  9
$HANDSEED
  5
72B
  9
$SURFTAB1
 70
     6
  9
$SURFTAB2
 70
     6
  9
$SURFTYPE
 70
     6
  9
$SURFU
 70
     6
  9
$SURFV
 70
     6
  9
$UCSNAME
  2

  9
$UCSORG
 10
0.0
 20
0.0
 30
0.0
  9
$UCSXDIR
 10
1.0
 20
0.0
 30
0.0
  9
$UCSYDIR
 10
0.0
 20
1.0
 30
0.0
  9
$PUCSNAME
  2

  9
$PUCSORG
 10
0.0
 20
0.0
 30
0.0
  9
$PUCSXDIR
 10
1.0
 20
0.0
 30
0.0
  9
$PUCSYDIR
 10
0.0
 20
1.0
 30
0.0
  9
$USERI1
 70
     0
  9
$USERI2
 70
     0
  9
$USERI3
 70
     0
  9
$USERI4
 70
     0
  9
$USERI5
 70
     0
  9
$USERR1
 40
0.0
  9
$USERR2
 40
0.0
  9
$USERR3
 40
0.0
  9
$USERR4
 40
0.0
  9
$USERR5
 40
0.0
  9
$WORLDVIEW
 70
     1
  9
$SHADEDGE
 70
     3
  9
$SHADEDIF
 70
    70
  9
$TILEMODE
 70
     1
  9
$MAXACTVP
 70
    16
  9
$PLIMCHECK
 70
     0
  9
$PEXTMIN
 10
1.0000000000000000E+020
 20
1.0000000000000000E+020
 30
1.0000000000000000E+020
  9
$PEXTMAX
 10
-1.0000000000000000E+020
 20
-1.0000000000000000E+020
 30
-1.0000000000000000E+020
  9
$PLIMMIN
 10
0.0
 20
0.0
  9
$PLIMMAX
 10
12.0
 20
9.0
  9
$UNITMODE
 70
     0
  9
$VISRETAIN
 70
     0
  9
$PLINEGEN
 70
     0
  9
$PSLTSCALE
 70
     0
  0
ENDSEC
  0
SECTION
  2
TABLES
  0
TABLE
  2
VPORT
 70
     2
  0
VPORT
  2
*ACTIVE
 70
     0
 10
0.0
 20
0.0
 11
1.0
 21
1.0
 12
562.74843235868957
 22
56.288461058094761
 13
0.0
 23
0.0
 14
1.0
 24
1.0
 15
0.0
 25
0.0
 16
0.0
 26
0.0
 36
1.0
 17
0.0
 27
0.0
 37
0.0
 40
155.34168696533769
 41
1.7274401473296499
 42
50.0
 43
0.0
 44
0.0
 50
0.0
 51
0.0
 71
     0
 72
   100
 73
     1
 74
     1
 75
     0
 76
     0
 77
     0
 78
     0
  0
ENDTAB
  0
TABLE
  2
LTYPE
 70
     3
  0
LTYPE
  2
CONTINUOUS
 70
     0
  3
Solid line
 72
    65
 73
     0
 40
0.0
  0
LTYPE
  2
HIDDEN
 70
     0
  3
__ __ __ __ __ __ __ __ __ __ __ __ __ __ __ __
 72
    65
 73
     2
 40
0.375
 49
0.25
 49
-0.125
  0
LTYPE
  2
CENTER
 70
     0
  3
____ _ ____ _ ____ _ ____ _ ____ _ ____ _ ____ 
 72
    65
 73
     4
 40
2.0
 49
1.25
 49
-0.25
 49
0.25
 49
-0.25
  0
ENDTAB
  0
TABLE
  2
LAYER
 70
     9
  0
LAYER
  2
0
 70
     0
 62
     7
  6
CONTINUOUS
  0
LAYER
  2
LOGO
 70
     0
 62
     7
  6
CONTINUOUS
  0
LAYER
  2
CENTER
 70
     0
 62
     1
  6
CENTER
  0
LAYER
  2
HIDDEN
 70
     0
 62
     6
  6
HIDDEN
  0
LAYER
  2
DIM
 70
     0
 62
     5
  6
CONTINUOUS
  0
ENDTAB
  0
TABLE
  2
STYLE
 70
     4
  0
STYLE
  2
STANDARD
 70
     0
 40
0.0
 41
1.0
 50
0.0
 71
     0
 42
0.2
  3
txt
  4

  0
STYLE
  2
CHINESET
 70
     0
 40
0.0
 41
1.0
 50
0.0
 71
     0
 42
6.0
  3
C:\r13\com\fonts\simplex.shx
  4
C:\r13\com\fonts\chineset.shx
  0
STYLE
  2
ITALIC
 70
     0
 40
0.0
 41
1.0
 50
0.0
 71
     0
 42
3.0
  3
italic.shx
  4
chineset.shx
  0
STYLE
  2
LOGO
 70
     0
 40
0.0
 41
1.0
 50
0.0
 71
     0
 42
5.0
  3
txt
  4

  0
ENDTAB
  0
TABLE
  2
VIEW
 70
     0
  0
ENDTAB
  0
TABLE
  2
UCS
 70
     0
  0
ENDTAB
  0
TABLE
  2
APPID
 70
     2
  0
APPID
  2
ACAD
 70
     0
  0
APPID
  2
TCAD
 70
     0
  0
ENDTAB
  0
TABLE
  2
DIMSTYLE
 70
     2
  0
DIMSTYLE
  2
STANDARD
 70
     0
  3

  4

  5

  6

  7

 40
1.0
 41
3.0
 42
2.0
 43
8.0
 44
2.0
 45
0.0
 46
0.0
 47
0.0
 48
0.0
140
3.0
141
-3.0
142
0.0
143
25.399999999999999
144
1.0
145
0.0
146
0.5
147
1.0
 71
     0
 72
     0
 73
     0
 74
     0
 75
     0
 76
     0
 77
     1
 78
     8
170
     0
171
     2
172
     0
173
     0
174
     0
175
     0
176
   256
177
   256
178
   256
  0
DIMSTYLE
  2
DIM2
 70
     0
  3

  4

  5

  6

  7

 40
1.0
 41
3.0
 42
2.0
 43
8.0
 44
2.0
 45
0.0
 46
0.0
 47
0.0
 48
0.0
140
3.0
141
-1.0
142
0.0
143
25.399999999999999
144
1.0
145
0.0
146
0.6
147
1.5
 71
     0
 72
     0
 73
     0
 74
     0
 75
     0
 76
     0
 77
     1
 78
     8
170
     0
171
     2
172
     0
173
     0
174
     0
175
     0
176
   256
177
   256
178
   256
  0
ENDTAB
  0
ENDSEC
  0
SECTION
  2
BLOCKS
  0
BLOCK
  8
0
  2
$MODEL_SPACE
 70
     0
 10
0.0
 20
0.0
 30
0.0
  3
$MODEL_SPACE
  1

  0
ENDBLK
  5
6
  8
0
  0
BLOCK
 67
     1
  8
0
  2
$PAPER_SPACE
 70
     0
 10
0.0
 20
0.0
 30
0.0
  3
$PAPER_SPACE
  1

  0
ENDBLK
  5
9
 67
     1
  8
0
  0
BLOCK
  8
0
  2
*U13
 70
     1
 10
0.0
 20
0.0
 30
0.0
  3
*U13
  1

  0
TEXT
  5
70D
  8
0
 10
58.389526764837981
 20
72.740390107684576
 30
0.0
 40
1.9199999999999999
  1
80
  7
CHINESET
  0
TEXT
  5
70E
  8
0
 10
62.04666962198084
 20
72.740390107684576
 30
0.0
 40
1.9199999999999999
  1
°
  7
CHINESET
  0
ENDBLK
  5
710
  8
0
  0
BLOCK
  8
0
  2
*U14
 70
     1
 10
0.0
 20
0.0
 30
0.0
  3
*U14
  1

  0
TEXT
  5
71D
  8
0
 10
563.30996514389835
 20
85.379512676657868
 30
0.0
 40
2.0000000000000062
  1
80
  7
CHINESET
  0
TEXT
  5
71E
  8
0
 10
567.11948895342221
 20
85.379512676657868
 30
0.0
 40
2.0000000000000062
  1
°
  7
CHINESET
  0
ENDBLK
  5
720
  8
0
  0
ENDSEC
  0
SECTION
  2
ENTITIES
  0
TEXT
  5
287
  8
LOGO
 62
     6
 10
528.10934167112873
 20
-10.24755710281185
 30
0.0
 40
2.2831844855688281
  1
m/m
  7
CHINESET
 72
     1
 11
532.13209528855953
 21
-9.1059648600274432
 31
0.0
 73
     2
  0
TEXT
  5
288
  8
LOGO
 62
     6
 10
528.10934167112873
 20
-1.1148191605365461
 30
0.0
 40
2.2831844855688281
  1
1 : 1
  7
CHINESET
 72
     1
 11
532.13209528855953
 21
0.0267730822478676
 31
0.0
 73
     2
  0
TEXT
  5
289
  8
LOGO
 62
     6
 10
509.32263785897192
 20
-10.24755710281185
 30
0.0
 40
2.2831844855688281
  1
單位 Unit:
 41
0.9
  7
CHINESET
 72
     4
 11
515.55145053366425
 21
-9.1059648600274432
 31
0.0
  0
TEXT
  5
28A
  8
LOGO
 62
     6
 10
508.30132051319509
 20
-1.1136955461243569
 30
0.0
 40
2.2831844855688281
  1
比例 Scale:
 41
0.9
  7
CHINESET
 72
     4
 11
515.55145053366425
 21
0.0267730822478676
 31
0.0
  0
LINE
  5
28B
  8
LOGO
 62
     1
 10
635.79916677362269
 20
-20.521887287871579
 30
0.0
 11
635.79916677362269
 21
2.3099575678166948
 31
0.0
  0
LINE
  5
28C
  8
LOGO
 62
     1
 10
524.68418847593966
 20
-11.38914934559627
 30
0.0
 11
524.68418847593966
 21
2.3099575678166948
 31
0.0
  0
LINE
  5
28D
  8
LOGO
 62
     1
 10
539.90541837973194
 20
-2.2564114033209601
 30
0.0
 11
506.41871259138901
 21
-2.2564114033209601
 31
0.0
  0
LINE
  5
28E
  8
LOGO
 62
     1
 10
539.90541837973194
 20
-6.822780374458616
 30
0.0
 11
506.41871259138901
 21
-6.822780374458616
 31
0.0
  0
LINE
  5
28F
  8
LOGO
 62
     1
 10
489.67535969721757
 20
-20.521887287871579
 30
0.0
 11
489.67535969721757
 21
2.3099575678166948
 31
0.0
  0
LINE
  5
290
  8
LOGO
 62
     1
 10
539.90541837973194
 20
-11.389149345596239
 30
0.0
 11
489.67535969721757
 21
-11.389149345596239
 31
0.0
  0
TEXT
  5
291
  8
LOGO
 62
     6
 10
509.09941580435589
 20
-5.6490714863924563
 30
0.0
 40
2.2831844855688281
  1
投影 View:
 41
0.9
  7
CHINESET
 72
     4
 11
515.55145053366425
 21
-4.5395958888897878
 31
0.0
  0
CIRCLE
  5
292
  8
LOGO
  6
CONTINUOUS
 62
     6
 10
528.91179012717146
 20
-4.5347121405672404
 30
0.0
 40
1.325670652426121
  0
CIRCLE
  5
293
  8
LOGO
  6
CONTINUOUS
 62
     6
 10
528.91179012717146
 20
-4.5347121405672404
 30
0.0
 40
0.7767256473386346
  0
LINE
  5
294
  8
LOGO
  6
CONTINUOUS
 62
     6
 10
533.0865569331055
 20
-3.7579864932286009
 30
0.0
 11
537.242458331335
 21
-3.209041488141116
 31
0.0
  0
LINE
  5
295
  8
LOGO
  6
CONTINUOUS
 62
     6
 10
533.0865569331055
 20
-5.3114377879058683
 30
0.0
 11
537.242458331335
 21
-5.8603827929933594
 31
0.0
  0
LINE
  5
296
  8
LOGO
 62
     6
 10
533.0865569331055
 20
-5.3114377879058727
 30
0.0
 11
533.0865569331055
 21
-3.7579864932285951
 31
0.0
  0
LINE
  5
297
  8
LOGO
 62
     6
 10
537.242458331335
 20
-5.8603827929933594
 30
0.0
 11
537.242458331335
 21
-3.209041488141116
 31
0.0
  0
TEXT
  5
29C
  8
LOGO
 62
     6
 10
577.39809961153173
 20
-14.355491393776241
 30
0.0
 40
3.0442459807584372
  1
型式
  7
CHINESET
 72
     4
 11
580.44234559229005
 21
-12.91127233597549
 31
0.0
  0
TEXT
  5
29D
  8
LOGO
 62
     7
 10
541.22815358386015
 20
-7.6922851464213231
 30
0.0
 40
3.0442459807584372
  1
Order example:
 41
0.8
  7
CHINESET
  0
LINE
  5
29F
  8
LOGO
 62
     6
 10
634.60399239126855
 20
-10.247557102811831
 30
0.0
 11
634.60399239126855
 21
-18.619233549897519
 31
0.0
  0
LINE
  5
2A0
  8
LOGO
 62
     6
 10
605.64148970994677
 20
-10.247557102811831
 30
0.0
 11
605.64148970994677
 21
-18.61923354989754
 31
0.0
  0
LINE
  5
2A1
  8
LOGO
 62
     6
 10
634.60399239126855
 20
-18.61923354989754
 30
0.0
 11
605.64148970994677
 21
-18.619233549897562
 31
0.0
  0
LINE
  5
2A3
  8
LOGO
 62
     6
 10
634.60399239126855
 20
-10.247557102811831
 30
0.0
 11
605.64148970994677
 21
-10.247557102811831
 31
0.0
  0
LINE
  5
2A4
  8
LOGO
 62
     6
 10
620.14382398266605
 20
-6.8227803744585946
 30
0.0
 11
603.358305224378
 21
-6.8227803744585946
 31
0.0
  0
LINE
  5
2A5
  8
LOGO
 62
     6
 10
611.75106460352197
 20
-6.8227803744585946
 30
0.0
 11
611.75106460352197
 21
-10.247557102811831
 31
0.0
  0
TEXT
  5
2A6
  8
LOGO
 62
     6
 10
615.58808297510291
 20
-14.433395326354679
 30
0.0
 40
3.0442459807584372
  1
搖桿型
  7
CHINESET
 72
     4
 11
620.12274105060771
 21
-12.91127233597547
 31
0.0
  0
LINE
  5
2A7
  8
LOGO
 62
     6
 10
580.44234559229005
 20
-6.822780374458616
 30
0.0
 11
580.44234559229005
 21
-10.24755710281185
 31
0.0
  0
LINE
  5
2A8
  8
LOGO
 62
     6
 10
572.83173064039397
 20
-10.24755710281185
 30
0.0
 11
572.83173064039397
 21
-18.619233549897579
 31
0.0
  0
TEXT
  5
2A9
  8
LOGO
 62
     7
 10
541.77431648769834
 20
-3.4066171246865999
 30
0.0
 40
4.5663689711376563
  1
訂購代號:
  7
CHINESET
  0
LINE
  5
2AB
  8
LOGO
 62
     6
 10
620.14382398266605
 20
0.0267730822479324
 30
0.0
 11
603.358305224378
 21
0.0267730822478889
 31
0.0
  0
LINE
  5
2AC
  8
LOGO
 62
     6
 10
571.30960765001475
 20
0.0267730822478676
 30
0.0
 11
571.30960765001475
 21
-6.822780374458616
 31
0.0
  0
LINE
  5
2AD
  8
LOGO
 62
     6
 10
603.358305224378
 20
0.0267730822478889
 30
0.0
 11
603.358305224378
 21
-6.8227803744585946
 31
0.0
  0
LINE
  5
2AE
  8
LOGO
 62
     6
 10
620.14382398266605
 20
0.0267730822479324
 30
0.0
 11
620.14382398266605
 21
-6.8227803744585946
 31
0.0
  0
TEXT
  5
2B1
  8
LOGO
  6
CONTINUOUS
 62
     6
 10
614.2335747187833
 20
-17.350797724581529
 30
0.0
 40
1.9026537379740229
  1
V toggle
  7
CHINESET
 72
     4
 11
620.12274105060771
 21
-16.716579811923509
 31
0.0
  0
TEXT
  5
2B2
  8
LOGO
  6
CONTINUOUS
 62
     6
 10
576.81824323424428
 20
-17.667906680910551
 30
0.0
 40
1.9026537379740229
  1
Model
  7
CHINESET
 72
     4
 11
580.44234559229005
 21
-16.716579811923541
 31
0.0
  0
TEXT
  5
2B4
  8
LOGO
  6
CONTINUOUS
 62
     7
 10
610.30142366030361
 20
-5.343809810639625
 30
0.0
 40
3.8053074759480472
  1
V
  7
CHINESET
 72
     1
 11
611.75106460352197
 21
-3.4411560726656001
 31
0.0
 73
     2
  0
TEXT
  5
2B5
  8
LOGO
  6
CONTINUOUS
 62
     7
 10
573.01293575829629
 20
-5.3006573840793978
 30
0.0
 40
3.8053074759480472
  1
MVHA
  7
CHINESET
 72
     1
 11
580.44234559229005
 21
-3.3980036461053742
 31
0.0
 73
     2
  0
LINE
  5
2B6
  8
LOGO
 62
     1
 10
539.90541837973194
 20
-20.521887287871579
 30
0.0
 11
539.90541837973194
 21
2.3099575678166948
 31
0.0
  0
LINE
  5
2B7
  8
LOGO
 62
     1
 10
635.79916677362269
 20
2.3099575678166948
 30
0.0
 11
489.67535969721757
 21
2.3099575678166948
 31
0.0
  0
LINE
  5
2B8
  8
LOGO
 62
     1
 10
635.79916677362269
 20
-20.521887287871579
 30
0.0
 11
489.67535969721757
 21
-20.521887287871579
 31
0.0
  0
LINE
  5
2B9
  8
LOGO
 62
     6
 10
589.57508353456535
 20
0.0267730822478676
 30
0.0
 11
589.57508353456535
 21
-6.822780374458616
 31
0.0
  0
LINE
  5
2BA
  8
LOGO
 62
     6
 10
588.05296054418625
 20
-10.24755710281185
 30
0.0
 11
588.05296054418625
 21
-18.619233549897562
 31
0.0
  0
LINE
  5
2BB
  8
LOGO
 62
     6
 10
589.57508353456535
 20
0.0267730822478676
 30
0.0
 11
571.30960765001475
 21
0.0267730822478676
 31
0.0
  0
LINE
  5
2BC
  8
LOGO
 62
     6
 10
589.57508353456535
 20
-6.822780374458616
 30
0.0
 11
571.30960765001475
 21
-6.822780374458616
 31
0.0
  0
LINE
  5
2BD
  8
LOGO
 62
     6
 10
588.05296054418625
 20
-10.24755710281185
 30
0.0
 11
572.83173064039397
 21
-10.24755710281185
 31
0.0
  0
LINE
  5
2BE
  8
LOGO
 62
     6
 10
588.05296054418625
 20
-18.619233549897562
 30
0.0
 11
572.83173064039397
 21
-18.619233549897579
 31
0.0
  0
TEXT
  5
2BF
  8
LOGO
  6
CONTINUOUS
 62
     7
 10
596.52552245078016
 20
-5.300657384079388
 30
0.0
 40
3.8053074759480472
  1
41
  7
CHINESET
 72
     1
 11
598.79058642455891
 21
-3.3980036461053631
 31
0.0
 73
     2
  0
LINE
  5
2C0
  8
LOGO
 62
     6
 10
602.61697683256534
 20
0.0267730822479107
 30
0.0
 11
594.96419601655259
 21
0.0267730822478676
 31
0.0
  0
LINE
  5
2C1
  8
LOGO
 62
     6
 10
604.900161318134
 20
-10.24755710281185
 30
0.0
 11
592.68101153098382
 21
-10.24755710281185
 31
0.0
  0
LINE
  5
2C2
  8
LOGO
 62
     6
 10
602.61697683256534
 20
-6.822780374458616
 30
0.0
 11
594.96419601655259
 21
-6.822780374458616
 31
0.0
  0
TEXT
  5
2C3
  8
LOGO
 62
     6
 10
593.64934421687633
 20
-14.422908258507629
 30
0.0
 40
3.0442459807584372
  1
4 方向
 41
0.9
  7
CHINESET
 72
     4
 11
598.79058642455902
 21
-12.911272335975511
 31
0.0
  0
LINE
  5
2C4
  8
LOGO
 62
     6
 10
604.900161318134
 20
-18.619233549897562
 30
0.0
 11
592.68101153098382
 21
-18.619233549897579
 31
0.0
  0
TEXT
  5
2C5
  8
LOGO
  6
CONTINUOUS
 62
     6
 10
595.34768918441557
 20
-17.350797724581572
 30
0.0
 40
1.9026537379740229
  1
4 Way
 41
0.8
  7
CHINESET
 72
     4
 11
598.79058642455902
 21
-16.716579811923559
 31
0.0
  0
LINE
  5
2C6
  8
LOGO
 62
     6
 10
594.96419601655259
 20
0.0267730822478676
 30
0.0
 11
594.96419601655259
 21
-6.822780374458616
 31
0.0
  0
LINE
  5
2C7
  8
LOGO
 62
     6
 10
592.68101153098382
 20
-10.24755710281185
 30
0.0
 11
592.68101153098382
 21
-18.619233549897562
 31
0.0
  0
LINE
  5
2C8
  8
LOGO
 62
     6
 10
602.61697683256534
 20
0.0267730822479107
 30
0.0
 11
602.61697683256534
 21
-6.822780374458616
 31
0.0
  0
LINE
  5
2C9
  8
LOGO
 62
     6
 10
604.900161318134
 20
-10.24755710281185
 30
0.0
 11
604.900161318134
 21
-18.61923354989754
 31
0.0
  0
LINE
  5
2CA
  8
LOGO
  6
CONTINUOUS
 62
     7
 10
590.75515865668046
 20
-3.4222658469343461
 30
0.0
 11
593.77967153406212
 21
-3.4222658469343461
 31
0.0
  0
LINE
  5
2CC
  8
LOGO
 62
     1
 10
506.41871259138901
 20
-11.38914934559627
 30
0.0
 11
506.41871259138901
 21
2.3099575678166948
 31
0.0
  0
POLYLINE
  5
2CD
  8
LOGO
 62
     5
 66
     1
 10
0.0
 20
0.0
 30
0.0
 70
     1
  0
VERTEX
  5
6BD
  8
LOGO
 62
     5
 10
501.5189685208523
 20
-10.146755281297301
 30
0.0
 42
1.0000000573306349
  0
VERTEX
  5
6BE
  8
LOGO
 62
     5
 10
502.54019858374801
 20
-10.146755281297301
 30
0.0
 42
1.0000000573306349
  0
SEQEND
  5
6BF
  8
LOGO
 62
     5
  0
CIRCLE
  5
2CE
  8
LOGO
 62
     5
 10
502.0295835523001
 20
-10.146755281297301
 30
0.0
 40
0.5106150314477899
  0
SOLID
  5
2CF
  8
LOGO
 62
     5
 10
492.04420024331949
 20
-7.5936801240584169
 30
0.0
 11
493.03138930411848
 21
-7.5936801240587419
 31
0.0
 12
497.15035055779771
 22
1.7675954524845829
 32
0.0
 13
498.13753961859652
 23
1.7675954524839339
 33
0.0
  0
SOLID
  5
2D0
  8
LOGO
 62
     5
 10
493.43988132927728
 20
-7.5936801240584169
 30
0.0
 11
494.42707039007621
 21
-7.5936801240584169
 31
0.0
 12
498.13753961859652
 22
1.0186934063608031
 32
0.0
 13
497.15035055779771
 23
-2.6009998165692698
 33
0.0
  0
SOLID
  5
2D1
  8
LOGO
 62
     5
 10
497.15035055779771
 20
-7.5936801240584169
 30
0.0
 11
498.13753961859652
 21
-7.5936801240584169
 31
0.0
 12
497.15035055779771
 22
-2.6009998165692698
 32
0.0
 13
498.13753961859652
 23
1.0186934063608031
 33
0.0
  0
SOLID
  5
2D2
  8
LOGO
 62
     5
 10
498.5460316437551
 20
1.7675954524839339
 30
0.0
 11
499.53322070455403
 21
1.7675954524845829
 31
0.0
 12
498.5460316437551
 22
-6.8447780779352883
 32
0.0
 13
499.53322070455403
 23
-3.2250848550052069
 33
0.0
  0
SOLID
  5
2D3
  8
LOGO
 62
     5
 10
498.5460316437551
 20
-6.8447780779352883
 30
0.0
 11
499.53322070455403
 21
-3.2250848550052069
 31
0.0
 12
503.24368993307428
 22
1.7675954524845829
 32
0.0
 13
502.2565008722753
 23
1.7675954524845829
 33
0.0
  0
SOLID
  5
2D4
  8
LOGO
 62
     5
 10
498.5460316437551
 20
-7.5936801240584169
 30
0.0
 11
499.53322070455403
 21
-7.5936801240584169
 31
0.0
 12
503.24368993307428
 22
1.0186934063608031
 32
0.0
 13
502.2565008722753
 23
-2.6009998165692698
 33
0.0
  0
SOLID
  5
2D5
  8
LOGO
 62
     5
 10
503.24368993307428
 20
1.0186934063608031
 30
0.0
 11
502.2565008722753
 21
-2.6009998165692698
 31
0.0
 12
503.24368993307428
 22
-7.5936801240587419
 32
0.0
 13
502.2565008722753
 23
-7.5936801240587419
 33
0.0
  0
SOLID
  5
2D6
  8
LOGO
 62
     5
 10
503.6521819582328
 20
-7.5936801240587419
 30
0.0
 11
504.63937101903178
 21
-7.5936801240587419
 31
0.0
 12
503.6521819582328
 22
1.7675954524839339
 32
0.0
 13
504.63937101903178
 23
1.7675954524845829
 33
0.0
  0
SOLID
  5
2D7
  8
LOGO
 62
     5
 10
490.46149409044682
 20
-10.99778033371015
 30
0.0
 11
490.8019041114124
 21
-10.99778033371015
 31
0.0
 12
491.7605252258486
 22
-9.2957302288844428
 32
0.0
 13
492.10093524681372
 23
-9.2957302288844428
 33
0.0
  0
SOLID
  5
2D8
  8
LOGO
 62
     5
 10
491.7605252258486
 20
-9.2957302288844428
 30
0.0
 11
492.10093524681372
 21
-9.2957302288844428
 31
0.0
 12
491.7605252258486
 22
-10.99778033371015
 32
0.0
 13
492.10093524681372
 23
-10.99778033371015
 33
0.0
  0
SOLID
  5
2D9
  8
LOGO
 62
     5
 10
491.7605252258486
 20
-10.99778033371015
 30
0.0
 11
492.10093524681372
 21
-10.99778033371015
 31
0.0
 12
493.059556361251
 22
-9.2957302288844428
 32
0.0
 13
493.39996638221589
 23
-9.2957302288844428
 33
0.0
  0
SOLID
  5
2DA
  8
LOGO
 62
     5
 10
493.059556361251
 20
-9.2957302288844428
 30
0.0
 11
493.39996638221589
 21
-9.2957302288844428
 31
0.0
 12
493.059556361251
 22
-10.99778033371015
 32
0.0
 13
493.39996638221589
 23
-10.99778033371015
 33
0.0
  0
SOLID
  5
2DB
  8
LOGO
 62
     5
 10
493.80292861663628
 20
-9.0574432142089627
 30
0.0
 11
494.14333863760208
 21
-9.0574432142089627
 31
0.0
 12
493.80292861663628
 22
-8.7851151974364772
 32
0.0
 13
494.14333863760208
 23
-8.7851151974364772
 33
0.0
  0
SOLID
  5
2DC
  8
LOGO
 62
     5
 10
493.80292861663628
 20
-9.2957302288844428
 30
0.0
 11
494.14333863760208
 21
-9.2957302288844428
 31
0.0
 12
493.80292861663628
 22
-10.9977803337108
 32
0.0
 13
494.14333863760208
 23
-10.99778033371015
 33
0.0
  0
POLYLINE
  5
2DD
  8
LOGO
 62
     5
 66
     1
 10
0.0
 20
0.0
 30
0.0
 40
0.340955549844945
 41
0.340955549844945
  0
VERTEX
  5
6C0
  8
LOGO
 62
     5
 10
495.73274837575951
 20
-9.9765502708148635
 30
0.0
 42
1.0
  0
VERTEX
  5
6C1
  8
LOGO
 62
     5
 10
494.70988172622458
 20
-9.9765502708148635
 30
0.0
 42
1.0
  0
SEQEND
  5
6C2
  8
LOGO
 62
     5
  0
SOLID
  5
2DE
  8
LOGO
 62
     5
 10
494.54049500906189
 20
-9.2957302288844428
 30
0.0
 11
494.88090503002672
 21
-9.2957302288844428
 31
0.0
 12
494.54049500906189
 22
-10.99778033371015
 32
0.0
 13
494.88090503002672
 23
-10.99778033371015
 33
0.0
  0
SOLID
  5
2DF
  8
LOGO
 62
     5
 10
495.5617250719572
 20
-9.9765502708148617
 30
0.0
 11
495.90213509292261
 21
-9.9765502708148617
 31
0.0
 12
495.5617250719572
 22
-10.99778033371015
 32
0.0
 13
495.90213509292261
 23
-10.99778033371015
 33
0.0
  0
POLYLINE
  5
2E0
  8
LOGO
 62
     5
 66
     1
 10
0.0
 20
0.0
 30
0.0
 70
     1
 40
0.340955549844945
 41
0.340955549844945
  0
VERTEX
  5
6C3
  8
LOGO
 62
     5
 10
496.46843945810753
 20
-10.146755281297461
 30
0.0
 42
1.0
  0
VERTEX
  5
6C4
  8
LOGO
 62
     5
 10
497.83226165748732
 20
-10.146755281297461
 30
0.0
 42
1.0
  0
SEQEND
  5
6C5
  8
LOGO
 62
     5
  0
SOLID
  5
2E1
  8
LOGO
 62
     5
 10
497.66093154824352
 20
-8.7851151974364772
 30
0.0
 11
498.00134156920831
 21
-8.7851151974364772
 31
0.0
 12
497.66093154824352
 22
-10.99778033371015
 32
0.0
 13
498.00134156920831
 23
-10.99778033371015
 33
0.0
  0
SOLID
  5
2E2
  8
LOGO
 62
     5
 10
498.39849794066907
 20
-9.2957302288844428
 30
0.0
 11
498.73890796163403
 21
-9.2957302288844428
 31
0.0
 12
498.39849794066907
 22
-10.99778033371015
 32
0.0
 13
498.73890796163403
 23
-10.99778033371015
 33
0.0
  0
POLYLINE
  5
2E3
  8
LOGO
 62
     5
 66
     1
 10
0.0
 20
0.0
 30
0.0
 40
0.340955549844945
 41
0.340955549844945
  0
VERTEX
  5
6C6
  8
LOGO
 62
     5
 10
499.59075130736659
 20
-9.9765502708148635
 30
0.0
 42
1.0
  0
VERTEX
  5
6C7
  8
LOGO
 62
     5
 10
498.56788465783171
 20
-9.9765502708148635
 30
0.0
 42
1.0
  0
SEQEND
  5
6C8
  8
LOGO
 62
     5
  0
POLYLINE
  5
2E4
  8
LOGO
 62
     5
 66
     1
 10
0.0
 20
0.0
 30
0.0
 40
0.340955549844945
 41
0.340955549844945
  0
VERTEX
  5
6C9
  8
LOGO
 62
     5
 10
500.6119813702619
 20
-9.9765502708148635
 30
0.0
 42
1.0
  0
VERTEX
  5
6CA
  8
LOGO
 62
     5
 10
499.58911472072703
 20
-9.9765502708148635
 30
0.0
 42
1.0
  0
SEQEND
  5
6CB
  8
LOGO
 62
     5
  0
SOLID
  5
2E5
  8
LOGO
 62
     5
 10
499.41972800356439
 20
-9.9765502708148617
 30
0.0
 11
499.76013802452928
 21
-9.9765502708148617
 31
0.0
 12
499.41972800356439
 22
-10.99778033371015
 32
0.0
 13
499.76013802452928
 23
-10.99778033371015
 33
0.0
  0
SOLID
  5
2E6
  8
LOGO
 62
     5
 10
500.44095806645981
 20
-9.9765502708148617
 30
0.0
 11
500.7813680874246
 21
-9.9765502708148617
 31
0.0
 12
500.44095806645981
 22
-10.9977803337108
 32
0.0
 13
500.7813680874246
 23
-10.9977803337108
 33
0.0
  0
POLYLINE
  5
2E7
  8
LOGO
 62
     5
 66
     1
 10
0.0
 20
0.0
 30
0.0
 70
     1
 40
0.340955549844945
 41
0.340955549844945
  0
VERTEX
  5
6CC
  8
LOGO
 62
     5
 10
501.34767245261008
 20
-10.146755281297461
 30
0.0
 42
1.0
  0
VERTEX
  5
6CD
  8
LOGO
 62
     5
 10
502.71149465198982
 20
-10.146755281297461
 30
0.0
 42
1.0
  0
SEQEND
  5
6CE
  8
LOGO
 62
     5
  0
LINE
  5
2E8
  8
LOGO
 62
     5
 10
504.63937101903178
 20
-10.99778033371015
 30
0.0
 11
504.63937101903178
 21
-9.9765502708148617
 31
0.0
  0
POLYLINE
  5
2E9
  8
LOGO
 62
     5
 66
     1
 10
0.0
 20
0.0
 30
0.0
 40
0.340955549844945
 41
0.340955549844945
  0
VERTEX
  5
6CF
  8
LOGO
 62
     5
 10
504.46998430186909
 20
-9.9765502708148635
 30
0.0
 42
1.0
  0
VERTEX
  5
6D0
  8
LOGO
 62
     5
 10
503.44711765233433
 20
-9.9765502708148635
 30
0.0
 42
1.0
  0
SEQEND
  5
6D1
  8
LOGO
 62
     5
  0
SOLID
  5
2EA
  8
LOGO
 62
     5
 10
502.54016454274631
 20
-9.2957302288844428
 30
0.0
 11
502.88057456371132
 21
-9.2957302288844428
 31
0.0
 12
502.54016454274631
 22
-10.99778033371015
 32
0.0
 13
502.88057456371132
 23
-10.99778033371015
 33
0.0
  0
SOLID
  5
2EB
  8
LOGO
 62
     5
 10
503.27773093517089
 20
-10.99778033371015
 30
0.0
 11
503.61814095613641
 21
-10.99778033371015
 31
0.0
 12
503.27773093517089
 22
-9.2957302288844428
 32
0.0
 13
503.61814095613641
 23
-9.2957302288844428
 33
0.0
  0
SOLID
  5
2EC
  8
LOGO
 62
     5
 10
504.29896099806689
 20
-9.9765502708148617
 30
0.0
 11
504.63937101903178
 21
-9.9765502708149114
 31
0.0
 12
504.29896099806689
 22
-10.99778033371015
 32
0.0
 13
504.63937101903178
 23
-10.99778033371015
 33
0.0
  0
SOLID
  5
2ED
  8
LOGO
 62
     2
 10
493.03138930411848
 20
-7.5936801240587419
 30
0.0
 11
493.43988132927728
 21
-7.5936801240584169
 31
0.0
 12
498.13753961859652
 22
1.7675954524839339
 32
0.0
 13
498.5460316437551
 23
1.7675954524839339
 33
0.0
  0
SOLID
  5
2EE
  8
LOGO
 62
     2
 10
498.13753961859652
 20
1.7675954524839339
 30
0.0
 11
498.5460316437551
 21
1.7675954524839339
 31
0.0
 12
498.13753961859652
 22
-7.5936801240584169
 32
0.0
 13
498.5460316437551
 23
-7.5936801240584169
 33
0.0
  0
SOLID
  5
2EF
  8
LOGO
 62
     2
 10
498.13753961859652
 20
-7.5936801240584169
 30
0.0
 11
498.5460316437551
 21
-7.5936801240584169
 31
0.0
 12
503.24368993307428
 22
1.7675954524845829
 32
0.0
 13
503.6521819582328
 23
1.7675954524839339
 33
0.0
  0
SOLID
  5
2F0
  8
LOGO
 62
     2
 10
503.24368993307428
 20
1.7675954524845829
 30
0.0
 11
503.6521819582328
 21
1.7675954524839339
 31
0.0
 12
503.24368993307428
 22
-7.5936801240587419
 32
0.0
 13
503.6521819582328
 23
-7.5936801240587419
 33
0.0
  0
TEXT
  5
2F1
  8
LOGO
  6
CONTINUOUS
 62
     5
 10
490.42268452887367
 20
-16.036605822229809
 30
0.0
 40
3.4247767283532422
  1
金器工業股份有限公司
 41
0.8
  7
LOGO
  0
TEXT
  5
2F2
  8
LOGO
  6
CONTINUOUS
 62
     5
 10
491.40333402103693
 20
-19.46205353830895
 30
0.0
 40
2.2831844855688281
  1
MINDMAN INDUSTRIAL CO.,LTD
 41
0.85
  7
CHINESET
  0
LINE
  5
2F4
  8
LOGO
 62
     6
 10
598.79058642455902
 20
-10.24755710281185
 30
0.0
 11
598.79058642455891
 21
-6.822780374458616
 31
0.0
  0
POLYLINE
  5
42D
  8
0
 62
     4
 66
     1
 10
0.0
 20
0.0
 30
0.0
 70
     1
  0
VERTEX
  5
6D2
  8
0
 62
     4
 10
489.67535969721757
 20
133.1012937016628
 30
0.0
  0
VERTEX
  5
6D3
  8
0
 62
     4
 10
635.79916677362269
 20
133.1012937016628
 30
0.0
  0
VERTEX
  5
6D4
  8
0
 62
     4
 10
635.79916677362269
 20
2.3099575678166948
 30
0.0
  0
VERTEX
  5
6D5
  8
0
 62
     4
 10
489.67535969721757
 20
2.3099575678166948
 30
0.0
  0
SEQEND
  5
6D6
  8
0
 62
     4
  0
LINE
  5
5B4
  8
DIM
 10
538.05667115954088
 20
16.77908605386525
 30
0.0
 11
532.69361658964522
 21
16.77908605386525
 31
0.0
  0
LINE
  5
5B5
  8
DIM
 10
538.05667115954088
 20
78.370848180930921
 30
0.0
 11
532.69361658964522
 21
78.370848180930921
 31
0.0
  0
TEXT
  5
5B6
  8
0
 10
538.14897632568125
 20
65.484625574958741
 30
0.0
 40
2.0000000000000062
  1
（20）
 50
89.999999999999986
  7
CHINESET
  0
LINE
  5
5B7
  8
DIM
 10
535.31613570905233
 20
102.9611478928602
 30
0.0
 11
536.81240069103148
 21
99.782792646909243
 31
0.0
  0
LINE
  5
5B9
  8
DIM
 10
534.02694992297847
 20
76.370848180930906
 30
0.0
 11
534.02694992297847
 21
18.779086053865271
 31
0.0
  0
SOLID
  5
5BA
  8
DIM
 10
533.69361658964522
 20
18.779086053865271
 30
0.0
 11
534.36028325631185
 21
18.779086053865271
 31
0.0
 12
534.02694992297847
 22
16.77908605386525
 32
0.0
 13
534.02694992297847
 23
16.77908605386525
 33
0.0
  0
SOLID
  5
5BB
  8
DIM
 10
533.69361658964522
 20
76.370848180930906
 30
0.0
 11
534.36028325631185
 21
76.370848180930906
 31
0.0
 12
534.02694992297847
 22
78.370848180930921
 32
0.0
 13
534.02694992297847
 23
78.370848180930921
 33
0.0
  0
TEXT
  5
5BC
  8
0
 10
533.02694992297859
 20
45.955919498350447
 30
0.0
 40
2.0000000000000062
  1
62
 50
89.999999999999986
  7
CHINESET
  0
LINE
  5
5BD
  8
DIM
 10
529.84738570905222
 20
106.7872951678103
 30
0.0
 11
525.94113570905222
 21
97.412295167810285
 31
0.0
  0
LINE
  5
5BE
  8
DIM
 10
532.97238570905222
 20
97.412295167810285
 30
0.0
 11
532.97238570905222
 21
106.7872951678103
 31
0.0
  0
LINE
  5
5BF
  8
DIM
 10
523.59738570905222
 20
97.412295167810285
 30
0.0
 11
523.59738570905222
 21
106.7872951678103
 31
0.0
  0
LINE
  5
5C0
  8
DIM
 10
526.70676070905222
 20
99.627451417810363
 30
0.0
 11
525.94129195905225
 21
97.412295167810285
 31
0.0
  0
LINE
  5
5C1
  8
DIM
 10
535.31613570905233
 20
97.412295167810285
 30
0.0
 11
535.31613570905233
 21
106.7872951678103
 31
0.0
  0
LINE
  5
5C3
  8
DIM
 10
511.87863570905222
 20
97.412295167810285
 30
0.0
 11
535.31613570905233
 21
97.412295167810285
 31
0.0
  0
LINE
  5
5C4
  8
DIM
 10
527.25410445905209
 20
99.353857667810246
 30
0.0
 11
525.94129195905225
 21
97.412295167810285
 31
0.0
  0
TEXT
  5
5C5
  8
DIM
 10
524.69444141853842
 20
93.870234990204338
 30
0.0
 40
2.6041666666666741
  1
A
  0
TEXT
  5
5C6
  8
DIM
 10
532.16457044982212
 20
93.870234990204338
 30
0.0
 40
2.6041666666666741
  1
B
  0
LINE
  5
5C7
  8
DIM
 10
511.87863570905222
 20
106.7872951678103
 30
0.0
 11
535.31613570905233
 21
106.7872951678103
 31
0.0
  0
LINE
  5
5C8
  8
DIM
 10
525.94113570905222
 20
104.4435451678102
 30
0.0
 11
525.94113570905222
 21
106.7872951678103
 31
0.0
  0
LINE
  5
5C9
  8
DIM
 10
522.03488570905222
 20
104.4435451678102
 30
0.0
 11
520.47238570905222
 21
104.4435451678102
 31
0.0
  0
LINE
  5
5CA
  8
DIM
 10
525.15988570905222
 20
104.4435451678102
 30
0.0
 11
526.72238570905222
 21
104.4435451678102
 31
0.0
  0
TEXT
  5
5CB
  8
DIM
 10
523.42125158601891
 20
107.2852203382776
 30
0.0
 40
2.6041666666666741
  1
R
  0
TEXT
  5
5CC
  8
DIM
 10
525.60639351138536
 20
107.1172727844336
 30
0.0
 40
1.041666666666669
  1
2
  7
CHINESET
  0
LINE
  5
5CD
  8
DIM
 10
532.66660445905234
 20
104.4635451678102
 30
0.0
 11
532.97238570905222
 21
106.7871389178103
 31
0.0
  0
LINE
  5
5CE
  8
DIM
 10
532.97238570905222
 20
106.7872951678103
 30
0.0
 11
533.27832320905225
 21
104.4635451678102
 31
0.0
  0
TEXT
  5
5CF
  8
DIM
 10
528.54781198844921
 20
107.2852203382776
 30
0.0
 40
2.6041666666666741
  1
P
  0
TEXT
  5
5D0
  8
DIM
 10
532.43498248019375
 20
107.2852203382776
 30
0.0
 40
2.6041666666666741
  1
R
  0
TEXT
  5
5D1
  8
DIM
 10
534.62012440556032
 20
107.0946785311484
 30
0.0
 40
1.041666666666669
  1
1
  7
CHINESET
  0
LINE
  5
5D2
  8
CENTER
  6
CENTER
 10
565.30996514389813
 20
69.395668465930228
 30
0.0
 11
565.30996514389813
 21
14.757667381996169
 31
0.0
  0
LINE
  5
5D3
  8
DIM
 10
539.39000449287425
 20
56.77908605386537
 30
0.0
 11
539.39000449287425
 21
18.779086053865271
 31
0.0
  0
LINE
  5
5D4
  8
0
 10
581.30996514389824
 20
58.779086053865399
 30
0.0
 11
581.30996514389824
 21
16.77908605386525
 31
0.0
  0
LINE
  5
5D5
  8
0
 10
549.30996514389824
 20
58.779086053865399
 30
0.0
 11
549.30996514389824
 21
16.77908605386525
 31
0.0
  0
LINE
  5
5D6
  8
DIM
 10
591.52660226886178
 20
26.77908605386525
 30
0.0
 11
591.52660226886178
 21
48.77908605386537
 31
0.0
  0
LINE
  5
5D7
  8
DIM
 10
556.30996514389813
 20
34.745752720531989
 30
0.0
 11
556.30996514389813
 21
9.6082732866682807
 31
0.0
  0
LINE
  5
5D8
  8
HIDDEN
  6
HIDDEN
 10
550.30996514389813
 20
25.279086053865299
 30
0.0
 11
550.30996514389813
 21
33.279086053865299
 31
0.0
  0
SOLID
  5
5D9
  8
DIM
 10
543.79796973549242
 20
31.27908605386531
 30
0.0
 11
544.46463640215904
 21
31.27908605386531
 31
0.0
 12
544.13130306882556
 22
29.279086053865289
 32
0.0
 13
544.13130306882556
 23
29.279086053865289
 33
0.0
  0
LINE
  5
5DA
  8
CENTER
  6
CENTER
 10
574.30996514389824
 20
32.02908605386525
 30
0.0
 11
574.30996514389824
 21
27.529086053865282
 31
0.0
  0
CIRCLE
  5
5DB
  8
0
 10
574.30996514389824
 20
29.779086053865282
 30
0.0
 40
1.7000000000000051
  0
SOLID
  5
5DC
  8
DIM
 10
586.75325028731766
 20
31.779086053865239
 30
0.0
 11
587.41991695398417
 21
31.779086053865239
 31
0.0
 12
587.08658362065103
 22
29.779086053865282
 32
0.0
 13
587.08658362065103
 23
29.779086053865282
 33
0.0
  0
LINE
  5
5DE
  8
0
 10
549.30996514389824
 20
16.77908605386525
 30
0.0
 11
581.30996514389824
 21
16.779086053865282
 31
0.0
  0
LINE
  5
5DF
  8
CENTER
  6
CENTER
 10
569.67965900854995
 20
24.77908605386526
 30
0.0
 11
582.41551165142812
 21
24.77908605386526
 31
0.0
  0
SOLID
  5
5E0
  8
DIM
 10
572.30996514389824
 20
11.27493995333494
 30
0.0
 11
572.30996514389824
 21
10.608273286668259
 31
0.0
 12
574.30996514389824
 22
10.9416066200016
 32
0.0
 13
574.30996514389824
 23
10.9416066200016
 33
0.0
  0
LINE
  5
5E1
  8
HIDDEN
  6
HIDDEN
 10
572.18775634247913
 20
22.279086053865271
 30
0.0
 11
581.30996514389824
 21
22.279086053865239
 31
0.0
  0
LINE
  5
5E2
  8
HIDDEN
  6
HIDDEN
 10
572.18775634247913
 20
27.279086053865299
 30
0.0
 11
581.30996514389824
 21
27.279086053865271
 31
0.0
  0
LINE
  5
5E3
  8
HIDDEN
  6
HIDDEN
 10
572.18775634247913
 20
26.77908605386525
 30
0.0
 11
580.80996514389813
 21
26.77908605386525
 31
0.0
  0
LINE
  5
5E4
  8
HIDDEN
  6
HIDDEN
 10
572.18775634247913
 20
22.779086053865232
 30
0.0
 11
580.80996514389813
 21
22.779086053865282
 31
0.0
  0
LINE
  5
5E5
  8
CENTER
  6
CENTER
 10
576.55996514389824
 20
29.779086053865282
 30
0.0
 11
572.05996514389824
 21
29.779086053865282
 31
0.0
  0
LINE
  5
5E6
  8
CENTER
  6
CENTER
 10
547.51294874929647
 20
29.279086053865289
 30
0.0
 11
561.47256944881394
 21
29.279086053865289
 31
0.0
  0
LINE
  5
5E7
  8
HIDDEN
  6
HIDDEN
 10
549.53235317743929
 20
24.501474087406422
 30
0.0
 11
556.33613976642505
 21
24.739067550551411
 31
0.0
  0
LINE
  5
5E8
  8
HIDDEN
  6
HIDDEN
 10
550.30996514389813
 20
25.279086053865239
 30
0.0
 11
556.33613976642505
 21
25.489524708775519
 31
0.0
  0
LINE
  5
5E9
  8
DIM
 10
547.97663181056475
 20
16.77908605386525
 30
0.0
 11
538.05667115954088
 21
16.77908605386525
 31
0.0
  0
SOLID
  5
5EA
  8
DIM
 10
539.05667115954088
 20
18.779086053865271
 30
0.0
 11
539.7233378262074
 21
18.779086053865271
 31
0.0
 12
539.39000449287425
 22
16.77908605386525
 32
0.0
 13
539.39000449287425
 23
16.77908605386525
 33
0.0
  0
LINE
  5
5EB
  8
DIM
 10
546.17961541596321
 20
29.279086053865289
 30
0.0
 11
542.79796973549219
 21
29.279086053865289
 31
0.0
  0
LINE
  5
5EC
  8
HIDDEN
  6
HIDDEN
 10
549.30996514389824
 20
24.279086053865289
 30
0.0
 11
550.30996514389813
 21
25.279086053865282
 31
0.0
  0
LINE
  5
5ED
  8
DIM
 10
558.30996514389824
 20
10.9416066200016
 30
0.0
 11
572.30996514389824
 21
10.9416066200016
 31
0.0
  0
LINE
  5
5EE
  8
0
 10
561.10996514389819
 20
16.77908605386521
 30
0.0
 11
569.50996514389806
 21
16.779086053865282
 31
0.0
  0
TEXT
  5
5EF
  8
0
 10
563.88139371532657
 20
11.474939953334941
 30
0.0
 40
2.0000000000000062
  1
18
  7
CHINESET
  0
SOLID
  5
5F0
  8
DIM
 10
558.30996514389824
 20
11.27493995333494
 30
0.0
 11
558.30996514389824
 21
10.608273286668259
 31
0.0
 12
556.30996514389813
 22
10.9416066200016
 32
0.0
 13
556.30996514389813
 23
10.9416066200016
 33
0.0
  0
LINE
  5
5F1
  8
0
 10
558.65996514389803
 20
16.77908605386525
 30
0.0
 11
559.80996514389824
 21
16.77908605386525
 31
0.0
  0
LINE
  5
5F2
  8
0
 10
570.80996514389824
 20
16.77908605386525
 30
0.0
 11
571.95996514389822
 21
16.77908605386525
 31
0.0
  0
POLYLINE
  8
0
  5
721
  66
     1
 10
0.000000
 20
0.000000
 30
0.000000
  70
     8
  0
VERTEX
  8
0
  5
722
 10
581.310
 20
24.7791
 30
0.000000
  70
    32
  0
VERTEX
  8
0
  5
723
 10
587.903
 20
15.0417
 30
0.000000
  70
    32
  0
VERTEX
  8
0
  5
724
 10
605.073
 20
15.0417
 30
0.000000
  70
    32
  0
SEQEND
  8
0
  5
725
  0
LINE
  5
5F4
  8
DIM
 10
583.74884498476126
 20
24.77908605386526
 30
0.0
 11
593.06531387748555
 21
24.77908605386526
 31
0.0
  0
TEXT
  5
5F5
  8
DIM
 10
589.54231508130954
 20
15.72436599266927
 30
0.0
 40
2.0000000000000062
  1
2-M5*0.8
  7
CHINESET
  0
LINE
  5
5F6
  8
DIM
 10
574.30996514389824
 20
26.7457527205319
 30
0.0
 11
574.30996514389824
 21
9.6082732866682807
 31
0.0
  0
LINE
  5
5F7
  8
DIM
 10
577.34329847723154
 20
29.779086053865282
 30
0.0
 11
588.41991695398428
 21
29.779086053865282
 31
0.0
  0
LINE
  5
5F8
  8
HIDDEN
  6
HIDDEN
 10
580.80996514389813
 20
22.779086053865232
 30
0.0
 11
580.80996514389813
 21
26.77908605386525
 31
0.0
  0
LINE
  5
5F9
  8
HIDDEN
  6
HIDDEN
 10
580.80996514389813
 20
22.779086053865232
 30
0.0
 11
581.30996514389824
 21
22.279086053865239
 31
0.0
  0
LINE
  5
5FA
  8
HIDDEN
  6
HIDDEN
 10
580.80996514389813
 20
26.77908605386525
 30
0.0
 11
581.30996514389824
 21
27.279086053865271
 31
0.0
  0
SOLID
  5
5FB
  8
DIM
 10
591.19326893552852
 20
26.77908605386525
 30
0.0
 11
591.85993560219504
 21
26.77908605386525
 31
0.0
 12
591.52660226886178
 22
24.77908605386526
 32
0.0
 13
591.52660226886178
 23
24.77908605386526
 33
0.0
  0
LINE
  5
5FC
  8
0
 10
605.90429426028413
 20
22.287628848057398
 30
0.0
 11
596.2042942602842
 21
22.287628848057398
 31
0.0
  0
LINE
  5
5FD
  8
0
 10
605.90429426028413
 20
27.287628848057398
 30
0.0
 11
596.2042942602842
 21
27.287628848057398
 31
0.0
  0
LINE
  5
5FE
  8
CENTER
  6
CENTER
 10
606.56039273052147
 20
24.78762884805742
 30
0.0
 11
595.42963396105495
 21
24.78762884805742
 31
0.0
  0
LINE
  5
5FF
  8
0
 10
595.90429426028425
 20
26.987628848057408
 30
0.0
 11
595.90429426028425
 21
22.587628848057388
 31
0.0
  0
LINE
  5
600
  8
0
 10
596.2042942602842
 20
27.287628848057398
 30
0.0
 11
596.2042942602842
 21
22.287628848057398
 31
0.0
  0
LINE
  5
601
  8
0
 10
601.90429426028413
 20
27.287628848057398
 30
0.0
 11
601.90429426028413
 21
22.287628848057398
 31
0.0
  0
LINE
  5
602
  8
0
 10
601.60429426028395
 20
26.987628848057408
 30
0.0
 11
601.60429426028395
 21
22.587628848057431
 31
0.0
  0
ARC
  5
603
  8
HIDDEN
  6
HIDDEN
 10
593.4614906568529
 20
15.090582361881079
 30
0.0
 40
10.00000000000003
 50
46.03010106292605
 51
75.860690738922074
  0
LINE
  5
604
  8
0
 10
601.60429426028395
 20
22.587628848057388
 30
0.0
 11
595.90429426028425
 21
22.587628848057388
 31
0.0
  0
LINE
  5
605
  8
0
 10
595.90429426028425
 20
22.587628848057388
 30
0.0
 11
596.2042942602842
 21
22.287628848057398
 31
0.0
  0
LINE
  5
606
  8
0
 10
601.60429426028406
 20
22.587628848057388
 30
0.0
 11
601.90429426028413
 21
22.287628848057398
 31
0.0
  0
LINE
  5
607
  8
0
 10
601.60429426028395
 20
26.987628848057408
 30
0.0
 11
595.90429426028425
 21
26.987628848057408
 31
0.0
  0
LINE
  5
608
  8
0
 10
595.90429426028425
 20
26.987628848057408
 30
0.0
 11
596.2042942602842
 21
27.287628848057398
 31
0.0
  0
LINE
  5
609
  8
0
 10
601.60429426028395
 20
26.987628848057408
 30
0.0
 11
601.90429426028413
 21
27.287628848057398
 31
0.0
  0
LINE
  5
60A
  8
0
 10
605.90429426028413
 20
27.287628848057398
 30
0.0
 11
605.90429426028413
 21
22.287628848057398
 31
0.0
  0
LINE
  5
60B
  8
HIDDEN
  6
HIDDEN
 10
604.40429426028413
 20
27.287628848057398
 30
0.0
 11
604.40429426028413
 21
22.287628848057398
 31
0.0
  0
SOLID
  5
60C
  8
DIM
 10
539.05667115954088
 20
76.370848180930906
 30
0.0
 11
539.7233378262074
 21
76.370848180930906
 31
0.0
 12
539.39000449287425
 22
78.370848180930921
 32
0.0
 13
539.39000449287425
 23
78.370848180930921
 33
0.0
  0
LINE
  5
60D
  8
0
 10
563.87129273701078
 20
67.992027075872954
 30
0.0
 11
556.47984929470977
 21
77.940599445819601
 31
0.0
  0
LINE
  5
60E
  8
CENTER
  6
CENTER
 10
565.30996514389813
 20
63.279086053865399
 30
0.0
 11
551.4240866906797
 21
80.40956312736833
 31
0.0
  0
ARC
  5
60F
  8
0
 10
554.57219812408437
 20
76.525858476167798
 30
0.0
 40
2.3750000000000071
 50
36.561152074272428
 51
223.4388479257286
  0
LINE
  5
610
  8
CENTER
  6
CENTER
 10
565.30996514389813
 20
63.279086053865399
 30
0.0
 11
579.19584359711655
 21
80.40956312736833
 31
0.0
  0
LINE
  5
611
  8
HIDDEN
  6
HIDDEN
 10
566.42671657874814
 20
67.46577793743829
 30
0.0
 11
573.38420648317469
 21
77.93325561733424
 31
0.0
  0
ARC
  5
612
  8
HIDDEN
  6
HIDDEN
 10
575.36328510565329
 20
76.620292249205306
 30
0.0
 40
2.3750000000000071
 50
319.56115207427172
 51
146.43884792572641
  0
CIRCLE
  5
613
  8
0
 10
574.30996514389824
 20
45.779086053865313
 30
0.0
 40
1.7000000000000051
  0
LINE
  5
614
  8
CENTER
  6
CENTER
 10
583.10698153849978
 20
37.779086053865313
 30
0.0
 11
547.71453655167784
 21
37.779086053865313
 31
0.0
  0
LINE
  5
615
  8
DIM
 10
559.80996514389813
 20
65.779086053865427
 30
0.0
 11
588.71522487316054
 21
65.779086053865427
 31
0.0
  0
LINE
  5
616
  8
CENTER
  6
CENTER
 10
569.67965900854995
 20
50.77908605386537
 30
0.0
 11
582.41551165142812
 21
50.77908605386537
 31
0.0
  0
LINE
  5
617
  8
0
 10
565.30996514389813
 20
58.779086053865399
 30
0.0
 11
581.30996514389824
 21
58.779086053865399
 31
0.0
  0
LINE
  5
618
  8
HIDDEN
  6
HIDDEN
 10
572.18775634247913
 20
48.77908605386537
 30
0.0
 11
580.80996514389813
 21
48.77908605386537
 31
0.0
  0
LINE
  5
619
  8
HIDDEN
  6
HIDDEN
 10
572.18775634247913
 20
48.279086053865363
 30
0.0
 11
581.30996514389824
 21
48.279086053865363
 31
0.0
  0
LINE
  5
61A
  8
HIDDEN
  6
HIDDEN
 10
572.18775634247913
 20
52.779086053865392
 30
0.0
 11
580.80996514389813
 21
52.779086053865363
 31
0.0
  0
LINE
  5
61B
  8
HIDDEN
  6
HIDDEN
 10
572.18775634247913
 20
53.279086053865377
 30
0.0
 11
581.30996514389824
 21
53.279086053865377
 31
0.0
  0
LINE
  5
61C
  8
CENTER
  6
CENTER
 10
576.55996514389824
 20
45.779086053865313
 30
0.0
 11
572.05996514389824
 21
45.779086053865313
 31
0.0
  0
LINE
  5
61D
  8
HIDDEN
  6
HIDDEN
 10
577.17089449805951
 20
75.079781527242048
 30
0.0
 11
569.14001638890272
 21
65.639838457675182
 31
0.0
  0
POLYLINE
  8
0
  5
726
  66
     1
 10
0.000000
 20
0.000000
 30
0.000000
  70
     8
  0
VERTEX
  8
0
  5
727
 10
571.310
 20
61.6259
 30
0.000000
  70
    32
  0
VERTEX
  8
0
  5
728
 10
577.768
 20
67.2134
 30
0.000000
  70
    32
  0
VERTEX
  8
0
  5
729
 10
590.453
 20
67.2134
 30
0.000000
  70
    32
  0
SEQEND
  8
0
  5
72A
  0
CIRCLE
  5
61F
  8
0
 10
556.30996514389813
 20
37.779086053865313
 30
0.0
 40
1.7000000000000051
  0
LINE
  5
620
  8
HIDDEN
  6
HIDDEN
 10
549.5323531774394
 20
34.056698020324163
 30
0.0
 11
556.33613976642505
 21
33.819104557179159
 31
0.0
  0
LINE
  5
621
  8
HIDDEN
  6
HIDDEN
 10
550.30996514389813
 20
33.279086053865299
 30
0.0
 11
556.33613976642505
 21
33.068647398955029
 31
0.0
  0
LINE
  5
622
  8
HIDDEN
  6
HIDDEN
 10
550.30996514389813
 20
42.279086053865313
 30
0.0
 11
556.33613976642505
 21
42.489524708775591
 31
0.0
  0
LINE
  5
623
  8
HIDDEN
  6
HIDDEN
 10
549.5323531774394
 20
41.501474087406457
 30
0.0
 11
556.33613976642505
 21
41.739067550551447
 31
0.0
  0
LINE
  5
624
  8
CENTER
  6
CENTER
 10
547.51294874929647
 20
46.279086053865363
 30
0.0
 11
560.63432381016003
 21
46.279086053865321
 31
0.0
1001
ACAD
1000
ASC_BOUNDS
1002
{
1070
    19
1002
}
  0
LINE
  5
625
  8
HIDDEN
  6
HIDDEN
 10
549.53235317743929
 20
51.056698020324198
 30
0.0
 11
556.33613976642505
 21
50.819104557179202
 31
0.0
  0
LINE
  5
626
  8
HIDDEN
  6
HIDDEN
 10
550.30996514389813
 20
50.279086053865399
 30
0.0
 11
556.33613976642505
 21
50.0686473989551
 31
0.0
  0
LINE
  5
627
  8
DIM
 10
544.13130306882556
 20
44.279086053865342
 30
0.0
 11
544.13130306882556
 21
31.27908605386531
 31
0.0
  0
LINE
  5
628
  8
HIDDEN
  6
HIDDEN
 10
549.30996514389824
 20
41.279086053865299
 30
0.0
 11
550.30996514389813
 21
42.279086053865313
 31
0.0
  0
TEXT
  5
629
  8
0
 10
538.71963679140754
 20
36.160038434817743
 30
0.0
 40
2.0000000000000062
  1
42
 50
90.0
  7
CHINESET
  0
TEXT
  5
62A
  8
0
 10
543.59796973549237
 20
37.31058928007954
 30
0.0
 40
2.0000000000000062
  1
17
 50
90.0
  7
CHINESET
  0
LINE
  5
62B
  8
HIDDEN
  6
HIDDEN
 10
549.30996514389824
 20
34.279086053865349
 30
0.0
 11
550.30996514389813
 21
33.279086053865299
 31
0.0
  0
LINE
  5
62C
  8
DIM
 10
546.17961541596321
 20
46.279086053865363
 30
0.0
 11
542.79796973549219
 21
46.279086053865363
 31
0.0
  0
SOLID
  5
62D
  8
DIM
 10
543.79796973549242
 20
44.279086053865342
 30
0.0
 11
544.46463640215904
 21
44.279086053865342
 31
0.0
 12
544.13130306882556
 22
46.279086053865363
 32
0.0
 13
544.13130306882556
 23
46.279086053865363
 33
0.0
  0
LINE
  5
62E
  8
HIDDEN
  6
HIDDEN
 10
550.30996514389813
 20
50.279086053865321
 30
0.0
 11
550.30996514389813
 21
42.279086053865313
 31
0.0
  0
LINE
  5
62F
  8
HIDDEN
  6
HIDDEN
 10
549.30996514389824
 20
51.279086053865328
 30
0.0
 11
550.30996514389813
 21
50.279086053865349
 31
0.0
  0
LINE
  5
630
  8
CENTER
  6
CENTER
 10
556.30996514389813
 20
40.029086053865342
 30
0.0
 11
556.30996514389813
 21
35.529086053865313
 31
0.0
  0
LINE
  5
631
  8
0
 10
552.84769009926413
 20
74.892856004543944
 30
0.0
 11
561.36161061650694
 21
65.88615373418591
 31
0.0
  0
LINE
  5
632
  8
0
 10
549.30996514389824
 20
58.779086053865399
 30
0.0
 11
565.30996514389813
 21
58.779086053865399
 31
0.0
  0
LINE
  5
633
  8
DIM
 10
539.39000449287425
 20
76.370848180930906
 30
0.0
 11
539.39000449287425
 21
60.779086053865392
 31
0.0
  0
LINE
  5
634
  8
DIM
 10
547.97663181056475
 20
58.779086053865399
 30
0.0
 11
538.05667115954088
 21
58.779086053865399
 31
0.0
  0
SOLID
  5
635
  8
DIM
 10
539.05667115954088
 20
60.779086053865392
 30
0.0
 11
539.7233378262074
 21
60.779086053865392
 31
0.0
 12
539.39000449287425
 22
58.779086053865399
 32
0.0
 13
539.39000449287425
 23
58.779086053865399
 33
0.0
  0
SOLID
  5
636
  8
DIM
 10
539.05667115954088
 20
56.77908605386537
 30
0.0
 11
539.7233378262074
 21
56.77908605386537
 31
0.0
 12
539.39000449287425
 22
58.779086053865399
 32
0.0
 13
539.39000449287425
 23
58.779086053865399
 33
0.0
  0
LINE
  5
637
  8
DIM
 10
538.05667115954088
 20
58.779086053865399
 30
0.0
 11
538.05667115954088
 21
58.779086053865399
 31
0.0
  0
LINE
  5
639
  8
0
 10
570.90996514389815
 20
65.679086053865433
 30
0.0
 11
570.90996514389815
 21
59.779086053865413
 31
0.0
  0
LINE
  5
63A
  8
0
 10
571.30996514389824
 20
65.279086053865413
 30
0.0
 11
571.30996514389824
 21
59.779086053865413
 31
0.0
  0
LINE
  5
63B
  8
0
 10
559.30996514389824
 20
65.279086053865484
 30
0.0
 11
559.30996514389824
 21
59.779086053865413
 31
0.0
  0
LINE
  5
63C
  8
0
 10
559.7099651438981
 20
65.679086053865504
 30
0.0
 11
559.7099651438981
 21
59.779086053865413
 31
0.0
  0
CIRCLE
  5
63D
  8
0
 10
565.30996514389813
 20
63.279086053865399
 30
0.0
 40
0.7500000000000023
  0
LINE
  5
63E
  8
0
 10
559.30996514389824
 20
59.779086053865413
 30
0.0
 11
571.30996514389824
 21
59.779086053865413
 31
0.0
  0
LINE
  5
63F
  8
CENTER
  6
CENTER
 10
563.56807341649915
 20
63.279086053865399
 30
0.0
 11
567.0518568712971
 21
63.279086053865399
 31
0.0
  0
LINE
  5
640
  8
0
 10
559.80996514389824
 20
59.779086053865413
 30
0.0
 11
559.80996514389824
 21
58.779086053865448
 31
0.0
  0
LINE
  5
641
  8
0
 10
570.80996514389824
 20
59.779086053865413
 30
0.0
 11
570.80996514389824
 21
58.779086053865448
 31
0.0
  0
CIRCLE
  5
642
  8
0
 10
565.30996514389813
 20
63.279086053865399
 30
0.0
 40
0.4500000000000014
  0
LINE
  5
645
  8
0
 10
565.59083757085557
 20
63.630669158941572
 30
0.0
 11
565.80376006705171
 21
63.843591655137629
 31
0.0
  0
LINE
  5
646
  8
0
 10
565.6615482489741
 20
63.559958480822921
 30
0.0
 11
565.87447074517036
 21
63.772880977019028
 31
0.0
  0
LINE
  5
647
  8
0
 10
559.30996514389824
 20
65.279086053865484
 30
0.0
 11
571.30996514389824
 21
65.279086053865413
 31
0.0
  0
ARC
  5
648
  8
0
 10
564.6745142825373
 20
68.587707484147415
 30
0.0
 40
1.0000000000000031
 50
216.56115207427229
 51
277.45132356273012
  0
ARC
  5
649
  8
HIDDEN
  6
HIDDEN
 10
565.30996514389801
 20
63.729086053865302
 30
0.0
 40
3.900000000000011
 50
97.451323562730224
 51
105.77905689099561
  0
LINE
  5
64A
  8
0
 10
559.30996514389824
 20
65.279086053865484
 30
0.0
 11
559.80996514389824
 21
65.779086053865484
 31
0.0
  0
LINE
  5
64B
  8
HIDDEN
  6
HIDDEN
 10
564.24944394333602
 20
67.482124127634194
 30
0.0
 11
563.87129273701078
 21
67.992027075872954
 31
0.0
  0
LINE
  5
64C
  8
HIDDEN
  6
HIDDEN
 10
561.36161061650694
 20
65.88615373418591
 30
0.0
 11
561.46299708967945
 21
65.779086053865427
 31
0.0
  0
LINE
  5
64D
  8
0
 10
568.30329105331714
 20
65.779086053865427
 30
0.0
 11
570.80996514389824
 21
65.779086053865427
 31
0.0
  0
ARC
  5
64E
  8
0
 10
565.30996514389801
 20
63.729086053865302
 30
0.0
 40
3.900000000000011
 50
31.711406814700581
 51
97.451323562730224
  0
LINE
  5
64F
  8
0
 10
570.80996514389824
 20
65.779086053865427
 30
0.0
 11
571.30996514389824
 21
65.279086053865413
 31
0.0
  0
POLYLINE
  5
650
  8
DIM
 66
     1
 10
0.0
 20
0.0
 30
0.0
  0
VERTEX
  5
718
  8
DIM
 10
577.65687371014405
 20
49.444299350640868
 30
0.0
  0
VERTEX
  5
719
  8
DIM
 10
583.24666353684086
 20
56.714373344597682
 30
0.0
  0
VERTEX
  5
71A
  8
DIM
 10
601.11454291601444
 20
56.714373344597682
 30
0.0
  0
SEQEND
  5
71B
  8
DIM
  0
LINE
  5
651
  8
DIM
 10
583.74884498476126
 20
50.77908605386537
 30
0.0
 11
593.06531387748555
 21
50.77908605386537
 31
0.0
  0
LINE
  5
652
  8
DIM
 10
592.9484329243985
 20
43.607986045394142
 30
0.0
 11
607.96485467617902
 21
43.607986045394142
 31
0.0
  0
LINE
  5
653
  8
HIDDEN
  6
HIDDEN
 10
581.30996514389824
 20
42.779086053865313
 30
0.0
 11
580.30996514389824
 21
41.779086053865328
 31
0.0
  0
LINE
  5
654
  8
DIM
 10
587.08658362065103
 20
43.779086053865321
 30
0.0
 11
587.08658362065103
 21
31.779086053865239
 31
0.0
  0
LINE
  5
655
  8
DIM
 10
581.30996514389824
 20
37.779086053864958
 30
0.0
 11
592.9484329243985
 21
43.607986045394142
 31
0.0
  0
SOLID
  5
656
  8
DIM
 10
584.29514846120094
 20
38.840016269858772
 30
0.0
 11
581.30996514389835
 21
37.77908605386498
 31
0.0
 12
583.78970172534878
 22
39.750836252984307
 32
0.0
 13
583.78970172534878
 23
39.750836252984307
 33
0.0
  0
LINE
  5
657
  8
HIDDEN
  6
HIDDEN
 10
580.30996514389824
 20
41.779086053865292
 30
0.0
 11
580.30996514389824
 21
33.779086053865292
 31
0.0
  0
LINE
  5
658
  8
HIDDEN
  6
HIDDEN
 10
580.30996514389824
 20
33.779086053865292
 30
0.0
 11
574.28379052137132
 21
33.989524708775569
 31
0.0
  0
LINE
  5
659
  8
HIDDEN
  6
HIDDEN
 10
581.08757711035696
 20
33.001474087406429
 30
0.0
 11
574.28379052137132
 21
33.239067550551439
 31
0.0
  0
LINE
  5
65A
  8
HIDDEN
  6
HIDDEN
 10
581.30996514389824
 20
32.779086053865278
 30
0.0
 11
580.30996514389824
 21
33.779086053865292
 31
0.0
  0
LINE
  5
65B
  8
HIDDEN
  6
HIDDEN
 10
580.30996514389813
 20
41.779086053865349
 30
0.0
 11
574.28379052137132
 21
41.568647398955079
 31
0.0
  0
TEXT
  5
65C
  8
0
 10
586.55325028731772
 20
36.398133672912898
 30
0.0
 40
2.0000000000000062
  1
16
 50
90.0
  7
CHINESET
  0
TEXT
  5
65D
  8
0
 10
590.99326893552848
 20
36.20765748243673
 30
0.0
 40
2.0000000000000062
  1
26
 50
90.0
  7
CHINESET
  0
LINE
  5
65E
  8
DIM
 10
577.34329847723154
 20
45.779086053865313
 30
0.0
 11
588.41991695398428
 21
45.779086053865313
 31
0.0
  0
LINE
  5
65F
  8
CENTER
  6
CENTER
 10
574.30996514389824
 20
48.029086053865313
 30
0.0
 11
574.30996514389824
 21
43.529086053865313
 31
0.0
  0
SOLID
  5
660
  8
DIM
 10
578.07011725691871
 20
49.127286524149319
 30
0.0
 11
575.75479675119459
 21
46.96483806999251
 31
0.0
 12
577.24363016336929
 22
49.76131217713241
 32
0.0
 13
577.24363016336929
 23
49.76131217713241
 33
0.0
  0
LINE
  5
661
  8
HIDDEN
  6
HIDDEN
 10
581.08757711035696
 20
42.556698020324177
 30
0.0
 11
574.28379052137132
 21
42.31910455717918
 31
0.0
  0
LINE
  5
662
  8
HIDDEN
  6
HIDDEN
 10
580.80996514389813
 20
52.779086053865392
 30
0.0
 11
580.80996514389813
 21
48.77908605386537
 31
0.0
  0
LINE
  5
663
  8
HIDDEN
  6
HIDDEN
 10
580.80996514389813
 20
48.77908605386537
 30
0.0
 11
581.30996514389824
 21
48.279086053865363
 31
0.0
  0
LINE
  5
664
  8
HIDDEN
  6
HIDDEN
 10
580.80996514389813
 20
52.779086053865392
 30
0.0
 11
581.30996514389824
 21
53.279086053865377
 31
0.0
  0
SOLID
  5
665
  8
DIM
 10
586.75325028731766
 20
43.779086053865321
 30
0.0
 11
587.41991695398417
 21
43.779086053865321
 31
0.0
 12
587.08658362065103
 22
45.779086053865313
 32
0.0
 13
587.08658362065103
 23
45.779086053865313
 33
0.0
  0
SOLID
  5
666
  8
DIM
 10
591.19326893552852
 20
48.77908605386537
 30
0.0
 11
591.85993560219504
 21
48.77908605386537
 31
0.0
 12
591.52660226886178
 22
50.77908605386537
 32
0.0
 13
591.52660226886178
 23
50.77908605386537
 33
0.0
  0
TEXT
  5
667
  8
DIM
 10
593.51311250924289
 20
44.222303203852881
 30
0.0
 40
2.0000000000000062
  1
3-PT1/8
  7
CHINESET
  0
LINE
  5
668
  8
0
 10
605.90429426028413
 20
48.287628848057551
 30
0.0
 11
596.2042942602842
 21
48.287628848057551
 31
0.0
  0
LINE
  5
669
  8
0
 10
605.90429426028413
 20
53.287628848057551
 30
0.0
 11
596.2042942602842
 21
53.287628848057551
 31
0.0
  0
LINE
  5
66A
  8
CENTER
  6
CENTER
 10
606.56039273052147
 20
50.78762884805753
 30
0.0
 11
595.42963396105495
 21
50.78762884805753
 31
0.0
  0
ARC
  5
66B
  8
HIDDEN
  6
HIDDEN
 10
593.4614906568529
 20
41.090582361881218
 30
0.0
 40
10.00000000000003
 50
46.03010106292605
 51
75.860690738922074
  0
LINE
  5
66C
  8
0
 10
601.60429426028395
 20
48.587628848057527
 30
0.0
 11
595.90429426028425
 21
48.587628848057527
 31
0.0
  0
LINE
  5
66D
  8
0
 10
601.60429426028395
 20
52.987628848057561
 30
0.0
 11
595.90429426028425
 21
52.987628848057561
 31
0.0
  0
LINE
  5
66E
  8
0
 10
596.2042942602842
 20
53.287628848057551
 30
0.0
 11
596.2042942602842
 21
48.287628848057551
 31
0.0
  0
LINE
  5
66F
  8
0
 10
595.90429426028425
 20
52.987628848057561
 30
0.0
 11
595.90429426028425
 21
48.587628848057527
 31
0.0
  0
LINE
  5
670
  8
0
 10
595.90429426028425
 20
48.587628848057527
 30
0.0
 11
596.2042942602842
 21
48.287628848057551
 31
0.0
  0
LINE
  5
671
  8
0
 10
595.90429426028425
 20
52.987628848057561
 30
0.0
 11
596.2042942602842
 21
53.287628848057551
 31
0.0
  0
LINE
  5
672
  8
0
 10
601.60429426028395
 20
52.987628848057561
 30
0.0
 11
601.60429426028395
 21
48.587628848057562
 31
0.0
  0
LINE
  5
673
  8
0
 10
601.90429426028413
 20
53.287628848057551
 30
0.0
 11
601.90429426028413
 21
48.287628848057551
 31
0.0
  0
LINE
  5
674
  8
0
 10
601.60429426028406
 20
48.587628848057527
 30
0.0
 11
601.90429426028413
 21
48.287628848057551
 31
0.0
  0
LINE
  5
675
  8
0
 10
601.60429426028395
 20
52.987628848057561
 30
0.0
 11
601.90429426028413
 21
53.287628848057551
 31
0.0
  0
LINE
  5
676
  8
0
 10
605.90429426028413
 20
53.287628848057551
 30
0.0
 11
605.90429426028413
 21
48.287628848057551
 31
0.0
  0
LINE
  5
677
  8
HIDDEN
  6
HIDDEN
 10
604.40429426028413
 20
53.287628848057551
 30
0.0
 11
604.40429426028413
 21
48.287628848057551
 31
0.0
  0
TEXT
  5
678
  8
DIM
 10
590.31323465313972
 20
57.261747661502362
 30
0.0
 40
2.0000000000000062
  1
3-%%C3.5
  7
CHINESET
  0
SOLID
  5
679
  8
DIM
 10
586.84317993120328
 20
63.779086053865392
 30
0.0
 11
587.50984659787014
 21
63.779086053865392
 31
0.0
 12
587.17651326453665
 22
65.779086053865427
 32
0.0
 13
587.17651326453665
 23
65.779086053865427
 33
0.0
  0
LINE
  5
67A
  8
DIM
 10
582.46372659193912
 20
58.779086053865399
 30
0.0
 11
588.84157367331363
 21
58.779086053865399
 31
0.0
  0
SOLID
  5
67B
  8
DIM
 10
586.84317993120328
 20
60.779086053865392
 30
0.0
 11
587.50984659787014
 21
60.779086053865392
 31
0.0
 12
587.17651326453665
 22
58.779086053865399
 32
0.0
 13
587.17651326453665
 23
58.779086053865399
 33
0.0
  0
LINE
  5
67C
  8
DIM
 10
587.17651326453665
 20
63.779086053865392
 30
0.0
 11
587.17651326453665
 21
60.779086053865392
 31
0.0
  0
TEXT
  5
67D
  8
0
 10
585.8934948594175
 20
61.61241938719872
 30
0.0
 40
2.0000000000000062
  1
7
 50
90.0
  7
CHINESET
  0
TEXT
  5
67E
  8
DIM
 10
576.94679900004394
 20
68.867317023273074
 30
0.0
 40
2.0000000000000062
  1
M12*0.8
  7
CHINESET
  0
ARC
  5
67F
  8
DIM
 10
565.30996514389813
 20
63.279086053865399
 30
0.0
 40
21.100426622792469
 50
56.404754347880129
 51
123.5952456521198
  0
LINE
  5
680
  8
DIM
 10
551.30996514389813
 20
92.188854244927938
 30
0.0
 11
579.30996514389824
 21
92.188854244927938
 31
0.0
  0
LINE
  5
681
  8
0
 10
549.30996514389824
 20
98.158577832699692
 30
0.0
 11
581.30996514389824
 21
98.158577832699692
 31
0.0
  0
LINE
  5
682
  8
CENTER
  6
CENTER
 10
547.5204228443539
 20
106.15857783269971
 30
0.0
 11
582.59026028123731
 21
106.15857783269971
 31
0.0
  0
LINE
  5
683
  8
0
 10
549.30996514389824
 20
114.15857783269971
 30
0.0
 11
581.30996514389824
 21
114.15857783269961
 31
0.0
  0
LINE
  5
685
  8
CENTER
  6
CENTER
 10
565.30996514389813
 20
96.656549584903118
 30
0.0
 11
565.30996514389813
 21
115.3313777601236
 31
0.0
  0
LINE
  5
686
  8
0
 10
549.30996514389824
 20
98.158577832699692
 30
0.0
 11
549.30996514389824
 21
114.15857783269971
 31
0.0
  0
LINE
  5
687
  8
DIM
 10
551.74332542673596
 20
78.370848180930921
 30
0.0
 11
538.05667115954088
 21
78.370848180930921
 31
0.0
  0
SOLID
  5
688
  8
DIM
 10
553.83201809780371
 20
80.586445807723294
 30
0.0
 11
553.43723342505405
 21
81.123651081903105
 31
0.0
 12
552.02300993888957
 22
79.670694426564765
 32
0.0
 13
552.02300993888957
 23
79.670694426564765
 33
0.0
  0
LINE
  5
68A
  8
DIM
 10
549.30996514389824
 20
96.825244499366335
 30
0.0
 11
549.30996514389824
 21
90.855520911594596
 31
0.0
  0
SOLID
  5
68B
  8
DIM
 10
551.30996514389813
 20
92.522187578261267
 30
0.0
 11
551.30996514389813
 21
91.85552091159461
 31
0.0
 12
549.30996514389824
 22
92.188854244927938
 32
0.0
 13
549.30996514389824
 23
92.188854244927938
 33
0.0
  0
INSERT
  5
68C
  8
0
  2
*U14
 10
0.0
 20
0.0
 30
0.0
  0
TEXT
  5
68D
  8
0
 10
563.69091752485053
 20
92.722187578261284
 30
0.0
 40
2.0000000000000062
  1
32
  7
CHINESET
  0
ARC
  5
68E
  8
0
 10
554.72398148042407
 20
106.15857783269961
 30
0.0
 40
2.3750000000000071
 50
86.561152074270666
 51
273.43884792572931
  0
LINE
  5
68F
  8
0
 10
554.86644155825184
 20
103.7878542878245
 30
0.0
 11
562.95634145019119
 21
104.5585778326995
 31
0.0
  0
LINE
  5
690
  8
0
 10
562.95634145019119
 20
107.7585778326995
 30
0.0
 11
554.86644155825184
 21
108.5293013775747
 31
0.0
  0
LINE
  5
691
  8
DIM
 10
538.97875337152755
 20
99.850416562975212
 30
0.0
 11
540.4004235889405
 21
102.89352290124771
 31
0.0
  0
LINE
  5
692
  8
DIM
 10
536.81240069103148
 20
99.782792646909243
 30
0.0
 11
537.89557799953627
 21
102.82589898518169
 31
0.0
  0
LINE
  5
693
  8
DIM
 10
537.89557799953627
 20
102.82589898518169
 30
0.0
 11
538.97875337152755
 21
99.850416562975212
 31
0.0
  0
ARC
  5
694
  8
0
 10
565.30996514389813
 20
106.15857783269961
 30
0.0
 40
5.500000000000016
 50
199.86122594665991
 51
160.13877405334051
  0
ARC
  5
695
  8
0
 10
565.30996514389813
 20
106.15857783269961
 30
0.0
 40
6.0000000000000169
 50
198.63687878967301
 51
161.36312121032671
  0
ARC
  5
696
  8
0
 10
565.30996514389813
 20
106.15857783269961
 30
0.0
 40
4.0000000000000684
 50
205.46483003912621
 51
154.5351699608747
  0
ARC
  5
697
  8
0
 10
565.30996514389813
 20
106.15857783269961
 30
0.0
 40
4.4999999999999556
 50
203.16112180842441
 51
156.8388781915765
  0
ARC
  5
698
  8
0
 10
562.61302529894704
 20
106.15857783269971
 30
0.0
 40
1.6364186443891899
 50
282.11047155449688
 51
77.889528445496325
  0
LINE
  5
699
  8
0
 10
581.30996514389824
 20
98.158577832699692
 30
0.0
 11
581.30996514389824
 21
114.33846134543199
 31
0.0
  0
SOLID
  5
69A
  8
DIM
 10
588.53018610623769
 20
100.15857783269971
 30
0.0
 11
589.19685277290455
 21
100.15857783269971
 31
0.0
 12
588.86351943957106
 22
98.158577832699692
 32
0.0
 13
588.86351943957106
 23
98.158577832699692
 33
0.0
  0
SOLID
  5
69B
  8
DIM
 10
577.18269686274209
 20
81.123651081903049
 30
0.0
 11
576.78791218999265
 21
80.586445807723294
 31
0.0
 12
578.59692034890668
 22
79.670694426564694
 32
0.0
 13
578.59692034890668
 23
79.670694426564694
 33
0.0
  0
LINE
  5
69C
  8
DIM
 10
582.64329847723161
 20
98.158577832699692
 30
0.0
 11
590.19685277290455
 21
98.158577832699692
 31
0.0
  0
LINE
  5
69D
  8
DIM
 10
581.30996514389824
 20
96.825244499366335
 30
0.0
 11
581.30996514389824
 21
90.855520911594596
 31
0.0
  0
SOLID
  5
69E
  8
DIM
 10
579.30996514389824
 20
92.522187578261267
 30
0.0
 11
579.30996514389824
 21
91.85552091159461
 31
0.0
 12
581.30996514389824
 22
92.188854244927938
 32
0.0
 13
581.30996514389824
 23
92.188854244927938
 33
0.0
  0
LINE
  5
69F
  8
DIM
 10
588.86351943957106
 20
112.15857783269961
 30
0.0
 11
588.86351943957106
 21
100.15857783269971
 31
0.0
  0
TEXT
  5
6A0
  8
0
 10
588.33018610623787
 20
104.7776254517473
 30
0.0
 40
2.0000000000000062
  1
16
 50
90.0
  7
CHINESET
  0
LINE
  5
6A1
  8
DIM
 10
582.64329847723161
 20
114.15857783269961
 30
0.0
 11
590.19685277290455
 21
114.15857783269961
 31
0.0
  0
SOLID
  5
6A2
  8
DIM
 10
588.53018610623769
 20
112.15857783269961
 30
0.0
 11
589.19685277290455
 21
112.15857783269961
 31
0.0
 12
588.86351943957106
 22
114.15857783269961
 32
0.0
 13
588.86351943957106
 23
114.15857783269961
 33
0.0
  0
TEXT
  5
6A3
  8
0
 10
517.53310757738564
 20
123.3987189340834
 30
0.0
 40
4.4000000000000004
  1
MVHA-41V 
  7
ITALIC
  0
LINE
  5
6A4
  8
DIM
 10
505.45610686336892
 20
106.7872951678103
 30
0.0
 11
502.48754195905218
 21
97.412295167810285
 31
0.0
  0
LINE
  5
6A5
  8
DIM
 10
509.2979260236238
 20
100.1466701678102
 30
0.0
 11
509.2979260236238
 21
98.064608050868785
 31
0.0
  0
LINE
  5
6A6
  8
DIM
 10
514.22238570905222
 20
97.412295167810285
 30
0.0
 11
514.22238570905222
 21
106.7872951678103
 31
0.0
  0
LINE
  5
6A7
  8
DIM
 10
511.87863570905222
 20
97.412295167810285
 30
0.0
 11
511.87863570905222
 21
106.7872951678103
 31
0.0
  0
LINE
  5
6A8
  8
DIM
 10
517.34738570905222
 20
106.7872951678103
 30
0.0
 11
521.25363570905222
 21
97.412295167810285
 31
0.0
  0
LINE
  5
6A9
  8
DIM
 10
520.48801070905222
 20
99.627451417810363
 30
0.0
 11
521.25347945905219
 21
97.412295167810285
 31
0.0
  0
LINE
  5
6AB
  8
DIM
 10
519.94066695905224
 20
99.353857667810246
 30
0.0
 11
521.25347945905219
 21
97.412295167810285
 31
0.0
  0
LINE
  5
6AC
  8
DIM
 10
507.1936357090521
 20
100.1466701678102
 30
0.0
 11
508.75113570905222
 21
100.1466701678102
 31
0.0
  0
LINE
  5
6AD
  8
DIM
 10
504.5902754329432
 20
104.0529201678102
 30
0.0
 11
511.87863570905222
 21
104.0529201678102
 31
0.0
  0
LINE
  5
6AF
  8
DIM
 10
503.35337338947778
 20
100.1466701678103
 30
0.0
 11
506.14691695905208
 21
100.1466701678102
 31
0.0
  0
LINE
  5
6B0
  8
DIM
 10
506.67035445905219
 20
102.0997951678102
 30
0.0
 11
506.14707320905222
 21
100.1466701678102
 31
0.0
  0
LINE
  5
6B1
  8
DIM
 10
506.6701982090521
 20
102.0997951678102
 30
0.0
 11
507.19347945905213
 21
100.1466701678102
 31
0.0
  0
CIRCLE
  5
6B2
  8
DIM
 10
506.04204436336892
 20
107.8021389178102
 30
0.0
 40
1.1718750000000031
  0
LINE
  5
6B4
  8
DIM
 10
514.22238570905222
 20
106.7872951678103
 30
0.0
 11
513.91644820905219
 21
104.4635451678102
 31
0.0
  0
LINE
  5
6B5
  8
DIM
 10
514.52816695905221
 20
104.4635451678102
 30
0.0
 11
514.22238570905222
 21
106.7871389178103
 31
0.0
  0
LINE
  5
6B6
  8
DIM
 10
509.27441695905219
 20
102.0997951678102
 30
0.0
 11
509.79785445905219
 21
100.1466701678102
 31
0.0
  0
LINE
  5
6B7
  8
DIM
 10
509.27457320905228
 20
102.0997951678102
 30
0.0
 11
508.7512919590522
 21
100.1466701678102
 31
0.0
  0
LINE
  5
6B8
  8
DIM
 10
509.7976982090521
 20
100.1466701678102
 30
0.0
 11
511.87863570905222
 21
100.1466701678102
 31
0.0
  0
LINE
  5
6B9
  8
DIM
 10
521.25363570905222
 20
104.4435451678102
 30
0.0
 11
521.25363570905222
 21
106.7872951678103
 31
0.0
  0
ENDSEC
  0
EOF
